  0
SECTION
  2
HEADER
  9
$ACADVER
  1
AC1024
  9
$ACADMAINTVER
 70
   205
  9
$DWGCODEPAGE
  3
ANSI_1252
  9
$LASTSAVEDBY
  1
kaschu
  9
$INSBASE
 10
0.0
 20
0.0
 30
0.0
  9
$EXTMIN
 10
-2995.236030632056
 20
-3237.070916101018
 30
-0.0029903937887778
  9
$EXTMAX
 10
415.2967841595418
 20
-1441.135111413995
 30
0.0029920673813101
  9
$LIMMIN
 10
0.0
 20
0.0
  9
$LIMMAX
 10
0.0
 20
0.0
  9
$ORTHOMODE
 70
     1
  9
$REGENMODE
 70
     1
  9
$FILLMODE
 70
     1
  9
$QTEXTMODE
 70
     0
  9
$MIRRTEXT
 70
     1
  9
$LTSCALE
 40
1.0
  9
$ATTMODE
 70
     1
  9
$TEXTSIZE
 40
0.0
  9
$TRACEWID
 40
0.05
  9
$TEXTSTYLE
  7
STANDARD
  9
$CLAYER
  8
0
  9
$CELTYPE
  6
CONTINUOUS
  9
$CECOLOR
 62
   256
  9
$CELTSCALE
 40
1.0
  9
$DISPSILH
 70
     0
  9
$DIMSCALE
 40
1.0
  9
$DIMASZ
 40
0.18
  9
$DIMEXO
 40
0.0625
  9
$DIMDLI
 40
0.38
  9
$DIMRND
 40
0.0
  9
$DIMDLE
 40
0.0
  9
$DIMEXE
 40
0.18
  9
$DIMTP
 40
0.0
  9
$DIMTM
 40
0.0
  9
$DIMTXT
 40
0.18
  9
$DIMCEN
 40
0.09
  9
$DIMTSZ
 40
0.0
  9
$DIMTOL
 70
     0
  9
$DIMLIM
 70
     0
  9
$DIMTIH
 70
     1
  9
$DIMTOH
 70
     1
  9
$DIMSE1
 70
     0
  9
$DIMSE2
 70
     0
  9
$DIMTAD
 70
     0
  9
$DIMZIN
 70
     0
  9
$DIMBLK
  1

  9
$DIMASO
 70
     1
  9
$DIMSHO
 70
     1
  9
$DIMPOST
  1

  9
$DIMAPOST
  1

  9
$DIMALT
 70
     0
  9
$DIMALTD
 70
     2
  9
$DIMALTF
 40
25.4
  9
$DIMLFAC
 40
1.0
  9
$DIMTOFL
 70
     0
  9
$DIMTVP
 40
0.0
  9
$DIMTIX
 70
     0
  9
$DIMSOXD
 70
     0
  9
$DIMSAH
 70
     0
  9
$DIMBLK1
  1

  9
$DIMBLK2
  1

  9
$DIMSTYLE
  2
STANDARD
  9
$DIMCLRD
 70
     0
  9
$DIMCLRE
 70
     0
  9
$DIMCLRT
 70
     0
  9
$DIMTFAC
 40
1.0
  9
$DIMGAP
 40
0.09
  9
$DIMJUST
 70
     0
  9
$DIMSD1
 70
     0
  9
$DIMSD2
 70
     0
  9
$DIMTOLJ
 70
     1
  9
$DIMTZIN
 70
     0
  9
$DIMALTZ
 70
     0
  9
$DIMALTTZ
 70
     0
  9
$DIMUPT
 70
     0
  9
$DIMDEC
 70
     4
  9
$DIMTDEC
 70
     4
  9
$DIMALTU
 70
     2
  9
$DIMALTTD
 70
     2
  9
$DIMTXSTY
  7
STANDARD
  9
$DIMAUNIT
 70
     0
  9
$DIMADEC
 70
     0
  9
$DIMALTRND
 40
0.0
  9
$DIMAZIN
 70
     0
  9
$DIMDSEP
 70
    46
  9
$DIMATFIT
 70
     3
  9
$DIMFRAC
 70
     0
  9
$DIMLDRBLK
  1

  9
$DIMLUNIT
 70
     2
  9
$DIMLWD
 70
    -2
  9
$DIMLWE
 70
    -2
  9
$DIMTMOVE
 70
     0
  9
$DIMFXL
 40
1.0
  9
$DIMFXLON
 70
     0
  9
$DIMJOGANG
 40
0.7853981633974483
  9
$DIMTFILL
 70
     0
  9
$DIMTFILLCLR
 70
     0
  9
$DIMARCSYM
 70
     0
  9
$DIMLTYPE
  6

  9
$DIMLTEX1
  6

  9
$DIMLTEX2
  6

  9
$DIMTXTDIRECTION
 70
     0
  9
$LUNITS
 70
     2
  9
$LUPREC
 70
     4
  9
$SKETCHINC
 40
0.1
  9
$FILLETRAD
 40
0.0
  9
$AUNITS
 70
     0
  9
$AUPREC
 70
     0
  9
$MENU
  1
acad
  9
$ELEVATION
 40
0.0
  9
$PELEVATION
 40
0.0
  9
$THICKNESS
 40
0.0
  9
$LIMCHECK
 70
     0
  9
$CHAMFERA
 40
0.0
  9
$CHAMFERB
 40
0.0
  9
$CHAMFERC
 40
0.0
  9
$CHAMFERD
 40
0.0
  9
$SKPOLY
 70
     0
  9
$TDCREATE
 40
2305824.133323553
  9
$TDUCREATE
 40
2305824.091656887
  9
$TDUPDATE
 40
2458502.740456424
  9
$TDUUPDATE
 40
2458502.698789757
  9
$TDINDWG
 40
0.0751535532
  9
$TDUSRTIMER
 40
0.0751534722
  9
$USRTIMER
 70
     1
  9
$ANGBASE
 50
0.0
  9
$ANGDIR
 70
     0
  9
$PDMODE
 70
     0
  9
$PDSIZE
 40
0.0
  9
$PLINEWID
 40
0.0
  9
$SPLFRAME
 70
     0
  9
$SPLINETYPE
 70
     6
  9
$SPLINESEGS
 70
     8
  9
$HANDSEED
  5
1F8D
  9
$SURFTAB1
 70
     6
  9
$SURFTAB2
 70
     6
  9
$SURFTYPE
 70
     6
  9
$SURFU
 70
     6
  9
$SURFV
 70
     6
  9
$UCSBASE
  2

  9
$UCSNAME
  2

  9
$UCSORG
 10
0.0
 20
0.0
 30
0.0
  9
$UCSXDIR
 10
1.0
 20
0.0
 30
0.0
  9
$UCSYDIR
 10
0.0
 20
1.0
 30
0.0
  9
$UCSORTHOREF
  2

  9
$UCSORTHOVIEW
 70
     0
  9
$UCSORGTOP
 10
0.0
 20
0.0
 30
0.0
  9
$UCSORGBOTTOM
 10
0.0
 20
0.0
 30
0.0
  9
$UCSORGLEFT
 10
0.0
 20
0.0
 30
0.0
  9
$UCSORGRIGHT
 10
0.0
 20
0.0
 30
0.0
  9
$UCSORGFRONT
 10
0.0
 20
0.0
 30
0.0
  9
$UCSORGBACK
 10
0.0
 20
0.0
 30
0.0
  9
$PUCSBASE
  2

  9
$PUCSNAME
  2

  9
$PUCSORG
 10
0.0
 20
0.0
 30
0.0
  9
$PUCSXDIR
 10
1.0
 20
0.0
 30
0.0
  9
$PUCSYDIR
 10
0.0
 20
1.0
 30
0.0
  9
$PUCSORTHOREF
  2

  9
$PUCSORTHOVIEW
 70
     0
  9
$PUCSORGTOP
 10
0.0
 20
0.0
 30
0.0
  9
$PUCSORGBOTTOM
 10
0.0
 20
0.0
 30
0.0
  9
$PUCSORGLEFT
 10
0.0
 20
0.0
 30
0.0
  9
$PUCSORGRIGHT
 10
0.0
 20
0.0
 30
0.0
  9
$PUCSORGFRONT
 10
0.0
 20
0.0
 30
0.0
  9
$PUCSORGBACK
 10
0.0
 20
0.0
 30
0.0
  9
$USERI1
 70
     0
  9
$USERI2
 70
     0
  9
$USERI3
 70
     0
  9
$USERI4
 70
     0
  9
$USERI5
 70
     0
  9
$USERR1
 40
0.0
  9
$USERR2
 40
0.0
  9
$USERR3
 40
0.0
  9
$USERR4
 40
0.0
  9
$USERR5
 40
0.0
  9
$WORLDVIEW
 70
     1
  9
$SHADEDGE
 70
     3
  9
$SHADEDIF
 70
    70
  9
$TILEMODE
 70
     1
  9
$MAXACTVP
 70
    16
  9
$PINSBASE
 10
0.0
 20
0.0
 30
0.0
  9
$PLIMCHECK
 70
     0
  9
$PEXTMIN
 10
1.000000000000000E+20
 20
1.000000000000000E+20
 30
1.000000000000000E+20
  9
$PEXTMAX
 10
-1.000000000000000E+20
 20
-1.000000000000000E+20
 30
-1.000000000000000E+20
  9
$PLIMMIN
 10
0.0
 20
0.0
  9
$PLIMMAX
 10
12.0
 20
9.0
  9
$UNITMODE
 70
     0
  9
$VISRETAIN
 70
     0
  9
$PLINEGEN
 70
     1
  9
$PSLTSCALE
 70
     0
  9
$TREEDEPTH
 70
  3020
  9
$CMLSTYLE
  2
STANDARD
  9
$CMLJUST
 70
     0
  9
$CMLSCALE
 40
1.0
  9
$PROXYGRAPHICS
 70
     1
  9
$MEASUREMENT
 70
     0
  9
$CELWEIGHT
370
    -1
  9
$ENDCAPS
280
     0
  9
$JOINSTYLE
280
     0
  9
$LWDISPLAY
290
     0
  9
$INSUNITS
 70
     0
  9
$HYPERLINKBASE
  1

  9
$STYLESHEET
  1

  9
$XEDIT
290
     1
  9
$CEPSNTYPE
380
     0
  9
$PSTYLEMODE
290
     1
  9
$FINGERPRINTGUID
  2
{5243222F-CC4B-4302-8C19-076DE45F7F99}
  9
$VERSIONGUID
  2
{46094B9F-C2A7-4FCA-A943-3C64C06864A0}
  9
$EXTNAMES
290
     1
  9
$PSVPSCALE
 40
0.0
  9
$OLESTARTUP
290
     0
  9
$SORTENTS
280
   127
  9
$INDEXCTL
280
     0
  9
$HIDETEXT
280
     0
  9
$XCLIPFRAME
280
     2
  9
$HALOGAP
280
     0
  9
$OBSCOLOR
 70
   257
  9
$OBSLTYPE
280
     0
  9
$INTERSECTIONDISPLAY
280
     0
  9
$INTERSECTIONCOLOR
 70
   257
  9
$DIMASSOC
280
     1
  9
$PROJECTNAME
  1

  9
$CAMERADISPLAY
290
     0
  9
$LENSLENGTH
 40
50.0
  9
$CAMERAHEIGHT
 40
0.0
  9
$STEPSPERSEC
 40
2.0
  9
$STEPSIZE
 40
6.0
  9
$3DDWFPREC
 40
2.0
  9
$PSOLWIDTH
 40
0.25
  9
$PSOLHEIGHT
 40
4.0
  9
$LOFTANG1
 40
1.570796326794896
  9
$LOFTANG2
 40
1.570796326794896
  9
$LOFTMAG1
 40
0.0
  9
$LOFTMAG2
 40
0.0
  9
$LOFTPARAM
 70
     7
  9
$LOFTNORMALS
280
     1
  9
$LATITUDE
 40
37.795
  9
$LONGITUDE
 40
-122.394
  9
$NORTHDIRECTION
 40
0.0
  9
$TIMEZONE
 70
 -8000
  9
$LIGHTGLYPHDISPLAY
280
     1
  9
$TILEMODELIGHTSYNCH
280
     1
  9
$CMATERIAL
347
31A
  9
$SOLIDHIST
280
     0
  9
$SHOWHIST
280
     1
  9
$DWFFRAME
280
     2
  9
$DGNFRAME
280
     0
  9
$REALWORLDSCALE
290
     1
  9
$INTERFERECOLOR
 62
     1
  9
$INTERFEREOBJVS
345
33C
  9
$INTERFEREVPVS
346
339
  9
$CSHADOW
280
     0
  9
$SHADOWPLANELOCATION
 40
0.0
  0
ENDSEC
  0
SECTION
  2
CLASSES
  0
CLASS
  1
IMAGE
  2
AcDbRasterImage
  3
ISM
 90
     2175
 91
        0
280
     0
281
     1
  0
CLASS
  1
DICTIONARYVAR
  2
AcDbDictionaryVar
  3
ObjectDBX Classes
 90
        0
 91
        9
280
     0
281
     0
  0
CLASS
  1
RASTERVARIABLES
  2
AcDbRasterVariables
  3
ISM
 90
        0
 91
        0
280
     0
281
     0
  0
CLASS
  1
IMAGEDEF
  2
AcDbRasterImageDef
  3
ISM
 90
        0
 91
        0
280
     0
281
     0
  0
CLASS
  1
IMAGEDEF_REACTOR
  2
AcDbRasterImageDefReactor
  3
ISM
 90
        1
 91
        0
280
     0
281
     0
  0
CLASS
  1
IDBUFFER
  2
AcDbIdBuffer
  3
ObjectDBX Classes
 90
        0
 91
        0
280
     0
281
     0
  0
CLASS
  1
SPATIAL_FILTER
  2
AcDbSpatialFilter
  3
ObjectDBX Classes
 90
        0
 91
        0
280
     0
281
     0
  0
CLASS
  1
SORTENTSTABLE
  2
AcDbSortentsTable
  3
ObjectDBX Classes
 90
        0
 91
        4
280
     0
281
     0
  0
CLASS
  1
LAYER_INDEX
  2
AcDbLayerIndex
  3
ObjectDBX Classes
 90
        0
 91
        0
280
     0
281
     0
  0
CLASS
  1
SPATIAL_INDEX
  2
AcDbSpatialIndex
  3
ObjectDBX Classes
 90
        0
 91
        0
280
     0
281
     0
  0
CLASS
  1
OBJECT_PTR
  2
CAseDLPNTableRecord
  3
"ASE-LPNTableRecord"
 90
        0
 91
        0
280
     0
281
     0
  0
CLASS
  1
PLOTSETTINGS
  2
AcDbPlotSettings
  3
ObjectDBX Classes
 90
        0
 91
        0
280
     0
281
     0
  0
CLASS
  1
ACDBDICTIONARYWDFLT
  2
AcDbDictionaryWithDefault
  3
ObjectDBX Classes
 90
        0
 91
        1
280
     0
281
     0
  0
CLASS
  1
WIPEOUT
  2
AcDbWipeout
  3
WipeOut|Product Desc: Object Enabler for WipeOut entity | Company: Autodesk, Inc. | WEB Address: www.autodesk.com
 90
     2175
 91
        0
280
     0
281
     1
  0
CLASS
  1
WIPEOUTVARIABLES
  2
AcDbWipeoutVariables
  3
"WipeOut|Product Desc:     WipeOut Dbx Application|Company:          Autodesk, Inc.|WEB Address:      www.autodesk.com"
 90
        0
 91
        0
280
     0
281
     0
  0
CLASS
  1
RTEXT
  2
RText
  3
RText|AutoCAD Express Tool|expresstools@autodesk.com
 90
        0
 91
        0
280
     0
281
     1
  0
CLASS
  1
ARCALIGNEDTEXT
  2
AcDbArcAlignedText
  3
ATEXT|AutoCAD Express Tool|expresstools@autodesk.com
 90
        0
 91
        0
280
     0
281
     1
  0
CLASS
  1
MATERIAL
  2
AcDbMaterial
  3
ObjectDBX Classes
 90
     1153
 91
        3
280
     0
281
     0
  0
CLASS
  1
VISUALSTYLE
  2
AcDbVisualStyle
  3
ObjectDBX Classes
 90
     4095
 91
       24
280
     0
281
     0
  0
CLASS
  1
TABLESTYLE
  2
AcDbTableStyle
  3
ObjectDBX Classes
 90
     4095
 91
        1
280
     0
281
     0
  0
CLASS
  1
SCALE
  2
AcDbScale
  3
ObjectDBX Classes
 90
     1153
 91
       17
280
     0
281
     0
  0
CLASS
  1
MLEADERSTYLE
  2
AcDbMLeaderStyle
  3
ACDB_MLEADERSTYLE_CLASS
 90
     4095
 91
        1
280
     0
281
     0
  0
CLASS
  1
ACDBSECTIONVIEWSTYLE
  2
AcDbSectionViewStyle
  3
ObjectDBX Classes
 90
     1025
 91
        1
280
     0
281
     0
  0
CLASS
  1
ACDBDETAILVIEWSTYLE
  2
AcDbDetailViewStyle
  3
ObjectDBX Classes
 90
     1025
 91
        1
280
     0
281
     0
  0
CLASS
  1
CELLSTYLEMAP
  2
AcDbCellStyleMap
  3
ObjectDBX Classes
 90
     1152
 91
       12
280
     0
281
     0
  0
ENDSEC
  0
SECTION
  2
TABLES
  0
TABLE
  2
VPORT
  5
7
330
0
100
AcDbSymbolTable
 70
     1
  0
VPORT
  5
15
330
7
100
AcDbSymbolTableRecord
100
AcDbViewportTableRecord
  2
*ACTIVE
 70
     0
 10
0.0
 20
0.0
 11
1.0
 21
1.0
 12
-227.0821817788664
 22
-2518.425520400056
 13
0.0
 23
0.0
 14
1.0
 24
1.0
 15
0.0
 25
0.0
 16
0.0
 26
0.0
 36
1.0
 17
0.0
 27
0.0
 37
0.0
 40
3164.351370122324
 41
2.257301808066759
 42
50.0
 43
0.0
 44
0.0
 50
0.0
 51
0.0
 71
     0
 72
   100
 73
     1
 74
     1
 75
     0
 76
     0
 77
     0
 78
     0
281
     0
 65
     1
110
0.0
120
0.0
130
0.0
111
1.0
121
0.0
131
0.0
112
0.0
122
1.0
132
0.0
 79
     0
146
0.0
348
338
 60
     3
 61
     5
292
     1
282
     1
141
0.0
142
0.0
 63
   250
421
  3355443
1001
ACAD_NAV_VCDISPLAY
1070
     3
  0
ENDTAB
  0
TABLE
  2
LTYPE
  5
4
330
0
100
AcDbSymbolTable
 70
     4
  0
LTYPE
  5
11
330
4
100
AcDbSymbolTableRecord
100
AcDbLinetypeTableRecord
  2
BYBLOCK
 70
     0
  3

 72
    65
 73
     0
 40
0.0
  0
LTYPE
  5
12
330
4
100
AcDbSymbolTableRecord
100
AcDbLinetypeTableRecord
  2
BYLAYER
 70
     0
  3

 72
    65
 73
     0
 40
0.0
  0
LTYPE
  5
13
330
4
100
AcDbSymbolTableRecord
100
AcDbLinetypeTableRecord
  2
CONTINUOUS
 70
     0
  3
Solid line
 72
    65
 73
     0
 40
0.0
  0
LTYPE
  5
1E
330
4
100
AcDbSymbolTableRecord
100
AcDbLinetypeTableRecord
  2
STANDARD
 70
     0
  3

 72
    65
 73
     0
 40
0.0
  0
LTYPE
  5
A65
330
4
100
AcDbSymbolTableRecord
100
AcDbLinetypeTableRecord
  2
CUSTOM
 70
     0
  3

 72
    65
 73
     0
 40
0.0
  0
ENDTAB
  0
TABLE
  2
LAYER
  5
2
102
{ACAD_XDICTIONARY
360
372
102
}
330
0
100
AcDbSymbolTable
 70
     4
  0
LAYER
  5
14
102
{ACAD_XDICTIONARY
360
65A
102
}
330
2
100
AcDbSymbolTableRecord
100
AcDbLayerTableRecord
  2
0
 70
     0
 62
     7
  6
CONTINUOUS
370
    -3
390
318
347
32A
  0
LAYER
  5
1D
102
{ACAD_XDICTIONARY
360
65C
102
}
330
2
100
AcDbSymbolTableRecord
100
AcDbLayerTableRecord
  2
BEMA_UNG
 70
     0
 62
   171
  6
CONTINUOUS
370
    -3
390
318
347
32A
  0
LAYER
  5
36D
102
{ACAD_XDICTIONARY
360
65E
102
}
330
2
100
AcDbSymbolTableRecord
100
AcDbLayerTableRecord
  2
HEWI
 70
     0
 62
     7
  6
CONTINUOUS
370
     9
390
318
347
32A
1001
AcAecLayerStandard
1000

1000

1001
AcCmTransparency
1071
        0
  0
LAYER
  5
554
330
2
100
AcDbSymbolTableRecord
100
AcDbLayerTableRecord
  2
Defpoints
 70
     0
 62
     7
  6
CONTINUOUS
290
     0
370
    -3
390
318
347
32A
  0
ENDTAB
  0
TABLE
  2
STYLE
  5
3
330
0
100
AcDbSymbolTable
 70
     1
  0
STYLE
  5
17
330
3
100
AcDbSymbolTableRecord
100
AcDbTextStyleTableRecord
  2
STANDARD
 70
     0
 40
0.0
 41
1.0
 50
0.0
 71
     0
 42
0.0
  3
txt
  4

  0
ENDTAB
  0
TABLE
  2
VIEW
  5
5
330
0
100
AcDbSymbolTable
 70
     0
  0
ENDTAB
  0
TABLE
  2
UCS
  5
6
330
0
100
AcDbSymbolTable
 70
     0
  0
ENDTAB
  0
TABLE
  2
APPID
  5
8
330
0
100
AcDbSymbolTable
 70
     8
  0
APPID
  5
16
330
8
100
AcDbSymbolTableRecord
100
AcDbRegAppTableRecord
  2
ACAD
 70
     0
  0
APPID
  5
36E
330
8
100
AcDbSymbolTableRecord
100
AcDbRegAppTableRecord
  2
ACAD_NAV_VCDISPLAY
 70
     0
  0
APPID
  5
36F
330
8
100
AcDbSymbolTableRecord
100
AcDbRegAppTableRecord
  2
AcAecLayerStandard
 70
     0
  0
APPID
  5
370
330
8
100
AcDbSymbolTableRecord
100
AcDbRegAppTableRecord
  2
AcCmTransparency
 70
     0
  0
APPID
  5
371
330
8
100
AcDbSymbolTableRecord
100
AcDbRegAppTableRecord
  2
ACAD_PSEXT
 70
     0
  0
APPID
  5
484
330
8
100
AcDbSymbolTableRecord
100
AcDbRegAppTableRecord
  2
ACAD_EXEMPT_FROM_CAD_STANDARDS
 70
     0
  0
APPID
  5
781
330
8
100
AcDbSymbolTableRecord
100
AcDbRegAppTableRecord
  2
GradientColor1ACI
 70
     0
  0
APPID
  5
782
330
8
100
AcDbSymbolTableRecord
100
AcDbRegAppTableRecord
  2
GradientColor2ACI
 70
     0
  0
ENDTAB
  0
TABLE
  2
DIMSTYLE
  5
9
330
0
100
AcDbSymbolTable
 70
     2
100
AcDbDimStyleTable
 71
     1
340
18
  0
DIMSTYLE
105
18
330
9
100
AcDbSymbolTableRecord
100
AcDbDimStyleTableRecord
  2
STANDARD
 70
     0
340
17
  0
ENDTAB
  0
TABLE
  2
BLOCK_RECORD
  5
1
330
0
100
AcDbSymbolTable
 70
    16
  0
BLOCK_RECORD
  5
A
102
{ACAD_XDICTIONARY
360
1F03
102
}
330
1
100
AcDbSymbolTableRecord
100
AcDbBlockTableRecord
  2
*MODEL_SPACE
340
368
 70
     0
280
     1
281
     0
  0
BLOCK_RECORD
  5
B
330
1
100
AcDbSymbolTableRecord
100
AcDbBlockTableRecord
  2
*PAPER_SPACE
340
369
 70
     0
280
     1
281
     0
  0
BLOCK_RECORD
  5
555
330
1
100
AcDbSymbolTableRecord
100
AcDbBlockTableRecord
  2
*D0
340
0
 70
     0
280
     1
281
     0
  0
BLOCK_RECORD
  5
98E
330
1
100
AcDbSymbolTableRecord
100
AcDbBlockTableRecord
  2
*D1
340
0
 70
     0
280
     1
281
     0
  0
BLOCK_RECORD
  5
E39
330
1
100
AcDbSymbolTableRecord
100
AcDbBlockTableRecord
  2
*D2
340
0
 70
     0
280
     1
281
     0
  0
BLOCK_RECORD
  5
E7D
330
1
100
AcDbSymbolTableRecord
100
AcDbBlockTableRecord
  2
*D3
340
0
 70
     0
280
     1
281
     0
  0
BLOCK_RECORD
  5
FD5
330
1
100
AcDbSymbolTableRecord
100
AcDbBlockTableRecord
  2
*D4
340
0
 70
     0
280
     1
281
     0
  0
BLOCK_RECORD
  5
FFB
330
1
100
AcDbSymbolTableRecord
100
AcDbBlockTableRecord
  2
*D5
340
0
 70
     0
280
     1
281
     0
  0
BLOCK_RECORD
  5
1009
330
1
100
AcDbSymbolTableRecord
100
AcDbBlockTableRecord
  2
*D6
340
0
 70
     0
280
     1
281
     0
  0
BLOCK_RECORD
  5
1618
330
1
100
AcDbSymbolTableRecord
100
AcDbBlockTableRecord
  2
*D8
340
0
 70
     0
280
     1
281
     0
  0
BLOCK_RECORD
  5
1A65
330
1
100
AcDbSymbolTableRecord
100
AcDbBlockTableRecord
  2
*D11
340
0
 70
     0
280
     1
281
     0
  0
BLOCK_RECORD
  5
1BB7
330
1
100
AcDbSymbolTableRecord
100
AcDbBlockTableRecord
  2
*D12
340
0
 70
     0
280
     1
281
     0
  0
BLOCK_RECORD
  5
1F06
330
1
100
AcDbSymbolTableRecord
100
AcDbBlockTableRecord
  2
*D14
340
0
 70
     0
280
     1
281
     0
  0
BLOCK_RECORD
  5
1F4A
330
1
100
AcDbSymbolTableRecord
100
AcDbBlockTableRecord
  2
*D15
340
0
 70
     0
280
     1
281
     0
  0
ENDTAB
  0
ENDSEC
  0
SECTION
  2
BLOCKS
  0
BLOCK
  5
D
330
A
100
AcDbEntity
  8
0
100
AcDbBlockBegin
  2
*MODEL_SPACE
 70
     0
 10
0.0
 20
0.0
 30
0.0
  3
*MODEL_SPACE
  1

  0
ENDBLK
  5
E
330
A
100
AcDbEntity
  8
0
100
AcDbBlockEnd
  0
BLOCK
  5
F
330
B
100
AcDbEntity
 67
     1
  8
0
100
AcDbBlockBegin
  2
*PAPER_SPACE
 70
     0
 10
0.0
 20
0.0
 30
0.0
  3
*PAPER_SPACE
  1

  0
ENDBLK
  5
10
330
B
100
AcDbEntity
 67
     1
  8
0
100
AcDbBlockEnd
  0
BLOCK
  5
556
330
555
100
AcDbEntity
  8
0
100
AcDbBlockBegin
  2
*D0
 70
     1
 10
0.0
 20
0.0
 30
0.0
  3
*D0
  1

  0
LINE
  5
558
330
555
100
AcDbEntity
  8
0
  6
Continuous
 62
     0
440
 16777216
370
    -2
100
AcDbLine
 10
-1571.884155084999
 20
-1674.538160844551
 30
0.0
 11
-1571.884155084999
 21
-1948.499022356918
 31
0.0
  0
LINE
  5
559
330
555
100
AcDbEntity
  8
0
  6
Continuous
 62
     0
440
 16777216
370
    -2
100
AcDbLine
 10
-871.8841930849997
 20
-1674.538160844551
 30
0.0
 11
-871.8841930849997
 21
-1948.499022356918
 31
0.0
  0
LINE
  5
55A
330
555
100
AcDbEntity
  8
0
  6
Continuous
 62
     0
440
 16777216
370
    -2
100
AcDbLine
 10
-1571.704155084999
 20
-1948.319022356918
 30
0.0
 11
-1222.514174084999
 21
-1948.319022356918
 31
0.0
  0
LINE
  5
55B
330
555
100
AcDbEntity
  8
0
  6
Continuous
 62
     0
440
 16777216
370
    -2
100
AcDbLine
 10
-872.0641930849996
 20
-1948.319022356918
 30
0.0
 11
-1221.254174084999
 21
-1948.319022356918
 31
0.0
  0
SOLID
  5
55C
330
555
100
AcDbEntity
  8
0
  6
Continuous
 62
     0
440
 16777216
100
AcDbTrace
 10
-1571.704155084999
 20
-1948.289022356918
 30
0.0
 11
-1571.704155084999
 21
-1948.349022356918
 31
0.0
 12
-1571.884155084999
 22
-1948.319022356918
 32
0.0
 13
-1571.884155084999
 23
-1948.319022356918
 33
0.0
  0
SOLID
  5
55D
330
555
100
AcDbEntity
  8
0
  6
Continuous
 62
     0
440
 16777216
100
AcDbTrace
 10
-872.0641930849996
 20
-1948.289022356918
 30
0.0
 11
-872.0641930849996
 21
-1948.349022356918
 31
0.0
 12
-871.8841930849997
 22
-1948.319022356918
 32
0.0
 13
-871.8841930849997
 23
-1948.319022356918
 33
0.0
  0
MTEXT
  5
55E
330
555
100
AcDbEntity
  8
0
  6
Continuous
 62
     0
440
 16777216
100
AcDbMText
 10
-1221.884174084999
 20
-1948.319022356918
 30
0.0
 40
0.18
 41
0.0
 46
0.0
 71
     5
 72
     1
  1
\A1;700.0000
 73
     1
 44
1.0
  0
POINT
  5
55F
330
555
100
AcDbEntity
  8
Defpoints
  6
Continuous
 62
     0
440
 16777216
100
AcDbPoint
 10
-1571.884155084999
 20
-1674.475660844551
 30
0.0
  0
POINT
  5
560
330
555
100
AcDbEntity
  8
Defpoints
  6
Continuous
 62
     0
440
 16777216
100
AcDbPoint
 10
-871.8841930849997
 20
-1674.475660844551
 30
0.0
  0
POINT
  5
561
330
555
100
AcDbEntity
  8
Defpoints
  6
Continuous
 62
     0
440
 16777216
100
AcDbPoint
 10
-871.8841930849997
 20
-1948.319022356918
 30
0.0
  0
ENDBLK
  5
557
330
555
100
AcDbEntity
  8
0
100
AcDbBlockEnd
  0
BLOCK
  5
98F
330
98E
100
AcDbEntity
  8
0
100
AcDbBlockBegin
  2
*D1
 70
     1
 10
0.0
 20
0.0
 30
0.0
  3
*D1
  1

  0
LINE
  5
991
330
98E
100
AcDbEntity
  8
0
  6
Continuous
 62
     0
440
 16777216
370
    -2
100
AcDbLine
 10
-671.8841930849996
 20
-1685.2228015
 30
0.0
 11
-671.8841930849996
 21
-1441.684931733702
 31
0.0
  0
LINE
  5
992
330
98E
100
AcDbEntity
  8
0
  6
Continuous
 62
     0
440
 16777216
370
    -2
100
AcDbLine
 10
-1571.884155084999
 20
-1685.2228015
 30
0.0
 11
-1571.884155084999
 21
-1441.684931733702
 31
0.0
  0
LINE
  5
993
330
98E
100
AcDbEntity
  8
0
  6
Continuous
 62
     0
440
 16777216
370
    -2
100
AcDbLine
 10
-672.0641930849994
 20
-1441.864931733702
 30
0.0
 11
-1121.254174084999
 21
-1441.864931733702
 31
0.0
  0
LINE
  5
994
330
98E
100
AcDbEntity
  8
0
  6
Continuous
 62
     0
440
 16777216
370
    -2
100
AcDbLine
 10
-1571.704155084999
 20
-1441.864931733702
 30
0.0
 11
-1122.514174084999
 21
-1441.864931733702
 31
0.0
  0
SOLID
  5
995
330
98E
100
AcDbEntity
  8
0
  6
Continuous
 62
     0
440
 16777216
100
AcDbTrace
 10
-672.0641930849994
 20
-1441.834931733702
 30
0.0
 11
-672.0641930849994
 21
-1441.894931733702
 31
0.0
 12
-671.8841930849996
 22
-1441.864931733702
 32
0.0
 13
-671.8841930849996
 23
-1441.864931733702
 33
0.0
  0
SOLID
  5
996
330
98E
100
AcDbEntity
  8
0
  6
Continuous
 62
     0
440
 16777216
100
AcDbTrace
 10
-1571.704155084999
 20
-1441.834931733702
 30
0.0
 11
-1571.704155084999
 21
-1441.894931733702
 31
0.0
 12
-1571.884155084999
 22
-1441.864931733702
 32
0.0
 13
-1571.884155084999
 23
-1441.864931733702
 33
0.0
  0
MTEXT
  5
997
330
98E
100
AcDbEntity
  8
0
  6
Continuous
 62
     0
440
 16777216
100
AcDbMText
 10
-1121.884174084999
 20
-1441.864931733702
 30
0.0
 40
0.18
 41
0.0
 46
0.0
 71
     5
 72
     1
  1
\A1;900.0000
 73
     1
 44
1.0
  0
POINT
  5
998
330
98E
100
AcDbEntity
  8
Defpoints
  6
Continuous
 62
     0
440
 16777216
100
AcDbPoint
 10
-671.8841930849996
 20
-1685.2853015
 30
0.0
  0
POINT
  5
999
330
98E
100
AcDbEntity
  8
Defpoints
  6
Continuous
 62
     0
440
 16777216
100
AcDbPoint
 10
-1571.884155084999
 20
-1685.2853015
 30
0.0
  0
POINT
  5
99A
330
98E
100
AcDbEntity
  8
Defpoints
  6
Continuous
 62
     0
440
 16777216
100
AcDbPoint
 10
-1571.884155084999
 20
-1441.864931733702
 30
0.0
  0
ENDBLK
  5
990
330
98E
100
AcDbEntity
  8
0
100
AcDbBlockEnd
  0
BLOCK
  5
E3A
330
E39
100
AcDbEntity
  8
0
100
AcDbBlockBegin
  2
*D2
 70
     1
 10
0.0
 20
0.0
 30
0.0
  3
*D2
  1

  0
LINE
  5
E3C
330
E39
100
AcDbEntity
  8
0
  6
Continuous
 62
     0
440
 16777216
370
    -2
100
AcDbLine
 10
-2058.778195915001
 20
-1755.122799499999
 30
0.0
 11
-2058.778195915001
 21
-1438.826499125775
 31
0.0
  0
LINE
  5
E3D
330
E39
100
AcDbEntity
  8
0
  6
Continuous
 62
     0
440
 16777216
370
    -2
100
AcDbLine
 10
-2958.778157915
 20
-1685.222801499997
 30
0.0
 11
-2958.778157915
 21
-1438.826499125775
 31
0.0
  0
LINE
  5
E3E
330
E39
100
AcDbEntity
  8
0
  6
Continuous
 62
     0
440
 16777216
370
    -2
100
AcDbLine
 10
-2058.958195915001
 20
-1439.006499125775
 30
0.0
 11
-2508.148176915001
 21
-1439.006499125775
 31
0.0
  0
LINE
  5
E3F
330
E39
100
AcDbEntity
  8
0
  6
Continuous
 62
     0
440
 16777216
370
    -2
100
AcDbLine
 10
-2958.598157915
 20
-1439.006499125775
 30
0.0
 11
-2509.408176915001
 21
-1439.006499125775
 31
0.0
  0
SOLID
  5
E40
330
E39
100
AcDbEntity
  8
0
  6
Continuous
 62
     0
440
 16777216
100
AcDbTrace
 10
-2058.958195915001
 20
-1438.976499125775
 30
0.0
 11
-2058.958195915001
 21
-1439.036499125775
 31
0.0
 12
-2058.778195915001
 22
-1439.006499125775
 32
0.0
 13
-2058.778195915001
 23
-1439.006499125775
 33
0.0
  0
SOLID
  5
E41
330
E39
100
AcDbEntity
  8
0
  6
Continuous
 62
     0
440
 16777216
100
AcDbTrace
 10
-2958.598157915
 20
-1438.976499125775
 30
0.0
 11
-2958.598157915
 21
-1439.036499125775
 31
0.0
 12
-2958.778157915
 22
-1439.006499125775
 32
0.0
 13
-2958.778157915
 23
-1439.006499125775
 33
0.0
  0
MTEXT
  5
E42
330
E39
100
AcDbEntity
  8
0
  6
Continuous
 62
     0
440
 16777216
100
AcDbMText
 10
-2508.778176915001
 20
-1439.006499125775
 30
0.0
 40
0.18
 41
0.0
 46
0.0
 71
     5
 72
     1
  1
\A1;900.0000
 73
     1
 44
1.0
  0
POINT
  5
E43
330
E39
100
AcDbEntity
  8
Defpoints
  6
Continuous
 62
     0
440
 16777216
100
AcDbPoint
 10
-2058.778195915001
 20
-1755.185299499999
 30
0.0
  0
POINT
  5
E44
330
E39
100
AcDbEntity
  8
Defpoints
  6
Continuous
 62
     0
440
 16777216
100
AcDbPoint
 10
-2958.778157915
 20
-1685.285301499998
 30
0.0
  0
POINT
  5
E45
330
E39
100
AcDbEntity
  8
Defpoints
  6
Continuous
 62
     0
440
 16777216
100
AcDbPoint
 10
-2958.778157915
 20
-1439.006499125775
 30
0.0
  0
ENDBLK
  5
E3B
330
E39
100
AcDbEntity
  8
0
100
AcDbBlockEnd
  0
BLOCK
  5
E7E
330
E7D
100
AcDbEntity
  8
0
100
AcDbBlockBegin
  2
*D3
 70
     1
 10
0.0
 20
0.0
 30
0.0
  3
*D3
  1

  0
LINE
  5
E80
330
E7D
100
AcDbEntity
  8
0
  6
Continuous
 62
     0
440
 16777216
370
    -2
100
AcDbLine
 10
-2958.778157915
 20
-1685.222801499997
 30
0.0
 11
-2958.778157915
 21
-1488.083773311466
 31
0.0
  0
LINE
  5
E81
330
E7D
100
AcDbEntity
  8
0
  6
Continuous
 62
     0
440
 16777216
370
    -2
100
AcDbLine
 10
-2058.778195915
 20
-1685.222801500001
 30
0.0
 11
-2058.778195915
 21
-1488.083773311466
 31
0.0
  0
LINE
  5
E82
330
E7D
100
AcDbEntity
  8
0
  6
Continuous
 62
     0
440
 16777216
370
    -2
100
AcDbLine
 10
-2958.598157915
 20
-1488.263773311466
 30
0.0
 11
-2509.408176915
 21
-1488.263773311466
 31
0.0
  0
LINE
  5
E83
330
E7D
100
AcDbEntity
  8
0
  6
Continuous
 62
     0
440
 16777216
370
    -2
100
AcDbLine
 10
-2058.958195915
 20
-1488.263773311466
 30
0.0
 11
-2508.148176915
 21
-1488.263773311466
 31
0.0
  0
SOLID
  5
E84
330
E7D
100
AcDbEntity
  8
0
  6
Continuous
 62
     0
440
 16777216
100
AcDbTrace
 10
-2958.598157915
 20
-1488.233773311466
 30
0.0
 11
-2958.598157915
 21
-1488.293773311466
 31
0.0
 12
-2958.778157915
 22
-1488.263773311466
 32
0.0
 13
-2958.778157915
 23
-1488.263773311466
 33
0.0
  0
SOLID
  5
E85
330
E7D
100
AcDbEntity
  8
0
  6
Continuous
 62
     0
440
 16777216
100
AcDbTrace
 10
-2058.958195915
 20
-1488.233773311466
 30
0.0
 11
-2058.958195915
 21
-1488.293773311466
 31
0.0
 12
-2058.778195915
 22
-1488.263773311466
 32
0.0
 13
-2058.778195915
 23
-1488.263773311466
 33
0.0
  0
MTEXT
  5
E86
330
E7D
100
AcDbEntity
  8
0
  6
Continuous
 62
     0
440
 16777216
100
AcDbMText
 10
-2508.778176915
 20
-1488.263773311466
 30
0.0
 40
0.18
 41
0.0
 46
0.0
 71
     5
 72
     1
  1
\A1;900.0000
 73
     1
 44
1.0
  0
POINT
  5
E87
330
E7D
100
AcDbEntity
  8
Defpoints
  6
Continuous
 62
     0
440
 16777216
100
AcDbPoint
 10
-2958.778157915
 20
-1685.285301499998
 30
0.0
  0
POINT
  5
E88
330
E7D
100
AcDbEntity
  8
Defpoints
  6
Continuous
 62
     0
440
 16777216
100
AcDbPoint
 10
-2058.778195915
 20
-1685.285301500001
 30
0.0
  0
POINT
  5
E89
330
E7D
100
AcDbEntity
  8
Defpoints
  6
Continuous
 62
     0
440
 16777216
100
AcDbPoint
 10
-2058.778195915
 20
-1488.263773311466
 30
0.0
  0
ENDBLK
  5
E7F
330
E7D
100
AcDbEntity
  8
0
100
AcDbBlockEnd
  0
BLOCK
  5
FD6
330
FD5
100
AcDbEntity
  8
0
100
AcDbBlockBegin
  2
*D4
 70
     1
 10
0.0
 20
0.0
 30
0.0
  3
*D4
  1

  0
LINE
  5
FD8
330
FD5
100
AcDbEntity
  8
0
  6
Continuous
 62
     0
440
 16777216
370
    -2
100
AcDbLine
 10
-821.884193084999
 20
-1685.222801499997
 30
0.0
 11
-821.884193084999
 21
-1513.013430958396
 31
0.0
  0
LINE
  5
FD9
330
FD5
100
AcDbEntity
  8
0
  6
Continuous
 62
     0
440
 16777216
370
    -2
100
AcDbLine
 10
-1571.884155084999
 20
-1685.2228015
 30
0.0
 11
-1571.884155084999
 21
-1513.013430958396
 31
0.0
  0
LINE
  5
FDA
330
FD5
100
AcDbEntity
  8
0
  6
Continuous
 62
     0
440
 16777216
370
    -2
100
AcDbLine
 10
-822.0641930849989
 20
-1513.193430958396
 30
0.0
 11
-1196.239174084999
 21
-1513.193430958396
 31
0.0
  0
LINE
  5
FDB
330
FD5
100
AcDbEntity
  8
0
  6
Continuous
 62
     0
440
 16777216
370
    -2
100
AcDbLine
 10
-1571.704155084998
 20
-1513.193430958396
 30
0.0
 11
-1197.529174084998
 21
-1513.193430958396
 31
0.0
  0
SOLID
  5
FDC
330
FD5
100
AcDbEntity
  8
0
  6
Continuous
 62
     0
440
 16777216
100
AcDbTrace
 10
-822.0641930849989
 20
-1513.163430958396
 30
0.0
 11
-822.0641930849989
 21
-1513.223430958396
 31
0.0
 12
-821.884193084999
 22
-1513.193430958396
 32
0.0
 13
-821.884193084999
 23
-1513.193430958396
 33
0.0
  0
SOLID
  5
FDD
330
FD5
100
AcDbEntity
  8
0
  6
Continuous
 62
     0
440
 16777216
100
AcDbTrace
 10
-1571.704155084998
 20
-1513.163430958396
 30
0.0
 11
-1571.704155084998
 21
-1513.223430958396
 31
0.0
 12
-1571.884155084999
 22
-1513.193430958396
 32
0.0
 13
-1571.884155084999
 23
-1513.193430958396
 33
0.0
  0
MTEXT
  5
FDE
330
FD5
100
AcDbEntity
  8
0
  6
Continuous
 62
     0
440
 16777216
100
AcDbMText
 10
-1196.884174084998
 20
-1513.193430958396
 30
0.0
 40
0.18
 41
0.0
 46
0.0
 71
     5
 72
     1
  1
\A1;750.0000
 73
     1
 44
1.0
  0
POINT
  5
FDF
330
FD5
100
AcDbEntity
  8
Defpoints
  6
Continuous
 62
     0
440
 16777216
100
AcDbPoint
 10
-821.884193084999
 20
-1685.285301499998
 30
0.0
  0
POINT
  5
FE0
330
FD5
100
AcDbEntity
  8
Defpoints
  6
Continuous
 62
     0
440
 16777216
100
AcDbPoint
 10
-1571.884155084999
 20
-1685.2853015
 30
0.0
  0
POINT
  5
FE1
330
FD5
100
AcDbEntity
  8
Defpoints
  6
Continuous
 62
     0
440
 16777216
100
AcDbPoint
 10
-1571.884155084999
 20
-1513.193430958396
 30
0.0
  0
ENDBLK
  5
FD7
330
FD5
100
AcDbEntity
  8
0
100
AcDbBlockEnd
  0
BLOCK
  5
FFC
330
FFB
100
AcDbEntity
  8
0
100
AcDbBlockBegin
  2
*D5
 70
     1
 10
0.0
 20
0.0
 30
0.0
  3
*D5
  1

  0
LINE
  5
FFE
330
FFB
100
AcDbEntity
  8
0
  6
Continuous
 62
     0
440
 16777216
370
    -2
100
AcDbLine
 10
-871.884193084999
 20
-1685.222801499997
 30
0.0
 11
-871.884193084999
 21
-1482.543854341207
 31
0.0
  0
LINE
  5
FFF
330
FFB
100
AcDbEntity
  8
0
  6
Continuous
 62
     0
440
 16777216
370
    -2
100
AcDbLine
 10
-1571.884155084999
 20
-1685.2228015
 30
0.0
 11
-1571.884155084999
 21
-1482.543854341207
 31
0.0
  0
LINE
  5
1000
330
FFB
100
AcDbEntity
  8
0
  6
Continuous
 62
     0
440
 16777216
370
    -2
100
AcDbLine
 10
-872.0641930849989
 20
-1482.723854341208
 30
0.0
 11
-1221.254174084998
 21
-1482.723854341208
 31
0.0
  0
LINE
  5
1001
330
FFB
100
AcDbEntity
  8
0
  6
Continuous
 62
     0
440
 16777216
370
    -2
100
AcDbLine
 10
-1571.704155084998
 20
-1482.723854341208
 30
0.0
 11
-1222.514174084999
 21
-1482.723854341208
 31
0.0
  0
SOLID
  5
1002
330
FFB
100
AcDbEntity
  8
0
  6
Continuous
 62
     0
440
 16777216
100
AcDbTrace
 10
-872.0641930849989
 20
-1482.693854341207
 30
0.0
 11
-872.0641930849989
 21
-1482.753854341208
 31
0.0
 12
-871.884193084999
 22
-1482.723854341208
 32
0.0
 13
-871.884193084999
 23
-1482.723854341208
 33
0.0
  0
SOLID
  5
1003
330
FFB
100
AcDbEntity
  8
0
  6
Continuous
 62
     0
440
 16777216
100
AcDbTrace
 10
-1571.704155084998
 20
-1482.693854341207
 30
0.0
 11
-1571.704155084998
 21
-1482.753854341208
 31
0.0
 12
-1571.884155084999
 22
-1482.723854341208
 32
0.0
 13
-1571.884155084999
 23
-1482.723854341208
 33
0.0
  0
MTEXT
  5
1004
330
FFB
100
AcDbEntity
  8
0
  6
Continuous
 62
     0
440
 16777216
100
AcDbMText
 10
-1221.884174084999
 20
-1482.723854341208
 30
0.0
 40
0.18
 41
0.0
 46
0.0
 71
     5
 72
     1
  1
\A1;700.0000
 73
     1
 44
1.0
  0
POINT
  5
1005
330
FFB
100
AcDbEntity
  8
Defpoints
  6
Continuous
 62
     0
440
 16777216
100
AcDbPoint
 10
-871.884193084999
 20
-1685.285301499998
 30
0.0
  0
POINT
  5
1006
330
FFB
100
AcDbEntity
  8
Defpoints
  6
Continuous
 62
     0
440
 16777216
100
AcDbPoint
 10
-1571.884155084999
 20
-1685.2853015
 30
0.0
  0
POINT
  5
1007
330
FFB
100
AcDbEntity
  8
Defpoints
  6
Continuous
 62
     0
440
 16777216
100
AcDbPoint
 10
-1571.884155084999
 20
-1482.723854341208
 30
0.0
  0
ENDBLK
  5
FFD
330
FFB
100
AcDbEntity
  8
0
100
AcDbBlockEnd
  0
BLOCK
  5
100A
330
1009
100
AcDbEntity
  8
0
100
AcDbBlockBegin
  2
*D6
 70
     1
 10
0.0
 20
0.0
 30
0.0
  3
*D6
  1

  0
LINE
  5
100C
330
1009
100
AcDbEntity
  8
0
  6
Continuous
 62
     0
440
 16777216
370
    -2
100
AcDbLine
 10
-871.884193084999
 20
-1685.222801499997
 30
0.0
 11
-871.884193084999
 21
-1440.211033253052
 31
0.0
  0
LINE
  5
100D
330
1009
100
AcDbEntity
  8
0
  6
Continuous
 62
     0
440
 16777216
370
    -2
100
AcDbLine
 10
-1571.884155084999
 20
-1685.2228015
 30
0.0
 11
-1571.884155084999
 21
-1440.211033253052
 31
0.0
  0
LINE
  5
100E
330
1009
100
AcDbEntity
  8
0
  6
Continuous
 62
     0
440
 16777216
370
    -2
100
AcDbLine
 10
-872.0641930849989
 20
-1440.391033253052
 30
0.0
 11
-1221.254174084998
 21
-1440.391033253052
 31
0.0
  0
LINE
  5
100F
330
1009
100
AcDbEntity
  8
0
  6
Continuous
 62
     0
440
 16777216
370
    -2
100
AcDbLine
 10
-1571.704155084998
 20
-1440.391033253052
 30
0.0
 11
-1222.514174084999
 21
-1440.391033253052
 31
0.0
  0
SOLID
  5
1010
330
1009
100
AcDbEntity
  8
0
  6
Continuous
 62
     0
440
 16777216
100
AcDbTrace
 10
-872.0641930849989
 20
-1440.361033253052
 30
0.0
 11
-872.0641930849989
 21
-1440.421033253052
 31
0.0
 12
-871.884193084999
 22
-1440.391033253052
 32
0.0
 13
-871.884193084999
 23
-1440.391033253052
 33
0.0
  0
SOLID
  5
1011
330
1009
100
AcDbEntity
  8
0
  6
Continuous
 62
     0
440
 16777216
100
AcDbTrace
 10
-1571.704155084998
 20
-1440.361033253052
 30
0.0
 11
-1571.704155084998
 21
-1440.421033253052
 31
0.0
 12
-1571.884155084999
 22
-1440.391033253052
 32
0.0
 13
-1571.884155084999
 23
-1440.391033253052
 33
0.0
  0
MTEXT
  5
1012
330
1009
100
AcDbEntity
  8
0
  6
Continuous
 62
     0
440
 16777216
100
AcDbMText
 10
-1221.884174084999
 20
-1440.391033253052
 30
0.0
 40
0.18
 41
0.0
 46
0.0
 71
     5
 72
     1
  1
\A1;700.0000
 73
     1
 44
1.0
  0
POINT
  5
1013
330
1009
100
AcDbEntity
  8
Defpoints
  6
Continuous
 62
     0
440
 16777216
100
AcDbPoint
 10
-871.884193084999
 20
-1685.285301499998
 30
0.0
  0
POINT
  5
1014
330
1009
100
AcDbEntity
  8
Defpoints
  6
Continuous
 62
     0
440
 16777216
100
AcDbPoint
 10
-1571.884155084999
 20
-1685.2853015
 30
0.0
  0
POINT
  5
1015
330
1009
100
AcDbEntity
  8
Defpoints
  6
Continuous
 62
     0
440
 16777216
100
AcDbPoint
 10
-1571.884155084999
 20
-1440.391033253052
 30
0.0
  0
ENDBLK
  5
100B
330
1009
100
AcDbEntity
  8
0
100
AcDbBlockEnd
  0
BLOCK
  5
1619
330
1618
100
AcDbEntity
  8
0
100
AcDbBlockBegin
  2
*D8
 70
     1
 10
0.0
 20
0.0
 30
0.0
  3
*D8
  1

  0
LINE
  5
161B
330
1618
100
AcDbEntity
  8
0
  6
Continuous
 62
     0
440
 16777216
370
    -2
100
AcDbLine
 10
-871.884193084999
 20
-1685.222801499997
 30
0.0
 11
-871.884193084999
 21
-1531.693040944239
 31
0.0
  0
LINE
  5
161C
330
1618
100
AcDbEntity
  8
0
  6
Continuous
 62
     0
440
 16777216
370
    -2
100
AcDbLine
 10
-1571.884155084999
 20
-1685.222801500001
 30
0.0
 11
-1571.884155084999
 21
-1531.693040944239
 31
0.0
  0
LINE
  5
161D
330
1618
100
AcDbEntity
  8
0
  6
Continuous
 62
     0
440
 16777216
370
    -2
100
AcDbLine
 10
-872.0641930849989
 20
-1531.873040944239
 30
0.0
 11
-1221.254174084999
 21
-1531.873040944239
 31
0.0
  0
LINE
  5
161E
330
1618
100
AcDbEntity
  8
0
  6
Continuous
 62
     0
440
 16777216
370
    -2
100
AcDbLine
 10
-1571.704155084999
 20
-1531.873040944239
 30
0.0
 11
-1222.514174084999
 21
-1531.873040944239
 31
0.0
  0
SOLID
  5
161F
330
1618
100
AcDbEntity
  8
0
  6
Continuous
 62
     0
440
 16777216
100
AcDbTrace
 10
-872.0641930849989
 20
-1531.843040944238
 30
0.0
 11
-872.0641930849989
 21
-1531.903040944239
 31
0.0
 12
-871.884193084999
 22
-1531.873040944239
 32
0.0
 13
-871.884193084999
 23
-1531.873040944239
 33
0.0
  0
SOLID
  5
1620
330
1618
100
AcDbEntity
  8
0
  6
Continuous
 62
     0
440
 16777216
100
AcDbTrace
 10
-1571.704155084999
 20
-1531.843040944238
 30
0.0
 11
-1571.704155084999
 21
-1531.903040944239
 31
0.0
 12
-1571.884155084999
 22
-1531.873040944239
 32
0.0
 13
-1571.884155084999
 23
-1531.873040944239
 33
0.0
  0
MTEXT
  5
1621
330
1618
100
AcDbEntity
  8
0
  6
Continuous
 62
     0
440
 16777216
100
AcDbMText
 10
-1221.884174084999
 20
-1531.873040944239
 30
0.0
 40
0.18
 41
0.0
 46
0.0
 71
     5
 72
     1
  1
\A1;700.0000
 73
     1
 44
1.0
  0
POINT
  5
1622
330
1618
100
AcDbEntity
  8
Defpoints
  6
Continuous
 62
     0
440
 16777216
100
AcDbPoint
 10
-871.884193084999
 20
-1685.285301499998
 30
0.0
  0
POINT
  5
1623
330
1618
100
AcDbEntity
  8
Defpoints
  6
Continuous
 62
     0
440
 16777216
100
AcDbPoint
 10
-1571.884155084999
 20
-1685.285301500001
 30
0.0
  0
POINT
  5
1624
330
1618
100
AcDbEntity
  8
Defpoints
  6
Continuous
 62
     0
440
 16777216
100
AcDbPoint
 10
-1571.884155084999
 20
-1531.873040944239
 30
0.0
  0
ENDBLK
  5
161A
330
1618
100
AcDbEntity
  8
0
100
AcDbBlockEnd
  0
BLOCK
  5
1A66
330
1A65
100
AcDbEntity
  8
0
100
AcDbBlockBegin
  2
*D11
 70
     1
 10
0.0
 20
0.0
 30
0.0
  3
*D11
  1

  0
LINE
  5
1A68
330
1A65
100
AcDbEntity
  8
0
  6
Continuous
 62
     0
440
 16777216
370
    -2
100
AcDbLine
 10
-860.7841550849954
 20
-1696.997799500018
 30
0.0
 11
-860.7841550849954
 21
-1441.135111413995
 31
0.0
  0
LINE
  5
1A69
330
1A65
100
AcDbEntity
  8
0
  6
Continuous
 62
     0
440
 16777216
370
    -2
100
AcDbLine
 10
-1571.884155084997
 20
-1696.997799499998
 30
0.0
 11
-1571.884155084997
 21
-1441.135111413995
 31
0.0
  0
LINE
  5
1A6A
330
1A65
100
AcDbEntity
  8
0
  6
Continuous
 62
     0
440
 16777216
370
    -2
100
AcDbLine
 10
-860.9641550849955
 20
-1441.315111413995
 30
0.0
 11
-1215.749155084996
 21
-1441.315111413995
 31
0.0
  0
LINE
  5
1A6B
330
1A65
100
AcDbEntity
  8
0
  6
Continuous
 62
     0
440
 16777216
370
    -2
100
AcDbLine
 10
-1571.704155084997
 20
-1441.315111413995
 30
0.0
 11
-1216.919155084996
 21
-1441.315111413995
 31
0.0
  0
SOLID
  5
1A6C
330
1A65
100
AcDbEntity
  8
0
  6
Continuous
 62
     0
440
 16777216
100
AcDbTrace
 10
-860.9641550849955
 20
-1441.285111413995
 30
0.0
 11
-860.9641550849955
 21
-1441.345111413995
 31
0.0
 12
-860.7841550849954
 22
-1441.315111413995
 32
0.0
 13
-860.7841550849954
 23
-1441.315111413995
 33
0.0
  0
SOLID
  5
1A6D
330
1A65
100
AcDbEntity
  8
0
  6
Continuous
 62
     0
440
 16777216
100
AcDbTrace
 10
-1571.704155084997
 20
-1441.285111413995
 30
0.0
 11
-1571.704155084997
 21
-1441.345111413995
 31
0.0
 12
-1571.884155084997
 22
-1441.315111413995
 32
0.0
 13
-1571.884155084997
 23
-1441.315111413995
 33
0.0
  0
MTEXT
  5
1A6E
330
1A65
100
AcDbEntity
  8
0
  6
Continuous
 62
     0
440
 16777216
100
AcDbMText
 10
-1216.334155084996
 20
-1441.315111413995
 30
0.0
 40
0.18
 41
0.0
 46
0.0
 71
     5
 72
     1
  1
\A1;711.1000
 73
     1
 44
1.0
  0
POINT
  5
1A6F
330
1A65
100
AcDbEntity
  8
Defpoints
  6
Continuous
 62
     0
440
 16777216
100
AcDbPoint
 10
-860.7841550849954
 20
-1697.060299500018
 30
0.0
  0
POINT
  5
1A70
330
1A65
100
AcDbEntity
  8
Defpoints
  6
Continuous
 62
     0
440
 16777216
100
AcDbPoint
 10
-1571.884155084997
 20
-1697.060299499998
 30
0.0
  0
POINT
  5
1A71
330
1A65
100
AcDbEntity
  8
Defpoints
  6
Continuous
 62
     0
440
 16777216
100
AcDbPoint
 10
-1571.884155084997
 20
-1441.315111413995
 30
0.0
  0
ENDBLK
  5
1A67
330
1A65
100
AcDbEntity
  8
0
100
AcDbBlockEnd
  0
BLOCK
  5
1BB8
330
1BB7
100
AcDbEntity
  8
0
100
AcDbBlockBegin
  2
*D12
 70
     1
 10
0.0
 20
0.0
 30
0.0
  3
*D12
  1

  0
LINE
  5
1BBA
330
1BB7
100
AcDbEntity
  8
0
  6
Continuous
 62
     0
440
 16777216
370
    -2
100
AcDbLine
 10
-2083.136030632054
 20
-1693.611067542989
 30
0.0
 11
-2083.136030632054
 21
-1584.050034244742
 31
0.0
  0
LINE
  5
1BBB
330
1BB7
100
AcDbEntity
  8
0
  6
Continuous
 62
     0
440
 16777216
370
    -2
100
AcDbLine
 10
-2945.236030632056
 20
-1705.372799500019
 30
0.0
 11
-2945.236030632056
 21
-1584.050034244742
 31
0.0
  0
LINE
  5
1BBC
330
1BB7
100
AcDbEntity
  8
0
  6
Continuous
 62
     0
440
 16777216
370
    -2
100
AcDbLine
 10
-2083.316030632054
 20
-1584.230034244742
 30
0.0
 11
-2513.541030632055
 21
-1584.230034244742
 31
0.0
  0
LINE
  5
1BBD
330
1BB7
100
AcDbEntity
  8
0
  6
Continuous
 62
     0
440
 16777216
370
    -2
100
AcDbLine
 10
-2945.056030632056
 20
-1584.230034244742
 30
0.0
 11
-2514.831030632055
 21
-1584.230034244742
 31
0.0
  0
SOLID
  5
1BBE
330
1BB7
100
AcDbEntity
  8
0
  6
Continuous
 62
     0
440
 16777216
100
AcDbTrace
 10
-2083.316030632054
 20
-1584.200034244742
 30
0.0
 11
-2083.316030632054
 21
-1584.260034244742
 31
0.0
 12
-2083.136030632054
 22
-1584.230034244742
 32
0.0
 13
-2083.136030632054
 23
-1584.230034244742
 33
0.0
  0
SOLID
  5
1BBF
330
1BB7
100
AcDbEntity
  8
0
  6
Continuous
 62
     0
440
 16777216
100
AcDbTrace
 10
-2945.056030632056
 20
-1584.200034244742
 30
0.0
 11
-2945.056030632056
 21
-1584.260034244742
 31
0.0
 12
-2945.236030632056
 22
-1584.230034244742
 32
0.0
 13
-2945.236030632056
 23
-1584.230034244742
 33
0.0
  0
MTEXT
  5
1BC0
330
1BB7
100
AcDbEntity
  8
0
  6
Continuous
 62
     0
440
 16777216
100
AcDbMText
 10
-2514.186030632055
 20
-1584.230034244742
 30
0.0
 40
0.18
 41
0.0
 46
0.0
 71
     5
 72
     1
  1
\A1;862.1000
 73
     1
 44
1.0
  0
POINT
  5
1BC1
330
1BB7
100
AcDbEntity
  8
Defpoints
  6
Continuous
 62
     0
440
 16777216
100
AcDbPoint
 10
-2083.136030632054
 20
-1693.673567542989
 30
0.0
  0
POINT
  5
1BC2
330
1BB7
100
AcDbEntity
  8
Defpoints
  6
Continuous
 62
     0
440
 16777216
100
AcDbPoint
 10
-2945.236030632056
 20
-1705.435299500019
 30
0.0
  0
POINT
  5
1BC3
330
1BB7
100
AcDbEntity
  8
Defpoints
  6
Continuous
 62
     0
440
 16777216
100
AcDbPoint
 10
-2945.236030632056
 20
-1584.230034244742
 30
0.0
  0
ENDBLK
  5
1BB9
330
1BB7
100
AcDbEntity
  8
0
100
AcDbBlockEnd
  0
BLOCK
  5
1F07
330
1F06
100
AcDbEntity
  8
0
100
AcDbBlockBegin
  2
*D14
 70
     1
 10
0.0
 20
0.0
 30
0.0
  3
*D14
  1

  0
LINE
  5
1F09
330
1F06
100
AcDbEntity
  8
0
  6
Continuous
 62
     0
440
 16777216
370
    -2
100
AcDbLine
 10
-639.7908301605735
 20
-1705.372799500019
 30
0.0
 11
-639.7908301605735
 21
-1463.060074111291
 31
0.0
  0
LINE
  5
1F0A
330
1F06
100
AcDbEntity
  8
0
  6
Continuous
 62
     0
440
 16777216
370
    -2
100
AcDbLine
 10
-1551.890830160575
 20
-1705.372799499995
 30
0.0
 11
-1551.890830160575
 21
-1463.060074111291
 31
0.0
  0
LINE
  5
1F0B
330
1F06
100
AcDbEntity
  8
0
  6
Continuous
 62
     0
440
 16777216
370
    -2
100
AcDbLine
 10
-639.9708301605734
 20
-1463.240074111291
 30
0.0
 11
-1095.225830160574
 21
-1463.240074111291
 31
0.0
  0
LINE
  5
1F0C
330
1F06
100
AcDbEntity
  8
0
  6
Continuous
 62
     0
440
 16777216
370
    -2
100
AcDbLine
 10
-1551.710830160575
 20
-1463.240074111291
 30
0.0
 11
-1096.455830160574
 21
-1463.240074111291
 31
0.0
  0
SOLID
  5
1F0D
330
1F06
100
AcDbEntity
  8
0
  6
Continuous
 62
     0
440
 16777216
100
AcDbTrace
 10
-639.9708301605734
 20
-1463.210074111291
 30
0.0
 11
-639.9708301605734
 21
-1463.270074111291
 31
0.0
 12
-639.7908301605735
 22
-1463.240074111291
 32
0.0
 13
-639.7908301605735
 23
-1463.240074111291
 33
0.0
  0
SOLID
  5
1F0E
330
1F06
100
AcDbEntity
  8
0
  6
Continuous
 62
     0
440
 16777216
100
AcDbTrace
 10
-1551.710830160575
 20
-1463.210074111291
 30
0.0
 11
-1551.710830160575
 21
-1463.270074111291
 31
0.0
 12
-1551.890830160575
 22
-1463.240074111291
 32
0.0
 13
-1551.890830160575
 23
-1463.240074111291
 33
0.0
  0
MTEXT
  5
1F0F
330
1F06
100
AcDbEntity
  8
0
  6
Continuous
 62
     0
440
 16777216
100
AcDbMText
 10
-1095.840830160574
 20
-1463.240074111291
 30
0.0
 40
0.18
 41
0.0
 46
0.0
 71
     5
 72
     1
  1
\A1;912.1000
 73
     1
 44
1.0
  0
POINT
  5
1F10
330
1F06
100
AcDbEntity
  8
Defpoints
  6
Continuous
 62
     0
440
 16777216
100
AcDbPoint
 10
-639.7908301605735
 20
-1705.435299500019
 30
0.0
  0
POINT
  5
1F11
330
1F06
100
AcDbEntity
  8
Defpoints
  6
Continuous
 62
     0
440
 16777216
100
AcDbPoint
 10
-1551.890830160575
 20
-1705.435299499995
 30
0.0
  0
POINT
  5
1F12
330
1F06
100
AcDbEntity
  8
Defpoints
  6
Continuous
 62
     0
440
 16777216
100
AcDbPoint
 10
-1551.890830160575
 20
-1463.240074111291
 30
0.0
  0
ENDBLK
  5
1F08
330
1F06
100
AcDbEntity
  8
0
100
AcDbBlockEnd
  0
BLOCK
  5
1F4B
330
1F4A
100
AcDbEntity
  8
0
100
AcDbBlockBegin
  2
*D15
 70
     1
 10
0.0
 20
0.0
 30
0.0
  3
*D15
  1

  0
LINE
  5
1F4D
330
1F4A
100
AcDbEntity
  8
0
  6
Continuous
 62
     0
440
 16777216
370
    -2
100
AcDbLine
 10
-639.7908301605735
 20
-1705.372799500019
 30
0.0
 11
-639.7908301605735
 21
-1521.291576949788
 31
0.0
  0
LINE
  5
1F4E
330
1F4A
100
AcDbEntity
  8
0
  6
Continuous
 62
     0
440
 16777216
370
    -2
100
AcDbLine
 10
-1551.890830160575
 20
-1705.372799499995
 30
0.0
 11
-1551.890830160575
 21
-1521.291576949788
 31
0.0
  0
LINE
  5
1F4F
330
1F4A
100
AcDbEntity
  8
0
  6
Continuous
 62
     0
440
 16777216
370
    -2
100
AcDbLine
 10
-639.9708301605734
 20
-1521.471576949788
 30
0.0
 11
-1095.225830160574
 21
-1521.471576949788
 31
0.0
  0
LINE
  5
1F50
330
1F4A
100
AcDbEntity
  8
0
  6
Continuous
 62
     0
440
 16777216
370
    -2
100
AcDbLine
 10
-1551.710830160575
 20
-1521.471576949788
 30
0.0
 11
-1096.455830160574
 21
-1521.471576949788
 31
0.0
  0
SOLID
  5
1F51
330
1F4A
100
AcDbEntity
  8
0
  6
Continuous
 62
     0
440
 16777216
100
AcDbTrace
 10
-639.9708301605734
 20
-1521.441576949788
 30
0.0
 11
-639.9708301605734
 21
-1521.501576949788
 31
0.0
 12
-639.7908301605735
 22
-1521.471576949788
 32
0.0
 13
-639.7908301605735
 23
-1521.471576949788
 33
0.0
  0
SOLID
  5
1F52
330
1F4A
100
AcDbEntity
  8
0
  6
Continuous
 62
     0
440
 16777216
100
AcDbTrace
 10
-1551.710830160575
 20
-1521.441576949788
 30
0.0
 11
-1551.710830160575
 21
-1521.501576949788
 31
0.0
 12
-1551.890830160575
 22
-1521.471576949788
 32
0.0
 13
-1551.890830160575
 23
-1521.471576949788
 33
0.0
  0
MTEXT
  5
1F53
330
1F4A
100
AcDbEntity
  8
0
  6
Continuous
 62
     0
440
 16777216
100
AcDbMText
 10
-1095.840830160574
 20
-1521.471576949788
 30
0.0
 40
0.18
 41
0.0
 46
0.0
 71
     5
 72
     1
  1
\A1;912.1000
 73
     1
 44
1.0
  0
POINT
  5
1F54
330
1F4A
100
AcDbEntity
  8
Defpoints
  6
Continuous
 62
     0
440
 16777216
100
AcDbPoint
 10
-639.7908301605735
 20
-1705.435299500019
 30
0.0
  0
POINT
  5
1F55
330
1F4A
100
AcDbEntity
  8
Defpoints
  6
Continuous
 62
     0
440
 16777216
100
AcDbPoint
 10
-1551.890830160575
 20
-1705.435299499995
 30
0.0
  0
POINT
  5
1F56
330
1F4A
100
AcDbEntity
  8
Defpoints
  6
Continuous
 62
     0
440
 16777216
100
AcDbPoint
 10
-1551.890830160575
 20
-1521.471576949788
 30
0.0
  0
ENDBLK
  5
1F4C
330
1F4A
100
AcDbEntity
  8
0
100
AcDbBlockEnd
  0
ENDSEC
  0
SECTION
  2
ENTITIES
  0
LINE
  5
1804
330
A
100
AcDbEntity
  8
HEWI
100
AcDbLine
 10
-1769.813430396316
 20
-1726.4352995
 30
0.0
 11
-1770.013430396317
 21
-1726.2352995
 31
0.0
  0
LINE
  5
1805
330
A
100
AcDbEntity
  8
HEWI
100
AcDbLine
 10
-1775.813430396316
 20
-1727.9352995
 30
0.0
 11
-1810.013944396315
 21
-1727.935299499999
 31
0.0
  0
LINE
  5
1806
330
A
100
AcDbEntity
  8
HEWI
100
AcDbLine
 10
-1825.012914396316
 20
-1727.935299499998
 30
0.0
 11
-1859.213430396316
 21
-1727.935299499997
 31
0.0
  0
LINE
  5
1807
330
A
100
AcDbEntity
  8
HEWI
100
AcDbLine
 10
-1770.013430396315
 20
-1684.6352995
 30
0.0
 11
-1769.813430396315
 21
-1684.4352995
 31
0.0
  0
LINE
  5
1808
330
A
100
AcDbEntity
  8
HEWI
100
AcDbLine
 10
-1767.213430396314
 20
-1684.4352995
 30
0.0
 11
-1767.013430396314
 21
-1684.6352995
 31
0.0
  0
LINE
  5
1809
330
A
100
AcDbEntity
  8
HEWI
100
AcDbLine
 10
-1767.013430396314
 20
-1726.2352995
 30
0.0
 11
-1767.213430396316
 21
-1726.4352995
 31
0.0
  0
LINE
  5
180A
330
A
100
AcDbEntity
  8
HEWI
100
AcDbLine
 10
-1769.813430396315
 20
-1684.4352995
 30
0.0
 11
-1767.213430396314
 21
-1684.4352995
 31
0.0
  0
LINE
  5
180B
330
A
100
AcDbEntity
  8
HEWI
100
AcDbLine
 10
-1767.213430396316
 20
-1726.4352995
 30
0.0
 11
-1769.813430396316
 21
-1726.4352995
 31
0.0
  0
LINE
  5
180C
330
A
100
AcDbEntity
  8
HEWI
100
AcDbLine
 10
-1867.813430396316
 20
-1726.435299499997
 30
0.0
 11
-1868.013430396317
 21
-1726.235299499997
 31
0.0
  0
LINE
  5
180D
330
A
100
AcDbEntity
  8
HEWI
100
AcDbLine
 10
-1868.013430396315
 20
-1684.635299499997
 30
0.0
 11
-1867.813430396315
 21
-1684.435299499997
 31
0.0
  0
LINE
  5
180E
330
A
100
AcDbEntity
  8
HEWI
100
AcDbLine
 10
-1865.213430396314
 20
-1684.435299499997
 30
0.0
 11
-1865.013430396315
 21
-1684.635299499997
 31
0.0
  0
LINE
  5
180F
330
A
100
AcDbEntity
  8
HEWI
100
AcDbLine
 10
-1865.013430396317
 20
-1726.235299499997
 30
0.0
 11
-1865.213430396315
 21
-1726.435299499997
 31
0.0
  0
LINE
  5
1810
330
A
100
AcDbEntity
  8
HEWI
100
AcDbLine
 10
-1865.213430396315
 20
-1726.435299499997
 30
0.0
 11
-1867.813430396316
 21
-1726.435299499997
 31
0.0
  0
LINE
  5
1811
330
A
100
AcDbEntity
  8
HEWI
100
AcDbLine
 10
-1867.813430396315
 20
-1684.435299499997
 30
0.0
 11
-1865.213430396314
 21
-1684.435299499997
 31
0.0
  0
LINE
  5
1812
330
A
100
AcDbEntity
  8
HEWI
100
AcDbLine
 10
-1859.513430396317
 20
-1726.435299499997
 30
0.0
 11
-1860.013430396314
 21
-1725.935299499997
 31
0.0
  0
LINE
  5
1813
330
A
100
AcDbEntity
  8
HEWI
100
AcDbLine
 10
-1860.013430396314
 20
-1684.935299499997
 30
0.0
 11
-1859.513430396317
 21
-1684.435299499997
 31
0.0
  0
LINE
  5
1814
330
A
100
AcDbEntity
  8
HEWI
100
AcDbLine
 10
-1859.213430396315
 20
-1682.935299499997
 30
0.0
 11
-1775.813430396315
 21
-1682.9352995
 31
0.0
  0
LINE
  5
1815
330
A
100
AcDbEntity
  8
HEWI
100
AcDbLine
 10
-1775.513430396317
 20
-1684.4352995
 30
0.0
 11
-1775.013430396315
 21
-1684.9352995
 31
0.0
  0
LINE
  5
1816
330
A
100
AcDbEntity
  8
HEWI
100
AcDbLine
 10
-1775.013430396316
 20
-1725.9352995
 30
0.0
 11
-1775.513430396317
 21
-1726.4352995
 31
0.0
  0
LINE
  5
1817
330
A
100
AcDbEntity
  8
HEWI
100
AcDbLine
 10
-1813.513430396314
 20
-1721.740863499999
 30
0.0
 11
-1813.513430396314
 21
-1721.3130235
 31
0.0
  0
LINE
  5
1818
330
A
100
AcDbEntity
  8
HEWI
100
AcDbLine
 10
-1821.513430396316
 20
-1721.740863499998
 30
0.0
 11
-1821.513430396316
 21
-1721.312905499999
 31
0.0
  0
LINE
  5
1819
330
A
100
AcDbEntity
  8
HEWI
100
AcDbLine
 10
-1813.513430396314
 20
-1721.740863499999
 30
0.0
 11
-1813.513430396314
 21
-1721.3130235
 31
0.0
  0
LINE
  5
181A
330
A
100
AcDbEntity
  8
HEWI
100
AcDbLine
 10
-1821.513430396316
 20
-1721.740863499998
 30
0.0
 11
-1821.513430396316
 21
-1721.312905499999
 31
0.0
  0
LINE
  5
181B
330
A
100
AcDbEntity
  8
HEWI
100
AcDbLine
 10
-1769.813430396315
 20
-1705.4352995
 30
0.0
 11
-1769.813430396315
 21
-1684.4352995
 31
0.0
  0
LINE
  5
181C
330
A
100
AcDbEntity
  8
HEWI
100
AcDbLine
 10
-1769.813430396316
 20
-1726.4352995
 30
0.0
 11
-1769.813430396315
 21
-1705.4352995
 31
0.0
  0
LINE
  5
181D
330
A
100
AcDbEntity
  8
HEWI
100
AcDbLine
 10
-1767.213430396316
 20
-1726.4352995
 30
0.0
 11
-1767.213430396314
 21
-1684.4352995
 31
0.0
  0
LINE
  5
181E
330
A
100
AcDbEntity
  8
HEWI
100
AcDbLine
 10
-1767.013430396314
 20
-1684.6352995
 30
0.0
 11
-1767.013430396314
 21
-1705.4352995
 31
0.0
  0
LINE
  5
181F
330
A
100
AcDbEntity
  8
HEWI
100
AcDbLine
 10
-1767.013430396314
 20
-1705.4352995
 30
0.0
 11
-1767.013430396314
 21
-1726.2352995
 31
0.0
  0
LINE
  5
1820
330
A
100
AcDbEntity
  8
HEWI
100
AcDbLine
 10
-1800.679208396315
 20
-1703.244409499999
 30
0.0
 11
-1800.807046396316
 21
-1703.244409499999
 31
0.0
  0
LINE
  5
1821
330
A
100
AcDbEntity
  8
HEWI
100
AcDbLine
 10
-1834.219812396314
 20
-1703.244409499998
 30
0.0
 11
-1834.333192396315
 21
-1703.244409499998
 31
0.0
  0
LINE
  5
1822
330
A
100
AcDbEntity
  8
HEWI
100
AcDbLine
 10
-1825.013430396316
 20
-1720.843495499999
 30
0.0
 11
-1825.013430396318
 21
-1793.206013994445
 31
0.0
  0
LINE
  5
1823
330
A
100
AcDbEntity
  8
HEWI
100
AcDbLine
 10
-1823.013430396318
 20
-1792.340660758251
 30
0.0
 11
-1823.013430396316
 21
-1721.573839499998
 31
0.0
  0
LINE
  5
1824
330
A
100
AcDbEntity
  8
HEWI
100
AcDbLine
 10
-1812.013430396316
 20
-1721.573839499999
 30
0.0
 11
-1812.013430396318
 21
-1792.342049085966
 31
0.0
  0
LINE
  5
1825
330
A
100
AcDbEntity
  8
HEWI
100
AcDbLine
 10
-1810.013430396316
 20
-1793.208019537183
 30
0.0
 11
-1810.013430396314
 21
-1720.8434955
 31
0.0
  0
LINE
  5
1826
330
A
100
AcDbEntity
  8
HEWI
100
AcDbLine
 10
-1822.948912396316
 20
-1721.384531499999
 30
0.0
 11
-1823.013430396316
 21
-1721.573839499998
 31
0.0
  0
LINE
  5
1827
330
A
100
AcDbEntity
  8
HEWI
100
AcDbLine
 10
-1812.077946396317
 20
-1721.384531499999
 30
0.0
 11
-1812.013430396316
 21
-1721.573839499999
 31
0.0
  0
LINE
  5
1828
330
A
100
AcDbEntity
  8
HEWI
100
AcDbLine
 10
-1775.213430396321
 20
-1855.9352995
 30
0.0
 11
-1815.224430409234
 21
-1855.935299499999
 31
0.0
  0
LINE
  5
1829
330
A
100
AcDbEntity
  8
HEWI
100
AcDbLine
 10
-1820.22443038101
 20
-1855.935299499999
 30
0.0
 11
-1859.81343039632
 21
-1855.935299499997
 31
0.0
  0
LINE
  5
182A
330
A
100
AcDbEntity
  8
HEWI
100
AcDbLine
 10
-1775.213430396314
 20
-1652.9352995
 30
0.0
 11
-1775.213430396315
 21
-1684.7365175
 31
0.0
  0
LINE
  5
182B
330
A
100
AcDbEntity
  8
HEWI
100
AcDbLine
 10
-1775.213430396316
 20
-1726.1358315
 30
0.0
 11
-1775.213430396321
 21
-1855.9352995
 31
0.0
  0
LINE
  5
182C
330
A
100
AcDbEntity
  8
HEWI
100
AcDbLine
 10
-1859.813430396314
 20
-1652.935299499997
 30
0.0
 11
-1775.213430396314
 21
-1652.9352995
 31
0.0
  0
LINE
  5
182D
330
A
100
AcDbEntity
  8
HEWI
100
AcDbLine
 10
-1859.813430396314
 20
-1652.935299499997
 30
0.0
 11
-1859.813430396315
 21
-1684.736517499997
 31
0.0
  0
LINE
  5
182E
330
A
100
AcDbEntity
  8
HEWI
100
AcDbLine
 10
-1859.813430396316
 20
-1726.135831499997
 30
0.0
 11
-1859.81343039632
 21
-1855.935299499997
 31
0.0
  0
LINE
  5
182F
330
A
100
AcDbEntity
  8
HEWI
100
AcDbLine
 10
-1775.213430396314
 20
-1649.4352995
 30
0.0
 11
-1775.213430396314
 21
-1652.9352995
 31
0.0
  0
LINE
  5
1830
330
A
100
AcDbEntity
  8
HEWI
100
AcDbLine
 10
-1775.213430396314
 20
-1649.4352995
 30
0.0
 11
-1859.813430396314
 21
-1649.435299499997
 31
0.0
  0
LINE
  5
1831
330
A
100
AcDbEntity
  8
HEWI
100
AcDbLine
 10
-1859.813430396314
 20
-1649.435299499997
 30
0.0
 11
-1859.813430396314
 21
-1652.935299499997
 31
0.0
  0
LINE
  5
1832
330
A
100
AcDbEntity
  8
HEWI
100
AcDbLine
 10
-1859.81343039632
 20
-1859.435299499997
 30
0.0
 11
-1820.22443038101
 21
-1859.435299499999
 31
0.0
  0
LINE
  5
1833
330
A
100
AcDbEntity
  8
HEWI
100
AcDbLine
 10
-1815.224430409234
 20
-1859.435299499999
 30
0.0
 11
-1775.213430396321
 21
-1859.4352995
 31
0.0
  0
LINE
  5
1834
330
A
100
AcDbEntity
  8
HEWI
100
AcDbLine
 10
-1775.213430396321
 20
-1859.4352995
 30
0.0
 11
-1775.213430396321
 21
-1855.9352995
 31
0.0
  0
LINE
  5
1835
330
A
100
AcDbEntity
  8
HEWI
100
AcDbLine
 10
-1859.81343039632
 20
-1859.435299499997
 30
0.0
 11
-1859.81343039632
 21
-1855.935299499997
 31
0.0
  0
LINE
  5
1836
330
A
100
AcDbEntity
  8
HEWI
100
AcDbLine
 10
-1775.213430396314
 20
-1649.4352995
 30
0.0
 11
-1775.013392396314
 21
-1649.4352995
 31
0.0
  0
LINE
  5
1837
330
A
100
AcDbEntity
  8
HEWI
100
AcDbLine
 10
-1775.213430396314
 20
-1650.9352995
 30
0.0
 11
-1775.013392396314
 21
-1650.9352995
 31
0.0
  0
LINE
  5
1838
330
A
100
AcDbEntity
  8
HEWI
100
AcDbLine
 10
-1859.813430396314
 20
-1649.435299499997
 30
0.0
 11
-1860.013466396314
 21
-1649.435299499997
 31
0.0
  0
LINE
  5
1839
330
A
100
AcDbEntity
  8
HEWI
100
AcDbLine
 10
-1859.813430396314
 20
-1650.935299499997
 30
0.0
 11
-1860.013466396314
 21
-1650.935299499997
 31
0.0
  0
LINE
  5
183A
330
A
100
AcDbEntity
  8
HEWI
100
AcDbLine
 10
-1867.813430396316
 20
-1705.435299499997
 30
0.0
 11
-1867.813430396315
 21
-1684.435299499997
 31
0.0
  0
LINE
  5
183B
330
A
100
AcDbEntity
  8
HEWI
100
AcDbLine
 10
-1867.813430396316
 20
-1726.435299499997
 30
0.0
 11
-1867.813430396316
 21
-1705.435299499997
 31
0.0
  0
LINE
  5
183C
330
A
100
AcDbEntity
  8
HEWI
100
AcDbLine
 10
-1868.013430396315
 20
-1684.635299499997
 30
0.0
 11
-1868.013430396317
 21
-1726.235299499997
 31
0.0
  0
LINE
  5
183D
330
A
100
AcDbEntity
  8
HEWI
100
AcDbLine
 10
-1865.213430396315
 20
-1726.435299499997
 30
0.0
 11
-1865.213430396314
 21
-1684.435299499997
 31
0.0
  0
LINE
  5
183E
330
A
100
AcDbEntity
  8
HEWI
100
AcDbLine
 10
-1775.813430396316
 20
-1727.9352995
 30
0.0
 11
-1775.813430396315
 21
-1682.9352995
 31
0.0
  0
LINE
  5
183F
330
A
100
AcDbEntity
  8
HEWI
100
AcDbLine
 10
-1859.213430396315
 20
-1682.935299499997
 30
0.0
 11
-1859.213430396316
 21
-1705.435299499997
 31
0.0
  0
LINE
  5
1840
330
A
100
AcDbEntity
  8
HEWI
100
AcDbLine
 10
-1859.213430396316
 20
-1705.435299499997
 30
0.0
 11
-1859.213430396316
 21
-1727.935299499997
 31
0.0
  0
LINE
  5
1841
330
A
100
AcDbEntity
  8
HEWI
100
AcDbLine
 10
-1859.513430396317
 20
-1683.235299499997
 30
0.0
 11
-1859.513430396317
 21
-1727.635299499997
 31
0.0
  0
LINE
  5
1842
330
A
100
AcDbEntity
  8
HEWI
100
AcDbLine
 10
-1775.513430396317
 20
-1705.4352995
 30
0.0
 11
-1775.513430396317
 21
-1683.2353095
 31
0.0
  0
LINE
  5
1843
330
A
100
AcDbEntity
  8
HEWI
100
AcDbLine
 10
-1775.513430396317
 20
-1727.6352995
 30
0.0
 11
-1775.513430396317
 21
-1705.4352995
 31
0.0
  0
LINE
  5
1844
330
A
100
AcDbEntity
  8
HEWI
100
AcDbLine
 10
-1865.013430396317
 20
-1727.835299499997
 30
0.0
 11
-1860.013430396314
 21
-1727.835299499997
 31
0.0
  0
LINE
  5
1845
330
A
100
AcDbEntity
  8
HEWI
100
AcDbLine
 10
-1860.013430396314
 20
-1683.035299499997
 30
0.0
 11
-1865.013430396315
 21
-1683.035299499997
 31
0.0
  0
LINE
  5
1846
330
A
100
AcDbEntity
  8
HEWI
100
AcDbLine
 10
-1865.013430396315
 20
-1683.035299499997
 30
0.0
 11
-1865.013430396317
 21
-1727.835299499997
 31
0.0
  0
LINE
  5
1847
330
A
100
AcDbEntity
  8
HEWI
100
AcDbLine
 10
-1860.013430396314
 20
-1727.835299499997
 30
0.0
 11
-1860.013430396314
 21
-1683.035299499997
 31
0.0
  0
LINE
  5
1848
330
A
100
AcDbEntity
  8
HEWI
100
AcDbLine
 10
-1775.013430396316
 20
-1727.8352995
 30
0.0
 11
-1770.013430396317
 21
-1727.8352995
 31
0.0
  0
LINE
  5
1849
330
A
100
AcDbEntity
  8
HEWI
100
AcDbLine
 10
-1770.013430396315
 20
-1683.0352995
 30
0.0
 11
-1775.013430396315
 21
-1683.0352995
 31
0.0
  0
LINE
  5
184A
330
A
100
AcDbEntity
  8
HEWI
100
AcDbLine
 10
-1770.013430396317
 20
-1727.8352995
 30
0.0
 11
-1770.013430396315
 21
-1683.0352995
 31
0.0
  0
LINE
  5
184B
330
A
100
AcDbEntity
  8
HEWI
100
AcDbLine
 10
-1775.013430396315
 20
-1683.0352995
 30
0.0
 11
-1775.013430396316
 21
-1727.8352995
 31
0.0
  0
LINE
  5
184C
330
A
100
AcDbEntity
  8
HEWI
100
AcDbLine
 10
-1775.013430396316
 20
-1731.3352995
 30
0.0
 11
-1770.013430396317
 21
-1731.3352995
 31
0.0
  0
LINE
  5
184D
330
A
100
AcDbEntity
  8
HEWI
100
AcDbLine
 10
-1770.013430396317
 20
-1731.3352995
 30
0.0
 11
-1770.013430396317
 21
-1727.8352995
 31
0.0
  0
LINE
  5
184E
330
A
100
AcDbEntity
  8
HEWI
100
AcDbLine
 10
-1775.013430396316
 20
-1727.8352995
 30
0.0
 11
-1775.013430396316
 21
-1731.3352995
 31
0.0
  0
LINE
  5
184F
330
A
100
AcDbEntity
  8
HEWI
100
AcDbLine
 10
-1865.013430396317
 20
-1731.335299499997
 30
0.0
 11
-1860.013430396314
 21
-1731.335299499997
 31
0.0
  0
LINE
  5
1850
330
A
100
AcDbEntity
  8
HEWI
100
AcDbLine
 10
-1865.013430396317
 20
-1727.835299499997
 30
0.0
 11
-1865.013430396317
 21
-1731.335299499997
 31
0.0
  0
LINE
  5
1851
330
A
100
AcDbEntity
  8
HEWI
100
AcDbLine
 10
-1860.013430396314
 20
-1731.335299499997
 30
0.0
 11
-1860.013430396314
 21
-1727.835299499997
 31
0.0
  0
LINE
  5
1852
330
A
100
AcDbEntity
  8
HEWI
100
AcDbLine
 10
-1770.013430396315
 20
-1679.5352995
 30
0.0
 11
-1775.013430396315
 21
-1679.5352995
 31
0.0
  0
LINE
  5
1853
330
A
100
AcDbEntity
  8
HEWI
100
AcDbLine
 10
-1770.013430396315
 20
-1683.0352995
 30
0.0
 11
-1770.013430396315
 21
-1679.5352995
 31
0.0
  0
LINE
  5
1854
330
A
100
AcDbEntity
  8
HEWI
100
AcDbLine
 10
-1775.013430396315
 20
-1679.5352995
 30
0.0
 11
-1775.013430396315
 21
-1683.0352995
 31
0.0
  0
LINE
  5
1855
330
A
100
AcDbEntity
  8
HEWI
100
AcDbLine
 10
-1860.013430396313
 20
-1679.535299499997
 30
0.0
 11
-1865.013430396315
 21
-1679.535299499997
 31
0.0
  0
LINE
  5
1856
330
A
100
AcDbEntity
  8
HEWI
100
AcDbLine
 10
-1865.013430396315
 20
-1679.535299499997
 30
0.0
 11
-1865.013430396315
 21
-1683.035299499997
 31
0.0
  0
LINE
  5
1857
330
A
100
AcDbEntity
  8
HEWI
100
AcDbLine
 10
-1860.013430396314
 20
-1683.035299499997
 30
0.0
 11
-1860.013430396313
 21
-1679.535299499997
 31
0.0
  0
LINE
  5
1858
330
A
100
AcDbEntity
  8
HEWI
100
AcDbLine
 10
-1770.01343039632
 20
-1855.9352995
 30
0.0
 11
-1775.01343039632
 21
-1855.9352995
 31
0.0
  0
LINE
  5
1859
330
A
100
AcDbEntity
  8
HEWI
100
AcDbLine
 10
-1770.013430396317
 20
-1731.3352995
 30
0.0
 11
-1770.01343039632
 21
-1855.9352995
 31
0.0
  0
LINE
  5
185A
330
A
100
AcDbEntity
  8
HEWI
100
AcDbLine
 10
-1775.013430396316
 20
-1731.3352995
 30
0.0
 11
-1775.01343039632
 21
-1855.9352995
 31
0.0
  0
LINE
  5
185B
330
A
100
AcDbEntity
  8
HEWI
100
AcDbLine
 10
-1860.013430396318
 20
-1855.935299499997
 30
0.0
 11
-1865.01343039632
 21
-1855.935299499997
 31
0.0
  0
LINE
  5
185C
330
A
100
AcDbEntity
  8
HEWI
100
AcDbLine
 10
-1865.01343039632
 20
-1859.435299499997
 30
0.0
 11
-1860.013430396318
 21
-1859.435299499997
 31
0.0
  0
LINE
  5
185D
330
A
100
AcDbEntity
  8
HEWI
100
AcDbLine
 10
-1865.01343039632
 20
-1855.935299499997
 30
0.0
 11
-1865.01343039632
 21
-1859.435299499997
 31
0.0
  0
LINE
  5
185E
330
A
100
AcDbEntity
  8
HEWI
100
AcDbLine
 10
-1860.013430396318
 20
-1859.435299499997
 30
0.0
 11
-1860.013430396318
 21
-1855.935299499997
 31
0.0
  0
LINE
  5
185F
330
A
100
AcDbEntity
  8
HEWI
100
AcDbLine
 10
-1775.01343039632
 20
-1859.4352995
 30
0.0
 11
-1770.01343039632
 21
-1859.4352995
 31
0.0
  0
LINE
  5
1860
330
A
100
AcDbEntity
  8
HEWI
100
AcDbLine
 10
-1770.01343039632
 20
-1859.4352995
 30
0.0
 11
-1770.01343039632
 21
-1855.9352995
 31
0.0
  0
LINE
  5
1861
330
A
100
AcDbEntity
  8
HEWI
100
AcDbLine
 10
-1775.01343039632
 20
-1855.9352995
 30
0.0
 11
-1775.01343039632
 21
-1859.4352995
 31
0.0
  0
LINE
  5
1862
330
A
100
AcDbEntity
  8
HEWI
100
AcDbLine
 10
-1865.01343039632
 20
-1855.935299499997
 30
0.0
 11
-1865.013430396317
 21
-1731.335299499997
 31
0.0
  0
LINE
  5
1863
330
A
100
AcDbEntity
  8
HEWI
100
AcDbLine
 10
-1860.013430396318
 20
-1855.935299499997
 30
0.0
 11
-1860.013430396314
 21
-1731.335299499997
 31
0.0
  0
LINE
  5
1864
330
A
100
AcDbEntity
  8
HEWI
100
AcDbLine
 10
-1865.013430396314
 20
-1652.935299499997
 30
0.0
 11
-1860.013430396313
 21
-1652.935299499997
 31
0.0
  0
LINE
  5
1865
330
A
100
AcDbEntity
  8
HEWI
100
AcDbLine
 10
-1865.013430396315
 20
-1679.535299499997
 30
0.0
 11
-1865.013430396314
 21
-1652.935299499997
 31
0.0
  0
LINE
  5
1866
330
A
100
AcDbEntity
  8
HEWI
100
AcDbLine
 10
-1860.013430396313
 20
-1679.535299499997
 30
0.0
 11
-1860.013430396313
 21
-1652.935299499997
 31
0.0
  0
LINE
  5
1867
330
A
100
AcDbEntity
  8
HEWI
100
AcDbLine
 10
-1775.013430396314
 20
-1652.9352995
 30
0.0
 11
-1770.013430396315
 21
-1652.9352995
 31
0.0
  0
LINE
  5
1868
330
A
100
AcDbEntity
  8
HEWI
100
AcDbLine
 10
-1770.013430396315
 20
-1652.9352995
 30
0.0
 11
-1770.013430396315
 21
-1679.5352995
 31
0.0
  0
LINE
  5
1869
330
A
100
AcDbEntity
  8
HEWI
100
AcDbLine
 10
-1775.013430396314
 20
-1652.9352995
 30
0.0
 11
-1775.013430396315
 21
-1679.5352995
 31
0.0
  0
LINE
  5
186A
330
A
100
AcDbEntity
  8
HEWI
100
AcDbLine
 10
-1860.013430396313
 20
-1649.435299499997
 30
0.0
 11
-1865.013430396314
 21
-1649.435299499997
 31
0.0
  0
LINE
  5
186B
330
A
100
AcDbEntity
  8
HEWI
100
AcDbLine
 10
-1865.013430396314
 20
-1649.435299499997
 30
0.0
 11
-1865.013430396314
 21
-1652.935299499997
 31
0.0
  0
LINE
  5
186C
330
A
100
AcDbEntity
  8
HEWI
100
AcDbLine
 10
-1860.013430396313
 20
-1652.935299499997
 30
0.0
 11
-1860.013430396313
 21
-1649.435299499997
 31
0.0
  0
LINE
  5
186D
330
A
100
AcDbEntity
  8
HEWI
100
AcDbLine
 10
-1770.013430396315
 20
-1649.4352995
 30
0.0
 11
-1775.013430396314
 21
-1649.4352995
 31
0.0
  0
LINE
  5
186E
330
A
100
AcDbEntity
  8
HEWI
100
AcDbLine
 10
-1770.013430396315
 20
-1652.9352995
 30
0.0
 11
-1770.013430396315
 21
-1649.4352995
 31
0.0
  0
LINE
  5
186F
330
A
100
AcDbEntity
  8
HEWI
100
AcDbLine
 10
-1775.013430396314
 20
-1649.4352995
 30
0.0
 11
-1775.013430396314
 21
-1652.9352995
 31
0.0
  0
LINE
  5
1870
330
A
100
AcDbEntity
  8
HEWI
100
AcDbLine
 10
-1860.013430396318
 20
-1859.435299499997
 30
0.0
 11
-1859.813422396318
 21
-1859.435299499997
 31
0.0
  0
LINE
  5
1871
330
A
100
AcDbEntity
  8
HEWI
100
AcDbLine
 10
-1775.21343639632
 20
-1859.4352995
 30
0.0
 11
-1775.01343039632
 21
-1859.4352995
 31
0.0
  0
LINE
  5
1872
330
A
100
AcDbEntity
  8
HEWI
100
AcDbLine
 10
-2992.436030632056
 20
-1688.685299500018
 30
0.0
 11
-2992.236030632054
 21
-1688.885299500018
 31
0.0
  0
LINE
  5
1873
330
A
100
AcDbEntity
  8
HEWI
100
AcDbLine
 10
-2992.236030632054
 20
-1721.985299500018
 30
0.0
 11
-2992.436030632054
 21
-1722.185299500019
 31
0.0
  0
LINE
  5
1874
330
A
100
AcDbEntity
  8
HEWI
100
AcDbLine
 10
-2992.436030632054
 20
-1722.185299500019
 30
0.0
 11
-2994.236030632055
 21
-1722.185299500019
 31
0.0
  0
LINE
  5
1875
330
A
100
AcDbEntity
  8
HEWI
100
AcDbLine
 10
-2994.236030632056
 20
-1688.685299500018
 30
0.0
 11
-2992.436030632056
 21
-1688.685299500018
 31
0.0
  0
LINE
  5
1876
330
A
100
AcDbEntity
  8
HEWI
100
AcDbLine
 10
-2763.736030632055
 20
-1721.055855500012
 30
0.0
 11
-2723.736030632054
 21
-1721.055855500011
 31
0.0
  0
LINE
  5
1877
330
A
100
AcDbEntity
  8
HEWI
100
AcDbLine
 10
-2723.736030632051
 20
-1796.613811500011
 30
0.0
 11
-2763.736030632053
 21
-1796.613811500012
 31
0.0
  0
LINE
  5
1878
330
A
100
AcDbEntity
  8
HEWI
100
AcDbLine
 10
-2801.736030632055
 20
-1720.643495500014
 30
0.0
 11
-2765.736030632054
 21
-1720.643495500013
 31
0.0
  0
LINE
  5
1879
330
A
100
AcDbEntity
  8
HEWI
100
AcDbLine
 10
-2765.736030632051
 20
-1797.592995500012
 30
0.0
 11
-2801.736030632053
 21
-1797.592995500014
 31
0.0
  0
LINE
  5
187A
330
A
100
AcDbEntity
  8
HEWI
100
AcDbLine
 10
-2113.036030632051
 20
-1794.2352995
 30
0.0
 11
-2105.336030632052
 21
-1794.2352995
 31
0.0
  0
LINE
  5
187B
330
A
100
AcDbEntity
  8
HEWI
100
AcDbLine
 10
-2105.336030632051
 20
-1821.2352995
 30
0.0
 11
-2113.03603063205
 21
-1821.2352995
 31
0.0
  0
LINE
  5
187C
330
A
100
AcDbEntity
  8
HEWI
100
AcDbLine
 10
-2105.336030632052
 20
-1794.2352995
 30
0.0
 11
-2104.636030632053
 21
-1794.9352995
 31
0.0
  0
LINE
  5
187D
330
A
100
AcDbEntity
  8
HEWI
100
AcDbLine
 10
-2104.636030632051
 20
-1820.5352995
 30
0.0
 11
-2105.336030632051
 21
-1821.2352995
 31
0.0
  0
LINE
  5
187E
330
A
100
AcDbEntity
  8
HEWI
100
AcDbLine
 10
-2113.03603063205
 20
-1821.2352995
 30
0.0
 11
-2113.73603063205
 21
-1820.5352995
 31
0.0
  0
LINE
  5
187F
330
A
100
AcDbEntity
  8
HEWI
100
AcDbLine
 10
-2113.736030632052
 20
-1794.9352995
 30
0.0
 11
-2113.036030632051
 21
-1794.2352995
 31
0.0
  0
LINE
  5
1880
330
A
100
AcDbEntity
  8
HEWI
100
AcDbLine
 10
-2104.13603063205
 20
-1819.7352995
 30
0.0
 11
-2104.636030632051
 21
-1819.7352995
 31
0.0
  0
LINE
  5
1881
330
A
100
AcDbEntity
  8
HEWI
100
AcDbLine
 10
-2104.636030632051
 20
-1795.7352995
 30
0.0
 11
-2104.136030632052
 21
-1795.7352995
 31
0.0
  0
LINE
  5
1888
330
A
100
AcDbEntity
  8
HEWI
100
AcDbLine
 10
-2803.737524632055
 20
-1722.285299500013
 30
0.0
 11
-2992.236030632054
 21
-1722.285299500019
 31
0.0
  0
LINE
  5
1889
330
A
100
AcDbEntity
  8
HEWI
100
AcDbLine
 10
-2284.743224632054
 20
-1722.285299500005
 30
0.0
 11
-2723.734828632054
 21
-1722.285299500017
 31
0.0
  0
LINE
  5
188A
330
A
100
AcDbEntity
  8
HEWI
100
AcDbLine
 10
-2151.146932632053
 20
-1722.285299500001
 30
0.0
 11
-2244.735340632054
 21
-1722.285299500003
 31
0.0
  0
LINE
  5
188B
330
A
100
AcDbEntity
  8
HEWI
100
AcDbLine
 10
-2992.236030632054
 20
-1688.585299500001
 30
0.0
 11
-2151.159030632054
 21
-1688.585299500001
 31
0.0
  0
LINE
  5
188C
330
A
100
AcDbEntity
  8
HEWI
100
AcDbLine
 10
-2246.736030632051
 20
-1797.592995500004
 30
0.0
 11
-2282.736030632051
 21
-1797.592995500005
 31
0.0
  0
LINE
  5
188D
330
A
100
AcDbEntity
  8
HEWI
100
AcDbLine
 10
-2282.736030632054
 20
-1720.643495500006
 30
0.0
 11
-2246.736030632054
 21
-1720.643495500005
 31
0.0
  0
LINE
  5
188E
330
A
100
AcDbEntity
  8
HEWI
100
AcDbLine
 10
-2114.736030632053
 20
-1795.3852995
 30
0.0
 11
-2113.936030632052
 21
-1795.3852995
 31
0.0
  0
LINE
  5
188F
330
A
100
AcDbEntity
  8
HEWI
100
AcDbLine
 10
-2113.93603063205
 20
-1820.1852995
 30
0.0
 11
-2114.736030632051
 21
-1820.1852995
 31
0.0
  0
LINE
  5
1890
330
A
100
AcDbEntity
  8
HEWI
100
AcDbLine
 10
-2113.936030632052
 20
-1795.3852995
 30
0.0
 11
-2113.73603063205
 21
-1795.585299500001
 31
0.0
  0
LINE
  5
1891
330
A
100
AcDbEntity
  8
HEWI
100
AcDbLine
 10
-2113.73603063205
 20
-1819.9852995
 30
0.0
 11
-2113.93603063205
 21
-1820.1852995
 31
0.0
  0
LINE
  5
1892
330
A
100
AcDbEntity
  8
HEWI
100
AcDbLine
 10
-2913.736030632051
 20
-1820.285299500017
 30
0.0
 11
-2933.736030632051
 21
-1820.285299500018
 31
0.0
  0
LINE
  5
1894
330
A
100
AcDbEntity
  8
HEWI
100
AcDbLine
 10
-2791.25407263205
 20
-1820.285299500014
 30
0.0
 11
-2913.736030632051
 21
-1820.285299500017
 31
0.0
  0
LINE
  5
1895
330
A
100
AcDbEntity
  8
HEWI
100
AcDbLine
 10
-2272.25407263205
 20
-1820.285299500005
 30
0.0
 11
-2776.186030542167
 21
-1820.28529950006
 31
0.0
  0
LINE
  5
1896
330
A
100
AcDbEntity
  8
HEWI
100
AcDbLine
 10
-2114.736030632051
 20
-1820.285299500001
 30
0.0
 11
-2257.186030632051
 21
-1820.285299500005
 31
0.0
  0
LINE
  5
1897
330
A
100
AcDbEntity
  8
HEWI
100
AcDbLine
 10
-2244.735386632052
 20
-1795.285299500004
 30
0.0
 11
-2114.736030632053
 21
-1795.2852995
 31
0.0
  0
LINE
  5
1898
330
A
100
AcDbEntity
  8
HEWI
100
AcDbLine
 10
-2723.936030677842
 20
-1795.285299500027
 30
0.0
 11
-2284.741610632053
 21
-1795.285299500005
 31
0.0
  0
LINE
  5
1899
330
A
100
AcDbEntity
  8
HEWI
100
AcDbLine
 10
-2933.736030632053
 20
-1795.285299500017
 30
0.0
 11
-2803.737294632052
 21
-1795.285299500013
 31
0.0
  0
LINE
  5
189A
330
A
100
AcDbEntity
  8
HEWI
100
AcDbLine
 10
-2992.236030632054
 20
-1705.435299500019
 30
0.0
 11
-2992.236030632054
 21
-1688.585299500018
 31
0.0
  0
LINE
  5
189B
330
A
100
AcDbEntity
  8
HEWI
100
AcDbLine
 10
-2992.236030632054
 20
-1722.285299500019
 30
0.0
 11
-2992.236030632054
 21
-1705.435299500019
 31
0.0
  0
LINE
  5
189C
330
A
100
AcDbEntity
  8
HEWI
100
AcDbLine
 10
-2282.736030632051
 20
-1797.592995500005
 30
0.0
 11
-2282.736030632051
 21
-1797.392995500006
 31
0.0
  0
LINE
  5
189D
330
A
100
AcDbEntity
  8
HEWI
100
AcDbLine
 10
-2282.736030632054
 20
-1720.643495500006
 30
0.0
 11
-2282.736030632054
 21
-1720.843495500005
 31
0.0
  0
LINE
  5
189E
330
A
100
AcDbEntity
  8
HEWI
100
AcDbLine
 10
-2284.736030632052
 20
-1721.573839500005
 30
0.0
 11
-2284.736030632051
 21
-1796.338029500005
 31
0.0
  0
LINE
  5
189F
330
A
100
AcDbEntity
  8
HEWI
100
AcDbLine
 10
-2282.736030632051
 20
-1797.392995500006
 30
0.0
 11
-2282.736030632054
 21
-1720.843495500005
 31
0.0
  0
LINE
  5
18A0
330
A
100
AcDbEntity
  8
HEWI
100
AcDbLine
 10
-2246.736030632051
 20
-1797.392995500005
 30
0.0
 11
-2282.736030632051
 21
-1797.392995500006
 31
0.0
  0
LINE
  5
18A1
330
A
100
AcDbEntity
  8
HEWI
100
AcDbLine
 10
-2282.736030632054
 20
-1720.843495500005
 30
0.0
 11
-2246.736030632054
 21
-1720.843495500004
 31
0.0
  0
LINE
  5
18A2
330
A
100
AcDbEntity
  8
HEWI
100
AcDbLine
 10
-2244.736030632052
 20
-1796.338029500004
 30
0.0
 11
-2244.736030632054
 21
-1721.573839500004
 31
0.0
  0
LINE
  5
18A3
330
A
100
AcDbEntity
  8
HEWI
100
AcDbLine
 10
-2246.736030632054
 20
-1720.843495500004
 30
0.0
 11
-2246.736030632051
 21
-1797.392995500005
 31
0.0
  0
LINE
  5
18A4
330
A
100
AcDbEntity
  8
HEWI
100
AcDbLine
 10
-2246.736030632051
 20
-1797.592995500004
 30
0.0
 11
-2246.736030632051
 21
-1797.392995500005
 31
0.0
  0
LINE
  5
18A5
330
A
100
AcDbEntity
  8
HEWI
100
AcDbLine
 10
-2246.736030632054
 20
-1720.643495500005
 30
0.0
 11
-2246.736030632054
 21
-1720.843495500004
 31
0.0
  0
LINE
  5
18A6
330
A
100
AcDbEntity
  8
HEWI
100
AcDbLine
 10
-2992.436030632054
 20
-1722.185299500019
 30
0.0
 11
-2992.436030632056
 21
-1688.685299500018
 31
0.0
  0
LINE
  5
18A7
330
A
100
AcDbEntity
  8
HEWI
100
AcDbLine
 10
-2763.736030632053
 20
-1796.113811500012
 30
0.0
 11
-2763.736030632053
 21
-1796.613811500012
 31
0.0
  0
LINE
  5
18A8
330
A
100
AcDbEntity
  8
HEWI
100
AcDbLine
 10
-2763.736030632055
 20
-1721.055855500012
 30
0.0
 11
-2763.736030632055
 21
-1721.555855500012
 31
0.0
  0
LINE
  5
18A9
330
A
100
AcDbEntity
  8
HEWI
100
AcDbLine
 10
-2763.736030632055
 20
-1721.555855500012
 30
0.0
 11
-2763.736030632053
 21
-1796.113811500012
 31
0.0
  0
LINE
  5
18AA
330
A
100
AcDbEntity
  8
HEWI
100
AcDbLine
 10
-2763.736030632055
 20
-1721.555855500012
 30
0.0
 11
-2723.736030632054
 21
-1721.555855500011
 31
0.0
  0
LINE
  5
18AB
330
A
100
AcDbEntity
  8
HEWI
100
AcDbLine
 10
-2723.736030632051
 20
-1796.113811500011
 30
0.0
 11
-2763.736030632053
 21
-1796.113811500012
 31
0.0
  0
LINE
  5
18AC
330
A
100
AcDbEntity
  8
HEWI
100
AcDbLine
 10
-2761.236030632054
 20
-1724.668263500012
 30
0.0
 11
-2761.236030632053
 21
-1793.168263500012
 31
0.0
  0
LINE
  5
18AD
330
A
100
AcDbEntity
  8
HEWI
100
AcDbLine
 10
-2760.236030632055
 20
-1723.668263500012
 30
0.0
 11
-2727.236030632055
 21
-1723.668263500012
 31
0.0
  0
LINE
  5
18AE
330
A
100
AcDbEntity
  8
HEWI
100
AcDbLine
 10
-2760.236030632052
 20
-1794.168263500012
 30
0.0
 11
-2727.236030632053
 21
-1794.168263500012
 31
0.0
  0
LINE
  5
18AF
330
A
100
AcDbEntity
  8
HEWI
100
AcDbLine
 10
-2726.236030632055
 20
-1724.668263500011
 30
0.0
 11
-2726.236030632051
 21
-1793.168263500011
 31
0.0
  0
LINE
  5
18B0
330
A
100
AcDbEntity
  8
HEWI
100
AcDbLine
 10
-2723.736030632051
 20
-1796.613811500011
 30
0.0
 11
-2723.736030632051
 21
-1796.113811500011
 31
0.0
  0
LINE
  5
18B1
330
A
100
AcDbEntity
  8
HEWI
100
AcDbLine
 10
-2723.736030632054
 20
-1721.555855500011
 30
0.0
 11
-2723.736030632054
 21
-1721.055855500011
 31
0.0
  0
LINE
  5
18B2
330
A
100
AcDbEntity
  8
HEWI
100
AcDbLine
 10
-2723.736030632054
 20
-1721.555855500011
 30
0.0
 11
-2723.736030632051
 21
-1796.113811500011
 31
0.0
  0
LINE
  5
18B3
330
A
100
AcDbEntity
  8
HEWI
100
AcDbLine
 10
-2801.736030632053
 20
-1797.592995500014
 30
0.0
 11
-2801.736030632053
 21
-1797.392995500014
 31
0.0
  0
LINE
  5
18B4
330
A
100
AcDbEntity
  8
HEWI
100
AcDbLine
 10
-2765.736030632051
 20
-1797.392995500013
 30
0.0
 11
-2801.736030632053
 21
-1797.392995500014
 31
0.0
  0
LINE
  5
18B5
330
A
100
AcDbEntity
  8
HEWI
100
AcDbLine
 10
-2801.736030632055
 20
-1720.843495500013
 30
0.0
 11
-2765.736030632054
 21
-1720.843495500012
 31
0.0
  0
LINE
  5
18B6
330
A
100
AcDbEntity
  8
HEWI
100
AcDbLine
 10
-2765.736030632051
 20
-1797.592995500012
 30
0.0
 11
-2765.736030632051
 21
-1797.392995500013
 31
0.0
  0
LINE
  5
18B7
330
A
100
AcDbEntity
  8
HEWI
100
AcDbLine
 10
-2765.736030632054
 20
-1720.843495500012
 30
0.0
 11
-2765.736030632051
 21
-1797.392995500013
 31
0.0
  0
LINE
  5
18B8
330
A
100
AcDbEntity
  8
HEWI
100
AcDbLine
 10
-2765.736030632054
 20
-1720.643495500013
 30
0.0
 11
-2765.736030632054
 21
-1720.843495500012
 31
0.0
  0
LINE
  5
18B9
330
A
100
AcDbEntity
  8
HEWI
100
AcDbLine
 10
-2113.736030632052
 20
-1794.9352995
 30
0.0
 11
-2113.73603063205
 21
-1820.5352995
 31
0.0
  0
LINE
  5
18BA
330
A
100
AcDbEntity
  8
HEWI
100
AcDbLine
 10
-2113.036030632051
 20
-1807.7352995
 30
0.0
 11
-2113.036030632051
 21
-1794.2352995
 31
0.0
  0
LINE
  5
18BB
330
A
100
AcDbEntity
  8
HEWI
100
AcDbLine
 10
-2113.03603063205
 20
-1821.2352995
 30
0.0
 11
-2113.036030632051
 21
-1807.7352995
 31
0.0
  0
LINE
  5
18BC
330
A
100
AcDbEntity
  8
HEWI
100
AcDbLine
 10
-2105.336030632051
 20
-1821.2352995
 30
0.0
 11
-2105.336030632052
 21
-1794.2352995
 31
0.0
  0
LINE
  5
18BD
330
A
100
AcDbEntity
  8
HEWI
100
AcDbLine
 10
-2104.636030632053
 20
-1794.9352995
 30
0.0
 11
-2104.636030632051
 21
-1807.7352995
 31
0.0
  0
LINE
  5
18BE
330
A
100
AcDbEntity
  8
HEWI
100
AcDbLine
 10
-2104.636030632051
 20
-1807.7352995
 30
0.0
 11
-2104.636030632051
 21
-1820.5352995
 31
0.0
  0
LINE
  5
18BF
330
A
100
AcDbEntity
  8
HEWI
100
AcDbLine
 10
-2104.13603063205
 20
-1819.7352995
 30
0.0
 11
-2104.136030632052
 21
-1795.7352995
 31
0.0
  0
LINE
  5
18C0
330
A
100
AcDbEntity
  8
HEWI
100
AcDbLine
 10
-2096.136054632055
 20
-1649.4352995
 30
0.0
 11
-2095.936030632055
 21
-1649.4352995
 31
0.0
  0
LINE
  5
18C1
330
A
100
AcDbEntity
  8
HEWI
100
AcDbLine
 10
-2095.936030632055
 20
-1649.4352995
 30
0.0
 11
-2095.936030632055
 21
-1650.9352995
 31
0.0
  0
LINE
  5
18C2
330
A
100
AcDbEntity
  8
HEWI
100
AcDbLine
 10
-2093.336030632054
 20
-1649.4352995
 30
0.0
 11
-2095.936030632055
 21
-1649.4352995
 31
0.0
  0
LINE
  5
18C3
330
A
100
AcDbEntity
  8
HEWI
100
AcDbLine
 10
-2093.336030632054
 20
-1650.9352995
 30
0.0
 11
-2095.936030632055
 21
-1650.9352995
 31
0.0
  0
LINE
  5
18C4
330
A
100
AcDbEntity
  8
HEWI
100
AcDbLine
 10
-2083.336030632056
 20
-1650.935299499999
 30
0.0
 11
-2083.336030632056
 21
-1649.435299499999
 31
0.0
  0
LINE
  5
18C5
330
A
100
AcDbEntity
  8
HEWI
100
AcDbLine
 10
-2093.336030632054
 20
-1649.4352995
 30
0.0
 11
-2093.336030632054
 21
-1650.9352995
 31
0.0
  0
LINE
  5
18C6
330
A
100
AcDbEntity
  8
HEWI
100
AcDbLine
 10
-2083.336030632056
 20
-1649.435299499999
 30
0.0
 11
-2093.336030632054
 21
-1649.4352995
 31
0.0
  0
LINE
  5
18C7
330
A
100
AcDbEntity
  8
HEWI
100
AcDbLine
 10
-2093.336030632054
 20
-1650.9352995
 30
0.0
 11
-2093.136012632055
 21
-1650.9352995
 31
0.0
  0
LINE
  5
18C8
330
A
100
AcDbEntity
  8
HEWI
100
AcDbLine
 10
-2933.936030632051
 20
-1820.285299500018
 30
0.0
 11
-2933.936030632052
 21
-1795.285299500017
 31
0.0
  0
LINE
  5
18C9
330
A
100
AcDbEntity
  8
HEWI
100
AcDbLine
 10
-2933.736030632053
 20
-1795.285299500017
 30
0.0
 11
-2933.736030632053
 21
-1807.785299500018
 31
0.0
  0
LINE
  5
18CA
330
A
100
AcDbEntity
  8
HEWI
100
AcDbLine
 10
-2933.736030632053
 20
-1807.785299500018
 30
0.0
 11
-2933.736030632051
 21
-1820.285299500018
 31
0.0
  0
LINE
  5
18CB
330
A
100
AcDbEntity
  8
HEWI
100
AcDbLine
 10
-2269.244316632051
 20
-1818.735299500004
 30
0.0
 11
-2260.258640632051
 21
-1818.735299500004
 31
0.0
  0
LINE
  5
18CC
330
A
100
AcDbEntity
  8
HEWI
100
AcDbLine
 10
-2270.436030632051
 20
-1819.535299500005
 30
0.0
 11
-2259.03603063205
 21
-1819.535299500005
 31
0.0
  0
LINE
  5
18CE
330
A
100
AcDbEntity
  8
HEWI
100
AcDbLine
 10
-2760.986030632052
 20
-1792.918263500013
 30
0.0
 11
-2760.986030632054
 21
-1758.918263500013
 31
0.0
  0
LINE
  5
18CF
330
A
100
AcDbEntity
  8
HEWI
100
AcDbLine
 10
-2727.48603063205
 20
-1793.918263500011
 30
0.0
 11
-2759.986030632053
 21
-1793.918263500012
 31
0.0
  0
LINE
  5
18D0
330
A
100
AcDbEntity
  8
HEWI
100
AcDbLine
 10
-2726.486030632053
 20
-1792.918263500012
 30
0.0
 11
-2726.486030632055
 21
-1758.918263500012
 31
0.0
  0
LINE
  5
18D1
330
A
100
AcDbEntity
  8
HEWI
100
AcDbLine
 10
-2760.986030632054
 20
-1758.918263500013
 30
0.0
 11
-2760.986030632054
 21
-1724.918263500012
 31
0.0
  0
LINE
  5
18D2
330
A
100
AcDbEntity
  8
HEWI
100
AcDbLine
 10
-2759.986030632055
 20
-1723.918263500012
 30
0.0
 11
-2727.486030632054
 21
-1723.918263500011
 31
0.0
  0
LINE
  5
18D3
330
A
100
AcDbEntity
  8
HEWI
100
AcDbLine
 10
-2726.486030632055
 20
-1758.918263500012
 30
0.0
 11
-2726.486030632055
 21
-1724.918263500011
 31
0.0
  0
LINE
  5
18D4
330
A
100
AcDbEntity
  8
HEWI
100
AcDbLine
 10
-2113.936030632052
 20
-1795.3852995
 30
0.0
 11
-2113.93603063205
 21
-1820.1852995
 31
0.0
  0
LINE
  5
18D5
330
A
100
AcDbEntity
  8
HEWI
100
AcDbLine
 10
-2107.136030632054
 20
-1683.0352995
 30
0.0
 11
-2136.236030632054
 21
-1683.035299500001
 31
0.0
  0
LINE
  5
18D6
330
A
100
AcDbEntity
  8
HEWI
100
AcDbLine
 10
-2107.136030632053
 20
-1727.8352995
 30
0.0
 11
-2136.236030632054
 21
-1727.835299500001
 31
0.0
  0
LINE
  5
18D7
330
A
100
AcDbEntity
  8
HEWI
100
AcDbLine
 10
-2093.136030632051
 20
-1859.4352995
 30
0.0
 11
-2100.136030632049
 21
-1859.4352995
 31
0.0
  0
LINE
  5
18D8
330
A
100
AcDbEntity
  8
HEWI
100
AcDbLine
 10
-2096.136030632055
 20
-1649.4352995
 30
0.0
 11
-2100.136030632055
 21
-1649.4352995
 31
0.0
  0
LINE
  5
18D9
330
A
100
AcDbEntity
  8
HEWI
100
AcDbLine
 10
-2096.136030632055
 20
-1650.9352995
 30
0.0
 11
-2096.136030632055
 21
-1649.4352995
 31
0.0
  0
LINE
  5
18DA
330
A
100
AcDbEntity
  8
HEWI
100
AcDbLine
 10
-2093.136030632055
 20
-1650.9352995
 30
0.0
 11
-2096.136030632055
 21
-1650.9352995
 31
0.0
  0
LINE
  5
18DB
330
A
100
AcDbEntity
  8
HEWI
100
AcDbLine
 10
-2083.136030632049
 20
-1859.435299499999
 30
0.0
 11
-2083.136030632055
 21
-1650.935299499999
 31
0.0
  0
LINE
  5
18DC
330
A
100
AcDbEntity
  8
HEWI
100
AcDbLine
 10
-2083.136030632055
 20
-1650.935299499999
 30
0.0
 11
-2093.136030632055
 21
-1650.9352995
 31
0.0
  0
LINE
  5
18DD
330
A
100
AcDbEntity
  8
HEWI
100
AcDbLine
 10
-2083.136030632049
 20
-1859.435299499999
 30
0.0
 11
-2093.136030632051
 21
-1859.4352995
 31
0.0
  0
LINE
  5
18DE
330
A
100
AcDbEntity
  8
HEWI
100
AcDbLine
 10
-2093.136030632055
 20
-1650.9352995
 30
0.0
 11
-2093.136030632051
 21
-1859.4352995
 31
0.0
  0
LINE
  5
18DF
330
A
100
AcDbEntity
  8
HEWI
100
AcDbLine
 10
-2776.186028632053
 20
-1820.285301500013
 30
0.0
 11
-2776.186028632053
 21
-1820.285301500013
 31
0.0
  0
LINE
  5
18E0
330
A
100
AcDbEntity
  8
HEWI
100
AcDbLine
 10
-2257.186028632051
 20
-1820.285301500004
 30
0.0
 11
-2257.186028632051
 21
-1820.285301500004
 31
0.0
  0
LINE
  5
18E1
330
A
100
AcDbEntity
  8
HEWI
100
AcDbLine
 10
-2114.736030632051
 20
-1820.285299500001
 30
0.0
 11
-2114.736030632053
 21
-1795.2852995
 31
0.0
  0
LINE
  5
18E2
330
A
100
AcDbEntity
  8
HEWI
100
AcDbLine
 10
-2788.21156863205
 20
-1818.735299500013
 30
0.0
 11
-2779.212138632051
 21
-1818.735299500013
 31
0.0
  0
LINE
  5
18E3
330
A
100
AcDbEntity
  8
HEWI
100
AcDbLine
 10
-2789.43603063205
 20
-1819.535299500014
 30
0.0
 11
-2778.03603063205
 21
-1819.535299500014
 31
0.0
  0
LINE
  5
18E4
330
A
100
AcDbEntity
  8
HEWI
100
AcDbLine
 10
-2995.236030632056
 20
-1689.685299500019
 30
0.0
 11
-2995.236030632054
 21
-1721.185299500019
 31
0.0
  0
LINE
  5
18E5
330
A
100
AcDbEntity
  8
HEWI
100
AcDbLine
 10
-2994.236030632055
 20
-1705.435299500019
 30
0.0
 11
-2994.236030632056
 21
-1688.685299500018
 31
0.0
  0
LINE
  5
18E6
330
A
100
AcDbEntity
  8
HEWI
100
AcDbLine
 10
-2994.236030632055
 20
-1722.185299500019
 30
0.0
 11
-2994.236030632055
 21
-1705.435299500019
 31
0.0
  0
LINE
  5
18E7
330
A
100
AcDbEntity
  8
HEWI
100
AcDbLine
 10
-2803.736030632054
 20
-1721.573839500013
 30
0.0
 11
-2803.736030632051
 21
-1796.338029500013
 31
0.0
  0
LINE
  5
18E8
330
A
100
AcDbEntity
  8
HEWI
100
AcDbLine
 10
-2801.736030632053
 20
-1797.392995500014
 30
0.0
 11
-2801.736030632055
 21
-1720.843495500013
 31
0.0
  0
LINE
  5
18E9
330
A
100
AcDbEntity
  8
HEWI
100
AcDbLine
 10
-2801.736030632055
 20
-1720.643495500014
 30
0.0
 11
-2801.736030632055
 21
-1720.843495500013
 31
0.0
  0
LINE
  5
18EA
330
A
100
AcDbEntity
  8
HEWI
100
AcDbLine
 10
-2936.736030632053
 20
-1795.485299500017
 30
0.0
 11
-2936.736030632053
 21
-1820.085299500018
 31
0.0
  0
LINE
  5
18EB
330
A
100
AcDbEntity
  8
HEWI
100
AcDbLine
 10
-2936.536030632051
 20
-1807.785299500018
 30
0.0
 11
-2936.536030632051
 21
-1795.285299500017
 31
0.0
  0
LINE
  5
18EC
330
A
100
AcDbEntity
  8
HEWI
100
AcDbLine
 10
-2936.53603063205
 20
-1820.285299500018
 30
0.0
 11
-2936.536030632051
 21
-1807.785299500018
 31
0.0
  0
LINE
  5
18ED
330
A
100
AcDbEntity
  8
HEWI
100
AcDbLine
 10
-2103.636030632052
 20
-1731.3352995
 30
0.0
 11
-2103.636030632049
 21
-1855.9352995
 31
0.0
  0
LINE
  5
18EE
330
A
100
AcDbEntity
  8
HEWI
100
AcDbLine
 10
-2103.636030632055
 20
-1652.9352995
 30
0.0
 11
-2103.636030632054
 21
-1679.5352995
 31
0.0
  0
LINE
  5
18EF
330
A
100
AcDbEntity
  8
HEWI
100
AcDbLine
 10
-1865.013430396316
 20
-2398.870916101017
 30
0.0
 11
-1865.213430396314
 21
-2399.070916101017
 31
0.0
  0
LINE
  5
18F0
330
A
100
AcDbEntity
  8
HEWI
100
AcDbLine
 10
-1867.813430396315
 20
-2357.070916101017
 30
0.0
 11
-1865.213430396313
 21
-2357.070916101017
 31
0.0
  0
LINE
  5
18F1
330
A
100
AcDbEntity
  8
HEWI
100
AcDbLine
 10
-1859.213430396315
 20
-2355.570916101017
 30
0.0
 11
-1775.813430396314
 21
-2355.570916101019
 31
0.0
  0
LINE
  5
18F2
330
A
100
AcDbEntity
  8
HEWI
100
AcDbLine
 10
-1865.213430396314
 20
-2399.070916101017
 30
0.0
 11
-1867.813430396315
 21
-2399.070916101017
 31
0.0
  0
LINE
  5
18F3
330
A
100
AcDbEntity
  8
HEWI
100
AcDbLine
 10
-1868.013430396315
 20
-2357.270916101017
 30
0.0
 11
-1867.813430396315
 21
-2357.070916101017
 31
0.0
  0
LINE
  5
18F4
330
A
100
AcDbEntity
  8
HEWI
100
AcDbLine
 10
-1859.513430396316
 20
-2399.070916101017
 30
0.0
 11
-1860.013430396314
 21
-2398.570916101018
 31
0.0
  0
LINE
  5
18F5
330
A
100
AcDbEntity
  8
HEWI
100
AcDbLine
 10
-1834.363430396339
 20
-3234.070916101018
 30
0.0
 11
-1834.363430396315
 21
-2400.589316101018
 31
0.0
  0
LINE
  5
18F6
330
A
100
AcDbEntity
  8
HEWI
100
AcDbLine
 10
-1860.013430396313
 20
-2357.570916101018
 30
0.0
 11
-1859.513430396315
 21
-2357.070916101017
 31
0.0
  0
LINE
  5
18F7
330
A
100
AcDbEntity
  8
HEWI
100
AcDbLine
 10
-1800.663430396314
 20
-2400.470126101019
 30
0.0
 11
-1800.663430396337
 21
-3234.070916101018
 31
0.0
  0
LINE
  5
18F8
330
A
100
AcDbEntity
  8
HEWI
100
AcDbLine
 10
-1867.813430396315
 20
-2399.070916101017
 30
0.0
 11
-1868.013430396316
 21
-2398.870916101017
 31
0.0
  0
LINE
  5
18F9
330
A
100
AcDbEntity
  8
HEWI
100
AcDbLine
 10
-1834.462614396316
 20
-2400.570916101018
 30
0.0
 11
-1859.213430396315
 21
-2400.570916101017
 31
0.0
  0
LINE
  5
18FA
330
A
100
AcDbEntity
  8
HEWI
100
AcDbLine
 10
-1770.013430396316
 20
-2400.47091610102
 30
0.0
 11
-1775.013430396315
 21
-2400.47091610102
 31
0.0
  0
LINE
  5
18FB
330
A
100
AcDbEntity
  8
HEWI
100
AcDbLine
 10
-1775.013430396315
 20
-2398.570916101019
 30
0.0
 11
-1775.513430396316
 21
-2399.070916101019
 31
0.0
  0
LINE
  5
18FC
330
A
100
AcDbEntity
  8
HEWI
100
AcDbLine
 10
-1860.013430396314
 20
-2400.470916101017
 30
0.0
 11
-1865.013430396316
 21
-2400.470916101017
 31
0.0
  0
LINE
  5
18FD
330
A
100
AcDbEntity
  8
HEWI
100
AcDbLine
 10
-1775.513430396315
 20
-2357.070916101019
 30
0.0
 11
-1775.013430396315
 21
-2357.57091610102
 31
0.0
  0
LINE
  5
18FE
330
A
100
AcDbEntity
  8
HEWI
100
AcDbLine
 10
-1775.813430396315
 20
-2400.570916101019
 30
0.0
 11
-1800.513430396316
 21
-2400.570916101019
 31
0.0
  0
LINE
  5
18FF
330
A
100
AcDbEntity
  8
HEWI
100
AcDbLine
 10
-1767.213430396315
 20
-2399.07091610102
 30
0.0
 11
-1769.813430396316
 21
-2399.07091610102
 31
0.0
  0
LINE
  5
1900
330
A
100
AcDbEntity
  8
HEWI
100
AcDbLine
 10
-1769.813430396315
 20
-2357.07091610102
 30
0.0
 11
-1767.213430396315
 21
-2357.07091610102
 31
0.0
  0
LINE
  5
1901
330
A
100
AcDbEntity
  8
HEWI
100
AcDbLine
 10
-1834.263430396333
 20
-3236.070916101017
 30
0.0
 11
-1834.263430396333
 21
-3234.270916101018
 31
0.0
  0
LINE
  5
1902
330
A
100
AcDbEntity
  8
HEWI
100
AcDbLine
 10
-1800.763430396333
 20
-3234.270916101019
 30
0.0
 11
-1800.763430396333
 21
-3236.070916101019
 31
0.0
  0
LINE
  5
1903
330
A
100
AcDbEntity
  8
HEWI
100
AcDbLine
 10
-1800.963430396333
 20
-3234.070916101018
 30
0.0
 11
-1800.763430396333
 21
-3234.270916101019
 31
0.0
  0
LINE
  5
1904
330
A
100
AcDbEntity
  8
HEWI
100
AcDbLine
 10
-1834.263430396333
 20
-3234.270916101018
 30
0.0
 11
-1834.063430396333
 21
-3234.070916101018
 31
0.0
  0
LINE
  5
1905
330
A
100
AcDbEntity
  8
HEWI
100
AcDbLine
 10
-1769.813430396316
 20
-2399.07091610102
 30
0.0
 11
-1770.013430396316
 21
-2398.870916101019
 31
0.0
  0
LINE
  5
1906
330
A
100
AcDbEntity
  8
HEWI
100
AcDbLine
 10
-1770.013430396315
 20
-2357.27091610102
 30
0.0
 11
-1769.813430396315
 21
-2357.07091610102
 31
0.0
  0
LINE
  5
1907
330
A
100
AcDbEntity
  8
HEWI
100
AcDbLine
 10
-1767.213430396315
 20
-2357.07091610102
 30
0.0
 11
-1767.013430396313
 21
-2357.27091610102
 31
0.0
  0
LINE
  5
1908
330
A
100
AcDbEntity
  8
HEWI
100
AcDbLine
 10
-1767.013430396314
 20
-2398.870916101019
 30
0.0
 11
-1767.213430396315
 21
-2399.07091610102
 31
0.0
  0
LINE
  5
1909
330
A
100
AcDbEntity
  8
HEWI
100
AcDbLine
 10
-1831.013430396314
 20
-2347.170916101018
 30
0.0
 11
-1830.313430396314
 21
-2346.470916101018
 31
0.0
  0
LINE
  5
190A
330
A
100
AcDbEntity
  8
HEWI
100
AcDbLine
 10
-1804.713430396313
 20
-2346.470916101019
 30
0.0
 11
-1804.013430396314
 21
-2347.170916101019
 31
0.0
  0
LINE
  5
190B
330
A
100
AcDbEntity
  8
HEWI
100
AcDbLine
 10
-1831.013430396315
 20
-2354.870916101018
 30
0.0
 11
-1831.013430396314
 21
-2347.170916101018
 31
0.0
  0
LINE
  5
190C
330
A
100
AcDbEntity
  8
HEWI
100
AcDbLine
 10
-1804.013430396314
 20
-2347.170916101019
 30
0.0
 11
-1804.013430396315
 21
-2354.870916101019
 31
0.0
  0
LINE
  5
190D
330
A
100
AcDbEntity
  8
HEWI
100
AcDbLine
 10
-1804.013430396315
 20
-2354.870916101019
 30
0.0
 11
-1804.713430396313
 21
-2355.570916101019
 31
0.0
  0
LINE
  5
190E
330
A
100
AcDbEntity
  8
HEWI
100
AcDbLine
 10
-1830.313430396314
 20
-2355.570916101018
 30
0.0
 11
-1831.013430396315
 21
-2354.870916101018
 31
0.0
  0
LINE
  5
190F
330
A
100
AcDbEntity
  8
HEWI
100
AcDbLine
 10
-1805.513430396315
 20
-2345.970916101018
 30
0.0
 11
-1805.513430396315
 21
-2346.470916101019
 31
0.0
  0
LINE
  5
1910
330
A
100
AcDbEntity
  8
HEWI
100
AcDbLine
 10
-1829.513430396311
 20
-2346.470916101018
 30
0.0
 11
-1829.513430396311
 21
-2345.970916101018
 31
0.0
  0
LINE
  5
1911
330
A
100
AcDbEntity
  8
HEWI
100
AcDbLine
 10
-1865.213430396313
 20
-2357.070916101017
 30
0.0
 11
-1865.013430396315
 21
-2357.270916101017
 31
0.0
  0
LINE
  5
1912
330
A
100
AcDbEntity
  8
HEWI
100
AcDbLine
 10
-1834.363430396333
 20
-3234.070916101018
 30
0.0
 11
-1800.663430396332
 21
-3234.070916101018
 31
0.0
  0
LINE
  5
1913
330
A
100
AcDbEntity
  8
HEWI
100
AcDbLine
 10
-1834.263430396333
 20
-3234.270916101018
 30
0.0
 11
-1800.763430396333
 21
-3234.270916101019
 31
0.0
  0
LINE
  5
1914
330
A
100
AcDbEntity
  8
HEWI
100
AcDbLine
 10
-1831.013430396315
 20
-2354.870916101018
 30
0.0
 11
-1804.013430396315
 21
-2354.870916101019
 31
0.0
  0
LINE
  5
1915
330
A
100
AcDbEntity
  8
HEWI
100
AcDbLine
 10
-1804.013430396314
 20
-2347.170916101019
 30
0.0
 11
-1831.013430396314
 21
-2347.170916101018
 31
0.0
  0
LINE
  5
1916
330
A
100
AcDbEntity
  8
HEWI
100
AcDbLine
 10
-1804.713430396313
 20
-2346.470916101019
 30
0.0
 11
-1830.313430396314
 21
-2346.470916101018
 31
0.0
  0
LINE
  5
1917
330
A
100
AcDbEntity
  8
HEWI
100
AcDbLine
 10
-1805.513430396315
 20
-2345.970916101018
 30
0.0
 11
-1829.513430396311
 21
-2345.970916101018
 31
0.0
  0
LINE
  5
1918
330
A
100
AcDbEntity
  8
HEWI
100
AcDbLine
 10
-1775.213430396314
 20
-2341.970916101019
 30
0.0
 11
-1775.213430396314
 21
-2337.770916101019
 31
0.0
  0
LINE
  5
1919
330
A
100
AcDbEntity
  8
HEWI
100
AcDbLine
 10
-1859.813430396314
 20
-2337.770916101017
 30
0.0
 11
-1859.813430396314
 21
-2341.970916101017
 31
0.0
  0
LINE
  5
191A
330
A
100
AcDbEntity
  8
HEWI
100
AcDbLine
 10
-1770.013430396314
 20
-2335.17091610102
 30
0.0
 11
-1770.013430396314
 21
-2337.77091610102
 31
0.0
  0
LINE
  5
191B
330
A
100
AcDbEntity
  8
HEWI
100
AcDbLine
 10
-1865.013430396314
 20
-2337.770916101017
 30
0.0
 11
-1865.013430396314
 21
-2335.170916101017
 31
0.0
  0
LINE
  5
191C
330
A
100
AcDbEntity
  8
HEWI
100
AcDbLine
 10
-1780.013430396314
 20
-2325.170916101019
 30
0.0
 11
-1855.013430396314
 21
-2325.170916101017
 31
0.0
  0
LINE
  5
191D
330
A
100
AcDbEntity
  8
HEWI
100
AcDbLine
 10
-1770.013430396314
 20
-2348.97091610102
 30
0.0
 11
-1770.013430396315
 21
-2378.070916101019
 31
0.0
  0
LINE
  5
191E
330
A
100
AcDbEntity
  8
HEWI
100
AcDbLine
 10
-1775.013430396315
 20
-2348.97091610102
 30
0.0
 11
-1775.013430396315
 21
-2378.070916101019
 31
0.0
  0
LINE
  5
191F
330
A
100
AcDbEntity
  8
HEWI
100
AcDbLine
 10
-1865.013430396315
 20
-2378.070916101017
 30
0.0
 11
-1865.013430396314
 21
-2348.970916101017
 31
0.0
  0
LINE
  5
1920
330
A
100
AcDbEntity
  8
HEWI
100
AcDbLine
 10
-1860.013430396314
 20
-2378.070916101017
 30
0.0
 11
-1860.013430396312
 21
-2348.970916101017
 31
0.0
  0
LINE
  5
1921
330
A
100
AcDbEntity
  8
HEWI
100
AcDbLine
 10
-1775.013430396315
 20
-2348.97091610102
 30
0.0
 11
-1770.013430396314
 21
-2348.97091610102
 31
0.0
  0
LINE
  5
1922
330
A
100
AcDbEntity
  8
HEWI
100
AcDbLine
 10
-1865.013430396314
 20
-2348.970916101017
 30
0.0
 11
-1860.013430396312
 21
-2348.970916101017
 31
0.0
  0
LINE
  5
1923
330
A
100
AcDbEntity
  8
HEWI
100
AcDbLine
 10
-1865.013430396314
 20
-2337.970916101017
 30
0.0
 11
-1865.013430396314
 21
-2341.970916101017
 31
0.0
  0
LINE
  5
1924
330
A
100
AcDbEntity
  8
HEWI
100
AcDbLine
 10
-1860.013430396312
 20
-2337.970916101017
 30
0.0
 11
-1860.013430396312
 21
-2341.970916101017
 31
0.0
  0
LINE
  5
1925
330
A
100
AcDbEntity
  8
HEWI
100
AcDbLine
 10
-1770.013430396314
 20
-2337.97091610102
 30
0.0
 11
-1770.013430396314
 21
-2341.97091610102
 31
0.0
  0
LINE
  5
1926
330
A
100
AcDbEntity
  8
HEWI
100
AcDbLine
 10
-1775.013430396315
 20
-2337.970916101019
 30
0.0
 11
-1775.013430396315
 21
-2341.97091610102
 31
0.0
  0
LINE
  5
1927
330
A
100
AcDbEntity
  8
HEWI
100
AcDbLine
 10
-1775.013430396315
 20
-2337.970916101019
 30
0.0
 11
-1770.013430396314
 21
-2337.97091610102
 31
0.0
  0
LINE
  5
1928
330
A
100
AcDbEntity
  8
HEWI
100
AcDbLine
 10
-1865.013430396314
 20
-2337.970916101017
 30
0.0
 11
-1860.013430396312
 21
-2337.970916101017
 31
0.0
  0
LINE
  5
1929
330
A
100
AcDbEntity
  8
HEWI
100
AcDbLine
 10
-1865.013430396314
 20
-2337.970916101017
 30
0.0
 11
-1865.013430396314
 21
-2337.770900101017
 31
0.0
  0
LINE
  5
192A
330
A
100
AcDbEntity
  8
HEWI
100
AcDbLine
 10
-1770.013430396314
 20
-2337.770900101019
 30
0.0
 11
-1770.013430396314
 21
-2337.97091610102
 31
0.0
  0
LINE
  5
192B
330
A
100
AcDbEntity
  8
HEWI
100
AcDbLine
 10
-1860.013430396312
 20
-2337.970916101017
 30
0.0
 11
-1860.013430396312
 21
-2337.770900101017
 31
0.0
  0
LINE
  5
192C
330
A
100
AcDbEntity
  8
HEWI
100
AcDbLine
 10
-1775.013430396315
 20
-2337.770900101019
 30
0.0
 11
-1775.013430396315
 21
-2337.970916101019
 31
0.0
  0
LINE
  5
192D
330
A
100
AcDbEntity
  8
HEWI
100
AcDbLine
 10
-1855.013430396314
 20
-2324.970916101017
 30
0.0
 11
-1780.013430396314
 21
-2324.970916101019
 31
0.0
  0
LINE
  5
192E
330
A
100
AcDbEntity
  8
HEWI
100
AcDbLine
 10
-1801.763430396333
 20
-3237.070916101018
 30
0.0
 11
-1833.263430396333
 21
-3237.070916101018
 31
0.0
  0
LINE
  5
192F
330
A
100
AcDbEntity
  8
HEWI
100
AcDbLine
 10
-1834.263430396333
 20
-3236.070916101017
 30
0.0
 11
-1800.763430396333
 21
-3236.070916101019
 31
0.0
  0
LINE
  5
1930
330
A
100
AcDbEntity
  8
HEWI
100
AcDbLine
 10
-1769.813430396315
 20
-2357.07091610102
 30
0.0
 11
-1769.813430396316
 21
-2399.07091610102
 31
0.0
  0
LINE
  5
1931
330
A
100
AcDbEntity
  8
HEWI
100
AcDbLine
 10
-1767.213430396315
 20
-2399.07091610102
 30
0.0
 11
-1767.213430396315
 21
-2357.07091610102
 31
0.0
  0
LINE
  5
1932
330
A
100
AcDbEntity
  8
HEWI
100
AcDbLine
 10
-1767.013430396314
 20
-2398.870916101019
 30
0.0
 11
-1767.013430396313
 21
-2357.27091610102
 31
0.0
  0
LINE
  5
1933
330
A
100
AcDbEntity
  8
HEWI
100
AcDbLine
 10
-1859.813430396314
 20
-2345.470916101017
 30
0.0
 11
-1775.213430396314
 21
-2345.470916101019
 31
0.0
  0
LINE
  5
1934
330
A
100
AcDbEntity
  8
HEWI
100
AcDbLine
 10
-1775.213430396314
 20
-2345.470916101019
 30
0.0
 11
-1775.213430396314
 21
-2341.970916101019
 31
0.0
  0
LINE
  5
1935
330
A
100
AcDbEntity
  8
HEWI
100
AcDbLine
 10
-1775.213430396314
 20
-2341.970916101019
 30
0.0
 11
-1859.813430396314
 21
-2341.970916101017
 31
0.0
  0
LINE
  5
1936
330
A
100
AcDbEntity
  8
HEWI
100
AcDbLine
 10
-1859.813430396314
 20
-2341.970916101017
 30
0.0
 11
-1859.813430396314
 21
-2345.470916101017
 31
0.0
  0
LINE
  5
1937
330
A
100
AcDbEntity
  8
HEWI
100
AcDbLine
 10
-1775.213430396314
 20
-2337.770916101019
 30
0.0
 11
-1770.013430396314
 21
-2337.77091610102
 31
0.0
  0
LINE
  5
1938
330
A
100
AcDbEntity
  8
HEWI
100
AcDbLine
 10
-1859.813430396314
 20
-2337.770916101017
 30
0.0
 11
-1865.013430396314
 21
-2337.770916101017
 31
0.0
  0
LINE
  5
1939
330
A
100
AcDbEntity
  8
HEWI
100
AcDbLine
 10
-1867.813430396315
 20
-2357.070916101017
 30
0.0
 11
-1867.813430396315
 21
-2399.070916101017
 31
0.0
  0
LINE
  5
193A
330
A
100
AcDbEntity
  8
HEWI
100
AcDbLine
 10
-1868.013430396315
 20
-2357.270916101017
 30
0.0
 11
-1868.013430396316
 21
-2398.870916101017
 31
0.0
  0
LINE
  5
193B
330
A
100
AcDbEntity
  8
HEWI
100
AcDbLine
 10
-1865.213430396314
 20
-2399.070916101017
 30
0.0
 11
-1865.213430396313
 21
-2357.070916101017
 31
0.0
  0
LINE
  5
193C
330
A
100
AcDbEntity
  8
HEWI
100
AcDbLine
 10
-1775.813430396314
 20
-2355.570916101019
 30
0.0
 11
-1775.813430396315
 21
-2400.570916101019
 31
0.0
  0
LINE
  5
193D
330
A
100
AcDbEntity
  8
HEWI
100
AcDbLine
 10
-1859.213430396315
 20
-2355.570916101017
 30
0.0
 11
-1859.213430396315
 21
-2400.570916101017
 31
0.0
  0
LINE
  5
193E
330
A
100
AcDbEntity
  8
HEWI
100
AcDbLine
 10
-1859.513430396316
 20
-2400.270916101017
 30
0.0
 11
-1859.513430396315
 21
-2355.870916101017
 31
0.0
  0
LINE
  5
193F
330
A
100
AcDbEntity
  8
HEWI
100
AcDbLine
 10
-1775.513430396316
 20
-2400.270916101019
 30
0.0
 11
-1775.513430396315
 21
-2355.870916101019
 31
0.0
  0
LINE
  5
1940
330
A
100
AcDbEntity
  8
HEWI
100
AcDbLine
 10
-1860.013430396314
 20
-2378.070916101017
 30
0.0
 11
-1865.013430396315
 21
-2378.070916101017
 31
0.0
  0
LINE
  5
1941
330
A
100
AcDbEntity
  8
HEWI
100
AcDbLine
 10
-1865.013430396316
 20
-2400.470916101017
 30
0.0
 11
-1865.013430396315
 21
-2378.070916101017
 31
0.0
  0
LINE
  5
1942
330
A
100
AcDbEntity
  8
HEWI
100
AcDbLine
 10
-1860.013430396314
 20
-2400.470916101017
 30
0.0
 11
-1860.013430396314
 21
-2378.070916101017
 31
0.0
  0
LINE
  5
1943
330
A
100
AcDbEntity
  8
HEWI
100
AcDbLine
 10
-1770.013430396315
 20
-2378.070916101019
 30
0.0
 11
-1775.013430396315
 21
-2378.070916101019
 31
0.0
  0
LINE
  5
1944
330
A
100
AcDbEntity
  8
HEWI
100
AcDbLine
 10
-1770.013430396315
 20
-2378.070916101019
 30
0.0
 11
-1770.013430396316
 21
-2400.47091610102
 31
0.0
  0
LINE
  5
1945
330
A
100
AcDbEntity
  8
HEWI
100
AcDbLine
 10
-1775.013430396315
 20
-2378.070916101019
 30
0.0
 11
-1775.013430396315
 21
-2400.47091610102
 31
0.0
  0
LINE
  5
1946
330
A
100
AcDbEntity
  8
HEWI
100
AcDbLine
 10
-1770.013430396314
 20
-2345.47091610102
 30
0.0
 11
-1770.013430396314
 21
-2348.97091610102
 31
0.0
  0
LINE
  5
1947
330
A
100
AcDbEntity
  8
HEWI
100
AcDbLine
 10
-1775.013430396315
 20
-2345.47091610102
 30
0.0
 11
-1775.013430396315
 21
-2348.97091610102
 31
0.0
  0
LINE
  5
1948
330
A
100
AcDbEntity
  8
HEWI
100
AcDbLine
 10
-1865.013430396314
 20
-2345.470916101017
 30
0.0
 11
-1865.013430396314
 21
-2348.970916101017
 31
0.0
  0
LINE
  5
1949
330
A
100
AcDbEntity
  8
HEWI
100
AcDbLine
 10
-1860.013430396312
 20
-2348.970916101017
 30
0.0
 11
-1860.013430396312
 21
-2345.470916101017
 31
0.0
  0
LINE
  5
194A
330
A
100
AcDbEntity
  8
HEWI
100
AcDbLine
 10
-1865.013430396314
 20
-2345.470916101017
 30
0.0
 11
-1860.013430396312
 21
-2345.470916101017
 31
0.0
  0
LINE
  5
194B
330
A
100
AcDbEntity
  8
HEWI
100
AcDbLine
 10
-1775.013430396315
 20
-2345.47091610102
 30
0.0
 11
-1770.013430396314
 21
-2345.47091610102
 31
0.0
  0
LINE
  5
194C
330
A
100
AcDbEntity
  8
HEWI
100
AcDbLine
 10
-1860.013430396312
 20
-2341.970916101017
 30
0.0
 11
-1865.013430396314
 21
-2341.970916101017
 31
0.0
  0
LINE
  5
194D
330
A
100
AcDbEntity
  8
HEWI
100
AcDbLine
 10
-1865.013430396314
 20
-2345.470916101017
 30
0.0
 11
-1865.013430396314
 21
-2341.970916101017
 31
0.0
  0
LINE
  5
194E
330
A
100
AcDbEntity
  8
HEWI
100
AcDbLine
 10
-1860.013430396312
 20
-2345.470916101017
 30
0.0
 11
-1860.013430396312
 21
-2341.970916101017
 31
0.0
  0
LINE
  5
194F
330
A
100
AcDbEntity
  8
HEWI
100
AcDbLine
 10
-1770.013430396314
 20
-2341.97091610102
 30
0.0
 11
-1775.013430396315
 21
-2341.97091610102
 31
0.0
  0
LINE
  5
1950
330
A
100
AcDbEntity
  8
HEWI
100
AcDbLine
 10
-1770.013430396314
 20
-2345.47091610102
 30
0.0
 11
-1770.013430396314
 21
-2341.97091610102
 31
0.0
  0
LINE
  5
1951
330
A
100
AcDbEntity
  8
HEWI
100
AcDbLine
 10
-1775.013430396315
 20
-2341.97091610102
 30
0.0
 11
-1775.013430396315
 21
-2345.47091610102
 31
0.0
  0
ARC
  5
1952
330
A
100
AcDbEntity
  8
HEWI
100
AcDbCircle
 10
-1859.213430396315
 20
-1683.235299499997
 30
0.0
 40
0.3
100
AcDbArc
 50
90.0
 51
180.0
  0
ARC
  5
1953
330
A
100
AcDbEntity
  8
HEWI
100
AcDbCircle
 10
-1859.213430396316
 20
-1727.635299499997
 30
0.0
 40
0.3
100
AcDbArc
 50
180.0
 51
270.0
  0
ARC
  5
1954
330
A
100
AcDbEntity
  8
HEWI
100
AcDbCircle
 10
-1775.813430396316
 20
-1727.6352995
 30
0.0
 40
0.3
100
AcDbArc
 50
270.0
 51
0.0
  0
ARC
  5
1955
330
A
100
AcDbEntity
  8
HEWI
100
AcDbCircle
 10
-1775.813430396315
 20
-1683.2352995
 30
0.0
 40
0.3
100
AcDbArc
 50
0.0
 51
90.0
  0
CIRCLE
  5
1956
330
A
100
AcDbEntity
  8
HEWI
100
AcDbCircle
 10
1817.513430396316
 20
-1705.435299499998
 30
0.0
 40
16.85
210
0.0
220
0.0
230
-1.0
  0
CIRCLE
  5
1957
330
A
100
AcDbEntity
  8
HEWI
100
AcDbCircle
 10
-1817.513430396316
 20
-1705.435299499998
 30
0.0
 40
15.75
  0
CIRCLE
  5
1958
330
A
100
AcDbEntity
  8
HEWI
100
AcDbCircle
 10
1817.513430396316
 20
-1705.435299499998
 30
0.0
 40
16.75
210
0.0
220
0.0
230
-1.0
  0
ARC
  5
1959
330
A
100
AcDbEntity
  8
HEWI
100
AcDbCircle
 10
1817.513430396316
 20
-1705.435299499998
 30
0.0
 40
17.04999999999999
210
0.0
220
0.0
230
-1.0
100
AcDbArc
 50
251.1809369999966
 51
288.8190630000034
  0
ARC
  5
195A
330
A
100
AcDbEntity
  8
HEWI
100
AcDbCircle
 10
1824.813430396316
 20
-1720.843495499999
 30
0.0
 40
0.2
210
0.0
220
0.0
230
-1.0
100
AcDbArc
 50
0.0
 51
115.3503699999954
  0
ARC
  5
195B
330
A
100
AcDbEntity
  8
HEWI
100
AcDbCircle
 10
1810.213430396315
 20
-1720.8434955
 30
0.0
 40
0.2
210
0.0
220
0.0
230
-1.0
100
AcDbArc
 50
64.64963000000477
 51
180.0
  0
ARC
  5
195C
330
A
100
AcDbEntity
  8
HEWI
100
AcDbCircle
 10
-2994.236030632056
 20
-1689.685299500018
 30
0.0
 40
1.0
100
AcDbArc
 50
90.0
 51
180.0
  0
ARC
  5
195D
330
A
100
AcDbEntity
  8
HEWI
100
AcDbCircle
 10
-2994.236030632055
 20
-1721.185299500018
 30
0.0
 40
1.0
100
AcDbArc
 50
180.0
 51
270.0
  0
ARC
  5
195E
330
A
100
AcDbEntity
  8
HEWI
100
AcDbCircle
 10
-2104.13603063205
 20
-1819.2352995
 30
0.0
 40
0.5
100
AcDbArc
 50
270.0
 51
0.000000000000007
  0
ARC
  5
195F
330
A
100
AcDbEntity
  8
HEWI
100
AcDbCircle
 10
-2104.136030632052
 20
-1796.2352995
 30
0.0
 40
0.5
100
AcDbArc
 50
0.000000000000007
 51
90.0
  0
ARC
  5
1960
330
A
100
AcDbEntity
  8
HEWI
100
AcDbCircle
 10
-2259.03603063205
 20
-1818.735299500004
 30
0.0
 40
0.8
100
AcDbArc
 50
270.0
 51
294.98339499998
  0
ARC
  5
1961
330
A
100
AcDbEntity
  8
HEWI
100
AcDbCircle
 10
-2270.436030632051
 20
-1818.735299500004
 30
0.0
 40
0.8
100
AcDbArc
 50
244.3569869999984
 51
270.0
  0
ARC
  5
1962
330
A
100
AcDbEntity
  8
HEWI
100
AcDbCircle
 10
-2778.03603063205
 20
-1818.735299500013
 30
0.0
 40
0.8
100
AcDbArc
 50
270.0
 51
294.98339499998
  0
ARC
  5
1963
330
A
100
AcDbEntity
  8
HEWI
100
AcDbCircle
 10
-2789.43603063205
 20
-1818.735299500013
 30
0.0
 40
0.8
100
AcDbArc
 50
244.3569869999984
 51
270.0
  0
ARC
  5
1964
330
A
100
AcDbEntity
  8
HEWI
100
AcDbCircle
 10
2760.236030632055
 20
-1724.668263500012
 30
0.0
 40
1.0
210
0.0
220
0.0
230
-1.0
100
AcDbArc
 50
0.000000000000007
 51
90.0
  0
ARC
  5
1965
330
A
100
AcDbEntity
  8
HEWI
100
AcDbCircle
 10
2760.236030632052
 20
-1793.168263500012
 30
0.0
 40
1.0
210
0.0
220
0.0
230
-1.0
100
AcDbArc
 50
270.0
 51
0.000000000000007
  0
ARC
  5
1966
330
A
100
AcDbEntity
  8
HEWI
100
AcDbCircle
 10
2727.236030632055
 20
-1724.668263500011
 30
0.0
 40
1.0
210
0.0
220
0.0
230
-1.0
100
AcDbArc
 50
90.0
 51
180.0
  0
ARC
  5
1967
330
A
100
AcDbEntity
  8
HEWI
100
AcDbCircle
 10
2727.236030632053
 20
-1793.168263500011
 30
0.0
 40
1.0
210
0.0
220
0.0
230
-1.0
100
AcDbArc
 50
180.0
 51
270.0
  0
CIRCLE
  5
1968
330
A
100
AcDbEntity
  8
HEWI
100
AcDbCircle
 10
-2136.236030632054
 20
-1711.435299500001
 30
0.0
 40
1.149999999999999
  0
CIRCLE
  5
1969
330
A
100
AcDbEntity
  8
HEWI
100
AcDbCircle
 10
2136.236030632054
 20
-1711.435299500001
 30
0.0
 40
1.45
210
0.0
220
0.0
230
-1.0
  0
CIRCLE
  5
196A
330
A
100
AcDbEntity
  8
HEWI
100
AcDbCircle
 10
-2136.236030632054
 20
-1699.435299500001
 30
0.0
 40
1.149999999999999
  0
CIRCLE
  5
196B
330
A
100
AcDbEntity
  8
HEWI
100
AcDbCircle
 10
2136.236030632054
 20
-1699.435299500001
 30
0.0
 40
1.45
210
0.0
220
0.0
230
-1.0
  0
ARC
  5
196C
330
A
100
AcDbEntity
  8
HEWI
100
AcDbCircle
 10
2136.236030632054
 20
-1705.435299500001
 30
0.0
 40
4.891099999999998
210
0.0
220
0.0
230
-1.0
100
AcDbArc
 50
86.77686000000727
 51
93.21749600002
  0
ARC
  5
196D
330
A
100
AcDbEntity
  8
HEWI
100
AcDbCircle
 10
2136.236030632054
 20
-1705.435299500001
 30
0.0
 40
4.891099999999998
210
0.0
220
0.0
230
-1.0
100
AcDbArc
 50
266.7824849999858
 51
273.223120999998
  0
ARC
  5
196E
330
A
100
AcDbEntity
  8
HEWI
100
AcDbCircle
 10
-2759.986030632053
 20
-1792.918263500013
 30
0.0
 40
1.0
100
AcDbArc
 50
180.0
 51
270.0
  0
ARC
  5
196F
330
A
100
AcDbEntity
  8
HEWI
100
AcDbCircle
 10
-2727.48603063205
 20
-1792.918263500012
 30
0.0
 40
1.0
100
AcDbArc
 50
270.0
 51
0.000000000000007
  0
ARC
  5
1970
330
A
100
AcDbEntity
  8
HEWI
100
AcDbCircle
 10
-2759.986030632055
 20
-1724.918263500012
 30
0.0
 40
1.0
100
AcDbArc
 50
90.0
 51
180.0
  0
ARC
  5
1971
330
A
100
AcDbEntity
  8
HEWI
100
AcDbCircle
 10
-2727.486030632054
 20
-1724.918263500011
 30
0.0
 40
1.0
100
AcDbArc
 50
0.000000000000007
 51
90.0
  0
ARC
  5
1972
330
A
100
AcDbEntity
  8
HEWI
100
AcDbCircle
 10
-2136.236030632054
 20
-1705.435299500001
 30
0.0
 40
5.5
100
AcDbArc
 50
78.55311799998574
 51
101.4412400000287
  0
ARC
  5
1973
330
A
100
AcDbEntity
  8
HEWI
100
AcDbCircle
 10
-2136.236030632054
 20
-1705.435299500001
 30
0.0
 40
5.5
100
AcDbArc
 50
258.5587479999805
 51
281.4468699999975
  0
ARC
  5
1974
330
A
100
AcDbEntity
  8
HEWI
100
AcDbCircle
 10
-2136.236030632054
 20
-1705.435299500001
 30
0.0
 40
5.099999999999996
100
AcDbArc
 50
82.57500800003937
 51
97.41937900001444
  0
ARC
  5
1975
330
A
100
AcDbEntity
  8
HEWI
100
AcDbCircle
 10
-2136.236030632054
 20
-1705.435299500001
 30
0.0
 40
5.099999999999996
100
AcDbArc
 50
262.5806319999997
 51
277.4250019999676
  0
CIRCLE
  5
1976
330
A
100
AcDbEntity
  8
HEWI
100
AcDbCircle
 10
2136.236030632054
 20
-1705.435299500001
 30
0.0
 40
21.0
210
0.0
220
0.0
230
-1.0
  0
CIRCLE
  5
1977
330
A
100
AcDbEntity
  8
HEWI
100
AcDbCircle
 10
-2136.236030632054
 20
-1705.435299500001
 30
0.0
 40
20.8
  0
ARC
  5
1978
330
A
100
AcDbEntity
  8
HEWI
100
AcDbCircle
 10
2136.236030632054
 20
-1705.435299500001
 30
0.0
 40
22.5
210
0.0
220
0.0
230
-1.0
100
AcDbArc
 50
270.0
 51
95.40000099999868
  0
ARC
  5
1979
330
A
100
AcDbEntity
  8
HEWI
100
AcDbCircle
 10
2136.236030632054
 20
-1705.435299500001
 30
0.0
 40
22.5
210
0.0
220
0.0
230
-1.0
100
AcDbArc
 50
264.5999979999977
 51
270.0
  0
ARC
  5
197A
330
A
100
AcDbEntity
  8
HEWI
100
AcDbCircle
 10
-2136.236030632054
 20
-1705.435299500001
 30
0.0
 40
22.4
100
AcDbArc
 50
90.0
 51
270.0
  0
ARC
  5
197B
330
A
100
AcDbEntity
  8
HEWI
100
AcDbCircle
 10
2107.136030632052
 20
-1731.3352995
 30
0.0000000000000837
 40
3.5
210
-0.0000000000000001
220
0.0
230
-1.0
100
AcDbArc
 50
90.0
 51
180.0
  0
ARC
  5
197C
330
A
100
AcDbEntity
  8
HEWI
100
AcDbCircle
 10
2107.136030632054
 20
-1679.5352995
 30
0.0000000000000837
 40
3.5
210
-0.0000000000000001
220
0.0
230
-1.0
100
AcDbArc
 50
180.0
 51
270.0
  0
ARC
  5
197D
330
A
100
AcDbEntity
  8
HEWI
100
AcDbCircle
 10
-2100.136030632049
 20
-1855.9352995
 30
0.0
 40
3.5
100
AcDbArc
 50
180.0
 51
270.0
  0
ARC
  5
197E
330
A
100
AcDbEntity
  8
HEWI
100
AcDbCircle
 10
-2100.136030632055
 20
-1652.9352995
 30
0.0
 40
3.5
100
AcDbArc
 50
90.0
 51
180.0
  0
ARC
  5
197F
330
A
100
AcDbEntity
  8
HEWI
100
AcDbCircle
 10
-1833.263430396333
 20
-3236.070916101018
 30
0.0
 40
1.0
100
AcDbArc
 50
180.0
 51
270.0
  0
ARC
  5
1980
330
A
100
AcDbEntity
  8
HEWI
100
AcDbCircle
 10
-1801.763430396333
 20
-3236.070916101019
 30
0.0
 40
1.0
100
AcDbArc
 50
270.0
 51
0.0
  0
ARC
  5
1981
330
A
100
AcDbEntity
  8
HEWI
100
AcDbCircle
 10
-1806.013430396314
 20
-2345.970916101018
 30
0.0
 40
0.5
100
AcDbArc
 50
0.0
 51
90.0
  0
ARC
  5
1982
330
A
100
AcDbEntity
  8
HEWI
100
AcDbCircle
 10
-1829.013430396314
 20
-2345.970916101018
 30
0.0
 40
0.5
100
AcDbArc
 50
90.0
 51
180.0
  0
ARC
  5
1983
330
A
100
AcDbEntity
  8
HEWI
100
AcDbCircle
 10
-1859.213430396315
 20
-2355.870916101017
 30
0.0
 40
0.3
100
AcDbArc
 50
90.0
 51
180.0
  0
ARC
  5
1984
330
A
100
AcDbEntity
  8
HEWI
100
AcDbCircle
 10
-1859.213430396315
 20
-2400.270916101017
 30
0.0
 40
0.3
100
AcDbArc
 50
180.0
 51
270.0
  0
ARC
  5
1985
330
A
100
AcDbEntity
  8
HEWI
100
AcDbCircle
 10
-1775.813430396315
 20
-2400.270916101019
 30
0.0
 40
0.3
100
AcDbArc
 50
270.0
 51
0.0
  0
ARC
  5
1986
330
A
100
AcDbEntity
  8
HEWI
100
AcDbCircle
 10
-1775.813430396314
 20
-2355.870916101019
 30
0.0
 40
0.3
100
AcDbArc
 50
0.0
 51
90.0
  0
ARC
  5
1987
330
A
100
AcDbEntity
  8
HEWI
100
AcDbCircle
 10
-1780.013430396314
 20
-2335.170916101019
 30
0.0
 40
10.0
100
AcDbArc
 50
0.0
 51
90.0
  0
ARC
  5
1988
330
A
100
AcDbEntity
  8
HEWI
100
AcDbCircle
 10
-1855.013430396314
 20
-2335.170916101017
 30
0.0
 40
10.0
100
AcDbArc
 50
90.0
 51
180.0
  0
ARC
  5
1989
330
A
100
AcDbEntity
  8
HEWI
100
AcDbCircle
 10
-1780.013430396314
 20
-2334.970916101019
 30
0.0
 40
10.0
100
AcDbArc
 50
0.0
 51
90.0
  0
ARC
  5
198A
330
A
100
AcDbEntity
  8
HEWI
100
AcDbCircle
 10
-1855.013430396314
 20
-2334.970916101017
 30
0.0
 40
10.0
100
AcDbArc
 50
90.0
 51
180.0
  0
ELLIPSE
  5
198B
330
A
100
AcDbEntity
  8
HEWI
100
AcDbEllipse
 10
-2284.536030632051
 20
-1796.338029500005
 30
0.0
 11
0.2
 21
0.0000000000000054
 31
0.0
210
0.0
220
0.0
230
-1.0
 40
0.90136
 41
2.514698896745267
 42
3.141592653589792
  0
ELLIPSE
  5
198C
330
A
100
AcDbEntity
  8
HEWI
100
AcDbEllipse
 10
-2244.93603063205
 20
-1796.338029500004
 30
0.0
 11
0.2
 21
0.0000000000000054
 31
0.0
210
0.0
220
0.0
230
-1.0
 40
0.90136
 41
0.0
 42
0.6599300405254424
  0
ELLIPSE
  5
198D
330
A
100
AcDbEntity
  8
HEWI
100
AcDbEllipse
 10
-2803.536030632051
 20
-1796.338029500013
 30
0.0
 11
0.2
 21
0.0000000000000054
 31
0.0
210
0.0
220
0.0
230
-1.0
 40
0.90136
 41
2.514698896745267
 42
3.141592653589792
  0
ELLIPSE
  5
198E
330
A
100
AcDbEntity
  8
HEWI
100
AcDbEllipse
 10
-2763.936030632053
 20
-1796.338029500012
 30
0.0
 11
0.2
 21
0.0000000000000054
 31
0.0
210
0.0
220
0.0
230
-1.0
 40
0.90136
 41
0.0
 42
0.6599300405254424
  0
SPLINE
  5
198F
330
A
100
AcDbEntity
  8
HEWI
100
AcDbSpline
210
0.0
220
0.0
230
1.0
 70
     8
 71
     3
 72
    16
 73
    12
 74
     0
 42
0.000000001
 43
0.0000000001
 40
0.0
 40
0.0
 40
0.0
 40
0.0
 40
0.1945552639644181
 40
0.1945552639644181
 40
0.3878946385599309
 40
0.3878946385599309
 40
0.5892372746630532
 40
0.5892372746630532
 40
0.8080348914056749
 40
0.8080348914056749
 40
1.0
 40
1.0
 40
1.0
 40
1.0
 10
-1825.013438603339
 20
-1720.843491486322
 30
0.0
 10
-1825.013420222705
 20
-1720.843499375065
 30
0.0
 10
-1824.979606805692
 20
-1720.858011677755
 30
0.0
 10
-1824.851839078077
 20
-1720.911689716417
 30
0.0
 10
-1824.756783500479
 20
-1720.951259207994
 30
0.0
 10
-1824.515941172863
 20
-1721.048233355578
 30
0.0
 10
-1824.365304249349
 20
-1721.107413026978
 30
0.0
 10
-1824.017030321367
 20
-1721.238218700276
 30
0.0
 10
-1823.811782975353
 20
-1721.312164299158
 30
0.0
 10
-1823.409886779915
 20
-1721.448825518899
 30
0.0
 10
-1823.211183044458
 20
-1721.513185554328
 30
0.0
 10
-1823.013429413021
 20
-1721.573840385898
 30
0.0
  0
SPLINE
  5
1990
330
A
100
AcDbEntity
  8
HEWI
100
AcDbSpline
210
0.0
220
0.0
230
1.0
 70
     8
 71
     3
 72
    16
 73
    12
 74
     0
 42
0.000000001
 43
0.0000000001
 40
0.0
 40
0.0
 40
0.0
 40
0.0
 40
0.2320133565498035
 40
0.2320133565498035
 40
0.464168575931434
 40
0.464168575931434
 40
0.6954789313312828
 40
0.6954789313312828
 40
0.9117015930972556
 40
0.9117015930972556
 40
1.0
 40
1.0
 40
1.0
 40
1.0
 10
-1812.013429413021
 20
-1721.573840385898
 30
0.0
 10
-1811.775355737766
 20
-1721.500818623571
 30
0.0
 10
-1811.535394098875
 20
-1721.422189203931
 30
0.0
 10
-1811.09156795681
 20
-1721.268288577524
 30
0.0
 10
-1810.881224695214
 20
-1721.190823701433
 30
0.0
 10
-1810.520979795869
 20
-1721.052724091473
 30
0.0
 10
-1810.365388604945
 20
-1720.990036426674
 30
0.0
 10
-1810.142968390545
 20
-1720.898558040096
 30
0.0
 10
-1810.067955586613
 20
-1720.866685642421
 30
0.0
 10
-1810.020601271059
 20
-1720.846558013561
 30
0.0
 10
-1810.013512295246
 20
-1720.843530824588
 30
0.0
 10
-1810.013438642063
 20
-1720.843499372003
 30
0.0
  0
SPLINE
  5
1991
330
A
100
AcDbEntity
  8
HEWI
100
AcDbSpline
210
0.0
220
0.0
230
1.0
 70
     8
 71
     3
 72
    12
 73
     8
 74
     0
 42
0.000000001
 43
0.0000000001
 40
0.0
 40
0.0
 40
0.0
 40
0.0
 40
0.3456277780081103
 40
0.3456277780081103
 40
0.6912555560162207
 40
0.6912555560162207
 40
1.0
 40
1.0
 40
1.0
 40
1.0
 10
-1800.51342939681
 20
-1705.435299558415
 30
0.0
 10
-1800.51342939681
 20
-1707.793736785101
 30
0.0
 10
-1801.012184878998
 20
-1710.095104393854
 30
0.0
 10
-1802.779544071251
 20
-1714.20556038431
 30
0.0
 10
-1804.041267184731
 20
-1716.02020389825
 30
0.0
 10
-1806.908472193887
 20
-1718.857561113837
 30
0.0
 10
-1808.45698653341
 20
-1719.95408876449
 30
0.0
 10
-1810.204690096129
 20
-1720.784380700722
 30
0.0
  0
SPLINE
  5
1992
330
A
100
AcDbEntity
  8
HEWI
100
AcDbSpline
210
0.0
220
0.0
230
1.0
 70
     8
 71
     3
 72
     8
 73
     4
 74
     0
 42
0.000000001
 43
0.0000000001
 40
0.0
 40
0.0
 40
0.0
 40
0.0
 40
1.0
 40
1.0
 40
1.0
 40
1.0
 10
-1824.267589642166
 20
-1721.035998243966
 30
0.0
 10
-1824.439654586088
 20
-1720.961545400621
 30
0.0
 10
-1824.609893558904
 20
-1720.884581160347
 30
0.0
 10
-1824.77830309347
 20
-1720.805135098801
 30
0.0
  0
SPLINE
  5
1993
330
A
100
AcDbEntity
  8
HEWI
100
AcDbSpline
210
0.0
220
0.0
230
1.0
 70
     8
 71
     3
 72
    22
 73
    18
 74
     0
 42
0.000000001
 43
0.0000000001
 40
0.0
 40
0.0
 40
0.0
 40
0.0
 40
0.1261546713333348
 40
0.1261546713333348
 40
0.271709779130951
 40
0.271709779130951
 40
0.4172648869285673
 40
0.4172648869285673
 40
0.5628199947261832
 40
0.5628199947261832
 40
0.7083751025237996
 40
0.7083751025237996
 40
0.8539302103214152
 40
0.8539302103214152
 40
0.9994853181190311
 40
0.9994853181190311
 40
1.0
 40
1.0
 40
1.0
 40
1.0
 10
-1824.933913782827
 20
-1720.730769285853
 30
0.0
 10
-1826.624673027495
 20
-1719.912296139006
 30
0.0
 10
-1828.128426296645
 20
-1718.841212386632
 30
0.0
 10
-1830.956703363936
 20
-1716.056037164905
 30
0.0
 10
-1832.221993407889
 20
-1714.247656060207
 30
0.0
 10
-1834.000451862414
 20
-1710.144606577647
 30
0.0
 10
-1834.505392297879
 20
-1707.82338819355
 30
0.0
 10
-1834.52126919001
 20
-1703.163041622036
 30
0.0
 10
-1834.028762019769
 20
-1700.819422005728
 30
0.0
 10
-1832.259291795762
 20
-1696.681895686802
 30
0.0
 10
-1830.996551540741
 20
-1694.864607939222
 30
0.0
 10
-1827.972843867261
 20
-1691.865673440075
 30
0.0
 10
-1826.198304211757
 20
-1690.660258809445
 30
0.0
 10
-1822.199541312221
 20
-1688.949874638162
 30
0.0
 10
-1819.877435933471
 20
-1688.438731635112
 30
0.0
 10
-1817.529968874955
 20
-1688.4353055919
 30
0.0
 10
-1817.521698056765
 20
-1688.435299737567
 30
0.0
 10
-1817.513427810752
 20
-1688.435300094639
 30
0.0
  0
SPLINE
  5
1994
330
A
100
AcDbEntity
  8
HEWI
100
AcDbSpline
210
0.0
220
0.0
230
1.0
 70
     8
 71
     3
 72
    14
 73
    10
 74
     0
 42
0.000000001
 43
0.0000000001
 40
0.0
 40
0.0
 40
0.0
 40
0.0
 40
0.2493364146684839
 40
0.2493364146684839
 40
0.4995576097789893
 40
0.4995576097789893
 40
0.7497788048894947
 40
0.7497788048894947
 40
1.0
 40
1.0
 40
1.0
 40
1.0
 10
-1817.513427811281
 20
-1688.435300094639
 30
0.0
 10
-1815.182823124197
 20
-1688.435400719719
 30
0.0
 10
-1812.897657778247
 20
-1688.928777674632
 30
0.0
 10
-1808.867771635105
 20
-1690.634720796107
 30
0.0
 10
-1807.10449024391
 20
-1691.825178031513
 30
0.0
 10
-1804.05561220542
 20
-1694.83017915792
 30
0.0
 10
-1802.811510912249
 20
-1696.605856984822
 30
0.0
 10
-1801.015582933925
 20
-1700.752722770565
 30
0.0
 10
-1800.51342939681
 20
-1703.07686233173
 30
0.0
 10
-1800.51342939681
 20
-1705.435299558415
 30
0.0
  0
SPLINE
  5
1995
330
A
100
AcDbEntity
  8
HEWI
100
AcDbSpline
210
-0.0000000000000001
220
0.0000000000000013
230
1.0
 70
     8
 71
     3
 72
    10
 73
     6
 74
     0
 42
0.000000001
 43
0.0000000001
 40
0.0
 40
0.0
 40
0.0
 40
0.0
 40
0.0691533484577913
 40
0.5486690255593603
 40
1.0
 40
1.0
 40
1.0
 40
1.0
 10
-2802.981633747529
 20
-1720.863685941497
 30
-0.0000000000000002
 10
-2802.961730040241
 20
-1720.853052696764
 30
-0.0000000000000002
 10
-2802.798584867193
 20
-1720.771866120391
 30
-0.0000000000000002
 10
-2802.359607963508
 20
-1720.678890822994
 30
-0.0000000000000004
 10
-2801.950944853273
 20
-1720.648614539503
 30
-0.0000000000000004
 10
-2801.73491601832
 20
-1720.649607378144
 30
-0.0000000000000004
  0
SPLINE
  5
1996
330
A
100
AcDbEntity
  8
HEWI
100
AcDbSpline
210
-0.0000000000000001
220
0.0000000000000013
230
1.0
 70
     8
 71
     3
 72
    10
 73
     6
 74
     0
 42
0.000000001
 43
0.0000000001
 40
0.0
 40
0.0
 40
0.0
 40
0.0
 40
0.0691533484577913
 40
0.5486690255593603
 40
1.0
 40
1.0
 40
1.0
 40
1.0
 10
-2802.981633747529
 20
-1720.863685941497
 30
-0.0000000000000002
 10
-2802.961730040241
 20
-1720.853052696764
 30
-0.0000000000000002
 10
-2802.798584867193
 20
-1720.771866120391
 30
-0.0000000000000002
 10
-2802.359607963508
 20
-1720.678890822994
 30
-0.0000000000000004
 10
-2801.950944853273
 20
-1720.648614539503
 30
-0.0000000000000004
 10
-2801.73491601832
 20
-1720.649607378144
 30
-0.0000000000000004
  0
SPLINE
  5
1997
330
A
100
AcDbEntity
  8
HEWI
100
AcDbSpline
210
0.0
220
0.0
230
1.0
 70
     8
 71
     3
 72
    11
 73
     7
 74
     0
 42
0.000000001
 43
0.0000000001
 40
0.0
 40
0.0
 40
0.0
 40
0.0
 40
0.0085407042298158
 40
0.294495578516009
 40
0.6285837272446312
 40
1.0
 40
1.0
 40
1.0
 40
1.0
 10
-2803.733830581954
 20
-1721.573240321877
 30
-0.0000000000000002
 10
-2803.734579250996
 20
-1721.570599158467
 30
-0.0000000000000002
 10
-2803.759166774083
 20
-1721.479682866509
 30
-0.0000000000000002
 10
-2803.648015712007
 20
-1721.283086793582
 30
-0.0000000000000002
 10
-2803.42326453836
 20
-1721.058468465675
 30
-0.0000000000000002
 10
-2803.150219925034
 20
-1720.923733365528
 30
-0.0000000000000002
 10
-2802.981633747529
 20
-1720.863685941497
 30
-0.0000000000000002
  0
SPLINE
  5
1998
330
A
100
AcDbEntity
  8
HEWI
100
AcDbSpline
210
0.0
220
0.0
230
1.0
 70
     8
 71
     3
 72
    12
 73
     8
 74
     0
 42
0.000000001
 43
0.0000000001
 40
0.0
 40
0.0
 40
0.0
 40
0.0
 40
0.129584674490289
 40
0.3660981216981058
 40
0.6122957521584437
 40
0.8793126725148667
 40
1.0
 40
1.0
 40
1.0
 40
1.0
 10
-2765.467449178475
 20
-1720.666312708428
 30
0.0
 10
-2765.341163985469
 20
-1720.669360544466
 30
0.0
 10
-2765.000706077051
 20
-1720.693914281978
 30
0.0
 10
-2764.491340984719
 20
-1720.836252803043
 30
0.0
 10
-2764.034764756036
 20
-1721.067335482071
 30
0.0
 10
-2763.768261102622
 20
-1721.309959571307
 30
0.0
 10
-2763.753358503683
 20
-1721.510193366171
 30
0.0
 10
-2763.759399974754
 20
-1721.576360844986
 30
0.0
  0
SPLINE
  5
1999
330
A
100
AcDbEntity
  8
HEWI
100
AcDbSpline
210
-0.0000000000000001
220
0.0000000000000013
230
1.0
 70
     8
 71
     3
 72
    10
 73
     6
 74
     0
 42
0.000000001
 43
0.0000000001
 40
0.0
 40
0.0
 40
0.0
 40
0.0
 40
0.0691533484577662
 40
0.5486690255593675
 40
1.0
 40
1.0
 40
1.0
 40
1.0
 10
-2283.981633747531
 20
-1720.863685941489
 30
0.0
 10
-2283.961730040241
 20
-1720.853052696756
 30
0.0
 10
-2283.798584867195
 20
-1720.771866120383
 30
-0.0000000000000002
 10
-2283.359607963507
 20
-1720.678890822986
 30
-0.0000000000000002
 10
-2282.950944853272
 20
-1720.648614539495
 30
-0.0000000000000002
 10
-2282.73491601832
 20
-1720.649607378136
 30
-0.0000000000000002
  0
SPLINE
  5
199A
330
A
100
AcDbEntity
  8
HEWI
100
AcDbSpline
210
-0.0000000000000001
220
0.0000000000000013
230
1.0
 70
     8
 71
     3
 72
    10
 73
     6
 74
     0
 42
0.000000001
 43
0.0000000001
 40
0.0
 40
0.0
 40
0.0
 40
0.0
 40
0.0691533484577662
 40
0.5486690255593675
 40
1.0
 40
1.0
 40
1.0
 40
1.0
 10
-2283.981633747531
 20
-1720.863685941489
 30
0.0
 10
-2283.961730040241
 20
-1720.853052696756
 30
0.0
 10
-2283.798584867195
 20
-1720.771866120383
 30
-0.0000000000000002
 10
-2283.359607963507
 20
-1720.678890822986
 30
-0.0000000000000002
 10
-2282.950944853272
 20
-1720.648614539495
 30
-0.0000000000000002
 10
-2282.73491601832
 20
-1720.649607378136
 30
-0.0000000000000002
  0
SPLINE
  5
199B
330
A
100
AcDbEntity
  8
HEWI
100
AcDbSpline
210
0.0
220
0.0
230
1.0
 70
     8
 71
     3
 72
    11
 73
     7
 74
     0
 42
0.000000001
 43
0.0000000001
 40
0.0
 40
0.0
 40
0.0
 40
0.0
 40
0.0085407042298183
 40
0.2944955785160063
 40
0.6285837272446198
 40
1.0
 40
1.0
 40
1.0
 40
1.0
 10
-2284.733830581954
 20
-1721.573240321869
 30
0.0
 10
-2284.734579250995
 20
-1721.570599158459
 30
0.0
 10
-2284.759166774083
 20
-1721.479682866501
 30
0.0
 10
-2284.648015712007
 20
-1721.283086793574
 30
0.0
 10
-2284.423264538358
 20
-1721.058468465667
 30
0.0
 10
-2284.150219925034
 20
-1720.92373336552
 30
0.0
 10
-2283.981633747531
 20
-1720.863685941489
 30
0.0
  0
SPLINE
  5
199C
330
A
100
AcDbEntity
  8
HEWI
100
AcDbSpline
210
0.0
220
0.0
230
1.0
 70
     8
 71
     3
 72
    12
 73
     8
 74
     0
 42
0.000000001
 43
0.0000000001
 40
0.0
 40
0.0
 40
0.0
 40
0.0
 40
0.1295846744902901
 40
0.3660981216981005
 40
0.6122957521584405
 40
0.8793126725148658
 40
1.0
 40
1.0
 40
1.0
 40
1.0
 10
-2246.467449178473
 20
-1720.66631270842
 30
0.0000000000000002
 10
-2246.341163985469
 20
-1720.669360544458
 30
0.0000000000000002
 10
-2246.000706077051
 20
-1720.69391428197
 30
0.0000000000000002
 10
-2245.491340984719
 20
-1720.836252803035
 30
0.0000000000000002
 10
-2245.034764756038
 20
-1721.067335482063
 30
0.0000000000000002
 10
-2244.768261102621
 20
-1721.309959571298
 30
0.0000000000000002
 10
-2244.753358503684
 20
-1721.510193366162
 30
0.0000000000000002
 10
-2244.759399974754
 20
-1721.576360844978
 30
0.0000000000000002
  0
SPLINE
  5
199D
330
A
100
AcDbEntity
  8
HEWI
100
AcDbSpline
210
-0.0000000000000001
220
-0.0000000000000006
230
1.0
 70
     8
 71
     3
 72
    16
 73
    12
 74
     0
 42
0.000000001
 43
0.0000000001
 40
0.0
 40
0.0
 40
0.0
 40
0.0
 40
0.0127710530080071
 40
0.0127710530080071
 40
0.298714081222836
 40
0.298714081222836
 40
0.5432081856598872
 40
0.5432081856598872
 40
0.7705827780638037
 40
0.7705827780638037
 40
1.0
 40
1.0
 40
1.0
 40
1.0
 10
-2284.426570574374
 20
-1796.831380670555
 30
0.0
 10
-2284.423526646947
 20
-1796.835887861116
 30
0.0
 10
-2284.42042195867
 20
-1796.840392501325
 30
0.0
 10
-2284.346231036727
 20
-1796.945906999696
 30
0.0
 10
-2284.243203005141
 20
-1797.04775214299
 30
0.0
 10
-2284.002181798836
 20
-1797.221368090922
 30
0.0
 10
-2283.868978124353
 20
-1797.296933721964
 30
-0.0000000000000002
 10
-2283.580020360885
 20
-1797.419638835213
 30
-0.0000000000000002
 10
-2283.423359775071
 20
-1797.469486291529
 30
-0.0000000000000002
 10
-2283.092039576513
 20
-1797.537838816172
 30
-0.0000000000000002
 10
-2282.912833457287
 20
-1797.55665305828
 30
-0.0000000000000002
 10
-2282.736030450667
 20
-1797.55665305828
 30
-0.0000000000000002
  0
SPLINE
  5
199E
330
A
100
AcDbEntity
  8
HEWI
100
AcDbSpline
210
0.0000000000000002
220
-0.0000000000000002
230
1.0
 70
     8
 71
     3
 72
    16
 73
    12
 74
     0
 42
0.000000001
 43
0.0000000001
 40
0.0
 40
0.0
 40
0.0
 40
0.0
 40
0.2318639328501264
 40
0.2318639328501264
 40
0.4638696371680758
 40
0.4638696371680758
 40
0.6950310216224952
 40
0.6950310216224952
 40
0.9111144293793211
 40
0.9111144293793211
 40
1.0
 40
1.0
 40
1.0
 40
1.0
 10
-2284.73603045067
 20
-1721.573840385905
 30
0.0
 10
-2284.73603045067
 20
-1721.500818623578
 30
0.0
 10
-2284.692449324042
 20
-1721.422189203937
 30
0.0
 10
-2284.526648946168
 20
-1721.26828857753
 30
0.0
 10
-2284.401980294384
 20
-1721.190823701439
 30
0.0
 10
-2284.088555541663
 20
-1721.052724091479
 30
0.0
 10
-2283.894996391197
 20
-1720.99003642668
 30
0.0
 10
-2283.47979766473
 20
-1720.898558040102
 30
-0.0000000000000002
 10
-2283.254390845046
 20
-1720.866685642427
 30
-0.0000000000000002
 10
-2282.929829610998
 20
-1720.846514986321
 30
-0.0000000000000002
 10
-2282.832781997238
 20
-1720.843495430701
 30
-0.0000000000000002
 10
-2282.736030450669
 20
-1720.843495430701
 30
-0.0000000000000002
  0
SPLINE
  5
199F
330
A
100
AcDbEntity
  8
HEWI
100
AcDbSpline
210
0.0000000000000002
220
0.0000000000000002
230
1.0
 70
     8
 71
     3
 72
    16
 73
    12
 74
     0
 42
0.000000001
 43
0.0000000001
 40
0.0
 40
0.0
 40
0.0
 40
0.0
 40
0.1771404143545236
 40
0.1771404143545236
 40
0.3522186943510297
 40
0.3522186943510297
 40
0.539954319336339
 40
0.539954319336339
 40
0.7594025013289695
 40
0.7594025013289695
 40
1.0
 40
1.0
 40
1.0
 40
1.0
 10
-2282.736030450667
 20
-1797.392994714258
 30
-0.0000000000000002
 10
-2282.932382260419
 20
-1797.392994714258
 30
-0.0000000000000002
 10
-2283.131350840415
 20
-1797.373925719698
 30
-0.0000000000000002
 10
-2283.49942995272
 20
-1797.304489824748
 30
-0.0000000000000002
 10
-2283.673536659922
 20
-1797.253889359828
 30
-0.0000000000000002
 10
-2283.994654096965
 20
-1797.129200285828
 30
0.0
 10
-2284.142772359205
 20
-1797.052406393236
 30
0.0
 10
-2284.410686799123
 20
-1796.875938094375
 30
0.0
 10
-2284.525208760101
 20
-1796.772390176721
 30
0.0
 10
-2284.690318371837
 20
-1796.557671439592
 30
0.0
 10
-2284.736030450668
 20
-1796.443702374634
 30
0.0
 10
-2284.736030450668
 20
-1796.338029142668
 30
0.0
  0
SPLINE
  5
19A0
330
A
100
AcDbEntity
  8
HEWI
100
AcDbSpline
210
0.0
220
0.0
230
1.0
 70
     8
 71
     3
 72
    16
 73
    12
 74
     0
 42
0.000000001
 43
0.0000000001
 40
0.0
 40
0.0
 40
0.0
 40
0.0
 40
0.1945552639644179
 40
0.1945552639644179
 40
0.3878946385599321
 40
0.3878946385599321
 40
0.5892372746630514
 40
0.5892372746630514
 40
0.8080348914056751
 40
0.8080348914056751
 40
1.0
 40
1.0
 40
1.0
 40
1.0
 10
-2246.736030450669
 20
-1720.8434954307
 30
0.0000000000000002
 10
-2246.527013242689
 20
-1720.8434954307
 30
0.0000000000000002
 10
-2246.315185300197
 20
-1720.85801167776
 30
0.0000000000000002
 10
-2245.921918746398
 20
-1720.911689716422
 30
0.0000000000000002
 10
-2245.735178362179
 20
-1720.951259207999
 30
0.0000000000000002
 10
-2245.399271428735
 20
-1721.048233355584
 30
0.0000000000000002
 10
-2245.247603929514
 20
-1721.107413026982
 30
0.0000000000000002
 10
-2244.991494482001
 20
-1721.238218700282
 30
0.0000000000000002
 10
-2244.888707461923
 20
-1721.312164299163
 30
0.0000000000000002
 10
-2244.765874309058
 20
-1721.448825518904
 30
0.0000000000000002
 10
-2244.73603045067
 20
-1721.513185554333
 30
0.0000000000000002
 10
-2244.73603045067
 20
-1721.573840385903
 30
0.0000000000000002
  0
SPLINE
  5
19A1
330
A
100
AcDbEntity
  8
HEWI
100
AcDbSpline
210
0.0
220
0.0
230
1.0
 70
     8
 71
     3
 72
    16
 73
    12
 74
     0
 42
0.000000001
 43
0.0000000001
 40
0.0
 40
0.0
 40
0.0
 40
0.0
 40
0.2481016251448624
 40
0.2481016251448624
 40
0.4963851440995061
 40
0.4963851440995061
 40
0.7438538839225557
 40
0.7438538839225557
 40
0.9181884979193776
 40
0.9181884979193776
 40
1.0
 40
1.0
 40
1.0
 40
1.0
 10
-2244.736030450669
 20
-1796.338029142667
 30
0.0000000000000002
 10
-2244.736030450669
 20
-1796.447017104682
 30
0.0000000000000002
 10
-2244.784713947852
 20
-1796.564895138884
 30
0.0000000000000002
 10
-2244.968048848723
 20
-1796.796268565112
 30
0.0000000000000002
 10
-2245.105492129484
 20
-1796.913271612638
 30
0.0000000000000002
 10
-2245.452906623516
 20
-1797.120993411307
 30
0.0000000000000002
 10
-2245.669284178791
 20
-1797.215206539715
 30
0.0000000000000002
 10
-2246.08164966666
 20
-1797.329543917291
 30
0.0000000000000002
 10
-2246.269712763508
 20
-1797.364276810081
 30
0.0000000000000002
 10
-2246.551813563837
 20
-1797.388944479269
 30
0.0000000000000002
 10
-2246.644070715439
 20
-1797.392994714257
 30
0.0000000000000002
 10
-2246.736030450668
 20
-1797.392994714257
 30
0.0000000000000002
  0
SPLINE
  5
19A2
330
A
100
AcDbEntity
  8
HEWI
100
AcDbSpline
210
0.0
220
0.0
230
1.0
 70
     8
 71
     3
 72
    16
 73
    12
 74
     0
 42
0.000000001
 43
0.0000000001
 40
0.0
 40
0.0
 40
0.0
 40
0.0
 40
0.1053123592843669
 40
0.1053123592843669
 40
0.3301327988397534
 40
0.3301327988397534
 40
0.6504275187068417
 40
0.6504275187068417
 40
0.9722491720567552
 40
0.9722491720567552
 40
1.0
 40
1.0
 40
1.0
 40
1.0
 10
-2246.736030450668
 20
-1797.556653058279
 30
0.0000000000000002
 10
-2246.653257509648
 20
-1797.556653058279
 30
0.0000000000000002
 10
-2246.570208676857
 20
-1797.552664065129
 30
0.0000000000000002
 10
-2246.316133750406
 20
-1797.528367247803
 30
0.0000000000000002
 10
-2246.146825737108
 20
-1797.494122038243
 30
0.0000000000000002
 10
-2245.775501915881
 20
-1797.381526155511
 30
0.0000000000000002
 10
-2245.580987536304
 20
-1797.288783886904
 30
0.0000000000000002
 10
-2245.268529956271
 20
-1797.084474185612
 30
0.0000000000000002
 10
-2245.144914615265
 20
-1796.969417479475
 30
0.0000000000000002
 10
-2245.055203434309
 20
-1796.845600933093
 30
0.0000000000000002
 10
-2245.048367740936
 20
-1796.835752527557
 30
0.0000000000000002
 10
-2245.041822856073
 20
-1796.825893512656
 30
0.0000000000000002
  0
SPLINE
  5
19A3
330
A
100
AcDbEntity
  8
HEWI
100
AcDbSpline
210
0.0
220
0.0
230
1.0
 70
     8
 71
     3
 72
     8
 73
     4
 74
     0
 42
0.000000001
 43
0.0000000001
 40
0.0
 40
0.0
 40
0.0
 40
0.0
 40
1.0
 40
1.0
 40
1.0
 40
1.0
 10
-2246.477193064603
 20
-1720.671601108398
 30
0.0000000000000002
 10
-2246.562986266136
 20
-1720.665771710702
 30
0.0000000000000002
 10
-2246.649775960635
 20
-1720.66275413016
 30
0.0000000000000002
 10
-2246.736030450669
 20
-1720.66275413016
 30
0.0000000000000002
  0
SPLINE
  5
19A4
330
A
100
AcDbEntity
  8
HEWI
100
AcDbSpline
210
0.0000000000000002
220
0.0000000000000002
230
1.0
 70
     8
 71
     3
 72
    16
 73
    12
 74
     0
 42
0.000000001
 43
0.0000000001
 40
0.0
 40
0.0
 40
0.0
 40
0.0
 40
0.1771404143545236
 40
0.1771404143545236
 40
0.3522186943510297
 40
0.3522186943510297
 40
0.539954319336339
 40
0.539954319336339
 40
0.7594025013289695
 40
0.7594025013289695
 40
1.0
 40
1.0
 40
1.0
 40
1.0
 10
-2801.736030450668
 20
-1797.392994714267
 30
-0.0000000000000004
 10
-2801.932382260419
 20
-1797.392994714267
 30
-0.0000000000000004
 10
-2802.131350840417
 20
-1797.373925719706
 30
-0.0000000000000004
 10
-2802.499429952721
 20
-1797.304489824756
 30
-0.0000000000000004
 10
-2802.673536659922
 20
-1797.253889359837
 30
-0.0000000000000004
 10
-2802.994654096966
 20
-1797.129200285836
 30
-0.0000000000000002
 10
-2803.142772359206
 20
-1797.052406393244
 30
-0.0000000000000002
 10
-2803.410686799123
 20
-1796.875938094383
 30
-0.0000000000000002
 10
-2803.525208760101
 20
-1796.772390176729
 30
-0.0000000000000002
 10
-2803.690318371838
 20
-1796.5576714396
 30
-0.0000000000000002
 10
-2803.736030450668
 20
-1796.443702374642
 30
-0.0000000000000002
 10
-2803.736030450668
 20
-1796.338029142676
 30
-0.0000000000000002
  0
SPLINE
  5
19A5
330
A
100
AcDbEntity
  8
HEWI
100
AcDbSpline
210
0.0000000000000002
220
0.0000000000000003
230
1.0
 70
     8
 71
     3
 72
    16
 73
    12
 74
     0
 42
0.000000001
 43
0.0000000001
 40
0.0
 40
0.0
 40
0.0
 40
0.0
 40
0.012771053008153
 40
0.012771053008153
 40
0.2987140812229396
 40
0.2987140812229396
 40
0.5432081856599547
 40
0.5432081856599547
 40
0.7705827780638374
 40
0.7705827780638374
 40
1.0
 40
1.0
 40
1.0
 40
1.0
 10
-2803.426570574374
 20
-1796.831380670563
 30
-0.0000000000000002
 10
-2803.423526646946
 20
-1796.835887861125
 30
-0.0000000000000002
 10
-2803.42042195867
 20
-1796.840392501333
 30
-0.0000000000000002
 10
-2803.346231036728
 20
-1796.945906999704
 30
-0.0000000000000002
 10
-2803.243203005142
 20
-1797.047752142998
 30
-0.0000000000000002
 10
-2803.002181798836
 20
-1797.22136809093
 30
-0.0000000000000002
 10
-2802.868978124353
 20
-1797.296933721972
 30
-0.0000000000000002
 10
-2802.580020360885
 20
-1797.419638835221
 30
-0.0000000000000004
 10
-2802.423359775071
 20
-1797.469486291537
 30
-0.0000000000000004
 10
-2802.092039576513
 20
-1797.53783881618
 30
-0.0000000000000004
 10
-2801.912833457289
 20
-1797.556653058288
 30
-0.0000000000000004
 10
-2801.736030450668
 20
-1797.556653058288
 30
-0.0000000000000004
  0
SPLINE
  5
19A6
330
A
100
AcDbEntity
  8
HEWI
100
AcDbSpline
210
0.0
220
0.0
230
1.0
 70
     8
 71
     3
 72
    16
 73
    12
 74
     0
 42
0.000000001
 43
0.0000000001
 40
0.0
 40
0.0
 40
0.0
 40
0.0
 40
0.1053123592843732
 40
0.1053123592843732
 40
0.3301327988397731
 40
0.3301327988397731
 40
0.6504275187068807
 40
0.6504275187068807
 40
0.9722491720568131
 40
0.9722491720568131
 40
1.0
 40
1.0
 40
1.0
 40
1.0
 10
-2765.736030450668
 20
-1797.556653058287
 30
0.0
 10
-2765.653257509648
 20
-1797.556653058287
 30
0.0
 10
-2765.570208676858
 20
-1797.552664065137
 30
0.0
 10
-2765.316133750407
 20
-1797.528367247811
 30
0.0
 10
-2765.146825737107
 20
-1797.494122038251
 30
0.0
 10
-2764.775501915881
 20
-1797.38152615552
 30
0.0
 10
-2764.580987536305
 20
-1797.288783886913
 30
0.0
 10
-2764.268529956274
 20
-1797.08447418562
 30
0.0
 10
-2764.144914615266
 20
-1796.969417479484
 30
0.0
 10
-2764.055203434309
 20
-1796.845600933102
 30
0.0
 10
-2764.048367740934
 20
-1796.835752527566
 30
0.0
 10
-2764.041822856075
 20
-1796.825893512664
 30
0.0
  0
SPLINE
  5
19A7
330
A
100
AcDbEntity
  8
HEWI
100
AcDbSpline
210
0.0
220
0.0
230
1.0
 70
     8
 71
     3
 72
    16
 73
    12
 74
     0
 42
0.000000001
 43
0.0000000001
 40
0.0
 40
0.0
 40
0.0
 40
0.0
 40
0.1945552639644179
 40
0.1945552639644179
 40
0.3878946385599321
 40
0.3878946385599321
 40
0.5892372746630514
 40
0.5892372746630514
 40
0.8080348914056751
 40
0.8080348914056751
 40
1.0
 40
1.0
 40
1.0
 40
1.0
 10
-2765.736030450671
 20
-1720.843495430708
 30
0.0
 10
-2765.527013242691
 20
-1720.843495430708
 30
0.0
 10
-2765.3151853002
 20
-1720.858011677769
 30
0.0
 10
-2764.921918746398
 20
-1720.911689716431
 30
0.0
 10
-2764.735178362179
 20
-1720.951259208008
 30
0.0
 10
-2764.399271428736
 20
-1721.048233355592
 30
0.0
 10
-2764.247603929515
 20
-1721.107413026991
 30
0.0
 10
-2763.991494482001
 20
-1721.23821870029
 30
0.0
 10
-2763.888707461921
 20
-1721.312164299171
 30
0.0
 10
-2763.765874309059
 20
-1721.448825518912
 30
0.0
 10
-2763.736030450669
 20
-1721.513185554342
 30
0.0
 10
-2763.736030450669
 20
-1721.573840385912
 30
0.0
  0
SPLINE
  5
19A8
330
A
100
AcDbEntity
  8
HEWI
100
AcDbSpline
210
0.0
220
0.0
230
1.0
 70
     8
 71
     3
 72
    16
 73
    12
 74
     0
 42
0.000000001
 43
0.0000000001
 40
0.0
 40
0.0
 40
0.0
 40
0.0
 40
0.2481016251448624
 40
0.2481016251448624
 40
0.4963851440995061
 40
0.4963851440995061
 40
0.7438538839225557
 40
0.7438538839225557
 40
0.9181884979193776
 40
0.9181884979193776
 40
1.0
 40
1.0
 40
1.0
 40
1.0
 10
-2763.736030450667
 20
-1796.338029142675
 30
0.0
 10
-2763.736030450667
 20
-1796.44701710469
 30
0.0
 10
-2763.784713947855
 20
-1796.564895138892
 30
0.0
 10
-2763.968048848722
 20
-1796.79626856512
 30
0.0
 10
-2764.105492129484
 20
-1796.913271612646
 30
0.0
 10
-2764.452906623516
 20
-1797.120993411315
 30
0.0
 10
-2764.669284178791
 20
-1797.215206539723
 30
0.0
 10
-2765.081649666659
 20
-1797.329543917299
 30
0.0
 10
-2765.269712763508
 20
-1797.364276810089
 30
0.0
 10
-2765.551813563838
 20
-1797.388944479279
 30
0.0
 10
-2765.644070715439
 20
-1797.392994714265
 30
0.0
 10
-2765.736030450668
 20
-1797.392994714265
 30
0.0
  0
SPLINE
  5
19A9
330
A
100
AcDbEntity
  8
HEWI
100
AcDbSpline
210
0.0
220
0.0
230
1.0
 70
     8
 71
     3
 72
     8
 73
     4
 74
     0
 42
0.000000001
 43
0.0000000001
 40
0.0
 40
0.0
 40
0.0
 40
0.0
 40
1.0
 40
1.0
 40
1.0
 40
1.0
 10
-2765.477193064603
 20
-1720.671601108406
 30
0.0
 10
-2765.562986266138
 20
-1720.665771710711
 30
0.0
 10
-2765.649775960638
 20
-1720.662754130168
 30
0.0
 10
-2765.736030450671
 20
-1720.662754130168
 30
0.0
  0
SPLINE
  5
19AD
330
A
100
AcDbEntity
  8
HEWI
100
AcDbSpline
210
0.0
220
-0.0000000000000002
230
1.0
 70
     8
 71
     3
 72
    14
 73
    10
 74
     0
 42
0.000000001
 43
0.0000000001
 40
0.0
 40
0.0
 40
0.0
 40
0.0
 40
0.2499087050623483
 40
0.2499087050623483
 40
0.4999391367082322
 40
0.4999391367082322
 40
0.7499695683541161
 40
0.7499695683541161
 40
1.0
 40
1.0
 40
1.0
 40
1.0
 10
-2791.285998586263
 20
-1820.285280284321
 30
-0.0000000000000002
 10
-2791.291897626051
 20
-1820.288803235343
 30
-0.0000000000000002
 10
-2790.43966369493
 20
-1819.732960387241
 30
-0.0000000000000002
 10
-2787.71609045217
 20
-1818.445851864255
 30
-0.0000000000000004
 10
-2785.780187838569
 20
-1817.750526817152
 30
0.0000000000000004
 10
-2781.720466853437
 20
-1817.744700720444
 30
0.0000000000000002
 10
-2779.785022934551
 20
-1818.433556149266
 30
0.0
 10
-2777.032820985914
 20
-1819.731341796908
 30
-0.0000000000000002
 10
-2776.186017053739
 20
-1820.285308310295
 30
-0.0000000000000002
 10
-2776.186027835281
 20
-1820.285301270625
 30
-0.0000000000000002
  0
SPLINE
  5
19AE
330
A
100
AcDbEntity
  8
HEWI
100
AcDbSpline
210
0.0
220
-0.0000000000000002
230
1.0
 70
     8
 71
     3
 72
    14
 73
    10
 74
     0
 42
0.000000001
 43
0.0000000001
 40
0.0
 40
0.0
 40
0.0
 40
0.0
 40
0.249909423420967
 40
0.249909423420967
 40
0.4999405692898073
 40
0.4999405692898073
 40
0.7499717151586476
 40
0.7499717151586476
 40
1.0
 40
1.0
 40
1.0
 40
1.0
 10
-2272.285998585945
 20
-1820.285280284124
 30
0.0
 10
-2272.29189765663
 20
-1820.288803255277
 30
0.0
 10
-2271.439663719355
 20
-1819.732960398775
 30
0.0
 10
-2268.716090452171
 20
-1818.445851864246
 30
-0.0000000000000002
 10
-2266.780187838569
 20
-1817.750526817143
 30
-0.0000000000000002
 10
-2262.720466853437
 20
-1817.744700720435
 30
0.0000000000000004
 10
-2260.78502293455
 20
-1818.433556149257
 30
0.0000000000000002
 10
-2258.032836732201
 20
-1819.731334371823
 30
0.0
 10
-2257.186036433228
 20
-1820.285295632545
 30
0.0
 10
-2257.186027835243
 20
-1820.28530127064
 30
0.0
  0
SPLINE
  5
19B2
330
A
100
AcDbEntity
  8
HEWI
100
AcDbSpline
210
0.0000000000000002
220
-0.0000000000000002
230
1.0
 70
     8
 71
     3
 72
    16
 73
    12
 74
     0
 42
0.000000001
 43
0.0000000001
 40
0.0
 40
0.0
 40
0.0
 40
0.0
 40
0.2318639328501264
 40
0.2318639328501264
 40
0.4638696371680758
 40
0.4638696371680758
 40
0.6950310216224952
 40
0.6950310216224952
 40
0.9111144293793211
 40
0.9111144293793211
 40
1.0
 40
1.0
 40
1.0
 40
1.0
 10
-2803.73603045067
 20
-1721.573840385913
 30
-0.0000000000000002
 10
-2803.73603045067
 20
-1721.500818623586
 30
-0.0000000000000002
 10
-2803.692449324043
 20
-1721.422189203945
 30
-0.0000000000000002
 10
-2803.526648946169
 20
-1721.268288577538
 30
-0.0000000000000002
 10
-2803.401980294385
 20
-1721.190823701447
 30
-0.0000000000000002
 10
-2803.088555541661
 20
-1721.052724091487
 30
-0.0000000000000002
 10
-2802.894996391197
 20
-1720.990036426689
 30
-0.0000000000000002
 10
-2802.479797664731
 20
-1720.89855804011
 30
-0.0000000000000004
 10
-2802.254390845046
 20
-1720.866685642435
 30
-0.0000000000000004
 10
-2801.929829611
 20
-1720.846514986329
 30
-0.0000000000000004
 10
-2801.832781997239
 20
-1720.843495430709
 30
-0.0000000000000004
 10
-2801.736030450671
 20
-1720.843495430709
 30
-0.0000000000000004
  0
SPLINE
  5
19B3
330
A
100
AcDbEntity
  8
HEWI
100
AcDbSpline
210
0.0
220
0.0000000000000001
230
1.0
 70
     8
 71
     3
 72
    16
 73
    12
 74
     0
 42
0.000000001
 43
0.0000000001
 40
0.0
 40
0.0
 40
0.0
 40
0.0
 40
0.24976624795592
 40
0.24976624795592
 40
0.4995497416883016
 40
0.4995497416883016
 40
0.7493332354206832
 40
0.7493332354206832
 40
0.9991167291530643
 40
0.9991167291530643
 40
1.0
 40
1.0
 40
1.0
 40
1.0
 10
-1834.513332801116
 20
-2400.570841816944
 30
-0.0000000000000024
 10
-1834.521201599942
 20
-2400.576786281993
 30
-0.0000000000000024
 10
-1834.028701355139
 20
-2400.198631145991
 30
-0.0000000000000024
 10
-1832.259292215809
 20
-2398.911309299703
 30
-0.0000000000000026
 10
-1830.996551960788
 20
-2398.012514156793
 30
-0.0000000000000026
 10
-1827.972844287309
 20
-2396.106217736519
 30
-0.0000000000000028
 10
-1826.198304631805
 20
-2395.081547744222
 30
-0.0000000000000028
 10
-1822.199541732269
 20
-2393.429763273954
 30
-0.0000000000000028
 10
-1819.877436353519
 20
-2392.814276538655
 30
-0.000000000000003
 10
-1817.529968938246
 20
-2392.810325048963
 30
-0.000000000000003
 10
-1817.521697763346
 20
-2392.810318645652
 30
-0.000000000000003
 10
-1817.513427160674
 20
-2392.810319746424
 30
-0.000000000000003
  0
SPLINE
  5
19B4
330
A
100
AcDbEntity
  8
HEWI
100
AcDbSpline
210
0.0
220
0.0000000000000001
230
1.0
 70
     8
 71
     3
 72
    14
 73
    10
 74
     0
 42
0.000000001
 43
0.0000000001
 40
0.0
 40
0.0
 40
0.0
 40
0.0
 40
0.2493364395575
 40
0.2493364395575
 40
0.4995576263716667
 40
0.4995576263716667
 40
0.7497788131858333
 40
0.7497788131858333
 40
1.0
 40
1.0
 40
1.0
 40
1.0
 10
-1817.513429161079
 20
-2392.810319746158
 30
-0.000000000000003
 10
-1815.182824151994
 20
-2392.810629596093
 30
-0.000000000000003
 10
-1812.897658465763
 20
-2393.406822121628
 30
-0.0000000000000028
 10
-1808.867772055152
 20
-2395.059386835472
 30
-0.0000000000000028
 10
-1807.104490663958
 20
-2396.076254694734
 30
-0.0000000000000028
 10
-1804.055612625469
 20
-2397.9947471425
 30
-0.0000000000000026
 10
-1802.811511332296
 20
-2398.879953740171
 30
-0.0000000000000026
 10
-1801.015583353972
 20
-2400.185358795483
 30
-0.0000000000000024
 10
-1800.513417124073
 20
-2400.570924861667
 30
-0.0000000000000024
 10
-1800.513427337954
 20
-2400.570917021041
 30
-0.0000000000000024
  0
SPLINE
  5
19B5
330
A
100
AcDbEntity
  8
HEWI
100
AcDbSpline
210
0.0
220
0.0
230
1.0
 70
    24
 71
     1
 72
     5
 73
     3
 74
     0
 42
0.000000001
 43
0.0000000001
 40
0.0
 40
0.0
 40
0.2666666666666667
 40
1.0
 40
1.0
 10
-1761.013429413022
 20
-1705.435299559666
 30
0.0
 10
-1765.013429413022
 20
-1705.435299559666
 30
0.0
 10
-1776.01342941302
 20
-1705.435299559666
 30
0.0
  0
SPLINE
  5
19B6
330
A
100
AcDbEntity
  8
HEWI
100
AcDbSpline
210
0.0
220
0.0
230
1.0
 70
    24
 71
     1
 72
     5
 73
     3
 74
     0
 42
0.000000001
 43
0.0000000001
 40
0.0
 40
0.0
 40
0.2666666666666667
 40
1.0
 40
1.0
 10
-1874.013429413022
 20
-1705.435299559663
 30
0.0
 10
-1870.013429413022
 20
-1705.435299559663
 30
0.0
 10
-1859.013429413022
 20
-1705.435299559663
 30
0.0
  0
SPLINE
  5
19B8
330
A
100
AcDbEntity
  8
HEWI
100
AcDbSpline
210
0.0
220
0.0
230
1.0
 70
    24
 71
     1
 72
     5
 73
     3
 74
     0
 42
0.000000001
 43
0.0000000001
 40
0.0
 40
0.0
 40
0.6800000000000001
 40
1.0
 40
1.0
 10
-1866.013429413021
 20
-1705.435299559663
 30
0.0
 10
-1857.513429413021
 20
-1705.435299559663
 30
0.0
 10
-1853.513429413021
 20
-1705.435299559663
 30
0.0
  0
SPLINE
  5
19B9
330
A
100
AcDbEntity
  8
HEWI
100
AcDbSpline
210
0.0
220
0.0
230
1.0
 70
    24
 71
     1
 72
     5
 73
     3
 74
     0
 42
0.000000001
 43
0.0000000001
 40
0.0
 40
0.0
 40
0.6800000000000001
 40
1.0
 40
1.0
 10
-1769.013429413021
 20
-1705.435299559666
 30
0.0
 10
-1777.513429413021
 20
-1705.435299559665
 30
0.0
 10
-1781.513429413021
 20
-1705.435299559665
 30
0.0
  0
SPLINE
  5
19BA
330
A
100
AcDbEntity
  8
HEWI
100
AcDbSpline
210
0.0
220
0.0
230
1.0
 70
    24
 71
     1
 72
     5
 73
     3
 74
     0
 42
0.000000001
 43
0.0000000001
 40
0.0
 40
0.0
 40
0.185185185185186
 40
1.0
 40
1.0
 10
-1817.513429833067
 20
-2339.970915117724
 30
0.0
 10
-1817.513429833067
 20
-2343.970915117724
 30
0.0
 10
-1817.513429833067
 20
-2361.570915117724
 30
0.0
  0
LWPOLYLINE
  5
19BE
330
A
100
AcDbEntity
  8
HEWI
  6
STANDARD
 62
     7
100
AcDbPolyline
 90
       56
 70
     1
 43
0.0
 10
-2331.838030489708
 20
-1822.490299560708
 10
-2331.704030489786
 20
-1822.370299557406
 10
-2331.462030489925
 20
-1822.300299555478
 10
-2331.306030490013
 20
-1822.162299551677
 10
-2330.659030490383
 20
-1821.838299542759
 10
-2330.348030490559
 20
-1821.737299539978
 10
-2329.788030490882
 20
-1821.418299531196
 10
-2328.727030491489
 20
-1821.012299520021
 10
-2327.93803049194
 20
-1820.81629951462
 10
-2327.517030492181
 20
-1820.658299510273
 10
-2326.204030492935
 20
-1820.37929950259
 10
-2324.838030493715
 20
-1820.285299500007
 10
-2323.473030494496
 20
-1820.37929950259
 10
-2322.160030495248
 20
-1820.658299510273
 10
-2321.739030495488
 20
-1820.81629951462
 10
-2320.949030495939
 20
-1821.012299520021
 10
-2319.889030496546
 20
-1821.418299531196
 10
-2319.329030496866
 20
-1821.737299539978
 10
-2319.018030497045
 20
-1821.838299542759
 10
-2318.371030497416
 20
-1822.162299551677
 10
-2318.215030497504
 20
-1822.300299555478
 10
-2317.973030497642
 20
-1822.370299557406
 10
-2317.83903049772
 20
-1822.490299560708
 10
-2317.83803049772
 20
-1827.357299694692
 10
-2317.858030497708
 20
-1827.552299700063
 10
-2317.914030497677
 20
-1827.739299705211
 10
-2318.007030497625
 20
-1827.912299709973
 10
-2318.131030497553
 20
-1828.064299714158
 10
-2318.283030497465
 20
-1828.188299717571
 10
-2318.456030497366
 20
-1828.280299720103
 10
-2318.64303049726
 20
-1828.337299721672
 10
-2318.838030497149
 20
-1828.357299722221
 10
-2318.954030497081
 20
-1828.357299722221
 10
-2319.295030496887
 20
-1828.357299722221
 10
-2319.85003049657
 20
-1828.357299722221
 10
-2320.596030496141
 20
-1828.357299722221
 10
-2321.505030495623
 20
-1828.357299722221
 10
-2322.542030495026
 20
-1828.357299722221
 10
-2323.668030494383
 20
-1828.357299722221
 10
-2324.838030493715
 20
-1828.357299722221
 10
-2326.009030493042
 20
-1828.357299722221
 10
-2327.134030492398
 20
-1828.357299722221
 10
-2328.172030491807
 20
-1828.357299722221
 10
-2329.081030491285
 20
-1828.357299722221
 10
-2329.82703049086
 20
-1828.357299722221
 10
-2330.382030490542
 20
-1828.357299722221
 10
-2330.723030490346
 20
-1828.357299722221
 10
-2330.838030490281
 20
-1828.357299722221
 10
-2331.033030490169
 20
-1828.337299721672
 10
-2331.221030490061
 20
-1828.280299720103
 10
-2331.394030489962
 20
-1828.188299717571
 10
-2331.545030489875
 20
-1828.064299714158
 10
-2331.670030489803
 20
-1827.912299709973
 10
-2331.762030489753
 20
-1827.739299705211
 10
-2331.819030489717
 20
-1827.552299700063
 10
-2331.838030489708
 20
-1827.357299694692
  0
LINE
  5
19BF
330
A
100
AcDbEntity
  8
HEWI
  6
STANDARD
 62
     7
100
AcDbLine
 10
-2093.959750148626
 20
-2032.519402903396
 30
0.0
 11
-2093.899030625888
 21
-2032.521305342802
 31
0.0
  0
LINE
  5
19C0
330
A
100
AcDbEntity
  8
HEWI
  6
STANDARD
 62
     7
100
AcDbLine
 10
-2094.282030625669
 20
-2032.509305342468
 30
0.0
 11
-2094.033598204485
 21
-2032.517089126122
 31
0.0
  0
LINE
  5
19C1
330
A
100
AcDbEntity
  8
HEWI
  6
STANDARD
 62
     7
100
AcDbLine
 10
-2095.290030602384
 20
-2032.475854361899
 30
0.0
 11
-2094.909030625311
 21
-2032.488305341892
 31
0.0
  0
LINE
  5
19C2
330
A
100
AcDbEntity
  8
HEWI
  6
STANDARD
 62
     7
100
AcDbLine
 10
-2095.980030624697
 20
-2032.453305340926
 30
0.0
 11
-2095.521030620399
 21
-2032.468305341488
 31
0.0
  0
LINE
  5
19C3
330
A
100
AcDbEntity
  8
HEWI
  6
STANDARD
 62
     7
100
AcDbLine
 10
-2093.991810881995
 20
-2032.518283049677
 30
0.0
 11
-2094.803708754358
 21
-2032.491835684064
 31
0.0
  0
LINE
  5
19C4
330
A
100
AcDbEntity
  8
HEWI
  6
STANDARD
 62
     7
100
AcDbLine
 10
-2093.899030625888
 20
-2032.521305342802
 30
0.0
 11
-2093.989787636482
 21
-2032.518348956385
 31
0.0
  0
LWPOLYLINE
  5
19C5
330
A
100
AcDbEntity
  8
HEWI
  6
STANDARD
 62
     7
100
AcDbPolyline
 90
        3
 70
     0
 43
0.0
 10
-2095.980030624697
 20
-2032.453305340926
 10
-2096.140030624606
 20
-2032.448305340789
 10
-2096.386030624467
 20
-2032.440305340569
  0
LINE
  5
19C6
330
A
100
AcDbEntity
  8
HEWI
  6
STANDARD
 62
     7
100
AcDbLine
 10
-2095.670030624876
 20
-2032.463305341204
 30
0.0
 11
-2095.603415237817
 21
-2032.465613033659
 31
0.0
  0
LINE
  5
19C7
330
A
100
AcDbEntity
  8
HEWI
  6
STANDARD
 62
     7
100
AcDbLine
 10
-2095.725030621563
 20
-2032.461638674591
 30
0.0
 11
-2095.670030624876
 21
-2032.463305341204
 31
0.0
  0
LINE
  5
19C8
330
A
100
AcDbEntity
  8
HEWI
  6
STANDARD
 62
     7
100
AcDbLine
 10
-2095.670030624876
 20
-2032.463305341204
 30
0.0
 11
-2095.631083256185
 21
-2032.464708850024
 31
0.0
  0
LWPOLYLINE
  5
19C9
330
A
100
AcDbEntity
  8
HEWI
  6
STANDARD
 62
     7
100
AcDbPolyline
 90
        2
 70
     1
 43
0.0
 10
-2094.797434502185
 20
-2032.492040066216
 10
-2094.848030625345
 20
-2032.490305341948
  0
LWPOLYLINE
  5
19CA
330
A
100
AcDbEntity
  8
HEWI
  6
STANDARD
 62
     7
100
AcDbPolyline
 90
       43
 70
     0
 43
0.0
 10
-2327.440158830921
 20
-1828.35729963921
 10
-2328.624030491546
 20
-1856.030300484053
 10
-2332.605030489269
 20
-1903.946301803167
 10
-2337.786030486304
 20
-1956.087303238593
 10
-2341.405030484233
 20
-2000.541304462399
 10
-2343.960030482771
 20
-2028.924305243774
 10
-2344.505030482459
 20
-2060.58230611531
 10
-2342.973030483334
 20
-2077.806306589483
 10
-2340.613030484687
 20
-2090.283306932972
 10
-2337.686030486361
 20
-2100.126307203943
 10
-2335.457030487636
 20
-2105.741307358527
 10
-2333.765030488603
 20
-2109.371307458459
 10
-2330.001030490759
 20
-2116.184307646021
 10
-2325.68403049323
 20
-2122.583307822185
 10
-2319.623030496698
 20
-2129.931308024469
 10
-2312.873030500562
 20
-2136.623308208698
 10
-2304.029030505624
 20
-2143.777308405646
 10
-2294.478030511089
 20
-2150.045308578199
 10
-2282.667030517849
 20
-2156.271308749602
 10
-2268.575030525918
 20
-2162.033308908231
 10
-2259.531030531093
 20
-2164.957308988727
 10
-2252.189030535292
 20
-2166.914309042605
 10
-2237.459030543724
 20
-2169.740309120403
 10
-2224.442030551173
 20
-2171.005309155225
 10
-2211.441030558616
 20
-2171.085309157429
 10
-2198.541030565997
 20
-2169.932309125688
 10
-2187.610030572252
 20
-2167.919309070268
 10
-2176.876030578398
 20
-2164.938308988204
 10
-2166.408030584388
 20
-2160.971308878995
 10
-2156.295030590174
 20
-2156.097308744814
 10
-2145.116030596574
 20
-2149.391308560197
 10
-2134.73003060252
 20
-2141.710308348741
 10
-2125.314030607912
 20
-2133.202308114517
 10
-2118.122030612025
 20
-2125.336307897975
 10
-2111.878030615597
 20
-2117.057307670053
 10
-2107.463030618126
 20
-2109.883307472555
 10
-2104.485030619831
 20
-2104.010307310874
 10
-2102.549030620938
 20
-2099.503307186795
 10
-2099.448030622714
 20
-2090.456306937733
 10
-2096.897030624172
 20
-2079.683306641157
 10
-2094.971030625273
 20
-2065.611306253758
 10
-2093.887030625897
 20
-2032.522305342827
 10
-2093.899030625888
 20
-2032.521305342802
  0
LWPOLYLINE
  5
19CB
330
A
100
AcDbEntity
  8
HEWI
  6
STANDARD
 62
     7
100
AcDbPolyline
 90
       42
 70
     0
 43
0.0
 10
-2098.887715585505
 20
-2032.440305343225
 10
-2099.960030622422
 20
-2065.189306242141
 10
-2101.818030621358
 20
-2078.766306615912
 10
-2104.257030619959
 20
-2089.066306899466
 10
-2107.215030618265
 20
-2097.705307137298
 10
-2109.014030617237
 20
-2101.892307252565
 10
-2111.825030615628
 20
-2107.440307405298
 10
-2116.011030613232
 20
-2114.235307592361
 10
-2121.972030609822
 20
-2122.137307809902
 10
-2128.84303060589
 20
-2129.65230801679
 10
-2137.900030600704
 20
-2137.836308242095
 10
-2147.895030594987
 20
-2145.228308445592
 10
-2158.672030588819
 20
-2151.692308623548
 10
-2168.381030583261
 20
-2156.376308752494
 10
-2178.434030577506
 20
-2160.181308857245
 10
-2188.733030571612
 20
-2163.046308936118
 10
-2199.21803056561
 20
-2164.972308989141
 10
-2211.648030558498
 20
-2166.084309019753
 10
-2224.18503055132
 20
-2166.007309017631
 10
-2236.745030544133
 20
-2164.786308984017
 10
-2251.074030535932
 20
-2162.040308908421
 10
-2258.118030531898
 20
-2160.161308856696
 10
-2266.859030526898
 20
-2157.337308778952
 10
-2280.55003051906
 20
-2151.735308624727
 10
-2291.935030512548
 20
-2145.733308459494
 10
-2301.078030507313
 20
-2139.733308294315
 10
-2309.532030502476
 20
-2132.894308106043
 10
-2315.925030498815
 20
-2126.556307931558
 10
-2321.675030495525
 20
-2119.586307739679
 10
-2325.736030493199
 20
-2113.574307574166
 10
-2329.308030491157
 20
-2107.105307396075
 10
-2330.866030490265
 20
-2103.761307304016
 10
-2332.962030489065
 20
-2098.490307158908
 10
-2335.748030487469
 20
-2089.103306900488
 10
-2338.015030486173
 20
-2077.118306570541
 10
-2339.50203048532
 20
-2060.403306110384
 10
-2338.968030485629
 20
-2029.19130525113
 10
-2336.423030487086
 20
-2000.968304474154
 10
-2332.807030489155
 20
-1956.538303251006
 10
-2327.62503049212
 20
-1904.40130181569
 10
-2323.634030494404
 20
-1856.344300492696
 10
-2322.435130287809
 20
-1828.357299288421
  0
LINE
  5
19CC
330
A
100
AcDbEntity
  8
HEWI
  6
STANDARD
 62
     7
100
AcDbLine
 10
-2093.991030625836
 20
-2032.518305342717
 30
0.0
 11
-2094.166030625737
 21
-2032.513305342582
 31
0.0
  0
LWPOLYLINE
  5
19CD
330
A
100
AcDbEntity
  8
HEWI
  6
STANDARD
 62
     7
100
AcDbPolyline
 90
        2
 70
     1
 43
0.0
 10
-2093.899030625888
 20
-2032.521305342802
 10
-2093.934030625868
 20
-2032.520305342773
  0
LWPOLYLINE
  5
19CE
330
A
100
AcDbEntity
  8
HEWI
  6
STANDARD
 62
     7
100
AcDbPolyline
 90
        3
 70
     0
 43
0.0
 10
-2093.991030625836
 20
-2032.518305342717
 10
-2094.068030625791
 20
-2032.516305342666
 10
-2094.166030625737
 20
-2032.513305342582
  0
LINE
  5
19CF
330
A
100
AcDbEntity
  8
HEWI
  6
STANDARD
 62
     7
100
AcDbLine
 10
-2094.166030625737
 20
-2032.513305342582
 30
0.0
 11
-2094.282030625669
 21
-2032.509305342468
 31
0.0
  0
LWPOLYLINE
  5
19D0
330
A
100
AcDbEntity
  8
HEWI
  6
STANDARD
 62
     7
100
AcDbPolyline
 90
        5
 70
     0
 43
0.0
 10
-2094.282030625669
 20
-2032.509305342468
 10
-2094.415030625594
 20
-2032.505305342362
 10
-2094.565030625509
 20
-2032.500305342223
 10
-2094.730030625414
 20
-2032.494305342058
 10
-2094.909030625311
 20
-2032.488305341892
  0
LWPOLYLINE
  5
19D1
330
A
100
AcDbEntity
  8
HEWI
  6
STANDARD
 62
     7
100
AcDbPolyline
 90
        4
 70
     0
 43
0.0
 10
-2094.909030625311
 20
-2032.488305341892
 10
-2095.102030625201
 20
-2032.482305341728
 10
-2095.306030625085
 20
-2032.475305341534
 10
-2095.52103062496
 20
-2032.468305341339
  0
LWPOLYLINE
  5
19D2
330
A
100
AcDbEntity
  8
HEWI
  6
STANDARD
 62
     7
100
AcDbPolyline
 90
        3
 70
     0
 43
0.0
 10
-2095.52103062496
 20
-2032.468305341339
 10
-2095.746030624832
 20
-2032.461305341149
 10
-2095.980030624697
 20
-2032.453305340926
  0
LWPOLYLINE
  5
19D3
330
A
100
AcDbEntity
  8
HEWI
  6
STANDARD
 62
     7
100
AcDbPolyline
 90
       16
 70
     0
 43
0.0
 10
-2090.136030628043
 20
-2032.440305340569
 10
-2102.636030620887
 20
-2032.440305340569
 10
-2102.765030620814
 20
-2032.423305340105
 10
-2102.886030620746
 20
-2032.373305338726
 10
-2102.990030620685
 20
-2032.294305336549
 10
-2103.06903062064
 20
-2032.190305333687
 10
-2103.11903062061
 20
-2032.069305330355
 10
-2103.136030620604
 20
-2031.940305326806
 10
-2103.136030620604
 20
-1977.940303840201
 10
-2103.11903062061
 20
-1977.811303836649
 10
-2103.06903062064
 20
-1977.690303833318
 10
-2102.990030620685
 20
-1977.586303830456
 10
-2102.886030620746
 20
-1977.507303828282
 10
-2102.765030620814
 20
-1977.457303826905
 10
-2102.636030620887
 20
-1977.440303826435
 10
-2090.136030628043
 20
-1977.440303826435
  0
LWPOLYLINE
  5
19D4
330
A
100
AcDbEntity
  8
HEWI
  6
STANDARD
 62
     7
100
AcDbPolyline
 90
       28
 70
     1
 43
0.0
 10
-2090.136030628043
 20
-2044.440305670927
 10
-2090.11903062805
 20
-2044.569305674479
 10
-2090.069030628081
 20
-2044.690305677811
 10
-2089.990030628126
 20
-2044.794305680676
 10
-2089.886030628185
 20
-2044.87330568285
 10
-2089.765030628254
 20
-2044.923305684223
 10
-2089.636030628327
 20
-2044.94030568469
 10
-2083.136030632048
 20
-2044.94030568469
 10
-2083.136030632048
 20
-2044.923305684223
 10
-2083.136030632048
 20
-2044.87330568285
 10
-2083.136030632048
 20
-2044.794305680676
 10
-2083.136030632048
 20
-2044.690305677811
 10
-2083.136030632048
 20
-2044.569305674479
 10
-2083.136030632048
 20
-2044.440305670927
 10
-2083.136030632048
 20
-1965.440303496078
 10
-2083.136030632048
 20
-1965.311303492529
 10
-2083.136030632048
 20
-1965.190303489199
 10
-2083.136030632048
 20
-1965.086303486335
 10
-2083.136030632048
 20
-1965.007303484155
 10
-2083.136030632048
 20
-1964.957303482784
 10
-2083.136030632048
 20
-1964.940303482314
 10
-2089.636030628327
 20
-1964.940303482314
 10
-2089.765030628254
 20
-1964.957303482784
 10
-2089.886030628185
 20
-1965.007303484155
 10
-2089.990030628126
 20
-1965.086303486335
 10
-2090.069030628081
 20
-1965.190303489199
 10
-2090.11903062805
 20
-1965.311303492529
 10
-2090.136030628043
 20
-1965.440303496078
  0
LWPOLYLINE
  5
19D5
330
A
100
AcDbEntity
  8
HEWI
  6
CUSTOM
 62
    18
420
        0
370
     9
100
AcDbPolyline
 90
       83
 70
     0
 43
0.0
 10
-1820.22443038101
 20
-1826.191094478265
 10
-1820.22443038101
 20
-1854.021094978173
 10
-1820.22443038101
 20
-1902.008096571299
 10
-1820.22443038101
 20
-1954.146098302238
 10
-1820.22443038101
 20
-1998.589099777706
 10
-1820.22443038101
 20
-2026.892100717342
 10
-1820.22443038101
 20
-2058.327101760963
 10
-1820.22443038101
 20
-2075.296102324317
 10
-1820.22443038101
 20
-2087.527102730376
 10
-1820.22443038101
 20
-2097.142103049585
 10
-1820.22443038101
 20
-2102.585103230287
 10
-1820.22443038101
 20
-2106.072103346058
 10
-1820.22443038101
 20
-2112.71310356653
 10
-1820.22443038101
 20
-2118.918103772532
 10
-1820.22443038101
 20
-2126.077104010203
 10
-1820.22443038101
 20
-2132.592104226497
 10
-1820.22443038101
 20
-2139.589104458789
 10
-1820.22443038101
 20
-2145.723104662438
 10
-1820.22443038101
 20
-2151.837104865417
 10
-1820.22443038101
 20
-2157.519105054049
 10
-1820.22443038101
 20
-2160.393105149466
 10
-1820.22443038101
 20
-2162.31110521314
 10
-1820.22443038101
 20
-2165.097105305636
 10
-1820.22443038101
 20
-2166.340105346899
 10
-1820.22443038101
 20
-2166.419105349525
 10
-1820.212430381076
 20
-2166.66510535769
 10
-1820.191430381193
 20
-2166.825105363002
 10
-1820.142430381471
 20
-2167.059105370773
 10
-1820.071430381872
 20
-2167.28410537824
 10
-1819.980430382387
 20
-2167.499105385378
 10
-1819.870430383006
 20
-2167.704105392187
 10
-1819.742430383729
 20
-2167.897105398596
 10
-1819.598430384544
 20
-2168.076105404537
 10
-1819.438430385444
 20
-2168.241105410014
 10
-1819.263430386433
 20
-2168.391105414992
 10
-1819.075430387496
 20
-2168.525105419442
 10
-1818.87443038863
 20
-2168.64110542329
 10
-1818.662430389827
 20
-2168.738105426511
 10
-1818.44043039108
 20
-2168.816105429102
 10
-1818.209430392383
 20
-2168.872105430962
 10
-1817.970430393733
 20
-2168.907105432126
 10
-1817.724430395122
 20
-2168.91910543252
 10
-1817.47843039651
 20
-2168.907105432126
 10
-1817.318430397412
 20
-2168.887105431459
 10
-1817.084430398733
 20
-2168.837105429798
 10
-1816.859430400004
 20
-2168.76610542744
 10
-1816.643430401222
 20
-2168.675105424421
 10
-1816.439430402374
 20
-2168.565105420768
 10
-1816.246430403465
 20
-2168.437105416522
 10
-1816.067430404475
 20
-2168.29310541174
 10
-1815.902430405406
 20
-2168.133105406429
 10
-1815.752430406253
 20
-2167.95810540062
 10
-1815.619430407002
 20
-2167.770105394376
 10
-1815.503430407658
 20
-2167.569105387703
 10
-1815.405430408211
 20
-2167.357105380667
 10
-1815.328430408647
 20
-2167.135105373295
 10
-1815.271430408967
 20
-2166.904105365627
 10
-1815.236430409165
 20
-2166.66510535769
 10
-1815.224430409234
 20
-2166.419105349525
 10
-1815.224430409234
 20
-2166.340105346899
 10
-1815.224430409234
 20
-2165.097105305636
 10
-1815.224430409234
 20
-2162.31110521314
 10
-1815.224430409234
 20
-2160.393105149466
 10
-1815.224430409234
 20
-2157.519105054049
 10
-1815.224430409234
 20
-2151.837104865417
 10
-1815.224430409234
 20
-2145.723104662438
 10
-1815.224430409234
 20
-2139.589104458789
 10
-1815.224430409234
 20
-2132.592104226497
 10
-1815.224430409234
 20
-2126.077104010203
 10
-1815.224430409234
 20
-2118.918103772532
 10
-1815.224430409234
 20
-2112.71310356653
 10
-1815.224430409234
 20
-2106.072103346058
 10
-1815.224430409234
 20
-2102.585103230287
 10
-1815.224430409234
 20
-2097.142103049585
 10
-1815.224430409234
 20
-2087.527102730376
 10
-1815.224430409234
 20
-2075.296102324317
 10
-1815.224430409234
 20
-2058.327101760963
 10
-1815.224430409234
 20
-2026.892100717342
 10
-1815.224430409234
 20
-1998.589099777706
 10
-1815.224430409234
 20
-1954.146098302238
 10
-1815.224430409234
 20
-1902.008096571299
 10
-1815.224430409234
 20
-1854.021094978173
 10
-1815.224430409234
 20
-1826.191094478265
  0
LWPOLYLINE
  5
19D6
330
A
100
AcDbEntity
  8
HEWI
  6
CUSTOM
 62
    18
420
        0
370
     9
100
AcDbPolyline
 90
       16
 70
     0
 43
0.0
 10
-1820.224430500217
 20
-1973.21288804536
 10
-1844.724430242709
 20
-1973.21288804536
 10
-1844.85343024198
 20
-1973.229888045926
 10
-1844.974430241297
 20
-1973.279888047581
 10
-1845.078430240709
 20
-1973.358888050206
 10
-1845.157430240261
 20
-1973.462888053661
 10
-1845.207430239981
 20
-1973.583888057676
 10
-1845.224430239885
 20
-1973.71288806196
 10
-1845.224430239885
 20
-2027.712889854715
 10
-1845.207430239981
 20
-2027.841889858995
 10
-1845.157430240261
 20
-2027.962889863017
 10
-1845.078430240709
 20
-2028.066889866469
 10
-1844.974430241297
 20
-2028.14588986909
 10
-1844.85343024198
 20
-2028.195889870747
 10
-1844.724430242709
 20
-2028.212889871316
 10
-1820.224430500217
 20
-2028.212889871316
  0
LWPOLYLINE
  5
19D7
330
A
100
AcDbEntity
  8
HEWI
  6
CUSTOM
 62
    18
420
        0
370
     9
100
AcDbPolyline
 90
       16
 70
     0
 43
0.0
 10
-1815.224430290025
 20
-2028.212889871316
 10
-1790.724430547533
 20
-2028.212889871316
 10
-1790.595430548262
 20
-2028.195889870747
 10
-1790.474430548945
 20
-2028.14588986909
 10
-1790.370430549533
 20
-2028.066889866469
 10
-1790.291430549978
 20
-2027.962889863017
 10
-1790.24143055026
 20
-2027.841889858995
 10
-1790.224430550356
 20
-2027.712889854715
 10
-1790.224430550356
 20
-1973.71288806196
 10
-1790.24143055026
 20
-1973.583888057676
 10
-1790.291430549978
 20
-1973.462888053661
 10
-1790.370430549533
 20
-1973.358888050206
 10
-1790.474430548945
 20
-1973.279888047581
 10
-1790.595430548262
 20
-1973.229888045926
 10
-1790.724430547533
 20
-1973.21288804536
 10
-1815.224430290025
 20
-1973.21288804536
  0
LWPOLYLINE
  5
19D8
330
A
100
AcDbEntity
  8
HEWI
  6
CUSTOM
 62
    18
420
        0
370
     9
100
AcDbPolyline
 90
       16
 70
     0
 43
0.0
 10
-1815.224428323071
 20
-2040.712890286304
 10
-1778.224430618093
 20
-2040.712890286304
 10
-1778.095430618822
 20
-2040.695890285736
 10
-1777.974430619505
 20
-2040.645890284078
 10
-1777.870430620093
 20
-2040.566890281457
 10
-1777.791430620541
 20
-2040.462890278005
 10
-1777.741430620821
 20
-2040.341890273985
 10
-1777.724430620918
 20
-2040.212890269704
 10
-1777.724430620918
 20
-1961.212887646972
 10
-1777.741430620821
 20
-1961.083887642685
 10
-1777.791430620541
 20
-1960.96288763867
 10
-1777.870430620093
 20
-1960.858887635217
 10
-1777.974430619505
 20
-1960.779887632593
 10
-1778.095430618822
 20
-1960.729887630932
 10
-1778.224430618093
 20
-1960.712887630372
 10
-1815.224430677453
 20
-1960.712887630372
  0
LWPOLYLINE
  5
19D9
330
A
100
AcDbEntity
  8
HEWI
  6
CUSTOM
 62
    18
420
        0
370
     9
100
AcDbPolyline
 90
       16
 70
     0
 43
0.0
 10
-1820.22443246717
 20
-1960.712887630372
 10
-1857.224430172147
 20
-1960.712887630372
 10
-1857.353430171416
 20
-1960.729887630932
 10
-1857.474430170736
 20
-1960.779887632593
 10
-1857.578430170148
 20
-1960.858887635217
 10
-1857.6574301697
 20
-1960.96288763867
 10
-1857.70743016942
 20
-1961.083887642685
 10
-1857.724430169325
 20
-1961.212887646972
 10
-1857.724430169325
 20
-2040.212890269704
 10
-1857.70743016942
 20
-2040.341890273985
 10
-1857.6574301697
 20
-2040.462890278005
 10
-1857.578430170148
 20
-2040.566890281457
 10
-1857.474430170736
 20
-2040.645890284078
 10
-1857.353430171416
 20
-2040.695890285736
 10
-1857.224430172147
 20
-2040.712890286304
 10
-1820.224430112786
 20
-2040.712890286304
  0
LWPOLYLINE
  5
19DA
330
A
100
AcDbEntity
  8
HEWI
  6
CUSTOM
 62
    18
420
        0
370
     9
100
AcDbPolyline
 90
       35
 70
     0
 43
0.0
 10
-1824.520430356758
 20
-1822.620261467184
 10
-1824.520430356758
 20
-1825.191094445065
 10
-1824.501430356864
 20
-1825.386094451536
 10
-1824.444430357188
 20
-1825.573094457748
 10
-1824.351430357715
 20
-1825.746094463491
 10
-1824.227430358412
 20
-1825.898094468535
 10
-1824.076430359267
 20
-1826.02209447265
 10
-1823.903430360241
 20
-1826.114094475706
 10
-1823.715430361303
 20
-1826.171094477602
 10
-1823.520430362404
 20
-1826.191094478265
 10
-1823.405430363054
 20
-1826.191094478265
 10
-1823.063430364982
 20
-1826.191094478265
 10
-1822.509430368111
 20
-1826.191094478265
 10
-1821.763430372321
 20
-1826.191094478265
 10
-1820.85343037746
 20
-1826.191094478265
 10
-1819.816430383314
 20
-1826.191094478265
 10
-1818.691430389661
 20
-1826.191094478265
 10
-1817.520430396271
 20
-1826.191094478265
 10
-1816.349430402884
 20
-1826.191094478265
 10
-1815.224430409234
 20
-1826.191094478265
 10
-1814.187430415089
 20
-1826.191094478265
 10
-1813.277430420225
 20
-1826.191094478265
 10
-1812.531430424437
 20
-1826.191094478265
 10
-1811.977430427564
 20
-1826.191094478265
 10
-1811.635430429494
 20
-1826.191094478265
 10
-1811.520430430144
 20
-1826.191094478265
 10
-1811.325430431242
 20
-1826.171094477602
 10
-1811.137430432307
 20
-1826.114094475706
 10
-1810.964430433282
 20
-1826.02209447265
 10
-1810.813430434134
 20
-1825.898094468535
 10
-1810.689430434833
 20
-1825.746094463491
 10
-1810.59643043536
 20
-1825.573094457748
 10
-1810.53943043568
 20
-1825.386094451536
 10
-1810.520430435787
 20
-1825.191094445065
 10
-1810.520430435787
 20
-1822.625028493861
  0
CIRCLE
  5
19DC
330
A
100
AcDbEntity
  8
HEWI
100
AcDbCircle
 10
-1817.515380396316
 20
-1807.791597499998
 30
0.0
 40
16.2
  0
CIRCLE
  5
19DD
330
A
100
AcDbEntity
  8
HEWI
100
AcDbCircle
 10
1817.515380396316
 20
-1807.791597499998
 30
0.0
 40
16.4
210
0.0
220
0.0
230
-1.0
  0
LINE
  5
19EC
330
A
100
AcDbEntity
  8
HEWI
  6
STANDARD
 62
     7
100
AcDbLine
 10
-2933.936030632051
 20
-1791.385299500017
 30
0.0
 11
-2933.736030632051
 21
-1791.585299500017
 31
0.0
  0
LINE
  5
19ED
330
A
100
AcDbEntity
  8
HEWI
  6
STANDARD
 62
     7
100
AcDbLine
 10
-2933.736030632051
 20
-1823.985299500017
 30
0.0
 11
-2933.936030632051
 21
-1824.185299500017
 31
0.0
  0
LINE
  5
19EE
330
A
100
AcDbEntity
  8
HEWI
  6
STANDARD
 62
     7
100
AcDbLine
 10
-2936.536030632051
 20
-1824.185299500017
 30
0.0
 11
-2936.736030632053
 21
-1823.985299500017
 31
0.0
  0
LINE
  5
19EF
330
A
100
AcDbEntity
  8
HEWI
  6
STANDARD
 62
     7
100
AcDbLine
 10
-2936.736030632053
 20
-1791.585299500017
 30
0.0
 11
-2936.536030632051
 21
-1791.385299500017
 31
0.0
  0
LINE
  5
19F0
330
A
100
AcDbEntity
  8
HEWI
  6
STANDARD
 62
     7
100
AcDbLine
 10
-2933.936030632051
 20
-1824.185299500017
 30
0.0
 11
-2936.536030632051
 21
-1824.185299500017
 31
0.0
  0
LINE
  5
19F1
330
A
100
AcDbEntity
  8
HEWI
  6
STANDARD
 62
     7
100
AcDbLine
 10
-2936.536030632051
 20
-1791.385299500017
 30
0.0
 11
-2933.936030632051
 21
-1791.385299500017
 31
0.0
  0
LINE
  5
19F2
330
A
100
AcDbEntity
  8
HEWI
  6
STANDARD
 62
     7
100
AcDbLine
 10
-2933.936030632051
 20
-1824.185299500017
 30
0.0
 11
-2933.936030632051
 21
-1791.385299500017
 31
0.0
  0
LINE
  5
19F3
330
A
100
AcDbEntity
  8
HEWI
  6
STANDARD
 62
     7
100
AcDbLine
 10
-2933.736030632051
 20
-1791.585299500017
 30
0.0
 11
-2933.736030632051
 21
-1807.785299500017
 31
0.0
  0
LINE
  5
19F4
330
A
100
AcDbEntity
  8
HEWI
  6
STANDARD
 62
     7
100
AcDbLine
 10
-2933.736030632051
 20
-1807.785299500017
 30
0.0
 11
-2933.736030632051
 21
-1823.985299500017
 31
0.0
  0
LINE
  5
19F5
330
A
100
AcDbEntity
  8
HEWI
  6
STANDARD
 62
     7
100
AcDbLine
 10
-2936.736030632053
 20
-1791.585299500017
 30
0.0
 11
-2936.736030632053
 21
-1807.785299500017
 31
0.0
  0
LINE
  5
19F6
330
A
100
AcDbEntity
  8
HEWI
  6
STANDARD
 62
     7
100
AcDbLine
 10
-2936.736030632053
 20
-1807.785299500017
 30
0.0
 11
-2936.736030632053
 21
-1823.985299500017
 31
0.0
  0
LINE
  5
19F7
330
A
100
AcDbEntity
  8
HEWI
  6
STANDARD
 62
     7
100
AcDbLine
 10
-2936.536030632051
 20
-1807.785299500017
 30
0.0
 11
-2936.536030632051
 21
-1791.385299500017
 31
0.0
  0
LINE
  5
19F8
330
A
100
AcDbEntity
  8
HEWI
  6
STANDARD
 62
     7
100
AcDbLine
 10
-2936.536030632051
 20
-1824.185299500017
 30
0.0
 11
-2936.536030632051
 21
-1807.785299500017
 31
0.0
  0
LINE
  5
19F9
330
A
100
AcDbEntity
  8
HEWI
  6
STANDARD
 62
     7
100
AcDbLine
 10
-2913.485740632052
 20
-1822.644293500017
 30
0.0
 11
-2912.514206632051
 21
-1822.407395500017
 31
0.0
  0
LINE
  5
19FA
330
A
100
AcDbEntity
  8
HEWI
  6
STANDARD
 62
     7
100
AcDbLine
 10
-2913.736030632053
 20
-1819.979035500017
 30
0.0
 11
-2913.736030632053
 21
-1820.585299500017
 31
0.0
  0
LINE
  5
19FB
330
A
100
AcDbEntity
  8
HEWI
  6
STANDARD
 62
     7
100
AcDbLine
 10
-2912.736030632053
 20
-1821.160389500017
 30
0.0
 11
-2912.736030632053
 21
-1820.290217500017
 31
0.0
  0
LINE
  5
19FC
330
A
100
AcDbEntity
  8
HEWI
  6
STANDARD
 62
     7
100
AcDbLine
 10
-2828.986320632051
 20
-1822.644293500017
 30
0.0
 11
-2829.957854632052
 21
-1822.407395500017
 31
0.0
  0
LINE
  5
19FD
330
A
100
AcDbEntity
  8
HEWI
  6
STANDARD
 62
     7
100
AcDbLine
 10
-2912.736030632053
 20
-1820.290217500017
 30
0.0
 11
-2829.736030632053
 21
-1820.290217500017
 31
0.0
  0
LINE
  5
19FE
330
A
100
AcDbEntity
  8
HEWI
  6
STANDARD
 62
     7
100
AcDbLine
 10
-2913.736030632053
 20
-1822.407395500017
 30
0.0
 11
-2829.957854632052
 21
-1822.407395500017
 31
0.0
  0
LINE
  5
19FF
330
A
100
AcDbEntity
  8
HEWI
  6
STANDARD
 62
     7
100
AcDbLine
 10
-2828.736030632051
 20
-1820.585299500017
 30
0.0
 11
-2828.736030632051
 21
-1819.979035500017
 31
0.0
  0
LINE
  5
1A00
330
A
100
AcDbEntity
  8
HEWI
  6
STANDARD
 62
     7
100
AcDbLine
 10
-2829.736030632053
 20
-1820.290217500017
 30
0.0
 11
-2829.736030632053
 21
-1821.160389500017
 31
0.0
  0
LINE
  5
1A01
330
A
100
AcDbEntity
  8
HEWI
  6
STANDARD
 62
     7
100
AcDbLine
 10
-2913.736030632053
 20
-1819.979047500017
 30
0.0
 11
-2828.736030632051
 21
-1819.979047500017
 31
0.0
  0
LINE
  5
1A02
330
A
100
AcDbEntity
  8
HEWI
  6
STANDARD
 62
     7
100
AcDbLine
 10
-2913.736030632053
 20
-1819.979047500017
 30
0.0
 11
-2913.736030632053
 21
-1820.285299500017
 31
0.0
  0
LINE
  5
1A03
330
A
100
AcDbEntity
  8
HEWI
  6
STANDARD
 62
     7
100
AcDbLine
 10
-2828.736030632051
 20
-1820.285299500017
 30
0.0
 11
-2828.736030632051
 21
-1819.979047500017
 31
0.0
  0
ELLIPSE
  5
1A04
330
A
100
AcDbEntity
  8
HEWI
  6
STANDARD
 62
     7
100
AcDbEllipse
 10
-2912.736030632053
 20
-1820.585299500017
 30
0.0
 11
-1.0
 21
0.0000000000000018
 31
0.0
210
0.0
220
0.0
230
-1.0
 40
0.57509
 41
4.71238898038469
 42
6.283185307179563
  0
ELLIPSE
  5
1A05
330
A
100
AcDbEntity
  8
HEWI
  6
STANDARD
 62
     7
100
AcDbEllipse
 10
-2829.736030632053
 20
-1820.585299500017
 30
0.0
 11
1.0
 21
-0.0000000000000017
 31
0.0
210
0.0
220
0.0
230
-1.0
 40
0.57509
 41
0.0
 42
1.570796326794897
  0
SPLINE
  5
1A06
330
A
100
AcDbEntity
  8
HEWI
  6
STANDARD
 62
     7
100
AcDbSpline
210
0.0
220
0.0
230
1.0
 70
     8
 71
     3
 72
    10
 73
     6
 74
     0
 42
0.000000001
 43
0.0000000001
 40
0.0
 40
0.0
 40
0.0
 40
0.0
 40
0.5631963510114814
 40
0.5631963510114814
 40
1.0
 40
1.0
 40
1.0
 40
1.0
 10
-2913.736030450666
 20
-1820.585299559681
 30
0.0
 10
-2913.736030450666
 20
-1820.931614166813
 30
0.0
 10
-2913.713402977775
 20
-1821.319704855295
 30
0.0
 10
-2913.620340473559
 20
-1822.019576969131
 30
0.0
 10
-2913.56109082269
 20
-1822.335277948188
 30
0.0
 10
-2913.485740987953
 20
-1822.644293486758
 30
0.0
  0
SPLINE
  5
1A07
330
A
100
AcDbEntity
  8
HEWI
  6
STANDARD
 62
     7
100
AcDbSpline
210
0.0
220
0.0
230
1.0
 70
     8
 71
     3
 72
    10
 73
     6
 74
     0
 42
0.000000001
 43
0.0000000001
 40
0.0
 40
0.0
 40
0.0
 40
0.0
 40
0.4861134168230314
 40
0.4861134168230314
 40
1.0
 40
1.0
 40
1.0
 40
1.0
 10
-2912.514206314007
 20
-1822.407396088454
 30
0.0
 10
-2912.587551877518
 20
-1822.201537403838
 30
0.0
 10
-2912.644829598485
 20
-1821.986512530487
 30
0.0
 10
-2912.719730519593
 20
-1821.562663887104
 30
0.0
 10
-2912.736030450666
 20
-1821.34898253097
 30
0.0
 10
-2912.736030450667
 20
-1821.160389607408
 30
0.0
  0
SPLINE
  5
1A08
330
A
100
AcDbEntity
  8
HEWI
  6
STANDARD
 62
     7
100
AcDbSpline
210
-0.0000000000000013
220
-0.0000000000000017
230
1.0
 70
     8
 71
     3
 72
    12
 73
     8
 74
     0
 42
0.000000001
 43
0.0000000001
 40
0.0
 40
0.0
 40
0.0
 40
0.0
 40
0.4202079642026861
 40
0.4202079642026861
 40
0.8401692150779277
 40
0.8401692150779277
 40
1.0
 40
1.0
 40
1.0
 40
1.0
 10
-2912.736030450666
 20
-1820.290216601592
 30
0.0000000000000002
 10
-2912.846731484967
 20
-1820.290216601592
 30
0.0000000000000002
 10
-2912.958956631072
 20
-1820.270979762549
 30
-0.0000000000000002
 10
-2913.167763086038
 20
-1820.197522606505
 30
-0.0000000000000002
 10
-2913.267212924911
 20
-1820.142347373908
 30
-0.0000000000000002
 10
-2913.38671719126
 20
-1820.047215954186
 30
-0.0000000000000002
 10
-2913.418133476432
 20
-1820.018736334258
 30
-0.0000000000000002
 10
-2913.447698626594
 20
-1819.988377903246
 30
-0.0000000000000002
  0
SPLINE
  5
1A09
330
A
100
AcDbEntity
  8
HEWI
  6
STANDARD
 62
     7
100
AcDbSpline
210
0.0
220
0.0
230
1.0
 70
     8
 71
     3
 72
    10
 73
     6
 74
     0
 42
0.000000001
 43
0.0000000001
 40
0.0
 40
0.0
 40
0.0
 40
0.0
 40
0.5635302216462811
 40
0.5635302216462811
 40
1.0
 40
1.0
 40
1.0
 40
1.0
 10
-2828.986319913383
 20
-1822.644293486758
 30
0.0
 10
-2828.889659678545
 20
-1822.247882338275
 30
0.0
 10
-2828.819776595279
 20
-1821.839023307282
 30
0.0
 10
-2828.749418073838
 20
-1821.149752613824
 30
0.0
 10
-2828.736030450667
 20
-1820.85521926638
 30
0.0
 10
-2828.736030450667
 20
-1820.585299559677
 30
0.0
  0
SPLINE
  5
1A0A
330
A
100
AcDbEntity
  8
HEWI
  6
STANDARD
 62
     7
100
AcDbSpline
210
0.0
220
0.0
230
1.0
 70
     8
 71
     3
 72
    10
 73
     6
 74
     0
 42
0.000000001
 43
0.0000000001
 40
0.0
 40
0.0
 40
0.0
 40
0.0
 40
0.4830490318618912
 40
0.4830490318618912
 40
1.0
 40
1.0
 40
1.0
 40
1.0
 10
-2829.736030450666
 20
-1821.160389607408
 30
0.0
 10
-2829.736030450666
 20
-1821.338008227222
 30
0.0
 10
-2829.750362623446
 20
-1821.537636425891
 30
0.0
 10
-2829.820325710773
 20
-1821.959800185245
 30
0.0
 10
-2829.880005848801
 20
-1822.188898361465
 30
0.0
 10
-2829.957854587327
 20
-1822.407396088454
 30
0.0
  0
SPLINE
  5
1A0B
330
A
100
AcDbEntity
  8
HEWI
  6
STANDARD
 62
     7
100
AcDbSpline
210
0.0
220
0.0
230
1.0
 70
     8
 71
     3
 72
    12
 73
     8
 74
     0
 42
0.000000001
 43
0.0000000001
 40
0.0
 40
0.0
 40
0.0
 40
0.0
 40
0.3099027414590628
 40
0.3099027414590628
 40
0.7381692089327201
 40
0.7381692089327201
 40
1.0
 40
1.0
 40
1.0
 40
1.0
 10
-2829.023240575989
 20
-1819.987246883984
 30
0.0
 10
-2829.080509771184
 20
-1820.046077695616
 30
0.0
 10
-2829.145169671003
 20
-1820.098241539139
 30
0.0
 10
-2829.310442458151
 20
-1820.200682204513
 30
0.0
 10
-2829.418071628639
 20
-1820.244275240591
 30
0.0
 10
-2829.59641129592
 20
-1820.282741244191
 30
0.0
 10
-2829.66641443604
 20
-1820.290216601592
 30
0.0
 10
-2829.736030450666
 20
-1820.290216601592
 30
0.0
  0
SPLINE
  5
1A0C
330
A
100
AcDbEntity
  8
HEWI
  6
STANDARD
 62
     7
100
AcDbSpline
210
0.0
220
0.0
230
1.0
 70
     8
 71
     3
 72
    26
 73
    22
 74
     0
 42
0.000000001
 43
0.0000000001
 40
0.0
 40
0.0
 40
0.0
 40
0.0
 40
0.0625
 40
0.0625
 40
0.1249999999999999
 40
0.1249999999999999
 40
0.25
 40
0.25
 40
0.3750000000000001
 40
0.3750000000000001
 40
0.5000000000000001
 40
0.5000000000000001
 40
0.6250000000000001
 40
0.6250000000000001
 40
0.7500000000000002
 40
0.7500000000000002
 40
0.8750000000000001
 40
0.8750000000000001
 40
0.9375
 40
0.9375
 40
1.0
 40
1.0
 40
1.0
 40
1.0
 10
-2828.986319913383
 20
-1822.644293486758
 30
0.0
 10
-2829.4693136955
 20
-1824.625088590412
 30
0.0
 10
-2830.589222881363
 20
-1826.364157066953
 30
0.0
 10
-2833.348298081539
 20
-1829.34325272833
 30
0.0
 10
-2834.940817944199
 20
-1830.557023795556
 30
0.0
 10
-2840.056475196118
 20
-1833.760556506161
 30
0.0
 10
-2843.797175169058
 20
-1835.240210964146
 30
0.0
 10
-2851.457343557122
 20
-1837.528003935341
 30
0.0
 10
-2855.411134985879
 20
-1838.314074534637
 30
0.0
 10
-2863.284489865335
 20
-1839.339595488672
 30
0.0
 10
-2867.239298631741
 20
-1839.584232928672
 30
0.0
 10
-2875.181858680287
 20
-1839.586359376522
 30
0.0
 10
-2879.193962885793
 20
-1839.340190732031
 30
0.0
 10
-2887.115403499638
 20
-1838.305539907605
 30
0.0
 10
-2891.02304295181
 20
-1837.526330024431
 30
0.0
 10
-2898.689760261956
 20
-1835.234953438092
 30
0.0
 10
-2902.475700455164
 20
-1833.729567558322
 30
0.0
 10
-2907.556280600844
 20
-1830.537962230268
 30
0.0
 10
-2909.139848863297
 20
-1829.328629663811
 30
0.0
 10
-2911.88805324162
 20
-1826.355758864264
 30
0.0
 10
-2913.00402445401
 20
-1824.619850496201
 30
0.0
 10
-2913.485740987953
 20
-1822.644293486758
 30
0.0
  0
SPLINE
  5
1A0D
330
A
100
AcDbEntity
  8
HEWI
  6
STANDARD
 62
     7
100
AcDbSpline
210
0.0
220
0.0
230
1.0
 70
     8
 71
     3
 72
    24
 73
    20
 74
     0
 42
0.000000001
 43
0.0000000001
 40
0.0
 40
0.0
 40
0.0
 40
0.0
 40
0.0625000000000001
 40
0.0625000000000001
 40
0.1250000000000001
 40
0.1250000000000001
 40
0.2500000000000001
 40
0.2500000000000001
 40
0.3749999999999999
 40
0.3749999999999999
 40
0.5
 40
0.5
 40
0.75
 40
0.75
 40
0.8749999999999998
 40
0.8749999999999998
 40
0.9375
 40
0.9375
 40
1.0
 40
1.0
 40
1.0
 40
1.0
 10
-2829.957854587327
 20
-1822.407396088454
 30
0.0
 10
-2830.428900584032
 20
-1824.339192393939
 30
0.0
 10
-2831.571816583472
 20
-1826.006067770058
 30
0.0
 10
-2834.280963401169
 20
-1828.816300268604
 30
0.0
 10
-2835.882512044205
 20
-1829.996102649448
 30
0.0
 10
-2840.872893614818
 20
-1833.022297384203
 30
0.0
 10
-2844.563426034001
 20
-1834.449506400801
 30
0.0
 10
-2852.004413875295
 20
-1836.621118563193
 30
0.0
 10
-2855.801041544547
 20
-1837.364373182593
 30
0.0
 10
-2863.505270836127
 20
-1838.351573106645
 30
0.0
 10
-2867.409463925362
 20
-1838.586622458995
 30
0.0
 10
-2878.986312111025
 20
-1838.582637038971
 30
0.0
 10
-2886.658289505654
 20
-1837.730478914769
 30
0.0
 10
-2897.926978276726
 20
-1834.445338893093
 30
0.0
 10
-2901.612511212719
 20
-1833.016035478597
 30
0.0
 10
-2906.598774113213
 20
-1829.989589060114
 30
0.0
 10
-2908.192334627564
 20
-1828.815994629875
 30
0.0
 10
-2910.907020606339
 20
-1825.99805810114
 30
0.0000000000000002
 10
-2912.044265797917
 20
-1824.334658731874
 30
0.0
 10
-2912.514206314007
 20
-1822.407396088454
 30
0.0
  0
LINE
  5
1A14
330
A
100
AcDbEntity
  8
HEWI
  6
STANDARD
 62
     7
100
AcDbLine
 10
-2763.936039632054
 20
-1796.180933000014
 30
0.0
 11
-2763.936039632054
 21
-1721.730936000014
 31
0.0
  0
LINE
  5
1A15
330
A
100
AcDbEntity
  8
HEWI
  6
STANDARD
 62
     7
100
AcDbLine
 10
-2764.104039632055
 20
-1796.613901000014
 30
0.0
 11
-2764.233033632053
 21
-1796.770914000014
 31
0.0
  0
LINE
  5
1A16
330
A
100
AcDbEntity
  8
HEWI
  6
STANDARD
 62
     7
100
AcDbLine
 10
-2764.238030632053
 20
-1721.312922000014
 30
0.0
 11
-2764.395033632055
 21
-1721.201914000014
 31
0.0
  0
LINE
  5
1A17
330
A
100
AcDbEntity
  8
HEWI
  6
STANDARD
 62
     7
100
AcDbLine
 10
-2764.192034632055
 20
-1721.344889000014
 30
0.0
 11
-2764.238030632053
 21
-1721.312922000014
 31
0.0
  0
LINE
  5
1A18
330
A
100
AcDbEntity
  8
HEWI
  6
STANDARD
 62
     7
100
AcDbLine
 10
-2764.011036632052
 20
-1796.460932000014
 30
0.0
 11
-2764.104039632055
 21
-1796.613901000014
 31
0.0
  0
LINE
  5
1A19
330
A
100
AcDbEntity
  8
HEWI
  6
STANDARD
 62
     7
100
AcDbLine
 10
-2764.395033632055
 20
-1721.201914000014
 30
0.0
 11
-2764.590031632053
 21
-1721.091898000014
 31
0.0
  0
LINE
  5
1A1A
330
A
100
AcDbEntity
  8
HEWI
  6
STANDARD
 62
     7
100
AcDbLine
 10
-2764.590031632053
 20
-1721.091898000014
 30
0.0
 11
-2764.814030632053
 21
-1720.987910000013
 31
0.0
  0
LINE
  5
1A1B
330
A
100
AcDbEntity
  8
HEWI
  6
STANDARD
 62
     7
100
AcDbLine
 10
-2764.814030632053
 20
-1720.987910000013
 30
0.0
 11
-2765.065037632054
 21
-1720.889948000016
 31
0.0
  0
LINE
  5
1A1C
330
A
100
AcDbEntity
  8
HEWI
  6
STANDARD
 62
     7
100
AcDbLine
 10
-2763.943039632053
 20
-1796.262949000014
 30
0.0
 11
-2764.011036632052
 21
-1796.460932000014
 31
0.0
  0
LINE
  5
1A1D
330
A
100
AcDbEntity
  8
HEWI
  6
STANDARD
 62
     7
100
AcDbLine
 10
-2765.065037632054
 20
-1720.889948000016
 30
0.0
 11
-2765.339037632054
 21
-1720.801905000016
 31
0.0
  0
LINE
  5
1A1E
330
A
100
AcDbEntity
  8
HEWI
  6
STANDARD
 62
     7
100
AcDbLine
 10
-2765.339037632054
 20
-1720.801905000016
 30
0.0
 11
-2765.634037632054
 21
-1720.725916000014
 31
0.0
  0
LINE
  5
1A1F
330
A
100
AcDbEntity
  8
HEWI
  6
STANDARD
 62
     7
100
AcDbLine
 10
-2765.634037632054
 20
-1720.725916000014
 30
0.0
 11
-2765.943037632053
 21
-1720.664881000014
 31
0.0
  0
LINE
  5
1A20
330
A
100
AcDbEntity
  8
HEWI
  6
STANDARD
 62
     7
100
AcDbLine
 10
-2765.943037632053
 20
-1720.664881000014
 30
0.0
 11
-2766.268031632054
 21
-1720.618876000014
 31
0.0
  0
LINE
  5
1A21
330
A
100
AcDbEntity
  8
HEWI
  6
STANDARD
 62
     7
100
AcDbLine
 10
-2763.936039632054
 20
-1796.180933000014
 30
0.0
 11
-2763.943039632053
 21
-1796.262949000014
 31
0.0
  0
LINE
  5
1A22
330
A
100
AcDbEntity
  8
HEWI
  6
STANDARD
 62
     7
100
AcDbLine
 10
-2766.268031632054
 20
-1720.618876000014
 30
0.0
 11
-2766.598031632053
 21
-1720.590876000014
 31
0.0
  0
LINE
  5
1A23
330
A
100
AcDbEntity
  8
HEWI
  6
STANDARD
 62
     7
100
AcDbLine
 10
-2766.598031632053
 20
-1720.590876000014
 30
0.0
 11
-2766.936032632054
 21
-1720.581949000014
 31
0.0
  0
LINE
  5
1A24
330
A
100
AcDbEntity
  8
HEWI
  6
STANDARD
 62
     7
100
AcDbLine
 10
-2763.936039632054
 20
-1721.730936000014
 30
0.0
 11
-2763.955037632054
 21
-1721.633890000014
 31
0.0
  0
LINE
  5
1A25
330
A
100
AcDbEntity
  8
HEWI
  6
STANDARD
 62
     7
100
AcDbLine
 10
-2765.634037632054
 20
-1797.626932000014
 30
0.0
 11
-2765.943037632053
 21
-1797.717951000014
 31
0.0
  0
LINE
  5
1A26
330
A
100
AcDbEntity
  8
HEWI
  6
STANDARD
 62
     7
100
AcDbLine
 10
-2765.336033632054
 20
-1797.511881000014
 30
0.0
 11
-2765.634037632054
 21
-1797.626932000014
 31
0.0
  0
LINE
  5
1A27
330
A
100
AcDbEntity
  8
HEWI
  6
STANDARD
 62
     7
100
AcDbLine
 10
-2765.065037632054
 20
-1797.383936000015
 30
0.0
 11
-2765.336033632054
 21
-1797.511881000014
 31
0.0
  0
LINE
  5
1A28
330
A
100
AcDbEntity
  8
HEWI
  6
STANDARD
 62
     7
100
AcDbLine
 10
-2763.955037632054
 20
-1721.633890000014
 30
0.0
 11
-2764.011036632052
 21
-1721.530894000014
 31
0.0
  0
LINE
  5
1A29
330
A
100
AcDbEntity
  8
HEWI
  6
STANDARD
 62
     7
100
AcDbLine
 10
-2764.814030632053
 20
-1797.240885000014
 30
0.0
 11
-2765.065037632054
 21
-1797.383936000015
 31
0.0
  0
LINE
  5
1A2A
330
A
100
AcDbEntity
  8
HEWI
  6
STANDARD
 62
     7
100
AcDbLine
 10
-2764.590031632053
 20
-1797.087916000014
 30
0.0
 11
-2764.814030632053
 21
-1797.240885000014
 31
0.0
  0
LINE
  5
1A2B
330
A
100
AcDbEntity
  8
HEWI
  6
STANDARD
 62
     7
100
AcDbLine
 10
-2764.433037632054
 20
-1796.962946000014
 30
0.0
 11
-2764.590031632053
 21
-1797.087916000014
 31
0.0
  0
LINE
  5
1A2C
330
A
100
AcDbEntity
  8
HEWI
  6
STANDARD
 62
     7
100
AcDbLine
 10
-2764.233033632053
 20
-1796.770914000014
 30
0.0
 11
-2764.433037632054
 21
-1796.962946000014
 31
0.0
  0
LINE
  5
1A2D
330
A
100
AcDbEntity
  8
HEWI
  6
STANDARD
 62
     7
100
AcDbLine
 10
-2764.011036632052
 20
-1721.530894000014
 30
0.0
 11
-2764.192034632055
 21
-1721.344889000014
 31
0.0
  0
ARC
  5
1A2E
330
A
100
AcDbEntity
  8
HEWI
  6
STANDARD
 62
     7
100
AcDbCircle
 10
-2766.934883632054
 20
-1793.844450000014
 30
0.0
 40
3.998470999999998
100
AcDbArc
 50
269.9835380000031
 51
284.3625189999906
  0
LINE
  5
1A2F
330
A
100
AcDbEntity
  8
HEWI
100
AcDbLine
 10
-2763.736030632053
 20
-1721.055855500013
 30
0.0
 11
-2723.736030632053
 21
-1721.055855500013
 31
0.0
  0
LINE
  5
1A30
330
A
100
AcDbEntity
  8
HEWI
  6
STANDARD
 62
     7
100
AcDbLine
 10
-2723.736030632053
 20
-1796.613811500013
 30
0.0
 11
-2763.736030632053
 21
-1796.613811500013
 31
0.0
  0
LINE
  5
1A31
330
A
100
AcDbEntity
  8
HEWI
  6
STANDARD
 62
     7
100
AcDbLine
 10
-2763.736030632053
 20
-1796.113811500012
 30
0.0
 11
-2763.736030632053
 21
-1796.613811500013
 31
0.0
  0
LINE
  5
1A32
330
A
100
AcDbEntity
  8
HEWI
100
AcDbLine
 10
-2763.736030632053
 20
-1721.055855500013
 30
0.0
 11
-2763.736030632053
 21
-1721.555855500013
 31
0.0
  0
LINE
  5
1A33
330
A
100
AcDbEntity
  8
HEWI
  6
STANDARD
 62
     7
100
AcDbLine
 10
-2763.736030632053
 20
-1721.555855500013
 30
0.0
 11
-2763.736030632053
 21
-1796.113811500012
 31
0.0
  0
LINE
  5
1A34
330
A
100
AcDbEntity
  8
HEWI
100
AcDbLine
 10
-2763.736030632053
 20
-1721.555855500013
 30
0.0
 11
-2723.736030632053
 21
-1721.555855500013
 31
0.0
  0
LINE
  5
1A35
330
A
100
AcDbEntity
  8
HEWI
  6
STANDARD
 62
     7
100
AcDbLine
 10
-2723.736030632053
 20
-1796.113811500012
 30
0.0
 11
-2763.736030632053
 21
-1796.113811500012
 31
0.0
  0
LINE
  5
1A36
330
A
100
AcDbEntity
  8
HEWI
100
AcDbLine
 10
-2761.236030632053
 20
-1724.668263500014
 30
0.0
 11
-2761.236030632053
 21
-1793.168263500013
 31
0.0
  0
LINE
  5
1A37
330
A
100
AcDbEntity
  8
HEWI
100
AcDbLine
 10
-2760.236030632052
 20
-1723.668263500013
 30
0.0
 11
-2727.236030632053
 21
-1723.668263500013
 31
0.0
  0
LINE
  5
1A38
330
A
100
AcDbEntity
  8
HEWI
100
AcDbLine
 10
-2760.236030632052
 20
-1794.168263500013
 30
0.0
 11
-2727.236030632053
 21
-1794.168263500013
 31
0.0
  0
LINE
  5
1A39
330
A
100
AcDbEntity
  8
HEWI
100
AcDbLine
 10
-2726.236030632052
 20
-1724.668263500014
 30
0.0
 11
-2726.236030632052
 21
-1793.168263500013
 31
0.0
  0
LINE
  5
1A3A
330
A
100
AcDbEntity
  8
HEWI
  6
STANDARD
 62
     7
100
AcDbLine
 10
-2723.736030632053
 20
-1796.613811500013
 30
0.0
 11
-2723.736030632053
 21
-1796.113811500012
 31
0.0
  0
LINE
  5
1A3B
330
A
100
AcDbEntity
  8
HEWI
100
AcDbLine
 10
-2723.736030632053
 20
-1721.555855500013
 30
0.0
 11
-2723.736030632053
 21
-1721.055855500013
 31
0.0
  0
LINE
  5
1A3C
330
A
100
AcDbEntity
  8
HEWI
  6
STANDARD
 62
     7
100
AcDbLine
 10
-2723.736030632053
 20
-1721.555855500013
 30
0.0
 11
-2723.736030632053
 21
-1796.113811500012
 31
0.0
  0
LINE
  5
1A3D
330
A
100
AcDbEntity
  8
HEWI
  6
STANDARD
 62
     7
100
AcDbLine
 10
-2765.736030632053
 20
-1797.592995500013
 30
0.0
 11
-2765.736030632053
 21
-1797.392995500014
 31
0.0
  0
LINE
  5
1A3E
330
A
100
AcDbEntity
  8
HEWI
  6
STANDARD
 62
     7
100
AcDbLine
 10
-2765.736030632053
 20
-1720.843495500013
 30
0.0
 11
-2765.736030632053
 21
-1797.392995500014
 31
0.0
  0
LINE
  5
1A3F
330
A
100
AcDbEntity
  8
HEWI
100
AcDbLine
 10
-2765.736030632053
 20
-1720.643495500014
 30
0.0
 11
-2765.736030632053
 21
-1720.843495500013
 31
0.0
  0
LINE
  5
1A40
330
A
100
AcDbEntity
  8
HEWI
100
AcDbLine
 10
-2760.986030632052
 20
-1792.918263500014
 30
0.0
 11
-2760.986030632052
 21
-1758.918263500014
 31
0.0
  0
LINE
  5
1A41
330
A
100
AcDbEntity
  8
HEWI
100
AcDbLine
 10
-2727.486030632053
 20
-1793.918263500013
 30
0.0
 11
-2759.986030632053
 21
-1793.918263500013
 31
0.0
  0
LINE
  5
1A42
330
A
100
AcDbEntity
  8
HEWI
100
AcDbLine
 10
-2726.486030632053
 20
-1792.918263500014
 30
0.0
 11
-2726.486030632053
 21
-1758.918263500014
 31
0.0
  0
LINE
  5
1A43
330
A
100
AcDbEntity
  8
HEWI
100
AcDbLine
 10
-2760.986030632052
 20
-1758.918263500014
 30
0.0
 11
-2760.986030632052
 21
-1724.918263500013
 31
0.0
  0
LINE
  5
1A44
330
A
100
AcDbEntity
  8
HEWI
100
AcDbLine
 10
-2759.986030632053
 20
-1723.918263500013
 30
0.0
 11
-2727.486030632053
 21
-1723.918263500013
 31
0.0
  0
LINE
  5
1A45
330
A
100
AcDbEntity
  8
HEWI
100
AcDbLine
 10
-2726.486030632053
 20
-1758.918263500014
 30
0.0
 11
-2726.486030632053
 21
-1724.918263500013
 31
0.0
  0
ARC
  5
1A46
330
A
100
AcDbEntity
  8
HEWI
100
AcDbCircle
 10
2760.236030632052
 20
-1724.668263500014
 30
0.0
 40
1.0
210
0.0
220
0.0
230
-1.0
100
AcDbArc
 50
0.000000000000007
 51
90.0
  0
ARC
  5
1A47
330
A
100
AcDbEntity
  8
HEWI
100
AcDbCircle
 10
2760.236030632052
 20
-1793.168263500013
 30
0.0
 40
1.0
210
0.0
220
0.0
230
-1.0
100
AcDbArc
 50
270.0
 51
0.000000000000007
  0
ARC
  5
1A48
330
A
100
AcDbEntity
  8
HEWI
100
AcDbCircle
 10
2727.236030632053
 20
-1724.668263500014
 30
0.0
 40
1.0
210
0.0
220
0.0
230
-1.0
100
AcDbArc
 50
90.0
 51
180.0
  0
ARC
  5
1A49
330
A
100
AcDbEntity
  8
HEWI
100
AcDbCircle
 10
2727.236030632053
 20
-1793.168263500013
 30
0.0
 40
1.0
210
0.0
220
0.0
230
-1.0
100
AcDbArc
 50
180.0
 51
270.0
  0
ARC
  5
1A4A
330
A
100
AcDbEntity
  8
HEWI
100
AcDbCircle
 10
-2759.986030632053
 20
-1792.918263500014
 30
0.0
 40
1.0
100
AcDbArc
 50
180.0
 51
270.0
  0
ARC
  5
1A4B
330
A
100
AcDbEntity
  8
HEWI
100
AcDbCircle
 10
-2727.486030632053
 20
-1792.918263500014
 30
0.0
 40
1.0
100
AcDbArc
 50
270.0
 51
0.000000000000007
  0
ARC
  5
1A4C
330
A
100
AcDbEntity
  8
HEWI
100
AcDbCircle
 10
-2759.986030632053
 20
-1724.918263500013
 30
0.0
 40
1.0
100
AcDbArc
 50
90.0
 51
180.0
  0
ARC
  5
1A4D
330
A
100
AcDbEntity
  8
HEWI
100
AcDbCircle
 10
-2727.486030632053
 20
-1724.918263500013
 30
0.0
 40
1.0
100
AcDbArc
 50
0.000000000000007
 51
90.0
  0
ELLIPSE
  5
1A4E
330
A
100
AcDbEntity
  8
HEWI
  6
STANDARD
 62
     7
100
AcDbEllipse
 10
-2763.936030632053
 20
-1796.338029500013
 30
0.0
 11
0.2
 21
-0.0000000000000001
 31
0.0
210
0.0
220
0.0
230
-1.0
 40
0.90136
 41
0.0
 42
0.6599300405254424
  0
SPLINE
  5
1A4F
330
A
100
AcDbEntity
  8
HEWI
100
AcDbSpline
210
0.0
220
0.0
230
1.0
 70
     8
 71
     3
 72
    12
 73
     8
 74
     0
 42
0.000000001
 43
0.0000000001
 40
0.0
 40
0.0
 40
0.0
 40
0.0
 40
0.129584674490289
 40
0.3660981216981058
 40
0.6122957521584437
 40
0.8793126725148667
 40
1.0
 40
1.0
 40
1.0
 40
1.0
 10
-2765.467449178475
 20
-1720.66631270843
 30
0.0
 10
-2765.341163985469
 20
-1720.669360544467
 30
0.0
 10
-2765.00070607705
 20
-1720.693914281979
 30
0.0
 10
-2764.49134098472
 20
-1720.836252803045
 30
0.0
 10
-2764.034764756035
 20
-1721.067335482072
 30
0.0
 10
-2763.768261102621
 20
-1721.309959571309
 30
0.0
 10
-2763.753358503683
 20
-1721.510193366173
 30
0.0
 10
-2763.759399974752
 20
-1721.576360844987
 30
0.0
  0
SPLINE
  5
1A50
330
A
100
AcDbEntity
  8
HEWI
  6
STANDARD
 62
     7
100
AcDbSpline
210
0.0
220
0.0
230
1.0
 70
     8
 71
     3
 72
    16
 73
    12
 74
     0
 42
0.000000001
 43
0.0000000001
 40
0.0
 40
0.0
 40
0.0
 40
0.0
 40
0.1053123592843732
 40
0.1053123592843732
 40
0.3301327988397731
 40
0.3301327988397731
 40
0.6504275187068807
 40
0.6504275187068807
 40
0.9722491720568131
 40
0.9722491720568131
 40
1.0
 40
1.0
 40
1.0
 40
1.0
 10
-2765.736030450668
 20
-1797.556653058289
 30
0.0
 10
-2765.653257509652
 20
-1797.556653058289
 30
0.0
 10
-2765.570208676861
 20
-1797.55266406514
 30
0.0
 10
-2765.316133750408
 20
-1797.528367247813
 30
0.0
 10
-2765.146825737112
 20
-1797.494122038253
 30
0.0
 10
-2764.775501915884
 20
-1797.381526155521
 30
0.0
 10
-2764.580987536307
 20
-1797.288783886916
 30
0.0
 10
-2764.268529956274
 20
-1797.084474185622
 30
0.0
 10
-2764.144914615266
 20
-1796.969417479485
 30
0.0
 10
-2764.055203434311
 20
-1796.845600933103
 30
0.0
 10
-2764.048367740937
 20
-1796.835752527567
 30
0.0
 10
-2764.041822856075
 20
-1796.825893512665
 30
0.0
  0
SPLINE
  5
1A51
330
A
100
AcDbEntity
  8
HEWI
100
AcDbSpline
210
0.0
220
0.0
230
1.0
 70
     8
 71
     3
 72
    16
 73
    12
 74
     0
 42
0.000000001
 43
0.0000000001
 40
0.0
 40
0.0
 40
0.0
 40
0.0
 40
0.1945552639644179
 40
0.1945552639644179
 40
0.3878946385599321
 40
0.3878946385599321
 40
0.5892372746630514
 40
0.5892372746630514
 40
0.8080348914056751
 40
0.8080348914056751
 40
1.0
 40
1.0
 40
1.0
 40
1.0
 10
-2765.736030450668
 20
-1720.84349543071
 30
0.0
 10
-2765.52701324269
 20
-1720.84349543071
 30
0.0
 10
-2765.315185300198
 20
-1720.85801167777
 30
0.0
 10
-2764.9219187464
 20
-1720.911689716433
 30
0.0
 10
-2764.73517836218
 20
-1720.951259208009
 30
0.0
 10
-2764.399271428736
 20
-1721.048233355593
 30
0.0
 10
-2764.247603929514
 20
-1721.107413026992
 30
0.0
 10
-2763.991494482
 20
-1721.238218700291
 30
0.0
 10
-2763.888707461921
 20
-1721.312164299172
 30
0.0
 10
-2763.765874309058
 20
-1721.448825518914
 30
0.0
 10
-2763.736030450669
 20
-1721.513185554343
 30
0.0
 10
-2763.736030450669
 20
-1721.573840385913
 30
0.0
  0
SPLINE
  5
1A52
330
A
100
AcDbEntity
  8
HEWI
  6
STANDARD
 62
     7
100
AcDbSpline
210
0.0
220
0.0
230
1.0
 70
     8
 71
     3
 72
    16
 73
    12
 74
     0
 42
0.000000001
 43
0.0000000001
 40
0.0
 40
0.0
 40
0.0
 40
0.0
 40
0.2481016251448624
 40
0.2481016251448624
 40
0.4963851440995061
 40
0.4963851440995061
 40
0.7438538839225557
 40
0.7438538839225557
 40
0.9181884979193776
 40
0.9181884979193776
 40
1.0
 40
1.0
 40
1.0
 40
1.0
 10
-2763.736030450671
 20
-1796.338029142677
 30
0.0
 10
-2763.736030450671
 20
-1796.447017104692
 30
0.0
 10
-2763.784713947856
 20
-1796.564895138894
 30
0.0
 10
-2763.968048848727
 20
-1796.796268565121
 30
0.0
 10
-2764.105492129484
 20
-1796.913271612647
 30
0.0
 10
-2764.452906623517
 20
-1797.120993411317
 30
0.0
 10
-2764.669284178792
 20
-1797.215206539724
 30
0.0
 10
-2765.08164966666
 20
-1797.3295439173
 30
0.0
 10
-2765.269712763509
 20
-1797.36427681009
 30
0.0
 10
-2765.551813563839
 20
-1797.388944479281
 30
0.0
 10
-2765.644070715441
 20
-1797.392994714266
 30
0.0
 10
-2765.736030450668
 20
-1797.392994714266
 30
0.0
  0
SPLINE
  5
1A53
330
A
100
AcDbEntity
  8
HEWI
100
AcDbSpline
210
0.0
220
0.0
230
1.0
 70
     8
 71
     3
 72
     8
 73
     4
 74
     0
 42
0.000000001
 43
0.0000000001
 40
0.0
 40
0.0
 40
0.0
 40
0.0
 40
1.0
 40
1.0
 40
1.0
 40
1.0
 10
-2765.477193064604
 20
-1720.671601108407
 30
0.0
 10
-2765.562986266136
 20
-1720.665771710712
 30
0.0
 10
-2765.649775960636
 20
-1720.662754130169
 30
0.0
 10
-2765.736030450668
 20
-1720.662754130169
 30
0.0
  0
LWPOLYLINE
  5
1A60
330
A
100
AcDbEntity
  8
0
  6
CUSTOM
 62
    18
420
        0
370
     9
100
AcDbPolyline
 90
       30
 70
     1
 43
0.0
 10
-2763.936030654948
 20
-1721.678933473791
 10
-2763.936030654948
 20
-1796.736935540117
 10
-2763.936030654948
 20
-1796.853935543334
 10
-2763.936030654948
 20
-1796.964935546388
 10
-2763.936030654948
 20
-1797.063935549118
 10
-2763.936030654948
 20
-1797.142935551291
 10
-2763.936030654948
 20
-1797.19993555286
 10
-2763.936030654948
 20
-1797.23093555371
 10
-2763.936030654948
 20
-1797.233935553795
 10
-2723.936030677842
 20
-1797.233935553795
 10
-2723.936030677842
 20
-1797.23093555371
 10
-2723.936030677842
 20
-1797.19993555286
 10
-2723.936030677842
 20
-1797.142935551291
 10
-2723.936030677842
 20
-1797.063935549118
 10
-2723.936030677842
 20
-1796.964935546388
 10
-2723.936030677842
 20
-1796.853935543334
 10
-2723.936030677842
 20
-1796.736935540117
 10
-2723.936030677842
 20
-1721.678933473791
 10
-2723.936030677842
 20
-1721.555933470404
 10
-2723.936030677842
 20
-1721.439933467209
 10
-2723.936030677842
 20
-1721.33893346443
 10
-2723.936030677842
 20
-1721.25993346225
 10
-2723.936030677842
 20
-1721.20493346074
 10
-2723.936030677842
 20
-1721.17993346005
 10
-2763.936030654948
 20
-1721.17993346005
 10
-2763.936030654948
 20
-1721.20493346074
 10
-2763.936030654948
 20
-1721.25993346225
 10
-2763.936030654948
 20
-1721.33893346443
 10
-2763.936030654948
 20
-1721.439933467209
 10
-2763.936030654948
 20
-1721.555933470404
  0
LWPOLYLINE
  5
1A61
330
A
100
AcDbEntity
  8
0
  6
CUSTOM
 62
    18
420
        0
370
     9
100
AcDbPolyline
 90
       28
 70
     1
 43
0.0
 10
-2761.436030656378
 20
-1725.040933566342
 10
-2761.402030656398
 20
-1724.781933559213
 10
-2761.302030656456
 20
-1724.54093355258
 10
-2761.143030656544
 20
-1724.33393354688
 10
-2760.936030656665
 20
-1724.174933542504
 10
-2760.695030656802
 20
-1724.074933539748
 10
-2760.436030656951
 20
-1724.040933538814
 10
-2727.436030675836
 20
-1724.040933538814
 10
-2727.177030675985
 20
-1724.074933539748
 10
-2726.936030676125
 20
-1724.174933542504
 10
-2726.729030676242
 20
-1724.33393354688
 10
-2726.570030676334
 20
-1724.54093355258
 10
-2726.47003067639
 20
-1724.781933559213
 10
-2726.436030676409
 20
-1725.040933566342
 10
-2726.436030676409
 20
-1793.540935452128
 10
-2726.47003067639
 20
-1793.79993545926
 10
-2726.570030676334
 20
-1794.040935465895
 10
-2726.729030676242
 20
-1794.247935471594
 10
-2726.936030676125
 20
-1794.40693547597
 10
-2727.177030675985
 20
-1794.506935478719
 10
-2727.436030675836
 20
-1794.540935479657
 10
-2760.436030656951
 20
-1794.540935479657
 10
-2760.695030656802
 20
-1794.506935478719
 10
-2760.936030656665
 20
-1794.40693547597
 10
-2761.143030656544
 20
-1794.247935471594
 10
-2761.302030656456
 20
-1794.040935465895
 10
-2761.402030656398
 20
-1793.79993545926
 10
-2761.436030656378
 20
-1793.540935452128
  0
HATCH
  5
1F02
330
A
100
AcDbEntity
  8
0
 62
   152
420
    28896
100
AcDbHatch
 10
0.0
 20
0.0
 30
0.0
210
0.0
220
0.0
230
1.0
  2
SOLID
 70
     1
 71
     0
 91
        3
 92
        7
 72
     1
 73
     1
 93
       10
 10
-2760.986030632052
 20
-1724.918263500011
 42
-0.4142135623730968
 10
-2759.986030632053
 20
-1723.91826350001
 42
0.0
 10
-2727.486030632053
 20
-1723.91826350001
 42
-0.414213562373093
 10
-2726.486030632053
 20
-1724.918263500011
 42
0.0
 10
-2726.486030632053
 20
-1758.918263500012
 42
0.0
 10
-2726.486030632053
 20
-1792.918263500012
 42
-0.4142135623730973
 10
-2727.486030632053
 20
-1793.918263500011
 42
0.0
 10
-2759.986030632053
 20
-1793.918263500011
 42
-0.4142135623730849
 10
-2760.986030632052
 20
-1792.918263500012
 42
0.0
 10
-2760.986030632052
 20
-1758.918263500012
 42
0.0
 97
        0
 92
       20
 93
        6
 72
     4
 94
        5
 73
     1
 74
     0
 95
       12
 96
        6
 40
0.4960304773248839
 40
0.4960304773248839
 40
0.4960304773248839
 40
0.4960304773248839
 40
0.4960304773248839
 40
0.4960304773248839
 40
0.5039695226751161
 40
0.5039695226751161
 40
0.5039695226751161
 40
0.5039695226751161
 40
0.5039695226751161
 40
0.5039695226751161
 10
-2751.315048154936
 20
-1757.154405480583
 42
1.0
 10
-2751.685734200927
 20
-1756.95623336256
 42
1.0
 10
-2752.042692136768
 20
-1756.732382461262
 42
1.0
 10
-2752.397808082855
 20
-1757.396635976014
 42
1.0
 10
-2752.039612983112
 20
-1757.618172730397
 42
1.0
 10
-2751.668926937121
 20
-1757.816344848421
 42
1.0
 97
        0
 72
     4
 94
        5
 73
     1
 74
     0
 95
       12
 96
        6
 40
0.5039695226751161
 40
0.5039695226751161
 40
0.5039695226751161
 40
0.5039695226751161
 40
0.5039695226751161
 40
0.5039695226751161
 40
1.0
 40
1.0
 40
1.0
 40
1.0
 40
1.0
 40
1.0
 10
-2751.668926937121
 20
-1757.816344848421
 42
1.0
 10
-2750.213887515218
 20
-1758.594222103758
 42
0.952754144170146
 10
-2748.584958769337
 20
-1759.012835211239
 42
0.92913121625522
 10
-2746.893122735524
 20
-1759.012852169069
 42
0.92913121625522
 10
-2745.264223381759
 20
-1758.594271715872
 42
0.952754144170146
 10
-2743.809238578116
 20
-1757.816423628665
 42
1.0
 97
        0
 72
     4
 94
        5
 73
     1
 74
     0
 95
       12
 96
        6
 40
0.0
 40
0.0
 40
0.0
 40
0.0
 40
0.0
 40
0.0
 40
1.0
 40
1.0
 40
1.0
 40
1.0
 40
1.0
 40
1.0
 10
-2743.809238578116
 20
-1757.816423628665
 42
1.0
 10
-2742.484770129145
 20
-1757.109867864468
 42
0.9529220753075458
 10
-2741.002618912757
 20
-1756.729755509135
 42
0.929383112961319
 10
-2739.46342140227
 20
-1756.729772462368
 42
0.929383112961319
 10
-2737.981240792927
 20
-1757.109917467839
 42
0.9529220753075458
 10
-2736.656717709319
 20
-1757.816502408909
 42
1.0
 97
        0
 72
     4
 94
        5
 73
     1
 74
     0
 95
       12
 96
        6
 40
0.0
 40
0.0
 40
0.0
 40
0.0
 40
0.0
 40
0.0
 40
0.0157553232654262
 40
0.0157553232654262
 40
0.0157553232654262
 40
0.0157553232654262
 40
0.0157553232654262
 40
0.0157553232654262
 10
-2736.656717709319
 20
-1757.816502408909
 42
1.0
 10
-2736.285855195581
 20
-1758.014344085404
 42
1.0
 10
-2735.92867279095
 20
-1758.237829699718
 42
1.0
 10
-2735.57415516828
 20
-1757.573271558896
 42
1.0
 10
-2735.93256648756
 20
-1757.352089596588
 42
1.0
 10
-2736.303429001295
 20
-1757.154247920093
 42
1.0
 97
        0
 72
     4
 94
        5
 73
     1
 74
     0
 95
       12
 96
        6
 40
0.0157553232654262
 40
0.0157553232654262
 40
0.0157553232654262
 40
0.0157553232654262
 40
0.0157553232654262
 40
0.0157553232654262
 40
1.0
 40
1.0
 40
1.0
 40
1.0
 40
1.0
 40
1.0
 10
-2736.303429001295
 20
-1757.154247920093
 42
1.0
 10
-2737.758795295747
 20
-1756.377862879975
 42
0.9529220753075458
 10
-2739.387426651653
 20
-1755.960182983901
 42
0.929383112961319
 10
-2741.078740645273
 20
-1755.960199937135
 42
0.929383112961319
 10
-2742.707401394135
 20
-1756.377912483345
 42
0.9529220753075458
 10
-2744.162822323221
 20
-1757.154326700339
 42
1.0
 97
        0
 72
     4
 94
        5
 73
     1
 74
     0
 95
       12
 96
        6
 40
0.0
 40
0.0
 40
0.0
 40
0.0
 40
0.0
 40
0.0
 40
0.4960304773248839
 40
0.4960304773248839
 40
0.4960304773248839
 40
0.4960304773248839
 40
0.4960304773248839
 40
0.4960304773248839
 10
-2744.162822323221
 20
-1757.154326700339
 42
1.0
 10
-2745.486893887429
 20
-1757.8621873213
 42
0.952754144170146
 10
-2746.969201597234
 20
-1758.243121878565
 42
0.92913121625522
 10
-2748.508752891301
 20
-1758.243138836396
 42
0.92913121625522
 10
-2749.991031208992
 20
-1757.862236933414
 42
0.952754144170146
 10
-2751.315048154936
 20
-1757.154405480583
 42
1.0
 97
        0
 97
        0
 92
       20
 93
        6
 72
     4
 94
        5
 73
     1
 74
     0
 95
       12
 96
        6
 40
0.4960304773248839
 40
0.4960304773248839
 40
0.4960304773248839
 40
0.4960304773248839
 40
0.4960304773248839
 40
0.4960304773248839
 40
0.5039695226751161
 40
0.5039695226751161
 40
0.5039695226751161
 40
0.5039695226751161
 40
0.5039695226751161
 40
0.5039695226751161
 10
-2751.315048154936
 20
-1760.28188760365
 42
1.0
 10
-2751.685734200927
 20
-1760.083715485627
 42
1.0
 10
-2752.042692136768
 20
-1759.859864584329
 42
1.0
 10
-2752.397808082855
 20
-1760.52411809908
 42
1.0
 10
-2752.039612983112
 20
-1760.745654853464
 42
1.0
 10
-2751.668926937121
 20
-1760.943826971487
 42
1.0
 97
        0
 72
     4
 94
        5
 73
     1
 74
     0
 95
       12
 96
        6
 40
0.5039695226751161
 40
0.5039695226751161
 40
0.5039695226751161
 40
0.5039695226751161
 40
0.5039695226751161
 40
0.5039695226751161
 40
1.0
 40
1.0
 40
1.0
 40
1.0
 40
1.0
 40
1.0
 10
-2751.668926937121
 20
-1760.943826971487
 42
1.0
 10
-2750.213887515218
 20
-1761.721704226826
 42
0.952754144170146
 10
-2748.584958769337
 20
-1762.140317334305
 42
0.92913121625522
 10
-2746.893122735524
 20
-1762.140334292135
 42
0.92913121625522
 10
-2745.264223381759
 20
-1761.72175383894
 42
0.952754144170146
 10
-2743.809238578116
 20
-1760.943905751733
 42
1.0
 97
        0
 72
     4
 94
        5
 73
     1
 74
     0
 95
       12
 96
        6
 40
0.0
 40
0.0
 40
0.0
 40
0.0
 40
0.0
 40
0.0
 40
1.0
 40
1.0
 40
1.0
 40
1.0
 40
1.0
 40
1.0
 10
-2743.809238578116
 20
-1760.943905751733
 42
1.0
 10
-2742.484770129145
 20
-1760.237349987535
 42
0.9529220753075458
 10
-2741.002618912757
 20
-1759.857237632201
 42
0.929383112961319
 10
-2739.46342140227
 20
-1759.857254585435
 42
0.929383112961319
 10
-2737.981240792927
 20
-1760.237399590905
 42
0.9529220753075458
 10
-2736.656717709319
 20
-1760.943984531976
 42
1.0
 97
        0
 72
     4
 94
        5
 73
     1
 74
     0
 95
       12
 96
        6
 40
0.0
 40
0.0
 40
0.0
 40
0.0
 40
0.0
 40
0.0
 40
0.0157553232654262
 40
0.0157553232654262
 40
0.0157553232654262
 40
0.0157553232654262
 40
0.0157553232654262
 40
0.0157553232654262
 10
-2736.656717709319
 20
-1760.943984531976
 42
1.0
 10
-2736.285855195581
 20
-1761.14182620847
 42
1.0
 10
-2735.92867279095
 20
-1761.365311822785
 42
1.0
 10
-2735.57415516828
 20
-1760.700753681964
 42
1.0
 10
-2735.93256648756
 20
-1760.479571719655
 42
1.0
 10
-2736.303429001295
 20
-1760.281730043161
 42
1.0
 97
        0
 72
     4
 94
        5
 73
     1
 74
     0
 95
       12
 96
        6
 40
0.0157553232654262
 40
0.0157553232654262
 40
0.0157553232654262
 40
0.0157553232654262
 40
0.0157553232654262
 40
0.0157553232654262
 40
1.0
 40
1.0
 40
1.0
 40
1.0
 40
1.0
 40
1.0
 10
-2736.303429001295
 20
-1760.281730043161
 42
1.0
 10
-2737.758795295749
 20
-1759.505345003043
 42
0.9529220753075458
 10
-2739.387426651653
 20
-1759.087665106968
 42
0.929383112961319
 10
-2741.078740645273
 20
-1759.087682060203
 42
0.929383112961319
 10
-2742.707401394135
 20
-1759.505394606411
 42
0.9529220753075458
 10
-2744.162822323221
 20
-1760.281808823406
 42
1.0
 97
        0
 72
     4
 94
        5
 73
     1
 74
     0
 95
       12
 96
        6
 40
0.0
 40
0.0
 40
0.0
 40
0.0
 40
0.0
 40
0.0
 40
0.4960304773248839
 40
0.4960304773248839
 40
0.4960304773248839
 40
0.4960304773248839
 40
0.4960304773248839
 40
0.4960304773248839
 10
-2744.162822323221
 20
-1760.281808823406
 42
1.0
 10
-2745.486893887429
 20
-1760.989669444368
 42
0.952754144170146
 10
-2746.969201597234
 20
-1761.370604001633
 42
0.92913121625522
 10
-2748.508752891301
 20
-1761.370620959462
 42
0.92913121625522
 10
-2749.991031208992
 20
-1760.989719056481
 42
0.952754144170146
 10
-2751.315048154936
 20
-1760.28188760365
 42
1.0
 97
        0
 97
        0
 75
     1
 76
     1
 47
0.1141113672883229
 98
        3
 10
-2750.302013482802
 20
-1735.918326565634
 10
-2750.302013482802
 20
-1735.918326565634
 10
-2750.302013482802
 20
-1735.918326565634
450
        0
451
        0
460
0.0
461
0.0
452
        0
462
1.0
453
        2
463
0.0
 63
     5
421
      255
463
1.0
 63
     2
421
 16776960
470
LINEAR
1001
GradientColor1ACI
1070
     5
1001
GradientColor2ACI
1070
     2
1001
ACAD
1010
0.0
1020
0.0
1030
0.0
  0
ENDSEC
  0
SECTION
  2
OBJECTS
  0
DICTIONARY
  5
19
330
0
100
AcDbDictionary
281
     1
  3
ACAD_CIP_PREVIOUS_PRODUCT_INFO
350
36C
  3
ACAD_COLOR
350
34B
  3
ACAD_DETAILVIEWSTYLE
350
364
  3
ACAD_GROUP
350
1A
  3
ACAD_LAYOUT
350
366
  3
ACAD_MATERIAL
350
319
  3
ACAD_MLEADERSTYLE
350
360
  3
ACAD_MLINESTYLE
350
1B
  3
ACAD_PLOTSETTINGS
350
367
  3
ACAD_PLOTSTYLENAME
350
317
  3
ACAD_SCALELIST
350
34E
  3
ACAD_SECTIONVIEWSTYLE
350
362
  3
ACAD_TABLESTYLE
350
34C
  3
ACAD_VISUALSTYLE
350
332
  3
ACDB_RECOMPOSE_DATA
350
1F58
  3
AcDbVariableDictionary
350
509
  0
DICTIONARY
  5
372
330
2
100
AcDbDictionary
280
     1
281
     1
  3
ACAD_LAYERSTATES
360
373
  0
DICTIONARY
  5
65A
330
14
100
AcDbDictionary
280
     1
281
     1
  3
ADSK_XREC_LAYER_RECONCILED
360
65B
  0
DICTIONARY
  5
65C
330
1D
100
AcDbDictionary
280
     1
281
     1
  3
ADSK_XREC_LAYER_RECONCILED
360
65D
  0
DICTIONARY
  5
65E
330
36D
100
AcDbDictionary
280
     1
281
     1
  3
ADSK_XREC_LAYER_RECONCILED
360
65F
  0
DICTIONARY
  5
1F03
330
A
100
AcDbDictionary
280
     1
281
     1
  3
ACAD_SORTENTS
360
1F04
  0
XRECORD
  5
36C
102
{ACAD_REACTORS
330
19
102
}
330
19
100
AcDbXrecord
280
     1
300
ACDLT
300
2016
300

  0
DICTIONARY
  5
34B
102
{ACAD_REACTORS
330
19
102
}
330
19
100
AcDbDictionary
281
     1
  0
DICTIONARY
  5
364
102
{ACAD_REACTORS
330
19
102
}
330
19
100
AcDbDictionary
281
     1
  3
Imperial24
350
365
  0
DICTIONARY
  5
1A
102
{ACAD_REACTORS
330
19
102
}
330
19
100
AcDbDictionary
281
     1
  0
DICTIONARY
  5
366
102
{ACAD_REACTORS
330
19
102
}
330
19
100
AcDbDictionary
281
     1
  3
Layout1
350
369
  3
Model
350
368
  0
DICTIONARY
  5
319
102
{ACAD_REACTORS
330
19
102
}
330
19
100
AcDbDictionary
281
     1
  3
ByBlock
350
322
  3
ByLayer
350
31A
  3
Global
350
32A
  0
DICTIONARY
  5
360
102
{ACAD_REACTORS
330
19
102
}
330
19
100
AcDbDictionary
281
     1
  3
Standard
350
361
  0
DICTIONARY
  5
1B
102
{ACAD_REACTORS
330
19
102
}
330
19
100
AcDbDictionary
281
     1
  3
STANDARD
350
1C
  0
DICTIONARY
  5
367
102
{ACAD_REACTORS
330
19
102
}
330
19
100
AcDbDictionary
281
     1
  0
ACDBDICTIONARYWDFLT
  5
317
102
{ACAD_REACTORS
330
19
102
}
330
19
100
AcDbDictionary
281
     1
  3
Normal
350
318
100
AcDbDictionaryWithDefault
340
318
  0
DICTIONARY
  5
34E
102
{ACAD_REACTORS
330
19
102
}
330
19
100
AcDbDictionary
281
     1
  3
A0
350
34F
  3
A1
350
350
  3
A2
350
351
  3
A3
350
352
  3
A4
350
353
  3
A5
350
354
  3
A6
350
355
  3
A7
350
356
  3
A8
350
357
  3
A9
350
358
  3
B0
350
359
  3
B1
350
35A
  3
B2
350
35B
  3
B3
350
35C
  3
B4
350
35D
  3
B5
350
35E
  3
B6
350
35F
  0
DICTIONARY
  5
362
102
{ACAD_REACTORS
330
19
102
}
330
19
100
AcDbDictionary
281
     1
  3
Imperial24
350
363
  0
DICTIONARY
  5
34C
102
{ACAD_REACTORS
330
19
102
}
330
19
100
AcDbDictionary
281
     1
  3
Standard
350
34D
  0
DICTIONARY
  5
332
102
{ACAD_REACTORS
330
19
102
}
330
19
100
AcDbDictionary
281
     1
  3
2dWireframe
350
338
  3
Basic
350
337
  3
Brighten
350
33E
  3
ColorChange
350
342
  3
Conceptual
350
33B
  3
Dim
350
33D
  3
EdgeColorOff
350
34A
  3
Facepattern
350
341
  3
Flat
350
333
  3
FlatWithEdges
350
334
  3
Gouraud
350
335
  3
GouraudWithEdges
350
336
  3
Hidden
350
33A
  3
JitterOff
350
348
  3
Linepattern
350
340
  3
OverhangOff
350
349
  3
Realistic
350
33C
  3
Shaded
350
347
  3
Shaded with edges
350
346
  3
Shades of Gray
350
343
  3
Sketchy
350
344
  3
Thicken
350
33F
  3
Wireframe
350
339
  3
X-Ray
350
345
  0
XRECORD
  5
1F58
102
{ACAD_REACTORS
330
19
102
}
330
19
100
AcDbXrecord
280
     1
 90
        1
330
34D
  0
DICTIONARY
  5
509
102
{ACAD_REACTORS
330
19
102
}
330
19
100
AcDbDictionary
281
     1
  3
CANNOSCALE
350
50F
  3
CMLEADERSTYLE
350
50B
  3
CTABLESTYLE
350
50A
  3
CVIEWDETAILSTYLE
350
50C
  3
CVIEWSECTIONSTYLE
350
50D
  3
LAYEREVAL
350
511
  3
LAYERNOTIFY
350
512
  3
LIGHTINGUNITS
350
510
  3
MSLTSCALE
350
50E
  0
DICTIONARY
  5
373
102
{ACAD_REACTORS
330
372
102
}
330
372
100
AcDbDictionary
281
     1
  0
XRECORD
  5
65B
102
{ACAD_REACTORS
330
65A
102
}
330
65A
100
AcDbXrecord
280
     1
290
     1
  0
XRECORD
  5
65D
102
{ACAD_REACTORS
330
65C
102
}
330
65C
100
AcDbXrecord
280
     1
290
     1
  0
XRECORD
  5
65F
102
{ACAD_REACTORS
330
65E
102
}
330
65E
100
AcDbXrecord
280
     1
290
     1
  0
SORTENTSTABLE
  5
1F04
102
{ACAD_REACTORS
330
1F03
102
}
330
1F03
100
AcDbSortentsTable
330
A
331
19A8
  5
19A9
331
1810
  5
1811
331
1A49
  5
1A4A
331
19B9
  5
19BA
331
1821
  5
1822
331
19CA
  5
19CB
331
1832
  5
1833
331
18AB
  5
18AC
331
1843
  5
1844
331
19D4
  5
19D5
331
1865
  5
1866
331
18DE
  5
18DF
331
1A18
  5
1A19
331
18E8
  5
18E9
331
18F9
  5
18FA
331
190A
  5
190B
331
191B
  5
191C
331
1975
  5
1976
331
192C
  5
192D
331
1986
  5
1987
331
194E
  5
194F
331
1997
  5
1998
331
193D
  5
193E
331
1964
  5
1965
331
1A3A
  5
1A3B
331
1A29
  5
1A2A
331
1A07
  5
1A08
331
19F6
  5
19F7
331
18BC
  5
18BD
331
1854
  5
1855
331
189A
  5
189B
331
1889
  5
188A
331
1878
  5
1879
331
1998
  5
1999
331
1868
  5
1869
331
19A9
  5
19AD
331
1811
  5
1812
331
1A4A
  5
1A4B
331
19BA
  5
19BE
331
1822
  5
1823
331
19CB
  5
19CC
331
1833
  5
1834
331
18AC
  5
18AD
331
1844
  5
1845
331
19D5
  5
19D6
331
18CE
  5
18CF
331
1866
  5
1867
331
18DF
  5
18E0
331
1A19
  5
1A1A
331
18E9
  5
18EA
331
18FA
  5
18FB
331
190B
  5
190C
331
191C
  5
191D
331
1976
  5
1977
331
192D
  5
192E
331
1987
  5
1988
331
194F
  5
1950
331
193E
  5
193F
331
1965
  5
1966
331
1A3B
  5
1A3C
331
1A2A
  5
1A2B
331
1A08
  5
1A09
331
19F7
  5
19F8
331
18BD
  5
18BE
331
1855
  5
1856
331
189B
  5
189C
331
188A
  5
188B
331
1879
  5
187A
331
1988
  5
1989
331
1950
  5
1951
331
1869
  5
186A
331
1999
  5
199A
331
1A4B
  5
1A4C
331
187A
  5
187B
331
1812
  5
1813
331
188B
  5
188C
331
19CC
  5
19CD
331
18AD
  5
18AE
331
1845
  5
1846
331
19D6
  5
19D7
331
18CF
  5
18D0
331
1867
  5
1868
331
1A09
  5
1A0A
331
18EA
  5
18EB
331
1A1A
  5
1A1B
331
18FB
  5
18FC
331
190C
  5
190D
331
191D
  5
191E
331
1977
  5
1978
331
192E
  5
192F
331
193F
  5
1940
331
1966
  5
1967
331
1A3C
  5
1A3D
331
1A2B
  5
1A2C
331
19F8
  5
19F9
331
18BE
  5
18BF
331
1856
  5
1857
331
189C
  5
189D
331
1834
  5
1835
331
1823
  5
1824
331
1978
  5
1979
331
1940
  5
1941
331
1951
  5
1952
331
186A
  5
186B
331
199A
  5
199B
331
1989
  5
198A
331
1A4C
  5
1A4D
331
187B
  5
187C
331
1813
  5
1814
331
188C
  5
188D
331
19CD
  5
19CE
331
18AE
  5
18AF
331
1846
  5
1847
331
19D7
  5
19D8
331
18D0
  5
18D1
331
1A0A
  5
1A0B
331
18EB
  5
18EC
331
1A1B
  5
1A1C
331
18FC
  5
18FD
331
190D
  5
190E
331
191E
  5
191F
331
192F
  5
1930
331
1967
  5
1968
331
1A3D
  5
1A3E
331
1A2C
  5
1A2D
331
19F9
  5
19FA
331
18BF
  5
18C0
331
1857
  5
1858
331
189D
  5
189E
331
1835
  5
1836
331
1824
  5
1825
331
1968
  5
1969
331
1979
  5
197A
331
1930
  5
1931
331
198A
  5
198B
331
1952
  5
1953
331
186B
  5
186C
331
199B
  5
199C
331
1941
  5
1942
331
1A4D
  5
1A4E
331
187C
  5
187D
331
1814
  5
1815
331
188D
  5
188E
331
19CE
  5
19CF
331
18AF
  5
18B0
331
1847
  5
1848
331
19D8
  5
19D9
331
18D1
  5
18D2
331
19FA
  5
19FB
331
18EC
  5
18ED
331
1A1C
  5
1A1D
331
1A0B
  5
1A0C
331
18FD
  5
18FE
331
190E
  5
190F
331
191F
  5
1920
331
1A3E
  5
1A3F
331
1A2D
  5
1A2E
331
1F02
  5
1804
331
18C0
  5
18C1
331
1858
  5
1859
331
189E
  5
189F
331
1836
  5
1837
331
1825
  5
1826
331
1958
  5
1959
331
1920
  5
1921
331
197A
  5
197B
331
1931
  5
1932
331
198B
  5
198C
331
1953
  5
1954
331
199C
  5
199D
331
1804
  5
1805
331
1942
  5
1943
331
1969
  5
196A
331
19AD
  5
19AE
331
1815
  5
1816
331
1A4E
  5
1A4F
331
19BE
  5
19BF
331
1826
  5
1827
331
19CF
  5
19D0
331
1837
  5
1838
331
18B0
  5
18B1
331
1848
  5
1849
331
19D9
  5
19DA
331
18D2
  5
18D3
331
1A0C
  5
1A0D
331
18ED
  5
18EE
331
1A1D
  5
1A1E
331
18FE
  5
18FF
331
190F
  5
1910
331
1A3F
  5
1A40
331
1A2E
  5
1A2F
331
19FB
  5
19FC
331
18C1
  5
18C2
331
1859
  5
185A
331
189F
  5
18A0
331
188E
  5
188F
331
187D
  5
187E
331
186C
  5
186D
331
1A40
  5
1A41
331
1910
  5
1911
331
1921
  5
1922
331
197B
  5
197C
331
1932
  5
1933
331
198C
  5
198D
331
1954
  5
1955
331
199D
  5
199E
331
1805
  5
1806
331
1943
  5
1944
331
196A
  5
196B
331
1959
  5
195A
331
19AE
  5
19B2
331
1816
  5
1817
331
1A4F
  5
1A50
331
19BF
  5
19C0
331
1827
  5
1828
331
1A60
  5
1A61
331
18A0
  5
18A1
331
1838
  5
1839
331
18B1
  5
18B2
331
19DA
  5
19DC
331
18D3
  5
18D4
331
1A0D
  5
1A14
331
18EE
  5
18EF
331
1A1E
  5
1A1F
331
18FF
  5
1900
331
1A2F
  5
1A30
331
19FC
  5
19FD
331
18C2
  5
18C3
331
185A
  5
185B
331
1849
  5
184A
331
188F
  5
1890
331
187E
  5
187F
331
186D
  5
186E
331
1A30
  5
1A31
331
1900
  5
1901
331
1911
  5
1912
331
1922
  5
1923
331
197C
  5
197D
331
1933
  5
1934
331
198D
  5
198E
331
1955
  5
1956
331
199E
  5
199F
331
1806
  5
1807
331
1944
  5
1945
331
196B
  5
196C
331
195A
  5
195B
331
1A41
  5
1A42
331
1A50
  5
1A51
331
187F
  5
1880
331
1817
  5
1818
331
19C0
  5
19C1
331
1A61
  5
1D98
331
18A1
  5
18A2
331
1839
  5
183A
331
18B2
  5
18B3
331
19EC
  5
19ED
331
18C3
  5
18C4
331
19FD
  5
19FE
331
1A1F
  5
1A20
331
18EF
  5
18F0
331
18D4
  5
18D5
331
185B
  5
185C
331
184A
  5
184B
331
1890
  5
1891
331
1828
  5
1829
331
186E
  5
186F
331
1A20
  5
1A21
331
18F0
  5
18F1
331
1901
  5
1902
331
1912
  5
1913
331
1923
  5
1924
331
197D
  5
197E
331
1934
  5
1935
331
198E
  5
198F
331
1956
  5
1957
331
199F
  5
19A0
331
1807
  5
1808
331
1945
  5
1946
331
196C
  5
196D
331
195B
  5
195C
331
1A42
  5
1A43
331
1A31
  5
1A32
331
1A51
  5
1A52
331
1880
  5
1881
331
1818
  5
1819
331
19C1
  5
19C2
331
18A2
  5
18A3
331
183A
  5
183B
331
18B3
  5
18B4
331
19DC
  5
19DD
331
19ED
  5
19EE
331
18D5
  5
18D6
331
19FE
  5
19FF
331
18C4
  5
18C5
331
185C
  5
185D
331
184B
  5
184C
331
1891
  5
1892
331
1829
  5
182A
331
186F
  5
1870
331
18E0
  5
18E1
331
18F1
  5
18F2
331
1902
  5
1903
331
1913
  5
1914
331
1924
  5
1925
331
197E
  5
197F
331
1935
  5
1936
331
198F
  5
1990
331
1957
  5
1958
331
19A0
  5
19A1
331
1808
  5
1809
331
1946
  5
1947
331
196D
  5
196E
331
195C
  5
195D
331
1A43
  5
1A44
331
1A32
  5
1A33
331
1A21
  5
1A22
331
1A52
  5
1A53
331
1881
  5
1888
331
1819
  5
181A
331
19C2
  5
19C3
331
18A3
  5
18A4
331
183B
  5
183C
331
18B4
  5
18B5
331
19DD
  5
19EC
331
19EE
  5
19EF
331
18D6
  5
18D7
331
19FF
  5
1A00
331
18C5
  5
18C6
331
185D
  5
185E
331
184C
  5
184D
331
1892
  5
1894
331
182A
  5
182B
331
1870
  5
1871
331
1A00
  5
1A01
331
18E1
  5
18E2
331
18F2
  5
18F3
331
1903
  5
1904
331
1914
  5
1915
331
1925
  5
1926
331
197F
  5
1980
331
1936
  5
1937
331
1990
  5
1991
331
19A1
  5
19A2
331
1809
  5
180A
331
1947
  5
1948
331
196E
  5
196F
331
195D
  5
195E
331
1A44
  5
1A45
331
1A33
  5
1A34
331
1A22
  5
1A23
331
1A53
  5
1A60
331
19B2
  5
19B3
331
181A
  5
181B
331
19C3
  5
19C4
331
18A4
  5
18A5
331
18B5
  5
18B6
331
19EF
  5
19F0
331
18C6
  5
18C7
331
18D7
  5
18D8
331
185E
  5
185F
331
184D
  5
184E
331
183C
  5
183D
331
182B
  5
182C
331
1871
  5
1872
331
19F0
  5
19F1
331
18D8
  5
18D9
331
18E2
  5
18E3
331
18F3
  5
18F4
331
1904
  5
1905
331
1915
  5
1916
331
1926
  5
1927
331
1980
  5
1981
331
1937
  5
1938
331
1991
  5
1992
331
19A2
  5
19A3
331
180A
  5
180B
331
1948
  5
1949
331
196F
  5
1970
331
195E
  5
195F
331
1A45
  5
1A46
331
1A34
  5
1A35
331
1A23
  5
1A24
331
1A01
  5
1A02
331
19B3
  5
19B4
331
181B
  5
181C
331
19C4
  5
19C5
331
18A5
  5
18A6
331
183D
  5
183E
331
18B6
  5
18B7
331
18C7
  5
18C8
331
185F
  5
1860
331
184E
  5
184F
331
1894
  5
1895
331
182C
  5
182D
331
1872
  5
1873
331
18C8
  5
18C9
331
1860
  5
1861
331
18D9
  5
18DA
331
18E3
  5
18E4
331
18F4
  5
18F5
331
1905
  5
1906
331
1916
  5
1917
331
1970
  5
1971
331
1927
  5
1928
331
1981
  5
1982
331
1949
  5
194A
331
19A3
  5
19A4
331
180B
  5
180C
331
1992
  5
1993
331
1938
  5
1939
331
195F
  5
1960
331
1A46
  5
1A47
331
1A35
  5
1A36
331
1A24
  5
1A25
331
1A02
  5
1A03
331
19F1
  5
19F2
331
19B4
  5
19B5
331
181C
  5
181D
331
19C5
  5
19C6
331
18A6
  5
18A7
331
183E
  5
183F
331
18B7
  5
18B8
331
184F
  5
1850
331
1895
  5
1896
331
182D
  5
182E
331
1873
  5
1874
331
19D0
  5
19D1
331
1850
  5
1851
331
18C9
  5
18CA
331
1861
  5
1862
331
18DA
  5
18DB
331
1A14
  5
1A15
331
18E4
  5
18E5
331
18F5
  5
18F6
331
1906
  5
1907
331
1917
  5
1918
331
1971
  5
1972
331
1928
  5
1929
331
1982
  5
1983
331
194A
  5
194B
331
19A4
  5
19A5
331
180C
  5
180D
331
1993
  5
1994
331
1939
  5
193A
331
1960
  5
1961
331
1A47
  5
1A48
331
1A36
  5
1A37
331
1A25
  5
1A26
331
1A03
  5
1A04
331
19F2
  5
19F3
331
18B8
  5
18B9
331
19B5
  5
19B6
331
181D
  5
181E
331
19C6
  5
19C7
331
18A7
  5
18A8
331
183F
  5
1840
331
1896
  5
1897
331
182E
  5
182F
331
1874
  5
1875
331
18A8
  5
18A9
331
1840
  5
1841
331
19D1
  5
19D2
331
18CA
  5
18CB
331
1862
  5
1863
331
18DB
  5
18DC
331
1A15
  5
1A16
331
18E5
  5
18E6
331
18F6
  5
18F7
331
1907
  5
1908
331
1918
  5
1919
331
1972
  5
1973
331
1929
  5
192A
331
1983
  5
1984
331
194B
  5
194C
331
19A5
  5
19A6
331
180D
  5
180E
331
1994
  5
1995
331
193A
  5
193B
331
1961
  5
1962
331
1A37
  5
1A38
331
1A26
  5
1A27
331
1A04
  5
1A05
331
19F3
  5
19F4
331
18B9
  5
18BA
331
1851
  5
1852
331
19B6
  5
19B8
331
181E
  5
181F
331
19C7
  5
19C8
331
1897
  5
1898
331
182F
  5
1830
331
1875
  5
1876
331
19C8
  5
19C9
331
1830
  5
1831
331
18A9
  5
18AA
331
1841
  5
1842
331
19D2
  5
19D3
331
18CB
  5
18CC
331
1863
  5
1864
331
18DC
  5
18DD
331
1A16
  5
1A17
331
18E6
  5
18E7
331
18F7
  5
18F8
331
1908
  5
1909
331
1919
  5
191A
331
1973
  5
1974
331
192A
  5
192B
331
1984
  5
1985
331
194C
  5
194D
331
19A6
  5
19A7
331
180E
  5
180F
331
1995
  5
1996
331
193B
  5
193C
331
1962
  5
1963
331
1A38
  5
1A39
331
1A27
  5
1A28
331
1A05
  5
1A06
331
19F4
  5
19F5
331
18BA
  5
18BB
331
1852
  5
1853
331
1898
  5
1899
331
181F
  5
1820
331
1876
  5
1877
331
1A48
  5
1A49
331
19B8
  5
19B9
331
1820
  5
1821
331
19C9
  5
19CA
331
1831
  5
1832
331
18AA
  5
18AB
331
1842
  5
1843
331
19D3
  5
19D4
331
18CC
  5
18CE
331
1864
  5
1865
331
18DD
  5
18DE
331
1A17
  5
1A18
331
18E7
  5
18E8
331
18F8
  5
18F9
331
1909
  5
190A
331
191A
  5
191B
331
1974
  5
1975
331
192B
  5
192C
331
1985
  5
1986
331
194D
  5
194E
331
19A7
  5
19A8
331
180F
  5
1810
331
1996
  5
1997
331
193C
  5
193D
331
1963
  5
1964
331
1A39
  5
1A3A
331
1A28
  5
1A29
331
1A06
  5
1A07
331
19F5
  5
19F6
331
18BB
  5
18BC
331
1853
  5
1854
331
1899
  5
189A
331
1888
  5
1889
331
1877
  5
1878
  0
ACDBDETAILVIEWSTYLE
  5
365
102
{ACAD_XDICTIONARY
360
1F8B
102
}
102
{ACAD_REACTORS
330
364
102
}
330
364
100
AcDbModelDocViewStyle
 70
     0
  3
Imperial24
290
     0
100
AcDbDetailViewStyle
 70
     0
 71
     0
 90
        3
 71
     1
340
17
 62
   256
 40
0.24
340
0
 62
   256
 40
0.24
300

 40
0.36
280
     3
 71
     2
340
13
 90
       25
 62
   256
 71
     3
340
17
 62
   256
 40
0.24
 90
        1
 40
0.75
 90
        1
300
%<\AcVar ViewType \f "%tc1">% %<\AcVar ViewDetailId>%\PVARIA %<\AcVar ViewScale \f "%sn">%
 71
     4
340
13
 90
       25
 62
   256
340
13
 90
       25
 62
   256
280
     0
  0
LAYOUT
  5
369
102
{ACAD_REACTORS
330
366
102
}
330
366
100
AcDbPlotSettings
  1

  2
\\srvadruck01\MFSA15
  4

  6

 40
0.0
 41
0.0
 42
0.0
 43
0.0
 44
0.0
 45
0.0
 46
0.0
 47
0.0
 48
0.0
 49
0.0
140
0.0
141
0.0
142
1.0
143
1.0
 70
   688
 72
     0
 73
     0
 74
     5
  7

 75
    16
147
1.0
 76
     0
 77
     2
 78
   300
148
0.0
149
0.0
100
AcDbLayout
  1
Layout1
 70
     0
 71
     1
 10
0.0
 20
0.0
 11
12.0
 21
9.0
 12
0.0
 22
0.0
 32
0.0
 14
1.000000000000000E+20
 24
1.000000000000000E+20
 34
1.000000000000000E+20
 15
-1.000000000000000E+20
 25
-1.000000000000000E+20
 35
-1.000000000000000E+20
146
0.0
 13
0.0
 23
0.0
 33
0.0
 16
1.0
 26
0.0
 36
0.0
 17
0.0
 27
1.0
 37
0.0
 76
     0
330
B
  0
LAYOUT
  5
368
102
{ACAD_REACTORS
330
366
102
}
330
366
100
AcDbPlotSettings
  1

  2
\\srvadruck01\MFSA15
  4

  6

 40
0.0
 41
0.0
 42
0.0
 43
0.0
 44
0.0
 45
0.0
 46
0.0
 47
0.0
 48
0.0
 49
0.0
140
0.0
141
0.0
142
1.0
143
1.0
 70
  1712
 72
     0
 73
     0
 74
     0
  7

 75
     0
147
1.0
 76
     0
 77
     2
 78
   300
148
0.0
149
0.0
100
AcDbLayout
  1
Model
 70
     1
 71
     0
 10
0.0
 20
0.0
 11
12.0
 21
9.0
 12
0.0
 22
0.0
 32
0.0
 14
0.0
 24
0.0
 34
0.0
 15
0.0
 25
0.0
 35
0.0
146
0.0
 13
0.0
 23
0.0
 33
0.0
 16
1.0
 26
0.0
 36
0.0
 17
0.0
 27
1.0
 37
0.0
 76
     0
330
A
331
15
  0
MATERIAL
  5
322
102
{ACAD_XDICTIONARY
360
323
102
}
102
{ACAD_REACTORS
330
319
102
}
330
319
100
AcDbMaterial
  1
ByBlock
 72
     0
 43
0.0208333333333333
 43
0.0
 43
0.0
 43
0.0
 43
0.0
 43
0.0208333333333333
 43
0.0
 43
0.0
 43
0.0
 43
0.0
 43
1.0
 43
0.0
 43
0.0
 43
0.0
 43
0.0
 43
1.0
 77
     0
 47
0.0208333333333333
 47
0.0
 47
0.0
 47
0.0
 47
0.0
 47
0.0208333333333333
 47
0.0
 47
0.0
 47
0.0
 47
0.0
 47
1.0
 47
0.0
 47
0.0
 47
0.0
 47
0.0
 47
1.0
171
     0
 49
0.0208333333333333
 49
0.0
 49
0.0
 49
0.0
 49
0.0
 49
0.0208333333333333
 49
0.0
 49
0.0
 49
0.0
 49
0.0
 49
1.0
 49
0.0
 49
0.0
 49
0.0
 49
0.0
 49
1.0
175
     0
142
0.0208333333333333
142
0.0
142
0.0
142
0.0
142
0.0
142
0.0208333333333333
142
0.0
142
0.0
142
0.0
142
0.0
142
1.0
142
0.0
142
0.0
142
0.0
142
0.0
142
1.0
179
     0
144
0.0208333333333333
144
0.0
144
0.0
144
0.0
144
0.0
144
0.0208333333333333
144
0.0
144
0.0
144
0.0
144
0.0
144
1.0
144
0.0
144
0.0
144
0.0
144
0.0
144
1.0
147
0.0208333333333333
147
0.0
147
0.0
147
0.0
147
0.0
147
0.0208333333333333
147
0.0
147
0.0
147
0.0
147
0.0
147
1.0
147
0.0
147
0.0
147
0.0
147
0.0
147
1.0
  0
MATERIAL
  5
31A
102
{ACAD_XDICTIONARY
360
31B
102
}
102
{ACAD_REACTORS
330
319
102
}
330
319
100
AcDbMaterial
  1
ByLayer
 72
     0
 43
0.0208333333333333
 43
0.0
 43
0.0
 43
0.0
 43
0.0
 43
0.0208333333333333
 43
0.0
 43
0.0
 43
0.0
 43
0.0
 43
1.0
 43
0.0
 43
0.0
 43
0.0
 43
0.0
 43
1.0
 77
     0
 47
0.0208333333333333
 47
0.0
 47
0.0
 47
0.0
 47
0.0
 47
0.0208333333333333
 47
0.0
 47
0.0
 47
0.0
 47
0.0
 47
1.0
 47
0.0
 47
0.0
 47
0.0
 47
0.0
 47
1.0
171
     0
 49
0.0208333333333333
 49
0.0
 49
0.0
 49
0.0
 49
0.0
 49
0.0208333333333333
 49
0.0
 49
0.0
 49
0.0
 49
0.0
 49
1.0
 49
0.0
 49
0.0
 49
0.0
 49
0.0
 49
1.0
175
     0
142
0.0208333333333333
142
0.0
142
0.0
142
0.0
142
0.0
142
0.0208333333333333
142
0.0
142
0.0
142
0.0
142
0.0
142
1.0
142
0.0
142
0.0
142
0.0
142
0.0
142
1.0
179
     0
144
0.0208333333333333
144
0.0
144
0.0
144
0.0
144
0.0
144
0.0208333333333333
144
0.0
144
0.0
144
0.0
144
0.0
144
1.0
144
0.0
144
0.0
144
0.0
144
0.0
144
1.0
147
0.0208333333333333
147
0.0
147
0.0
147
0.0
147
0.0
147
0.0208333333333333
147
0.0
147
0.0
147
0.0
147
0.0
147
1.0
147
0.0
147
0.0
147
0.0
147
0.0
147
1.0
  0
MATERIAL
  5
32A
102
{ACAD_XDICTIONARY
360
32B
102
}
102
{ACAD_REACTORS
330
319
102
}
330
319
100
AcDbMaterial
  1
Global
 72
     0
 43
0.0208333333333333
 43
0.0
 43
0.0
 43
0.0
 43
0.0
 43
0.0208333333333333
 43
0.0
 43
0.0
 43
0.0
 43
0.0
 43
1.0
 43
0.0
 43
0.0
 43
0.0
 43
0.0
 43
1.0
 77
     0
 47
0.0208333333333333
 47
0.0
 47
0.0
 47
0.0
 47
0.0
 47
0.0208333333333333
 47
0.0
 47
0.0
 47
0.0
 47
0.0
 47
1.0
 47
0.0
 47
0.0
 47
0.0
 47
0.0
 47
1.0
171
     0
 49
0.0208333333333333
 49
0.0
 49
0.0
 49
0.0
 49
0.0
 49
0.0208333333333333
 49
0.0
 49
0.0
 49
0.0
 49
0.0
 49
1.0
 49
0.0
 49
0.0
 49
0.0
 49
0.0
 49
1.0
175
     0
142
0.0208333333333333
142
0.0
142
0.0
142
0.0
142
0.0
142
0.0208333333333333
142
0.0
142
0.0
142
0.0
142
0.0
142
1.0
142
0.0
142
0.0
142
0.0
142
0.0
142
1.0
179
     0
144
0.0208333333333333
144
0.0
144
0.0
144
0.0
144
0.0
144
0.0208333333333333
144
0.0
144
0.0
144
0.0
144
0.0
144
1.0
144
0.0
144
0.0
144
0.0
144
0.0
144
1.0
147
0.0208333333333333
147
0.0
147
0.0
147
0.0
147
0.0
147
0.0208333333333333
147
0.0
147
0.0
147
0.0
147
0.0
147
1.0
147
0.0
147
0.0
147
0.0
147
0.0
147
1.0
  0
MLEADERSTYLE
  5
361
102
{ACAD_REACTORS
330
360
102
}
330
360
100
AcDbMLeaderStyle
179
     2
170
     2
171
     1
172
     0
 90
        2
 40
0.0
 41
0.0
173
     1
 91
-1056964608
340
11
 92
       -2
290
     1
 42
0.09
291
     1
 43
0.36
  3
Standard
 44
0.18
300

342
17
174
     1
178
     6
175
     1
176
     0
 93
-1056964608
 45
0.18
292
     0
297
     0
 46
0.18
 94
-1056964608
 47
1.0
 49
1.0
140
1.0
293
     1
141
0.0
294
     1
177
     0
142
1.0
295
     0
296
     0
143
0.125
271
     0
272
     9
273
     9
  0
MLINESTYLE
  5
1C
102
{ACAD_REACTORS
330
1B
102
}
330
1B
100
AcDbMlineStyle
  2
STANDARD
 70
     0
  3

 62
     0
 51
90.0
 52
90.0
 71
     2
 49
0.5
 62
   256
  6
BYLAYER
 49
-0.5
 62
   256
  6
BYLAYER
  0
ACDBPLACEHOLDER
  5
318
102
{ACAD_REACTORS
330
317
102
}
330
317
  0
SCALE
  5
34F
102
{ACAD_REACTORS
330
34E
102
}
330
34E
100
AcDbScale
 70
     0
300
1:1
140
1.0
141
1.0
290
     1
  0
SCALE
  5
350
102
{ACAD_REACTORS
330
34E
102
}
330
34E
100
AcDbScale
 70
     0
300
1/128" = 1'-0"
140
0.0078125
141
12.0
290
     0
  0
SCALE
  5
351
102
{ACAD_REACTORS
330
34E
102
}
330
34E
100
AcDbScale
 70
     0
300
1/64" = 1'-0"
140
0.015625
141
12.0
290
     0
  0
SCALE
  5
352
102
{ACAD_REACTORS
330
34E
102
}
330
34E
100
AcDbScale
 70
     0
300
1/32" = 1'-0"
140
0.03125
141
12.0
290
     0
  0
SCALE
  5
353
102
{ACAD_REACTORS
330
34E
102
}
330
34E
100
AcDbScale
 70
     0
300
1/16" = 1'-0"
140
0.0625
141
12.0
290
     0
  0
SCALE
  5
354
102
{ACAD_REACTORS
330
34E
102
}
330
34E
100
AcDbScale
 70
     0
300
3/32" = 1'-0"
140
0.09375
141
12.0
290
     0
  0
SCALE
  5
355
102
{ACAD_REACTORS
330
34E
102
}
330
34E
100
AcDbScale
 70
     0
300
1/8" = 1'-0"
140
0.125
141
12.0
290
     0
  0
SCALE
  5
356
102
{ACAD_REACTORS
330
34E
102
}
330
34E
100
AcDbScale
 70
     0
300
3/16" = 1'-0"
140
0.1875
141
12.0
290
     0
  0
SCALE
  5
357
102
{ACAD_REACTORS
330
34E
102
}
330
34E
100
AcDbScale
 70
     0
300
1/4" = 1'-0"
140
0.25
141
12.0
290
     0
  0
SCALE
  5
358
102
{ACAD_REACTORS
330
34E
102
}
330
34E
100
AcDbScale
 70
     0
300
3/8" = 1'-0"
140
0.375
141
12.0
290
     0
  0
SCALE
  5
359
102
{ACAD_REACTORS
330
34E
102
}
330
34E
100
AcDbScale
 70
     0
300
1/2" = 1'-0"
140
0.5
141
12.0
290
     0
  0
SCALE
  5
35A
102
{ACAD_REACTORS
330
34E
102
}
330
34E
100
AcDbScale
 70
     0
300
3/4" = 1'-0"
140
0.75
141
12.0
290
     0
  0
SCALE
  5
35B
102
{ACAD_REACTORS
330
34E
102
}
330
34E
100
AcDbScale
 70
     0
300
1" = 1'-0"
140
1.0
141
12.0
290
     0
  0
SCALE
  5
35C
102
{ACAD_REACTORS
330
34E
102
}
330
34E
100
AcDbScale
 70
     0
300
1-1/2" = 1'-0"
140
1.5
141
12.0
290
     0
  0
SCALE
  5
35D
102
{ACAD_REACTORS
330
34E
102
}
330
34E
100
AcDbScale
 70
     0
300
3" = 1'-0"
140
3.0
141
12.0
290
     0
  0
SCALE
  5
35E
102
{ACAD_REACTORS
330
34E
102
}
330
34E
100
AcDbScale
 70
     0
300
6" = 1'-0"
140
6.0
141
12.0
290
     0
  0
SCALE
  5
35F
102
{ACAD_REACTORS
330
34E
102
}
330
34E
100
AcDbScale
 70
     0
300
1'-0" = 1'-0"
140
12.0
141
12.0
290
     0
  0
ACDBSECTIONVIEWSTYLE
  5
363
102
{ACAD_XDICTIONARY
360
1F89
102
}
102
{ACAD_REACTORS
330
362
102
}
330
362
100
AcDbModelDocViewStyle
 70
     0
  3
Imperial24
290
     0
100
AcDbSectionViewStyle
 70
     0
 71
     0
 90
       78
 71
     1
340
17
 62
   256
 40
0.24
340
0
340
0
 62
   256
 40
0.24
300
I, O, Q, S, X, Z
 40
0.48
 90
        3
 40
0.18
 90
        1
 71
     2
340
13
 90
       25
 62
   256
340
13
 90
       50
 62
   256
 40
0.24
 40
0.0
 40
0.24
 71
     3
340
17
 62
   256
 40
0.24
 90
        1
 40
0.75
 90
        1
300
%<\AcVar ViewType \f "%tc1">% %<\AcVar ViewSectionStartId>%-%<\AcVar ViewSectionEndId>%\PVARIA %<\AcVar ViewScale \f "%sn">%
 71
     4
 62
   256
 62
   257
300
ANSI31
 40
1.0
 90
        0
290
     0
290
     0
 90
        6
 40
0.0
 40
1.570796326794896
 40
0.2617993877991494
 40
1.308996938995747
 40
-0.2617993877991494
 40
1.832595714594044
  0
TABLESTYLE
  5
34D
102
{ACAD_XDICTIONARY
360
513
102
}
102
{ACAD_REACTORS
330
34C
102
}
330
34C
100
AcDbTableStyle
280
     0
  3
Standard
 70
     0
 71
     0
 40
0.06
 41
0.06
280
     0
281
     0
  7
STANDARD
140
0.18
170
     2
 62
     0
 63
     7
283
     0
 90
      512
 91
        0
  1

274
    -2
284
     1
 64
     0
275
    -2
285
     1
 65
     0
276
    -2
286
     1
 66
     0
277
    -2
287
     1
 67
     0
278
    -2
288
     1
 68
     0
279
    -2
289
     1
 69
     0
  7
STANDARD
140
0.25
170
     5
 62
     0
 63
     7
283
     0
 90
      512
 91
        0
  1

274
    -2
284
     1
 64
     0
275
    -2
285
     1
 65
     0
276
    -2
286
     1
 66
     0
277
    -2
287
     1
 67
     0
278
    -2
288
     1
 68
     0
279
    -2
289
     1
 69
     0
  7
STANDARD
140
0.18
170
     5
 62
     0
 63
     7
283
     0
 90
      512
 91
        0
  1

274
    -2
284
     1
 64
     0
275
    -2
285
     1
 65
     0
276
    -2
286
     1
 66
     0
277
    -2
287
     1
 67
     0
278
    -2
288
     1
 68
     0
279
    -2
289
     1
 69
     0
  0
VISUALSTYLE
  5
338
102
{ACAD_XDICTIONARY
360
1F63
102
}
102
{ACAD_REACTORS
330
332
102
}
330
332
100
AcDbVisualStyle
  2
2dWireframe
 70
     4
177
     2
291
     0
 71
     0
176
     1
 72
     2
176
     1
 73
     0
176
     1
 90
        0
176
     1
 40
0.6
176
     1
 41
30.0
176
     1
 63
     7
421
 16777215
176
     1
 74
     1
176
     1
 91
        4
176
     1
 64
     7
176
     1
 65
   257
176
     1
 75
     1
176
     1
175
     1
176
     1
 42
1.0
176
     1
 92
        0
176
     1
 66
   257
176
     1
 43
1.0
176
     1
 76
     1
176
     1
 77
     6
176
     1
 78
     2
176
     1
 67
     7
176
     1
 79
     5
176
     1
170
     0
176
     1
171
     0
176
     1
290
     0
176
     1
 93
        1
176
     1
 44
0.0
176
     1
173
     0
176
     1
1001
ACAD
1000
AcDbSavedByObjectVersion
1070
     0
  0
VISUALSTYLE
  5
337
102
{ACAD_XDICTIONARY
360
1F61
102
}
102
{ACAD_REACTORS
330
332
102
}
330
332
100
AcDbVisualStyle
  2
Basic
 70
     7
177
     2
291
     1
 71
     1
176
     1
 72
     0
176
     1
 73
     1
176
     1
 90
        0
176
     1
 40
0.6
176
     1
 41
30.0
176
     1
 63
     7
421
 16777215
176
     1
 74
     0
176
     1
 91
        4
176
     1
 64
     7
176
     1
 65
   257
176
     1
 75
     1
176
     1
175
     1
176
     1
 42
1.0
176
     1
 92
        8
176
     1
 66
     7
176
     1
 43
1.0
176
     1
 76
     1
176
     1
 77
     6
176
     1
 78
     2
176
     1
 67
     7
176
     1
 79
     5
176
     1
170
     0
176
     1
171
     0
176
     1
290
     0
176
     1
 93
        1
176
     1
 44
0.0
176
     1
173
     0
176
     1
1001
ACAD
1000
AcDbSavedByObjectVersion
1070
     0
  0
VISUALSTYLE
  5
33E
102
{ACAD_XDICTIONARY
360
1F6F
102
}
102
{ACAD_REACTORS
330
332
102
}
330
332
100
AcDbVisualStyle
  2
Brighten
 70
    12
177
     2
291
     1
 71
     2
176
     1
 72
     2
176
     1
 73
     0
176
     1
 90
        0
176
     1
 40
0.6
176
     1
 41
30.0
176
     1
 63
     7
421
 16777215
176
     1
 74
     1
176
     1
 91
        4
176
     1
 64
     7
176
     1
 65
   257
176
     1
 75
     1
176
     1
175
     1
176
     1
 42
1.0
176
     1
 92
        8
176
     1
 66
     7
176
     1
 43
1.0
176
     1
 76
     1
176
     1
 77
     6
176
     1
 78
     2
176
     1
 67
     7
176
     1
 79
     5
176
     1
170
     0
176
     1
171
     0
176
     1
290
     0
176
     1
 93
        1
176
     1
 44
50.0
176
     1
173
     0
176
     1
1001
ACAD
1000
AcDbSavedByObjectVersion
1070
     0
  0
VISUALSTYLE
  5
342
102
{ACAD_XDICTIONARY
360
1F77
102
}
102
{ACAD_REACTORS
330
332
102
}
330
332
100
AcDbVisualStyle
  2
ColorChange
 70
    16
177
     2
291
     1
 71
     2
176
     1
 72
     2
176
     1
 73
     3
176
     1
 90
        0
176
     1
 40
0.6
176
     1
 41
30.0
176
     1
 63
     8
421
  8421504
176
     1
 74
     1
176
     1
 91
        4
176
     1
 64
     7
176
     1
 65
   257
176
     1
 75
     1
176
     1
175
     1
176
     1
 42
1.0
176
     1
 92
        8
176
     1
 66
     8
424
  8421504
176
     1
 43
1.0
176
     1
 76
     1
176
     1
 77
     6
176
     1
 78
     2
176
     1
 67
     7
176
     1
 79
     5
176
     1
170
     0
176
     1
171
     0
176
     1
290
     0
176
     1
 93
        1
176
     1
 44
0.0
176
     1
173
     0
176
     1
1001
ACAD
1000
AcDbSavedByObjectVersion
1070
     0
  0
VISUALSTYLE
  5
33B
102
{ACAD_XDICTIONARY
360
1F69
102
}
102
{ACAD_REACTORS
330
332
102
}
330
332
100
AcDbVisualStyle
  2
Conceptual
 70
     9
177
     2
291
     0
 71
     3
176
     1
 72
     2
176
     1
 73
     0
176
     1
 90
        0
176
     1
 40
0.6
176
     1
 41
30.0
176
     1
 63
     7
421
 16777215
176
     1
 74
     2
176
     1
 91
        2
176
     1
 64
     7
176
     1
 65
   257
176
     1
 75
     1
176
     1
175
     1
176
     1
 42
179.0
176
     1
 92
        8
176
     1
 66
     7
176
     1
 43
1.0
176
     1
 76
     1
176
     1
 77
     6
176
     1
 78
     2
176
     1
 67
     7
176
     1
 79
     3
176
     1
170
     0
176
     1
171
     0
176
     1
290
     0
176
     1
 93
        1
176
     1
 44
0.0
176
     1
173
     0
176
     1
1001
ACAD
1000
AcDbSavedByObjectVersion
1070
     0
  0
VISUALSTYLE
  5
33D
102
{ACAD_XDICTIONARY
360
1F6D
102
}
102
{ACAD_REACTORS
330
332
102
}
330
332
100
AcDbVisualStyle
  2
Dim
 70
    11
177
     2
291
     1
 71
     2
176
     1
 72
     2
176
     1
 73
     0
176
     1
 90
        0
176
     1
 40
0.6
176
     1
 41
30.0
176
     1
 63
     7
421
 16777215
176
     1
 74
     1
176
     1
 91
        4
176
     1
 64
     7
176
     1
 65
   257
176
     1
 75
     1
176
     1
175
     1
176
     1
 42
1.0
176
     1
 92
        8
176
     1
 66
     7
176
     1
 43
1.0
176
     1
 76
     1
176
     1
 77
     6
176
     1
 78
     2
176
     1
 67
     7
176
     1
 79
     5
176
     1
170
     0
176
     1
171
     0
176
     1
290
     0
176
     1
 93
        1
176
     1
 44
-50.0
176
     1
173
     0
176
     1
1001
ACAD
1000
AcDbSavedByObjectVersion
1070
     0
  0
VISUALSTYLE
  5
34A
102
{ACAD_XDICTIONARY
360
1F87
102
}
102
{ACAD_REACTORS
330
332
102
}
330
332
100
AcDbVisualStyle
  2
EdgeColorOff
 70
    22
177
     2
291
     1
 71
     2
176
     0
 72
     2
176
     0
 73
     0
176
     0
 90
        0
176
     0
 40
0.6
176
     0
 41
30.0
176
     0
 63
     7
421
 16777215
176
     0
 74
     1
176
     0
 91
        4
176
     0
 64
     7
176
     0
 65
   257
176
     0
 75
     1
176
     0
175
     1
176
     0
 42
1.0
176
     0
 92
        8
176
     2
 66
     7
176
     0
 43
1.0
176
     0
 76
     1
176
     0
 77
     6
176
     0
 78
     2
176
     0
 67
     7
176
     0
 79
     5
176
     0
170
     0
176
     0
171
     0
176
     0
290
     0
176
     0
 93
        1
176
     0
 44
0.0
176
     0
173
     0
176
     0
1001
ACAD
1000
AcDbSavedByObjectVersion
1070
     0
  0
VISUALSTYLE
  5
341
102
{ACAD_XDICTIONARY
360
1F75
102
}
102
{ACAD_REACTORS
330
332
102
}
330
332
100
AcDbVisualStyle
  2
Facepattern
 70
    15
177
     2
291
     1
 71
     2
176
     1
 72
     2
176
     1
 73
     0
176
     1
 90
        0
176
     1
 40
0.6
176
     1
 41
30.0
176
     1
 63
     7
421
 16777215
176
     1
 74
     1
176
     1
 91
        4
176
     1
 64
     7
176
     1
 65
   257
176
     1
 75
     1
176
     1
175
     1
176
     1
 42
1.0
176
     1
 92
        8
176
     1
 66
     7
176
     1
 43
1.0
176
     1
 76
     1
176
     1
 77
     6
176
     1
 78
     2
176
     1
 67
     7
176
     1
 79
     5
176
     1
170
     0
176
     1
171
     0
176
     1
290
     0
176
     1
 93
        1
176
     1
 44
0.0
176
     1
173
     0
176
     1
1001
ACAD
1000
AcDbSavedByObjectVersion
1070
     0
  0
VISUALSTYLE
  5
333
102
{ACAD_XDICTIONARY
360
1F59
102
}
102
{ACAD_REACTORS
330
332
102
}
330
332
100
AcDbVisualStyle
  2
Flat
 70
     0
177
     2
291
     1
 71
     2
176
     1
 72
     1
176
     1
 73
     1
176
     1
 90
        2
176
     1
 40
0.6
176
     1
 41
30.0
176
     1
 63
     7
421
 16777215
176
     1
 74
     0
176
     1
 91
        0
176
     1
 64
     7
176
     1
 65
   257
176
     1
 75
     1
176
     1
175
     1
176
     1
 42
1.0
176
     1
 92
        8
176
     1
 66
     7
176
     1
 43
1.0
176
     1
 76
     1
176
     1
 77
     6
176
     1
 78
     2
176
     1
 67
     7
176
     1
 79
     5
176
     1
170
     0
176
     1
171
     0
176
     1
290
     0
176
     1
 93
       13
176
     1
 44
0.0
176
     1
173
     0
176
     1
1001
ACAD
1000
AcDbSavedByObjectVersion
1070
     0
  0
VISUALSTYLE
  5
334
102
{ACAD_XDICTIONARY
360
1F5B
102
}
102
{ACAD_REACTORS
330
332
102
}
330
332
100
AcDbVisualStyle
  2
FlatWithEdges
 70
     1
177
     2
291
     1
 71
     2
176
     1
 72
     1
176
     1
 73
     1
176
     1
 90
        2
176
     1
 40
0.6
176
     1
 41
30.0
176
     1
 63
     7
421
 16777215
176
     1
 74
     1
176
     1
 91
        0
176
     1
 64
     7
176
     1
 65
   257
176
     1
 75
     1
176
     1
175
     1
176
     1
 42
1.0
176
     1
 92
        0
176
     1
 66
   257
176
     1
 43
1.0
176
     1
 76
     1
176
     1
 77
     6
176
     1
 78
     2
176
     1
 67
     7
176
     1
 79
     5
176
     1
170
     0
176
     1
171
     0
176
     1
290
     0
176
     1
 93
       13
176
     1
 44
0.0
176
     1
173
     0
176
     1
1001
ACAD
1000
AcDbSavedByObjectVersion
1070
     0
  0
VISUALSTYLE
  5
335
102
{ACAD_XDICTIONARY
360
1F5D
102
}
102
{ACAD_REACTORS
330
332
102
}
330
332
100
AcDbVisualStyle
  2
Gouraud
 70
     2
177
     2
291
     1
 71
     2
176
     1
 72
     2
176
     1
 73
     1
176
     1
 90
        2
176
     1
 40
0.6
176
     1
 41
30.0
176
     1
 63
     7
421
 16777215
176
     1
 74
     0
176
     1
 91
        0
176
     1
 64
     7
176
     1
 65
   257
176
     1
 75
     1
176
     1
175
     1
176
     1
 42
1.0
176
     1
 92
        0
176
     1
 66
     7
176
     1
 43
1.0
176
     1
 76
     1
176
     1
 77
     6
176
     1
 78
     2
176
     1
 67
     7
176
     1
 79
     5
176
     1
170
     0
176
     1
171
     0
176
     1
290
     0
176
     1
 93
       13
176
     1
 44
0.0
176
     1
173
     0
176
     1
1001
ACAD
1000
AcDbSavedByObjectVersion
1070
     0
  0
VISUALSTYLE
  5
336
102
{ACAD_XDICTIONARY
360
1F5F
102
}
102
{ACAD_REACTORS
330
332
102
}
330
332
100
AcDbVisualStyle
  2
GouraudWithEdges
 70
     3
177
     2
291
     1
 71
     2
176
     1
 72
     2
176
     1
 73
     1
176
     1
 90
        2
176
     1
 40
0.6
176
     1
 41
30.0
176
     1
 63
     7
421
 16777215
176
     1
 74
     1
176
     1
 91
        0
176
     1
 64
     7
176
     1
 65
   257
176
     1
 75
     1
176
     1
175
     1
176
     1
 42
1.0
176
     1
 92
        0
176
     1
 66
   257
176
     1
 43
1.0
176
     1
 76
     1
176
     1
 77
     6
176
     1
 78
     2
176
     1
 67
     7
176
     1
 79
     5
176
     1
170
     0
176
     1
171
     0
176
     1
290
     0
176
     1
 93
       13
176
     1
 44
0.0
176
     1
173
     0
176
     1
1001
ACAD
1000
AcDbSavedByObjectVersion
1070
     0
  0
VISUALSTYLE
  5
33A
102
{ACAD_XDICTIONARY
360
1F67
102
}
102
{ACAD_REACTORS
330
332
102
}
330
332
100
AcDbVisualStyle
  2
Hidden
 70
     6
177
     2
291
     0
 71
     1
176
     1
 72
     2
176
     1
 73
     2
176
     1
 90
        0
176
     1
 40
0.6
176
     1
 41
30.0
176
     1
 63
     7
421
 16777215
176
     1
 74
     2
176
     1
 91
        2
176
     1
 64
     7
176
     1
 65
   257
176
     1
 75
     2
176
     1
175
     1
176
     1
 42
40.0
176
     1
 92
        0
176
     1
 66
   257
176
     1
 43
1.0
176
     1
 76
     1
176
     1
 77
     6
176
     1
 78
     2
176
     1
 67
     7
176
     1
 79
     3
176
     1
170
     0
176
     1
171
     0
176
     1
290
     0
176
     1
 93
        1
176
     1
 44
0.0
176
     1
173
     0
176
     1
1001
ACAD
1000
AcDbSavedByObjectVersion
1070
     0
  0
VISUALSTYLE
  5
348
102
{ACAD_XDICTIONARY
360
1F83
102
}
102
{ACAD_REACTORS
330
332
102
}
330
332
100
AcDbVisualStyle
  2
JitterOff
 70
    20
177
     2
291
     1
 71
     2
176
     0
 72
     2
176
     0
 73
     0
176
     0
 90
        0
176
     0
 40
0.6
176
     0
 41
30.0
176
     0
 63
     7
421
 16777215
176
     0
 74
     1
176
     0
 91
        4
176
     0
 64
     7
176
     0
 65
   257
176
     0
 75
     1
176
     0
175
     1
176
     0
 42
1.0
176
     0
 92
       10
176
     2
 66
     7
176
     0
 43
1.0
176
     0
 76
     1
176
     0
 77
     6
176
     0
 78
     2
176
     0
 67
     7
176
     0
 79
     5
176
     0
170
     0
176
     0
171
     0
176
     0
290
     0
176
     0
 93
        1
176
     0
 44
0.0
176
     0
173
     0
176
     0
1001
ACAD
1000
AcDbSavedByObjectVersion
1070
     0
  0
VISUALSTYLE
  5
340
102
{ACAD_XDICTIONARY
360
1F73
102
}
102
{ACAD_REACTORS
330
332
102
}
330
332
100
AcDbVisualStyle
  2
Linepattern
 70
    14
177
     2
291
     1
 71
     2
176
     1
 72
     2
176
     1
 73
     0
176
     1
 90
        0
176
     1
 40
0.6
176
     1
 41
30.0
176
     1
 63
     7
421
 16777215
176
     1
 74
     1
176
     1
 91
        4
176
     1
 64
     7
176
     1
 65
   257
176
     1
 75
     7
176
     1
175
     7
176
     1
 42
1.0
176
     1
 92
        8
176
     1
 66
     7
176
     1
 43
1.0
176
     1
 76
     1
176
     1
 77
     6
176
     1
 78
     2
176
     1
 67
     7
176
     1
 79
     5
176
     1
170
     0
176
     1
171
     0
176
     1
290
     0
176
     1
 93
        1
176
     1
 44
0.0
176
     1
173
     0
176
     1
1001
ACAD
1000
AcDbSavedByObjectVersion
1070
     0
  0
VISUALSTYLE
  5
349
102
{ACAD_XDICTIONARY
360
1F85
102
}
102
{ACAD_REACTORS
330
332
102
}
330
332
100
AcDbVisualStyle
  2
OverhangOff
 70
    21
177
     2
291
     1
 71
     2
176
     0
 72
     2
176
     0
 73
     0
176
     0
 90
        0
176
     0
 40
0.6
176
     0
 41
30.0
176
     0
 63
     7
421
 16777215
176
     0
 74
     1
176
     0
 91
        4
176
     0
 64
     7
176
     0
 65
   257
176
     0
 75
     1
176
     0
175
     1
176
     0
 42
1.0
176
     0
 92
        9
176
     2
 66
     7
176
     0
 43
1.0
176
     0
 76
     1
176
     0
 77
     6
176
     0
 78
     2
176
     0
 67
     7
176
     0
 79
     5
176
     0
170
     0
176
     0
171
     0
176
     0
290
     0
176
     0
 93
        1
176
     0
 44
0.0
176
     0
173
     0
176
     0
1001
ACAD
1000
AcDbSavedByObjectVersion
1070
     0
  0
VISUALSTYLE
  5
33C
102
{ACAD_XDICTIONARY
360
1F6B
102
}
102
{ACAD_REACTORS
330
332
102
}
330
332
100
AcDbVisualStyle
  2
Realistic
 70
     8
177
     2
291
     0
 71
     2
176
     1
 72
     3
176
     1
 73
     0
176
     1
 90
        2
176
     1
 40
0.6
176
     1
 41
30.0
176
     1
 63
     7
421
 16777215
176
     1
 74
     0
176
     1
 91
        0
176
     1
 64
     7
176
     1
 65
   257
176
     1
 75
     1
176
     1
175
     1
176
     1
 42
1.0
176
     1
 92
        8
176
     1
 66
   257
176
     1
 43
1.0
176
     1
 76
     1
176
     1
 77
     6
176
     1
 78
     2
176
     1
 67
     7
176
     1
 79
     3
176
     1
170
     0
176
     1
171
     0
176
     1
290
     0
176
     1
 93
       13
176
     1
 44
0.0
176
     1
173
     0
176
     1
1001
ACAD
1000
AcDbSavedByObjectVersion
1070
     0
  0
VISUALSTYLE
  5
347
102
{ACAD_XDICTIONARY
360
1F81
102
}
102
{ACAD_REACTORS
330
332
102
}
330
332
100
AcDbVisualStyle
  2
Shaded
 70
    27
177
     2
291
     0
 71
     2
176
     1
 72
     2
176
     1
 73
     1
176
     1
 90
        2
176
     1
 40
0.6
176
     1
 41
30.0
176
     1
 63
     7
421
 16777215
176
     1
 74
     0
176
     1
 91
        4
176
     1
 64
     7
176
     1
 65
   257
176
     1
 75
     1
176
     1
175
     1
176
     1
 42
1.0
176
     1
 92
        8
176
     1
 66
   257
176
     1
 43
1.0
176
     1
 76
     1
176
     1
 77
     6
176
     1
 78
     2
176
     1
 67
     8
425
  7895160
176
     1
 79
     3
176
     1
170
     0
176
     1
171
     0
176
     1
290
     0
176
     1
 93
        5
176
     1
 44
0.0
176
     1
173
     0
176
     1
1001
ACAD
1000
AcDbSavedByObjectVersion
1070
     0
  0
VISUALSTYLE
  5
346
102
{ACAD_XDICTIONARY
360
1F7F
102
}
102
{ACAD_REACTORS
330
332
102
}
330
332
100
AcDbVisualStyle
  2
Shaded with edges
 70
    26
177
     2
291
     0
 71
     2
176
     1
 72
     2
176
     1
 73
     1
176
     1
 90
        2
176
     1
 40
0.6
176
     1
 41
30.0
176
     1
 63
     7
421
 16777215
176
     1
 74
     1
176
     1
 91
       10
176
     1
 64
     7
176
     1
 65
   257
176
     1
 75
     2
176
     1
175
     1
176
     1
 42
1.0
176
     1
 92
        8
176
     1
 66
   257
176
     1
 43
1.0
176
     1
 76
     1
176
     1
 77
     6
176
     1
 78
     2
176
     1
 67
     7
176
     1
 79
     3
176
     1
170
     0
176
     1
171
     0
176
     1
290
     0
176
     1
 93
        5
176
     1
 44
0.0
176
     1
173
     0
176
     1
1001
ACAD
1000
AcDbSavedByObjectVersion
1070
     0
  0
VISUALSTYLE
  5
343
102
{ACAD_XDICTIONARY
360
1F79
102
}
102
{ACAD_REACTORS
330
332
102
}
330
332
100
AcDbVisualStyle
  2
Shades of Gray
 70
    23
177
     2
291
     0
 71
     2
176
     1
 72
     2
176
     1
 73
     3
176
     1
 90
        0
176
     1
 40
0.6
176
     1
 41
30.0
176
     1
 63
     7
421
 16777215
176
     1
 74
     2
176
     1
 91
        2
176
     1
 64
     7
176
     1
 65
     7
176
     1
 75
     1
176
     1
175
     1
176
     1
 42
40.0
176
     1
 92
        8
176
     1
 66
     7
176
     1
 43
1.0
176
     1
 76
     1
176
     1
 77
     6
176
     1
 78
     2
176
     1
 67
     7
176
     1
 79
     3
176
     1
170
     0
176
     1
171
     0
176
     1
290
     0
176
     1
 93
        1
176
     1
 44
0.0
176
     1
173
     0
176
     1
1001
ACAD
1000
AcDbSavedByObjectVersion
1070
     0
  0
VISUALSTYLE
  5
344
102
{ACAD_XDICTIONARY
360
1F7B
102
}
102
{ACAD_REACTORS
330
332
102
}
330
332
100
AcDbVisualStyle
  2
Sketchy
 70
    24
177
     2
291
     0
 71
     1
176
     1
 72
     2
176
     1
 73
     2
176
     1
 90
        0
176
     1
 40
0.6
176
     1
 41
30.0
176
     1
 63
     7
421
 16777215
176
     1
 74
     2
176
     1
 91
        2
176
     1
 64
     7
176
     1
 65
     7
176
     1
 75
     1
176
     1
175
     1
176
     1
 42
40.0
176
     1
 92
       11
176
     1
 66
     7
176
     1
 43
1.0
176
     1
 76
     1
176
     1
 77
     6
176
     1
 78
     2
176
     1
 67
     7
176
     1
 79
     6
176
     1
170
     0
176
     1
171
     0
176
     1
290
     0
176
     1
 93
        1
176
     1
 44
0.0
176
     1
173
     0
176
     1
1001
ACAD
1000
AcDbSavedByObjectVersion
1070
     0
  0
VISUALSTYLE
  5
33F
102
{ACAD_XDICTIONARY
360
1F71
102
}
102
{ACAD_REACTORS
330
332
102
}
330
332
100
AcDbVisualStyle
  2
Thicken
 70
    13
177
     2
291
     1
 71
     2
176
     1
 72
     2
176
     1
 73
     0
176
     1
 90
        0
176
     1
 40
0.6
176
     1
 41
30.0
176
     1
 63
     7
421
 16777215
176
     1
 74
     1
176
     1
 91
        4
176
     1
 64
     7
176
     1
 65
   257
176
     1
 75
     1
176
     1
175
     1
176
     1
 42
1.0
176
     1
 92
       12
176
     1
 66
     7
176
     1
 43
1.0
176
     1
 76
     1
176
     1
 77
     6
176
     1
 78
     2
176
     1
 67
     7
176
     1
 79
     5
176
     1
170
     0
176
     1
171
     0
176
     1
290
     0
176
     1
 93
        1
176
     1
 44
0.0
176
     1
173
     0
176
     1
1001
ACAD
1000
AcDbSavedByObjectVersion
1070
     0
  0
VISUALSTYLE
  5
339
102
{ACAD_XDICTIONARY
360
1F65
102
}
102
{ACAD_REACTORS
330
332
102
}
330
332
100
AcDbVisualStyle
  2
Wireframe
 70
     5
177
     2
291
     0
 71
     0
176
     1
 72
     2
176
     1
 73
     0
176
     1
 90
        0
176
     1
 40
0.6
176
     1
 41
30.0
176
     1
 63
     7
421
 16777215
176
     1
 74
     1
176
     1
 91
        4
176
     1
 64
     7
176
     1
 65
   257
176
     1
 75
     1
176
     1
175
     1
176
     1
 42
1.0
176
     1
 92
        0
176
     1
 66
   257
176
     1
 43
1.0
176
     1
 76
     1
176
     1
 77
     6
176
     1
 78
     2
176
     1
 67
     7
176
     1
 79
     3
176
     1
170
     0
176
     1
171
     0
176
     1
290
     0
176
     1
 93
        1
176
     1
 44
0.0
176
     1
173
     0
176
     1
1001
ACAD
1000
AcDbSavedByObjectVersion
1070
     0
  0
VISUALSTYLE
  5
345
102
{ACAD_XDICTIONARY
360
1F7D
102
}
102
{ACAD_REACTORS
330
332
102
}
330
332
100
AcDbVisualStyle
  2
X-Ray
 70
    25
177
     2
291
     0
 71
     2
176
     1
 72
     2
176
     1
 73
     1
176
     1
 90
        1
176
     1
 40
0.5
176
     1
 41
30.0
176
     1
 63
     7
421
 16777215
176
     1
 74
     1
176
     1
 91
        0
176
     1
 64
     7
176
     1
 65
   257
176
     1
 75
     1
176
     1
175
     1
176
     1
 42
1.0
176
     1
 92
        8
176
     1
 66
     7
176
     1
 43
1.0
176
     1
 76
     1
176
     1
 77
     6
176
     1
 78
     2
176
     1
 67
     7
176
     1
 79
     3
176
     1
170
     0
176
     1
171
     0
176
     1
290
     0
176
     1
 93
       13
176
     1
 44
0.0
176
     1
173
     0
176
     1
1001
ACAD
1000
AcDbSavedByObjectVersion
1070
     0
  0
DICTIONARYVAR
  5
50F
102
{ACAD_REACTORS
330
509
102
}
330
509
100
DictionaryVariables
280
     0
  1
1:1
  0
DICTIONARYVAR
  5
50B
102
{ACAD_REACTORS
330
509
102
}
330
509
100
DictionaryVariables
280
     0
  1
STANDARD
  0
DICTIONARYVAR
  5
50A
102
{ACAD_REACTORS
330
509
102
}
330
509
100
DictionaryVariables
280
     0
  1
STANDARD
  0
DICTIONARYVAR
  5
50C
102
{ACAD_REACTORS
330
509
102
}
330
509
100
DictionaryVariables
280
     0
  1
Imperial24
  0
DICTIONARYVAR
  5
50D
102
{ACAD_REACTORS
330
509
102
}
330
509
100
DictionaryVariables
280
     0
  1
Imperial24
  0
DICTIONARYVAR
  5
511
102
{ACAD_REACTORS
330
509
102
}
330
509
100
DictionaryVariables
280
     0
  1
1
  0
DICTIONARYVAR
  5
512
102
{ACAD_REACTORS
330
509
102
}
330
509
100
DictionaryVariables
280
     0
  1
15
  0
DICTIONARYVAR
  5
510
102
{ACAD_REACTORS
330
509
102
}
330
509
100
DictionaryVariables
280
     0
  1
0
  0
DICTIONARYVAR
  5
50E
102
{ACAD_REACTORS
330
509
102
}
330
509
100
DictionaryVariables
280
     0
  1
0
  0
DICTIONARY
  5
1F8B
330
365
100
AcDbDictionary
280
     1
281
     1
  3
ACAD_XREC_ROUNDTRIP
360
1F8C
  0
DICTIONARY
  5
323
330
322
100
AcDbDictionary
280
     1
281
     1
  3
BUMPTILE
360
325
  3
DIFFUSETILE
360
324
  3
OPACITYTILE
360
328
  3
REFLECTIONTILE
360
327
  3
REFRACTIONTILE
360
329
  3
SPECULARTILE
360
326
  0
DICTIONARY
  5
31B
330
31A
100
AcDbDictionary
280
     1
281
     1
  3
BUMPTILE
360
31D
  3
DIFFUSETILE
360
31C
  3
OPACITYTILE
360
320
  3
REFLECTIONTILE
360
31F
  3
REFRACTIONTILE
360
321
  3
SPECULARTILE
360
31E
  0
DICTIONARY
  5
32B
330
32A
100
AcDbDictionary
280
     1
281
     1
  3
BUMPTILE
360
32D
  3
DIFFUSETILE
360
32C
  3
OPACITYTILE
360
330
  3
REFLECTIONTILE
360
32F
  3
REFRACTIONTILE
360
331
  3
SPECULARTILE
360
32E
  0
DICTIONARY
  5
1F89
330
363
100
AcDbDictionary
280
     1
281
     1
  3
ACAD_XREC_ROUNDTRIP
360
1F8A
  0
DICTIONARY
  5
513
330
34D
100
AcDbDictionary
280
     1
281
     1
  3
ACAD_ROUNDTRIP_2008_TABLESTYLE_CELLSTYLEMAP
360
1F57
  0
DICTIONARY
  5
1F63
330
338
100
AcDbDictionary
280
     1
281
     1
  3
ACAD_XREC_ROUNDTRIP
360
1F64
  0
DICTIONARY
  5
1F61
330
337
100
AcDbDictionary
280
     1
281
     1
  3
ACAD_XREC_ROUNDTRIP
360
1F62
  0
DICTIONARY
  5
1F6F
330
33E
100
AcDbDictionary
280
     1
281
     1
  3
ACAD_XREC_ROUNDTRIP
360
1F70
  0
DICTIONARY
  5
1F77
330
342
100
AcDbDictionary
280
     1
281
     1
  3
ACAD_XREC_ROUNDTRIP
360
1F78
  0
DICTIONARY
  5
1F69
330
33B
100
AcDbDictionary
280
     1
281
     1
  3
ACAD_XREC_ROUNDTRIP
360
1F6A
  0
DICTIONARY
  5
1F6D
330
33D
100
AcDbDictionary
280
     1
281
     1
  3
ACAD_XREC_ROUNDTRIP
360
1F6E
  0
DICTIONARY
  5
1F87
330
34A
100
AcDbDictionary
280
     1
281
     1
  3
ACAD_XREC_ROUNDTRIP
360
1F88
  0
DICTIONARY
  5
1F75
330
341
100
AcDbDictionary
280
     1
281
     1
  3
ACAD_XREC_ROUNDTRIP
360
1F76
  0
DICTIONARY
  5
1F59
330
333
100
AcDbDictionary
280
     1
281
     1
  3
ACAD_XREC_ROUNDTRIP
360
1F5A
  0
DICTIONARY
  5
1F5B
330
334
100
AcDbDictionary
280
     1
281
     1
  3
ACAD_XREC_ROUNDTRIP
360
1F5C
  0
DICTIONARY
  5
1F5D
330
335
100
AcDbDictionary
280
     1
281
     1
  3
ACAD_XREC_ROUNDTRIP
360
1F5E
  0
DICTIONARY
  5
1F5F
330
336
100
AcDbDictionary
280
     1
281
     1
  3
ACAD_XREC_ROUNDTRIP
360
1F60
  0
DICTIONARY
  5
1F67
330
33A
100
AcDbDictionary
280
     1
281
     1
  3
ACAD_XREC_ROUNDTRIP
360
1F68
  0
DICTIONARY
  5
1F83
330
348
100
AcDbDictionary
280
     1
281
     1
  3
ACAD_XREC_ROUNDTRIP
360
1F84
  0
DICTIONARY
  5
1F73
330
340
100
AcDbDictionary
280
     1
281
     1
  3
ACAD_XREC_ROUNDTRIP
360
1F74
  0
DICTIONARY
  5
1F85
330
349
100
AcDbDictionary
280
     1
281
     1
  3
ACAD_XREC_ROUNDTRIP
360
1F86
  0
DICTIONARY
  5
1F6B
330
33C
100
AcDbDictionary
280
     1
281
     1
  3
ACAD_XREC_ROUNDTRIP
360
1F6C
  0
DICTIONARY
  5
1F81
330
347
100
AcDbDictionary
280
     1
281
     1
  3
ACAD_XREC_ROUNDTRIP
360
1F82
  0
DICTIONARY
  5
1F7F
330
346
100
AcDbDictionary
280
     1
281
     1
  3
ACAD_XREC_ROUNDTRIP
360
1F80
  0
DICTIONARY
  5
1F79
330
343
100
AcDbDictionary
280
     1
281
     1
  3
ACAD_XREC_ROUNDTRIP
360
1F7A
  0
DICTIONARY
  5
1F7B
330
344
100
AcDbDictionary
280
     1
281
     1
  3
ACAD_XREC_ROUNDTRIP
360
1F7C
  0
DICTIONARY
  5
1F71
330
33F
100
AcDbDictionary
280
     1
281
     1
  3
ACAD_XREC_ROUNDTRIP
360
1F72
  0
DICTIONARY
  5
1F65
330
339
100
AcDbDictionary
280
     1
281
     1
  3
ACAD_XREC_ROUNDTRIP
360
1F66
  0
DICTIONARY
  5
1F7D
330
345
100
AcDbDictionary
280
     1
281
     1
  3
ACAD_XREC_ROUNDTRIP
360
1F7E
  0
XRECORD
  5
1F8C
102
{ACAD_REACTORS
330
1F8B
102
}
330
1F8B
100
AcDbXrecord
280
     1
102
DISPLAYNAME
  1
Imperial24
102
FLAGS
 90
        0
  0
XRECORD
  5
325
102
{ACAD_REACTORS
330
323
102
}
330
323
100
AcDbXrecord
280
     1
270
     1
271
     1
  0
XRECORD
  5
324
102
{ACAD_REACTORS
330
323
102
}
330
323
100
AcDbXrecord
280
     1
270
     1
271
     1
  0
XRECORD
  5
328
102
{ACAD_REACTORS
330
323
102
}
330
323
100
AcDbXrecord
280
     1
270
     1
271
     1
  0
XRECORD
  5
327
102
{ACAD_REACTORS
330
323
102
}
330
323
100
AcDbXrecord
280
     1
270
     1
271
     1
  0
XRECORD
  5
329
102
{ACAD_REACTORS
330
323
102
}
330
323
100
AcDbXrecord
280
     1
270
     1
271
     1
  0
XRECORD
  5
326
102
{ACAD_REACTORS
330
323
102
}
330
323
100
AcDbXrecord
280
     1
270
     1
271
     1
  0
XRECORD
  5
31D
102
{ACAD_REACTORS
330
31B
102
}
330
31B
100
AcDbXrecord
280
     1
270
     1
271
     1
  0
XRECORD
  5
31C
102
{ACAD_REACTORS
330
31B
102
}
330
31B
100
AcDbXrecord
280
     1
270
     1
271
     1
  0
XRECORD
  5
320
102
{ACAD_REACTORS
330
31B
102
}
330
31B
100
AcDbXrecord
280
     1
270
     1
271
     1
  0
XRECORD
  5
31F
102
{ACAD_REACTORS
330
31B
102
}
330
31B
100
AcDbXrecord
280
     1
270
     1
271
     1
  0
XRECORD
  5
321
102
{ACAD_REACTORS
330
31B
102
}
330
31B
100
AcDbXrecord
280
     1
270
     1
271
     1
  0
XRECORD
  5
31E
102
{ACAD_REACTORS
330
31B
102
}
330
31B
100
AcDbXrecord
280
     1
270
     1
271
     1
  0
XRECORD
  5
32D
102
{ACAD_REACTORS
330
32B
102
}
330
32B
100
AcDbXrecord
280
     1
270
     1
271
     1
  0
XRECORD
  5
32C
102
{ACAD_REACTORS
330
32B
102
}
330
32B
100
AcDbXrecord
280
     1
270
     1
271
     1
  0
XRECORD
  5
330
102
{ACAD_REACTORS
330
32B
102
}
330
32B
100
AcDbXrecord
280
     1
270
     1
271
     1
  0
XRECORD
  5
32F
102
{ACAD_REACTORS
330
32B
102
}
330
32B
100
AcDbXrecord
280
     1
270
     1
271
     1
  0
XRECORD
  5
331
102
{ACAD_REACTORS
330
32B
102
}
330
32B
100
AcDbXrecord
280
     1
270
     1
271
     1
  0
XRECORD
  5
32E
102
{ACAD_REACTORS
330
32B
102
}
330
32B
100
AcDbXrecord
280
     1
270
     1
271
     1
  0
XRECORD
  5
1F8A
102
{ACAD_REACTORS
330
1F89
102
}
330
1F89
100
AcDbXrecord
280
     1
102
DISPLAYNAME
  1
Imperial24
102
FLAGS
 90
        0
  0
CELLSTYLEMAP
  5
1F57
102
{ACAD_REACTORS
330
513
102
}
330
513
100
AcDbCellStyleMap
 90
        3
300
CELLSTYLE
  1
TABLEFORMAT_BEGIN
 90
        5
170
     1
 91
        0
 92
    32768
 62
   257
 93
        1
300
CONTENTFORMAT
  1
CONTENTFORMAT_BEGIN
 90
        0
 91
        0
 92
      512
 93
        0
300

 40
0.0
140
1.0
 94
        5
 62
     0
340
17
144
0.25
309
CONTENTFORMAT_END
171
     1
301
MARGIN
  1
CELLMARGIN_BEGIN
 40
0.06
 40
0.06
 40
0.06
 40
0.06
 40
0.18
 40
0.18
309
CELLMARGIN_END
 94
        6
 95
        1
302
GRIDFORMAT
  1
GRIDFORMAT_BEGIN
 90
        0
 91
        1
 62
     0
 92
       -2
340
0
 93
        0
 40
0.045
309
GRIDFORMAT_END
 95
        2
302
GRIDFORMAT
  1
GRIDFORMAT_BEGIN
 90
        0
 91
        1
 62
     0
 92
       -2
340
0
 93
        0
 40
0.045
309
GRIDFORMAT_END
 95
        4
302
GRIDFORMAT
  1
GRIDFORMAT_BEGIN
 90
        0
 91
        1
 62
     0
 92
       -2
340
0
 93
        0
 40
0.045
309
GRIDFORMAT_END
 95
        8
302
GRIDFORMAT
  1
GRIDFORMAT_BEGIN
 90
        0
 91
        1
 62
     0
 92
       -2
340
0
 93
        0
 40
0.045
309
GRIDFORMAT_END
 95
       16
302
GRIDFORMAT
  1
GRIDFORMAT_BEGIN
 90
        0
 91
        1
 62
     0
 92
       -2
340
0
 93
        0
 40
0.045
309
GRIDFORMAT_END
 95
       32
302
GRIDFORMAT
  1
GRIDFORMAT_BEGIN
 90
        0
 91
        1
 62
     0
 92
       -2
340
0
 93
        0
 40
0.045
309
GRIDFORMAT_END
309
TABLEFORMAT_END
  1
CELLSTYLE_BEGIN
 90
        1
 91
        1
300
_TITLE
309
CELLSTYLE_END
300
CELLSTYLE
  1
TABLEFORMAT_BEGIN
 90
        5
170
     1
 91
        0
 92
        0
 62
   257
 93
        1
300
CONTENTFORMAT
  1
CONTENTFORMAT_BEGIN
 90
        0
 91
        0
 92
      512
 93
        0
300

 40
0.0
140
1.0
 94
        5
 62
     0
340
17
144
0.18
309
CONTENTFORMAT_END
171
     1
301
MARGIN
  1
CELLMARGIN_BEGIN
 40
0.06
 40
0.06
 40
0.06
 40
0.06
 40
0.18
 40
0.18
309
CELLMARGIN_END
 94
        6
 95
        1
302
GRIDFORMAT
  1
GRIDFORMAT_BEGIN
 90
        0
 91
        1
 62
     0
 92
       -2
340
0
 93
        0
 40
0.045
309
GRIDFORMAT_END
 95
        2
302
GRIDFORMAT
  1
GRIDFORMAT_BEGIN
 90
        0
 91
        1
 62
     0
 92
       -2
340
0
 93
        0
 40
0.045
309
GRIDFORMAT_END
 95
        4
302
GRIDFORMAT
  1
GRIDFORMAT_BEGIN
 90
        0
 91
        1
 62
     0
 92
       -2
340
0
 93
        0
 40
0.045
309
GRIDFORMAT_END
 95
        8
302
GRIDFORMAT
  1
GRIDFORMAT_BEGIN
 90
        0
 91
        1
 62
     0
 92
       -2
340
0
 93
        0
 40
0.045
309
GRIDFORMAT_END
 95
       16
302
GRIDFORMAT
  1
GRIDFORMAT_BEGIN
 90
        0
 91
        1
 62
     0
 92
       -2
340
0
 93
        0
 40
0.045
309
GRIDFORMAT_END
 95
       32
302
GRIDFORMAT
  1
GRIDFORMAT_BEGIN
 90
        0
 91
        1
 62
     0
 92
       -2
340
0
 93
        0
 40
0.045
309
GRIDFORMAT_END
309
TABLEFORMAT_END
  1
CELLSTYLE_BEGIN
 90
        2
 91
        1
300
_HEADER
309
CELLSTYLE_END
300
CELLSTYLE
  1
TABLEFORMAT_BEGIN
 90
        5
170
     1
 91
        0
 92
        0
 62
   257
 93
        1
300
CONTENTFORMAT
  1
CONTENTFORMAT_BEGIN
 90
        0
 91
        0
 92
      512
 93
        0
300

 40
0.0
140
1.0
 94
        2
 62
     0
340
17
144
0.18
309
CONTENTFORMAT_END
171
     1
301
MARGIN
  1
CELLMARGIN_BEGIN
 40
0.06
 40
0.06
 40
0.06
 40
0.06
 40
0.18
 40
0.18
309
CELLMARGIN_END
 94
        6
 95
        1
302
GRIDFORMAT
  1
GRIDFORMAT_BEGIN
 90
        0
 91
        1
 62
     0
 92
       -2
340
0
 93
        0
 40
0.045
309
GRIDFORMAT_END
 95
        2
302
GRIDFORMAT
  1
GRIDFORMAT_BEGIN
 90
        0
 91
        1
 62
     0
 92
       -2
340
0
 93
        0
 40
0.045
309
GRIDFORMAT_END
 95
        4
302
GRIDFORMAT
  1
GRIDFORMAT_BEGIN
 90
        0
 91
        1
 62
     0
 92
       -2
340
0
 93
        0
 40
0.045
309
GRIDFORMAT_END
 95
        8
302
GRIDFORMAT
  1
GRIDFORMAT_BEGIN
 90
        0
 91
        1
 62
     0
 92
       -2
340
0
 93
        0
 40
0.045
309
GRIDFORMAT_END
 95
       16
302
GRIDFORMAT
  1
GRIDFORMAT_BEGIN
 90
        0
 91
        1
 62
     0
 92
       -2
340
0
 93
        0
 40
0.045
309
GRIDFORMAT_END
 95
       32
302
GRIDFORMAT
  1
GRIDFORMAT_BEGIN
 90
        0
 91
        1
 62
     0
 92
       -2
340
0
 93
        0
 40
0.045
309
GRIDFORMAT_END
309
TABLEFORMAT_END
  1
CELLSTYLE_BEGIN
 90
        3
 91
        2
300
_DATA
309
CELLSTYLE_END
  0
XRECORD
  5
1F64
102
{ACAD_REACTORS
330
1F63
102
}
330
1F63
100
AcDbXrecord
280
     1
102
RTVSPost2010Prop28
280
     1
102
RTVSPost2010PropOp28
 70
     1
102
RTVSPost2010Prop29
280
     1
102
RTVSPost2010PropOp29
 70
     1
102
RTVSPost2010Prop30
280
     0
102
RTVSPost2010PropOp30
 70
     1
102
RTVSPost2010Prop31
280
     0
102
RTVSPost2010PropOp31
 70
     1
102
RTVSPost2010Prop32
280
     0
102
RTVSPost2010PropOp32
 70
     1
102
RTVSPost2010Prop33
280
     0
102
RTVSPost2010PropOp33
 70
     1
102
RTVSPost2010Prop34
280
     0
102
RTVSPost2010PropOp34
 70
     1
102
RTVSPost2010Prop35
280
     0
102
RTVSPost2010PropOp35
 70
     1
102
RTVSPost2010Prop36
280
     0
102
RTVSPost2010PropOp36
 70
     1
102
RTVSPost2010Prop37
 90
       50
102
RTVSPost2010PropOp37
 70
     1
102
RTVSPost2010Prop38
140
0.0
102
RTVSPost2010PropOp38
 70
     1
102
RTVSPost2010Prop39
140
1.0
102
RTVSPost2010PropOp39
 70
     1
102
RTVSPost2010Prop40
 90
        0
102
RTVSPost2010PropOp40
 70
     1
102
RTVSPost2010Prop41ColorIndex
 90
       18
102
RTVSPost2010Prop41ColorRGB
 90
        0
102
RTVSPost2010PropOp41
 70
     1
102
RTVSPost2010Prop42
 90
       50
102
RTVSPost2010PropOp42
 70
     1
102
RTVSPost2010Prop43
 90
        3
102
RTVSPost2010PropOp43
 70
     1
102
RTVSPost2010Prop44ColorIndex
 90
        5
102
RTVSPost2010Prop44ColorRGB
 90
      255
102
RTVSPost2010PropOp44
 70
     1
102
RTVSPost2010Prop45
280
     0
102
RTVSPost2010PropOp45
 70
     1
102
RTVSPost2010Prop46
 90
       50
102
RTVSPost2010PropOp46
 70
     1
102
RTVSPost2010Prop47
 90
       50
102
RTVSPost2010PropOp47
 70
     1
102
RTVSPost2010Prop48
 90
       50
102
RTVSPost2010PropOp48
 70
     1
102
RTVSPost2010Prop49
280
     0
102
RTVSPost2010PropOp49
 70
     1
102
RTVSPost2010Prop50
 90
       50
102
RTVSPost2010PropOp50
 70
     1
102
RTVSPost2010Prop51ColorIndex
 90
      256
102
RTVSPost2010Prop51ColorRGB
 90
-16777216
102
RTVSPost2010PropOp51
 70
     0
102
RTVSPost2010Prop52
140
1.0
102
RTVSPost2010PropOp52
 70
     0
102
RTVSPost2010Prop53
 90
        2
102
RTVSPost2010PropOp53
 70
     1
102
RTVSPost2010Prop54
  1
strokes_ogs.tif
102
RTVSPost2010PropOp54
 70
     1
102
RTVSPost2010Prop55
280
     0
102
RTVSPost2010PropOp55
 70
     1
102
RTVSPost2010Prop56
140
1.0
102
RTVSPost2010PropOp56
 70
     1
102
RTVSPost2010Prop57
140
1.0
102
RTVSPost2010PropOp57
 70
     1
  0
XRECORD
  5
1F62
102
{ACAD_REACTORS
330
1F61
102
}
330
1F61
100
AcDbXrecord
280
     1
102
RTVSPost2010Prop28
280
     0
102
RTVSPost2010PropOp28
 70
     1
102
RTVSPost2010Prop29
280
     1
102
RTVSPost2010PropOp29
 70
     1
102
RTVSPost2010Prop30
280
     1
102
RTVSPost2010PropOp30
 70
     1
102
RTVSPost2010Prop31
280
     0
102
RTVSPost2010PropOp31
 70
     1
102
RTVSPost2010Prop32
280
     0
102
RTVSPost2010PropOp32
 70
     1
102
RTVSPost2010Prop33
280
     0
102
RTVSPost2010PropOp33
 70
     1
102
RTVSPost2010Prop34
280
     0
102
RTVSPost2010PropOp34
 70
     1
102
RTVSPost2010Prop35
280
     0
102
RTVSPost2010PropOp35
 70
     1
102
RTVSPost2010Prop36
280
     0
102
RTVSPost2010PropOp36
 70
     1
102
RTVSPost2010Prop37
 90
       50
102
RTVSPost2010PropOp37
 70
     1
102
RTVSPost2010Prop38
140
0.0
102
RTVSPost2010PropOp38
 70
     1
102
RTVSPost2010Prop39
140
1.0
102
RTVSPost2010PropOp39
 70
     1
102
RTVSPost2010Prop40
 90
        0
102
RTVSPost2010PropOp40
 70
     1
102
RTVSPost2010Prop41ColorIndex
 90
       18
102
RTVSPost2010Prop41ColorRGB
 90
        0
102
RTVSPost2010PropOp41
 70
     1
102
RTVSPost2010Prop42
 90
       50
102
RTVSPost2010PropOp42
 70
     1
102
RTVSPost2010Prop43
 90
        3
102
RTVSPost2010PropOp43
 70
     1
102
RTVSPost2010Prop44ColorIndex
 90
        5
102
RTVSPost2010Prop44ColorRGB
 90
      255
102
RTVSPost2010PropOp44
 70
     1
102
RTVSPost2010Prop45
280
     0
102
RTVSPost2010PropOp45
 70
     1
102
RTVSPost2010Prop46
 90
       50
102
RTVSPost2010PropOp46
 70
     1
102
RTVSPost2010Prop47
 90
       50
102
RTVSPost2010PropOp47
 70
     1
102
RTVSPost2010Prop48
 90
       50
102
RTVSPost2010PropOp48
 70
     1
102
RTVSPost2010Prop49
280
     0
102
RTVSPost2010PropOp49
 70
     1
102
RTVSPost2010Prop50
 90
       50
102
RTVSPost2010PropOp50
 70
     1
102
RTVSPost2010Prop51ColorIndex
 90
      256
102
RTVSPost2010Prop51ColorRGB
 90
-16777216
102
RTVSPost2010PropOp51
 70
     0
102
RTVSPost2010Prop52
140
1.0
102
RTVSPost2010PropOp52
 70
     0
102
RTVSPost2010Prop53
 90
        2
102
RTVSPost2010PropOp53
 70
     1
102
RTVSPost2010Prop54
  1
strokes_ogs.tif
102
RTVSPost2010PropOp54
 70
     1
102
RTVSPost2010Prop55
280
     0
102
RTVSPost2010PropOp55
 70
     1
102
RTVSPost2010Prop56
140
1.0
102
RTVSPost2010PropOp56
 70
     1
102
RTVSPost2010Prop57
140
1.0
102
RTVSPost2010PropOp57
 70
     1
  0
XRECORD
  5
1F70
102
{ACAD_REACTORS
330
1F6F
102
}
330
1F6F
100
AcDbXrecord
280
     1
102
RTVSPost2010Prop28
280
     0
102
RTVSPost2010PropOp28
 70
     1
102
RTVSPost2010Prop29
280
     1
102
RTVSPost2010PropOp29
 70
     1
102
RTVSPost2010Prop30
280
     1
102
RTVSPost2010PropOp30
 70
     1
102
RTVSPost2010Prop31
280
     0
102
RTVSPost2010PropOp31
 70
     1
102
RTVSPost2010Prop32
280
     0
102
RTVSPost2010PropOp32
 70
     1
102
RTVSPost2010Prop33
280
     0
102
RTVSPost2010PropOp33
 70
     1
102
RTVSPost2010Prop34
280
     0
102
RTVSPost2010PropOp34
 70
     1
102
RTVSPost2010Prop35
280
     0
102
RTVSPost2010PropOp35
 70
     1
102
RTVSPost2010Prop36
280
     0
102
RTVSPost2010PropOp36
 70
     1
102
RTVSPost2010Prop37
 90
       50
102
RTVSPost2010PropOp37
 70
     1
102
RTVSPost2010Prop38
140
0.0
102
RTVSPost2010PropOp38
 70
     1
102
RTVSPost2010Prop39
140
1.0
102
RTVSPost2010PropOp39
 70
     1
102
RTVSPost2010Prop40
 90
        0
102
RTVSPost2010PropOp40
 70
     1
102
RTVSPost2010Prop41ColorIndex
 90
       18
102
RTVSPost2010Prop41ColorRGB
 90
        0
102
RTVSPost2010PropOp41
 70
     1
102
RTVSPost2010Prop42
 90
       50
102
RTVSPost2010PropOp42
 70
     1
102
RTVSPost2010Prop43
 90
        3
102
RTVSPost2010PropOp43
 70
     1
102
RTVSPost2010Prop44ColorIndex
 90
        5
102
RTVSPost2010Prop44ColorRGB
 90
      255
102
RTVSPost2010PropOp44
 70
     1
102
RTVSPost2010Prop45
280
     0
102
RTVSPost2010PropOp45
 70
     1
102
RTVSPost2010Prop46
 90
       50
102
RTVSPost2010PropOp46
 70
     1
102
RTVSPost2010Prop47
 90
       50
102
RTVSPost2010PropOp47
 70
     1
102
RTVSPost2010Prop48
 90
       50
102
RTVSPost2010PropOp48
 70
     1
102
RTVSPost2010Prop49
280
     0
102
RTVSPost2010PropOp49
 70
     1
102
RTVSPost2010Prop50
 90
       50
102
RTVSPost2010PropOp50
 70
     1
102
RTVSPost2010Prop51ColorIndex
 90
      256
102
RTVSPost2010Prop51ColorRGB
 90
-16777216
102
RTVSPost2010PropOp51
 70
     0
102
RTVSPost2010Prop52
140
1.0
102
RTVSPost2010PropOp52
 70
     0
102
RTVSPost2010Prop53
 90
        2
102
RTVSPost2010PropOp53
 70
     1
102
RTVSPost2010Prop54
  1
strokes_ogs.tif
102
RTVSPost2010PropOp54
 70
     1
102
RTVSPost2010Prop55
280
     0
102
RTVSPost2010PropOp55
 70
     1
102
RTVSPost2010Prop56
140
1.0
102
RTVSPost2010PropOp56
 70
     1
102
RTVSPost2010Prop57
140
1.0
102
RTVSPost2010PropOp57
 70
     1
  0
XRECORD
  5
1F78
102
{ACAD_REACTORS
330
1F77
102
}
330
1F77
100
AcDbXrecord
280
     1
102
RTVSPost2010Prop28
280
     0
102
RTVSPost2010PropOp28
 70
     1
102
RTVSPost2010Prop29
280
     1
102
RTVSPost2010PropOp29
 70
     1
102
RTVSPost2010Prop30
280
     1
102
RTVSPost2010PropOp30
 70
     1
102
RTVSPost2010Prop31
280
     0
102
RTVSPost2010PropOp31
 70
     1
102
RTVSPost2010Prop32
280
     0
102
RTVSPost2010PropOp32
 70
     1
102
RTVSPost2010Prop33
280
     0
102
RTVSPost2010PropOp33
 70
     1
102
RTVSPost2010Prop34
280
     0
102
RTVSPost2010PropOp34
 70
     1
102
RTVSPost2010Prop35
280
     0
102
RTVSPost2010PropOp35
 70
     1
102
RTVSPost2010Prop36
280
     0
102
RTVSPost2010PropOp36
 70
     1
102
RTVSPost2010Prop37
 90
       50
102
RTVSPost2010PropOp37
 70
     1
102
RTVSPost2010Prop38
140
0.0
102
RTVSPost2010PropOp38
 70
     1
102
RTVSPost2010Prop39
140
1.0
102
RTVSPost2010PropOp39
 70
     1
102
RTVSPost2010Prop40
 90
        0
102
RTVSPost2010PropOp40
 70
     1
102
RTVSPost2010Prop41ColorIndex
 90
       18
102
RTVSPost2010Prop41ColorRGB
 90
        0
102
RTVSPost2010PropOp41
 70
     1
102
RTVSPost2010Prop42
 90
       50
102
RTVSPost2010PropOp42
 70
     1
102
RTVSPost2010Prop43
 90
        3
102
RTVSPost2010PropOp43
 70
     1
102
RTVSPost2010Prop44ColorIndex
 90
        5
102
RTVSPost2010Prop44ColorRGB
 90
      255
102
RTVSPost2010PropOp44
 70
     1
102
RTVSPost2010Prop45
280
     0
102
RTVSPost2010PropOp45
 70
     1
102
RTVSPost2010Prop46
 90
       50
102
RTVSPost2010PropOp46
 70
     1
102
RTVSPost2010Prop47
 90
       50
102
RTVSPost2010PropOp47
 70
     1
102
RTVSPost2010Prop48
 90
       50
102
RTVSPost2010PropOp48
 70
     1
102
RTVSPost2010Prop49
280
     0
102
RTVSPost2010PropOp49
 70
     1
102
RTVSPost2010Prop50
 90
       50
102
RTVSPost2010PropOp50
 70
     1
102
RTVSPost2010Prop51ColorIndex
 90
      256
102
RTVSPost2010Prop51ColorRGB
 90
-16777216
102
RTVSPost2010PropOp51
 70
     0
102
RTVSPost2010Prop52
140
1.0
102
RTVSPost2010PropOp52
 70
     0
102
RTVSPost2010Prop53
 90
        2
102
RTVSPost2010PropOp53
 70
     1
102
RTVSPost2010Prop54
  1
strokes_ogs.tif
102
RTVSPost2010PropOp54
 70
     1
102
RTVSPost2010Prop55
280
     0
102
RTVSPost2010PropOp55
 70
     1
102
RTVSPost2010Prop56
140
1.0
102
RTVSPost2010PropOp56
 70
     1
102
RTVSPost2010Prop57
140
1.0
102
RTVSPost2010PropOp57
 70
     1
  0
XRECORD
  5
1F6A
102
{ACAD_REACTORS
330
1F69
102
}
330
1F69
100
AcDbXrecord
280
     1
102
RTVSPost2010Prop28
280
     0
102
RTVSPost2010PropOp28
 70
     1
102
RTVSPost2010Prop29
280
     1
102
RTVSPost2010PropOp29
 70
     1
102
RTVSPost2010Prop30
280
     1
102
RTVSPost2010PropOp30
 70
     1
102
RTVSPost2010Prop31
280
     0
102
RTVSPost2010PropOp31
 70
     1
102
RTVSPost2010Prop32
280
     0
102
RTVSPost2010PropOp32
 70
     1
102
RTVSPost2010Prop33
280
     0
102
RTVSPost2010PropOp33
 70
     1
102
RTVSPost2010Prop34
280
     0
102
RTVSPost2010PropOp34
 70
     1
102
RTVSPost2010Prop35
280
     0
102
RTVSPost2010PropOp35
 70
     1
102
RTVSPost2010Prop36
280
     0
102
RTVSPost2010PropOp36
 70
     1
102
RTVSPost2010Prop37
 90
       50
102
RTVSPost2010PropOp37
 70
     1
102
RTVSPost2010Prop38
140
0.0
102
RTVSPost2010PropOp38
 70
     1
102
RTVSPost2010Prop39
140
1.0
102
RTVSPost2010PropOp39
 70
     1
102
RTVSPost2010Prop40
 90
        0
102
RTVSPost2010PropOp40
 70
     1
102
RTVSPost2010Prop41ColorIndex
 90
       18
102
RTVSPost2010Prop41ColorRGB
 90
        0
102
RTVSPost2010PropOp41
 70
     1
102
RTVSPost2010Prop42
 90
       50
102
RTVSPost2010PropOp42
 70
     1
102
RTVSPost2010Prop43
 90
        3
102
RTVSPost2010PropOp43
 70
     1
102
RTVSPost2010Prop44ColorIndex
 90
        5
102
RTVSPost2010Prop44ColorRGB
 90
      255
102
RTVSPost2010PropOp44
 70
     1
102
RTVSPost2010Prop45
280
     0
102
RTVSPost2010PropOp45
 70
     1
102
RTVSPost2010Prop46
 90
       50
102
RTVSPost2010PropOp46
 70
     1
102
RTVSPost2010Prop47
 90
       50
102
RTVSPost2010PropOp47
 70
     1
102
RTVSPost2010Prop48
 90
       50
102
RTVSPost2010PropOp48
 70
     1
102
RTVSPost2010Prop49
280
     0
102
RTVSPost2010PropOp49
 70
     1
102
RTVSPost2010Prop50
 90
       50
102
RTVSPost2010PropOp50
 70
     1
102
RTVSPost2010Prop51ColorIndex
 90
      256
102
RTVSPost2010Prop51ColorRGB
 90
-16777216
102
RTVSPost2010PropOp51
 70
     0
102
RTVSPost2010Prop52
140
1.0
102
RTVSPost2010PropOp52
 70
     0
102
RTVSPost2010Prop53
 90
        2
102
RTVSPost2010PropOp53
 70
     1
102
RTVSPost2010Prop54
  1
strokes_ogs.tif
102
RTVSPost2010PropOp54
 70
     1
102
RTVSPost2010Prop55
280
     0
102
RTVSPost2010PropOp55
 70
     1
102
RTVSPost2010Prop56
140
1.0
102
RTVSPost2010PropOp56
 70
     1
102
RTVSPost2010Prop57
140
1.0
102
RTVSPost2010PropOp57
 70
     1
  0
XRECORD
  5
1F6E
102
{ACAD_REACTORS
330
1F6D
102
}
330
1F6D
100
AcDbXrecord
280
     1
102
RTVSPost2010Prop28
280
     0
102
RTVSPost2010PropOp28
 70
     1
102
RTVSPost2010Prop29
280
     1
102
RTVSPost2010PropOp29
 70
     1
102
RTVSPost2010Prop30
280
     1
102
RTVSPost2010PropOp30
 70
     1
102
RTVSPost2010Prop31
280
     0
102
RTVSPost2010PropOp31
 70
     1
102
RTVSPost2010Prop32
280
     0
102
RTVSPost2010PropOp32
 70
     1
102
RTVSPost2010Prop33
280
     0
102
RTVSPost2010PropOp33
 70
     1
102
RTVSPost2010Prop34
280
     0
102
RTVSPost2010PropOp34
 70
     1
102
RTVSPost2010Prop35
280
     0
102
RTVSPost2010PropOp35
 70
     1
102
RTVSPost2010Prop36
280
     0
102
RTVSPost2010PropOp36
 70
     1
102
RTVSPost2010Prop37
 90
       50
102
RTVSPost2010PropOp37
 70
     1
102
RTVSPost2010Prop38
140
0.0
102
RTVSPost2010PropOp38
 70
     1
102
RTVSPost2010Prop39
140
1.0
102
RTVSPost2010PropOp39
 70
     1
102
RTVSPost2010Prop40
 90
        0
102
RTVSPost2010PropOp40
 70
     1
102
RTVSPost2010Prop41ColorIndex
 90
       18
102
RTVSPost2010Prop41ColorRGB
 90
        0
102
RTVSPost2010PropOp41
 70
     1
102
RTVSPost2010Prop42
 90
       50
102
RTVSPost2010PropOp42
 70
     1
102
RTVSPost2010Prop43
 90
        3
102
RTVSPost2010PropOp43
 70
     1
102
RTVSPost2010Prop44ColorIndex
 90
        5
102
RTVSPost2010Prop44ColorRGB
 90
      255
102
RTVSPost2010PropOp44
 70
     1
102
RTVSPost2010Prop45
280
     0
102
RTVSPost2010PropOp45
 70
     1
102
RTVSPost2010Prop46
 90
       50
102
RTVSPost2010PropOp46
 70
     1
102
RTVSPost2010Prop47
 90
       50
102
RTVSPost2010PropOp47
 70
     1
102
RTVSPost2010Prop48
 90
       50
102
RTVSPost2010PropOp48
 70
     1
102
RTVSPost2010Prop49
280
     0
102
RTVSPost2010PropOp49
 70
     1
102
RTVSPost2010Prop50
 90
       50
102
RTVSPost2010PropOp50
 70
     1
102
RTVSPost2010Prop51ColorIndex
 90
      256
102
RTVSPost2010Prop51ColorRGB
 90
-16777216
102
RTVSPost2010PropOp51
 70
     0
102
RTVSPost2010Prop52
140
1.0
102
RTVSPost2010PropOp52
 70
     0
102
RTVSPost2010Prop53
 90
        2
102
RTVSPost2010PropOp53
 70
     1
102
RTVSPost2010Prop54
  1
strokes_ogs.tif
102
RTVSPost2010PropOp54
 70
     1
102
RTVSPost2010Prop55
280
     0
102
RTVSPost2010PropOp55
 70
     1
102
RTVSPost2010Prop56
140
1.0
102
RTVSPost2010PropOp56
 70
     1
102
RTVSPost2010Prop57
140
1.0
102
RTVSPost2010PropOp57
 70
     1
  0
XRECORD
  5
1F88
102
{ACAD_REACTORS
330
1F87
102
}
330
1F87
100
AcDbXrecord
280
     1
102
RTVSPost2010Prop28
280
     0
102
RTVSPost2010PropOp28
 70
     1
102
RTVSPost2010Prop29
280
     1
102
RTVSPost2010PropOp29
 70
     1
102
RTVSPost2010Prop30
280
     1
102
RTVSPost2010PropOp30
 70
     1
102
RTVSPost2010Prop31
280
     0
102
RTVSPost2010PropOp31
 70
     1
102
RTVSPost2010Prop32
280
     0
102
RTVSPost2010PropOp32
 70
     1
102
RTVSPost2010Prop33
280
     0
102
RTVSPost2010PropOp33
 70
     1
102
RTVSPost2010Prop34
280
     0
102
RTVSPost2010PropOp34
 70
     1
102
RTVSPost2010Prop35
280
     0
102
RTVSPost2010PropOp35
 70
     1
102
RTVSPost2010Prop36
280
     0
102
RTVSPost2010PropOp36
 70
     1
102
RTVSPost2010Prop37
 90
       50
102
RTVSPost2010PropOp37
 70
     0
102
RTVSPost2010Prop38
140
0.0
102
RTVSPost2010PropOp38
 70
     0
102
RTVSPost2010Prop39
140
1.0
102
RTVSPost2010PropOp39
 70
     0
102
RTVSPost2010Prop40
 90
        0
102
RTVSPost2010PropOp40
 70
     0
102
RTVSPost2010Prop41ColorIndex
 90
       18
102
RTVSPost2010Prop41ColorRGB
 90
        0
102
RTVSPost2010PropOp41
 70
     0
102
RTVSPost2010Prop42
 90
       50
102
RTVSPost2010PropOp42
 70
     0
102
RTVSPost2010Prop43
 90
        3
102
RTVSPost2010PropOp43
 70
     0
102
RTVSPost2010Prop44ColorIndex
 90
        5
102
RTVSPost2010Prop44ColorRGB
 90
      255
102
RTVSPost2010PropOp44
 70
     0
102
RTVSPost2010Prop45
280
     0
102
RTVSPost2010PropOp45
 70
     1
102
RTVSPost2010Prop46
 90
       50
102
RTVSPost2010PropOp46
 70
     0
102
RTVSPost2010Prop47
 90
       50
102
RTVSPost2010PropOp47
 70
     0
102
RTVSPost2010Prop48
 90
       50
102
RTVSPost2010PropOp48
 70
     0
102
RTVSPost2010Prop49
280
     0
102
RTVSPost2010PropOp49
 70
     1
102
RTVSPost2010Prop50
 90
       50
102
RTVSPost2010PropOp50
 70
     0
102
RTVSPost2010Prop51ColorIndex
 90
      256
102
RTVSPost2010Prop51ColorRGB
 90
-16777216
102
RTVSPost2010PropOp51
 70
     0
102
RTVSPost2010Prop52
140
1.0
102
RTVSPost2010PropOp52
 70
     0
102
RTVSPost2010Prop53
 90
        2
102
RTVSPost2010PropOp53
 70
     0
102
RTVSPost2010Prop54
  1
strokes_ogs.tif
102
RTVSPost2010PropOp54
 70
     0
102
RTVSPost2010Prop55
280
     0
102
RTVSPost2010PropOp55
 70
     1
102
RTVSPost2010Prop56
140
1.0
102
RTVSPost2010PropOp56
 70
     0
102
RTVSPost2010Prop57
140
1.0
102
RTVSPost2010PropOp57
 70
     0
  0
XRECORD
  5
1F76
102
{ACAD_REACTORS
330
1F75
102
}
330
1F75
100
AcDbXrecord
280
     1
102
RTVSPost2010Prop28
280
     0
102
RTVSPost2010PropOp28
 70
     1
102
RTVSPost2010Prop29
280
     1
102
RTVSPost2010PropOp29
 70
     1
102
RTVSPost2010Prop30
280
     1
102
RTVSPost2010PropOp30
 70
     1
102
RTVSPost2010Prop31
280
     0
102
RTVSPost2010PropOp31
 70
     1
102
RTVSPost2010Prop32
280
     0
102
RTVSPost2010PropOp32
 70
     1
102
RTVSPost2010Prop33
280
     0
102
RTVSPost2010PropOp33
 70
     1
102
RTVSPost2010Prop34
280
     0
102
RTVSPost2010PropOp34
 70
     1
102
RTVSPost2010Prop35
280
     0
102
RTVSPost2010PropOp35
 70
     1
102
RTVSPost2010Prop36
280
     0
102
RTVSPost2010PropOp36
 70
     1
102
RTVSPost2010Prop37
 90
       50
102
RTVSPost2010PropOp37
 70
     1
102
RTVSPost2010Prop38
140
0.0
102
RTVSPost2010PropOp38
 70
     1
102
RTVSPost2010Prop39
140
1.0
102
RTVSPost2010PropOp39
 70
     1
102
RTVSPost2010Prop40
 90
        0
102
RTVSPost2010PropOp40
 70
     1
102
RTVSPost2010Prop41ColorIndex
 90
       18
102
RTVSPost2010Prop41ColorRGB
 90
        0
102
RTVSPost2010PropOp41
 70
     1
102
RTVSPost2010Prop42
 90
       50
102
RTVSPost2010PropOp42
 70
     1
102
RTVSPost2010Prop43
 90
        3
102
RTVSPost2010PropOp43
 70
     1
102
RTVSPost2010Prop44ColorIndex
 90
        5
102
RTVSPost2010Prop44ColorRGB
 90
      255
102
RTVSPost2010PropOp44
 70
     1
102
RTVSPost2010Prop45
280
     0
102
RTVSPost2010PropOp45
 70
     1
102
RTVSPost2010Prop46
 90
       50
102
RTVSPost2010PropOp46
 70
     1
102
RTVSPost2010Prop47
 90
       50
102
RTVSPost2010PropOp47
 70
     1
102
RTVSPost2010Prop48
 90
       50
102
RTVSPost2010PropOp48
 70
     1
102
RTVSPost2010Prop49
280
     0
102
RTVSPost2010PropOp49
 70
     1
102
RTVSPost2010Prop50
 90
       50
102
RTVSPost2010PropOp50
 70
     1
102
RTVSPost2010Prop51ColorIndex
 90
      256
102
RTVSPost2010Prop51ColorRGB
 90
-16777216
102
RTVSPost2010PropOp51
 70
     0
102
RTVSPost2010Prop52
140
1.0
102
RTVSPost2010PropOp52
 70
     0
102
RTVSPost2010Prop53
 90
        2
102
RTVSPost2010PropOp53
 70
     1
102
RTVSPost2010Prop54
  1
strokes_ogs.tif
102
RTVSPost2010PropOp54
 70
     1
102
RTVSPost2010Prop55
280
     0
102
RTVSPost2010PropOp55
 70
     1
102
RTVSPost2010Prop56
140
1.0
102
RTVSPost2010PropOp56
 70
     1
102
RTVSPost2010Prop57
140
1.0
102
RTVSPost2010PropOp57
 70
     1
  0
XRECORD
  5
1F5A
102
{ACAD_REACTORS
330
1F59
102
}
330
1F59
100
AcDbXrecord
280
     1
102
RTVSPost2010Prop28
280
     0
102
RTVSPost2010PropOp28
 70
     1
102
RTVSPost2010Prop29
280
     1
102
RTVSPost2010PropOp29
 70
     1
102
RTVSPost2010Prop30
280
     1
102
RTVSPost2010PropOp30
 70
     1
102
RTVSPost2010Prop31
280
     0
102
RTVSPost2010PropOp31
 70
     1
102
RTVSPost2010Prop32
280
     0
102
RTVSPost2010PropOp32
 70
     1
102
RTVSPost2010Prop33
280
     0
102
RTVSPost2010PropOp33
 70
     1
102
RTVSPost2010Prop34
280
     0
102
RTVSPost2010PropOp34
 70
     1
102
RTVSPost2010Prop35
280
     0
102
RTVSPost2010PropOp35
 70
     1
102
RTVSPost2010Prop36
280
     0
102
RTVSPost2010PropOp36
 70
     1
102
RTVSPost2010Prop37
 90
       50
102
RTVSPost2010PropOp37
 70
     1
102
RTVSPost2010Prop38
140
0.0
102
RTVSPost2010PropOp38
 70
     1
102
RTVSPost2010Prop39
140
1.0
102
RTVSPost2010PropOp39
 70
     1
102
RTVSPost2010Prop40
 90
        0
102
RTVSPost2010PropOp40
 70
     1
102
RTVSPost2010Prop41ColorIndex
 90
       18
102
RTVSPost2010Prop41ColorRGB
 90
        0
102
RTVSPost2010PropOp41
 70
     1
102
RTVSPost2010Prop42
 90
       50
102
RTVSPost2010PropOp42
 70
     1
102
RTVSPost2010Prop43
 90
        3
102
RTVSPost2010PropOp43
 70
     1
102
RTVSPost2010Prop44ColorIndex
 90
        5
102
RTVSPost2010Prop44ColorRGB
 90
      255
102
RTVSPost2010PropOp44
 70
     1
102
RTVSPost2010Prop45
280
     0
102
RTVSPost2010PropOp45
 70
     1
102
RTVSPost2010Prop46
 90
       50
102
RTVSPost2010PropOp46
 70
     1
102
RTVSPost2010Prop47
 90
       50
102
RTVSPost2010PropOp47
 70
     1
102
RTVSPost2010Prop48
 90
       50
102
RTVSPost2010PropOp48
 70
     1
102
RTVSPost2010Prop49
280
     0
102
RTVSPost2010PropOp49
 70
     1
102
RTVSPost2010Prop50
 90
       50
102
RTVSPost2010PropOp50
 70
     1
102
RTVSPost2010Prop51ColorIndex
 90
      256
102
RTVSPost2010Prop51ColorRGB
 90
-16777216
102
RTVSPost2010PropOp51
 70
     0
102
RTVSPost2010Prop52
140
1.0
102
RTVSPost2010PropOp52
 70
     0
102
RTVSPost2010Prop53
 90
        2
102
RTVSPost2010PropOp53
 70
     1
102
RTVSPost2010Prop54
  1
strokes_ogs.tif
102
RTVSPost2010PropOp54
 70
     1
102
RTVSPost2010Prop55
280
     0
102
RTVSPost2010PropOp55
 70
     1
102
RTVSPost2010Prop56
140
1.0
102
RTVSPost2010PropOp56
 70
     1
102
RTVSPost2010Prop57
140
1.0
102
RTVSPost2010PropOp57
 70
     1
  0
XRECORD
  5
1F5C
102
{ACAD_REACTORS
330
1F5B
102
}
330
1F5B
100
AcDbXrecord
280
     1
102
RTVSPost2010Prop28
280
     0
102
RTVSPost2010PropOp28
 70
     1
102
RTVSPost2010Prop29
280
     1
102
RTVSPost2010PropOp29
 70
     1
102
RTVSPost2010Prop30
280
     1
102
RTVSPost2010PropOp30
 70
     1
102
RTVSPost2010Prop31
280
     0
102
RTVSPost2010PropOp31
 70
     1
102
RTVSPost2010Prop32
280
     0
102
RTVSPost2010PropOp32
 70
     1
102
RTVSPost2010Prop33
280
     0
102
RTVSPost2010PropOp33
 70
     1
102
RTVSPost2010Prop34
280
     0
102
RTVSPost2010PropOp34
 70
     1
102
RTVSPost2010Prop35
280
     0
102
RTVSPost2010PropOp35
 70
     1
102
RTVSPost2010Prop36
280
     0
102
RTVSPost2010PropOp36
 70
     1
102
RTVSPost2010Prop37
 90
       50
102
RTVSPost2010PropOp37
 70
     1
102
RTVSPost2010Prop38
140
0.0
102
RTVSPost2010PropOp38
 70
     1
102
RTVSPost2010Prop39
140
1.0
102
RTVSPost2010PropOp39
 70
     1
102
RTVSPost2010Prop40
 90
        0
102
RTVSPost2010PropOp40
 70
     1
102
RTVSPost2010Prop41ColorIndex
 90
       18
102
RTVSPost2010Prop41ColorRGB
 90
        0
102
RTVSPost2010PropOp41
 70
     1
102
RTVSPost2010Prop42
 90
       50
102
RTVSPost2010PropOp42
 70
     1
102
RTVSPost2010Prop43
 90
        3
102
RTVSPost2010PropOp43
 70
     1
102
RTVSPost2010Prop44ColorIndex
 90
        5
102
RTVSPost2010Prop44ColorRGB
 90
      255
102
RTVSPost2010PropOp44
 70
     1
102
RTVSPost2010Prop45
280
     0
102
RTVSPost2010PropOp45
 70
     1
102
RTVSPost2010Prop46
 90
       50
102
RTVSPost2010PropOp46
 70
     1
102
RTVSPost2010Prop47
 90
       50
102
RTVSPost2010PropOp47
 70
     1
102
RTVSPost2010Prop48
 90
       50
102
RTVSPost2010PropOp48
 70
     1
102
RTVSPost2010Prop49
280
     0
102
RTVSPost2010PropOp49
 70
     1
102
RTVSPost2010Prop50
 90
       50
102
RTVSPost2010PropOp50
 70
     1
102
RTVSPost2010Prop51ColorIndex
 90
      256
102
RTVSPost2010Prop51ColorRGB
 90
-16777216
102
RTVSPost2010PropOp51
 70
     0
102
RTVSPost2010Prop52
140
1.0
102
RTVSPost2010PropOp52
 70
     0
102
RTVSPost2010Prop53
 90
        2
102
RTVSPost2010PropOp53
 70
     1
102
RTVSPost2010Prop54
  1
strokes_ogs.tif
102
RTVSPost2010PropOp54
 70
     1
102
RTVSPost2010Prop55
280
     0
102
RTVSPost2010PropOp55
 70
     1
102
RTVSPost2010Prop56
140
1.0
102
RTVSPost2010PropOp56
 70
     1
102
RTVSPost2010Prop57
140
1.0
102
RTVSPost2010PropOp57
 70
     1
  0
XRECORD
  5
1F5E
102
{ACAD_REACTORS
330
1F5D
102
}
330
1F5D
100
AcDbXrecord
280
     1
102
RTVSPost2010Prop28
280
     0
102
RTVSPost2010PropOp28
 70
     1
102
RTVSPost2010Prop29
280
     1
102
RTVSPost2010PropOp29
 70
     1
102
RTVSPost2010Prop30
280
     1
102
RTVSPost2010PropOp30
 70
     1
102
RTVSPost2010Prop31
280
     0
102
RTVSPost2010PropOp31
 70
     1
102
RTVSPost2010Prop32
280
     0
102
RTVSPost2010PropOp32
 70
     1
102
RTVSPost2010Prop33
280
     0
102
RTVSPost2010PropOp33
 70
     1
102
RTVSPost2010Prop34
280
     0
102
RTVSPost2010PropOp34
 70
     1
102
RTVSPost2010Prop35
280
     0
102
RTVSPost2010PropOp35
 70
     1
102
RTVSPost2010Prop36
280
     0
102
RTVSPost2010PropOp36
 70
     1
102
RTVSPost2010Prop37
 90
       50
102
RTVSPost2010PropOp37
 70
     1
102
RTVSPost2010Prop38
140
0.0
102
RTVSPost2010PropOp38
 70
     1
102
RTVSPost2010Prop39
140
1.0
102
RTVSPost2010PropOp39
 70
     1
102
RTVSPost2010Prop40
 90
        0
102
RTVSPost2010PropOp40
 70
     1
102
RTVSPost2010Prop41ColorIndex
 90
       18
102
RTVSPost2010Prop41ColorRGB
 90
        0
102
RTVSPost2010PropOp41
 70
     1
102
RTVSPost2010Prop42
 90
       50
102
RTVSPost2010PropOp42
 70
     1
102
RTVSPost2010Prop43
 90
        3
102
RTVSPost2010PropOp43
 70
     1
102
RTVSPost2010Prop44ColorIndex
 90
        5
102
RTVSPost2010Prop44ColorRGB
 90
      255
102
RTVSPost2010PropOp44
 70
     1
102
RTVSPost2010Prop45
280
     0
102
RTVSPost2010PropOp45
 70
     1
102
RTVSPost2010Prop46
 90
       50
102
RTVSPost2010PropOp46
 70
     1
102
RTVSPost2010Prop47
 90
       50
102
RTVSPost2010PropOp47
 70
     1
102
RTVSPost2010Prop48
 90
       50
102
RTVSPost2010PropOp48
 70
     1
102
RTVSPost2010Prop49
280
     0
102
RTVSPost2010PropOp49
 70
     1
102
RTVSPost2010Prop50
 90
       50
102
RTVSPost2010PropOp50
 70
     1
102
RTVSPost2010Prop51ColorIndex
 90
      256
102
RTVSPost2010Prop51ColorRGB
 90
-16777216
102
RTVSPost2010PropOp51
 70
     0
102
RTVSPost2010Prop52
140
1.0
102
RTVSPost2010PropOp52
 70
     0
102
RTVSPost2010Prop53
 90
        2
102
RTVSPost2010PropOp53
 70
     1
102
RTVSPost2010Prop54
  1
strokes_ogs.tif
102
RTVSPost2010PropOp54
 70
     1
102
RTVSPost2010Prop55
280
     0
102
RTVSPost2010PropOp55
 70
     1
102
RTVSPost2010Prop56
140
1.0
102
RTVSPost2010PropOp56
 70
     1
102
RTVSPost2010Prop57
140
1.0
102
RTVSPost2010PropOp57
 70
     1
  0
XRECORD
  5
1F60
102
{ACAD_REACTORS
330
1F5F
102
}
330
1F5F
100
AcDbXrecord
280
     1
102
RTVSPost2010Prop28
280
     0
102
RTVSPost2010PropOp28
 70
     1
102
RTVSPost2010Prop29
280
     1
102
RTVSPost2010PropOp29
 70
     1
102
RTVSPost2010Prop30
280
     1
102
RTVSPost2010PropOp30
 70
     1
102
RTVSPost2010Prop31
280
     0
102
RTVSPost2010PropOp31
 70
     1
102
RTVSPost2010Prop32
280
     0
102
RTVSPost2010PropOp32
 70
     1
102
RTVSPost2010Prop33
280
     0
102
RTVSPost2010PropOp33
 70
     1
102
RTVSPost2010Prop34
280
     0
102
RTVSPost2010PropOp34
 70
     1
102
RTVSPost2010Prop35
280
     0
102
RTVSPost2010PropOp35
 70
     1
102
RTVSPost2010Prop36
280
     0
102
RTVSPost2010PropOp36
 70
     1
102
RTVSPost2010Prop37
 90
       50
102
RTVSPost2010PropOp37
 70
     1
102
RTVSPost2010Prop38
140
0.0
102
RTVSPost2010PropOp38
 70
     1
102
RTVSPost2010Prop39
140
1.0
102
RTVSPost2010PropOp39
 70
     1
102
RTVSPost2010Prop40
 90
        0
102
RTVSPost2010PropOp40
 70
     1
102
RTVSPost2010Prop41ColorIndex
 90
       18
102
RTVSPost2010Prop41ColorRGB
 90
        0
102
RTVSPost2010PropOp41
 70
     1
102
RTVSPost2010Prop42
 90
       50
102
RTVSPost2010PropOp42
 70
     1
102
RTVSPost2010Prop43
 90
        3
102
RTVSPost2010PropOp43
 70
     1
102
RTVSPost2010Prop44ColorIndex
 90
        5
102
RTVSPost2010Prop44ColorRGB
 90
      255
102
RTVSPost2010PropOp44
 70
     1
102
RTVSPost2010Prop45
280
     0
102
RTVSPost2010PropOp45
 70
     1
102
RTVSPost2010Prop46
 90
       50
102
RTVSPost2010PropOp46
 70
     1
102
RTVSPost2010Prop47
 90
       50
102
RTVSPost2010PropOp47
 70
     1
102
RTVSPost2010Prop48
 90
       50
102
RTVSPost2010PropOp48
 70
     1
102
RTVSPost2010Prop49
280
     0
102
RTVSPost2010PropOp49
 70
     1
102
RTVSPost2010Prop50
 90
       50
102
RTVSPost2010PropOp50
 70
     1
102
RTVSPost2010Prop51ColorIndex
 90
      256
102
RTVSPost2010Prop51ColorRGB
 90
-16777216
102
RTVSPost2010PropOp51
 70
     0
102
RTVSPost2010Prop52
140
1.0
102
RTVSPost2010PropOp52
 70
     0
102
RTVSPost2010Prop53
 90
        2
102
RTVSPost2010PropOp53
 70
     1
102
RTVSPost2010Prop54
  1
strokes_ogs.tif
102
RTVSPost2010PropOp54
 70
     1
102
RTVSPost2010Prop55
280
     0
102
RTVSPost2010PropOp55
 70
     1
102
RTVSPost2010Prop56
140
1.0
102
RTVSPost2010PropOp56
 70
     1
102
RTVSPost2010Prop57
140
1.0
102
RTVSPost2010PropOp57
 70
     1
  0
XRECORD
  5
1F68
102
{ACAD_REACTORS
330
1F67
102
}
330
1F67
100
AcDbXrecord
280
     1
102
RTVSPost2010Prop28
280
     0
102
RTVSPost2010PropOp28
 70
     1
102
RTVSPost2010Prop29
280
     1
102
RTVSPost2010PropOp29
 70
     1
102
RTVSPost2010Prop30
280
     1
102
RTVSPost2010PropOp30
 70
     1
102
RTVSPost2010Prop31
280
     0
102
RTVSPost2010PropOp31
 70
     1
102
RTVSPost2010Prop32
280
     0
102
RTVSPost2010PropOp32
 70
     1
102
RTVSPost2010Prop33
280
     0
102
RTVSPost2010PropOp33
 70
     1
102
RTVSPost2010Prop34
280
     0
102
RTVSPost2010PropOp34
 70
     1
102
RTVSPost2010Prop35
280
     0
102
RTVSPost2010PropOp35
 70
     1
102
RTVSPost2010Prop36
280
     0
102
RTVSPost2010PropOp36
 70
     1
102
RTVSPost2010Prop37
 90
       50
102
RTVSPost2010PropOp37
 70
     1
102
RTVSPost2010Prop38
140
0.0
102
RTVSPost2010PropOp38
 70
     1
102
RTVSPost2010Prop39
140
1.0
102
RTVSPost2010PropOp39
 70
     1
102
RTVSPost2010Prop40
 90
        0
102
RTVSPost2010PropOp40
 70
     1
102
RTVSPost2010Prop41ColorIndex
 90
       18
102
RTVSPost2010Prop41ColorRGB
 90
        0
102
RTVSPost2010PropOp41
 70
     1
102
RTVSPost2010Prop42
 90
       50
102
RTVSPost2010PropOp42
 70
     1
102
RTVSPost2010Prop43
 90
        3
102
RTVSPost2010PropOp43
 70
     1
102
RTVSPost2010Prop44ColorIndex
 90
        5
102
RTVSPost2010Prop44ColorRGB
 90
      255
102
RTVSPost2010PropOp44
 70
     1
102
RTVSPost2010Prop45
280
     0
102
RTVSPost2010PropOp45
 70
     1
102
RTVSPost2010Prop46
 90
       50
102
RTVSPost2010PropOp46
 70
     1
102
RTVSPost2010Prop47
 90
       50
102
RTVSPost2010PropOp47
 70
     1
102
RTVSPost2010Prop48
 90
       50
102
RTVSPost2010PropOp48
 70
     1
102
RTVSPost2010Prop49
280
     0
102
RTVSPost2010PropOp49
 70
     1
102
RTVSPost2010Prop50
 90
       50
102
RTVSPost2010PropOp50
 70
     1
102
RTVSPost2010Prop51ColorIndex
 90
      256
102
RTVSPost2010Prop51ColorRGB
 90
-16777216
102
RTVSPost2010PropOp51
 70
     0
102
RTVSPost2010Prop52
140
1.0
102
RTVSPost2010PropOp52
 70
     0
102
RTVSPost2010Prop53
 90
        2
102
RTVSPost2010PropOp53
 70
     1
102
RTVSPost2010Prop54
  1
strokes_ogs.tif
102
RTVSPost2010PropOp54
 70
     1
102
RTVSPost2010Prop55
280
     0
102
RTVSPost2010PropOp55
 70
     1
102
RTVSPost2010Prop56
140
1.0
102
RTVSPost2010PropOp56
 70
     1
102
RTVSPost2010Prop57
140
1.0
102
RTVSPost2010PropOp57
 70
     1
  0
XRECORD
  5
1F84
102
{ACAD_REACTORS
330
1F83
102
}
330
1F83
100
AcDbXrecord
280
     1
102
RTVSPost2010Prop28
280
     0
102
RTVSPost2010PropOp28
 70
     1
102
RTVSPost2010Prop29
280
     1
102
RTVSPost2010PropOp29
 70
     1
102
RTVSPost2010Prop30
280
     1
102
RTVSPost2010PropOp30
 70
     1
102
RTVSPost2010Prop31
280
     0
102
RTVSPost2010PropOp31
 70
     1
102
RTVSPost2010Prop32
280
     0
102
RTVSPost2010PropOp32
 70
     1
102
RTVSPost2010Prop33
280
     0
102
RTVSPost2010PropOp33
 70
     1
102
RTVSPost2010Prop34
280
     0
102
RTVSPost2010PropOp34
 70
     1
102
RTVSPost2010Prop35
280
     0
102
RTVSPost2010PropOp35
 70
     1
102
RTVSPost2010Prop36
280
     0
102
RTVSPost2010PropOp36
 70
     1
102
RTVSPost2010Prop37
 90
       50
102
RTVSPost2010PropOp37
 70
     0
102
RTVSPost2010Prop38
140
0.0
102
RTVSPost2010PropOp38
 70
     0
102
RTVSPost2010Prop39
140
1.0
102
RTVSPost2010PropOp39
 70
     0
102
RTVSPost2010Prop40
 90
        0
102
RTVSPost2010PropOp40
 70
     0
102
RTVSPost2010Prop41ColorIndex
 90
       18
102
RTVSPost2010Prop41ColorRGB
 90
        0
102
RTVSPost2010PropOp41
 70
     0
102
RTVSPost2010Prop42
 90
       50
102
RTVSPost2010PropOp42
 70
     0
102
RTVSPost2010Prop43
 90
        3
102
RTVSPost2010PropOp43
 70
     0
102
RTVSPost2010Prop44ColorIndex
 90
        5
102
RTVSPost2010Prop44ColorRGB
 90
      255
102
RTVSPost2010PropOp44
 70
     0
102
RTVSPost2010Prop45
280
     0
102
RTVSPost2010PropOp45
 70
     1
102
RTVSPost2010Prop46
 90
       50
102
RTVSPost2010PropOp46
 70
     0
102
RTVSPost2010Prop47
 90
       50
102
RTVSPost2010PropOp47
 70
     0
102
RTVSPost2010Prop48
 90
       50
102
RTVSPost2010PropOp48
 70
     0
102
RTVSPost2010Prop49
280
     0
102
RTVSPost2010PropOp49
 70
     1
102
RTVSPost2010Prop50
 90
       50
102
RTVSPost2010PropOp50
 70
     0
102
RTVSPost2010Prop51ColorIndex
 90
      256
102
RTVSPost2010Prop51ColorRGB
 90
-16777216
102
RTVSPost2010PropOp51
 70
     0
102
RTVSPost2010Prop52
140
1.0
102
RTVSPost2010PropOp52
 70
     0
102
RTVSPost2010Prop53
 90
        2
102
RTVSPost2010PropOp53
 70
     0
102
RTVSPost2010Prop54
  1
strokes_ogs.tif
102
RTVSPost2010PropOp54
 70
     0
102
RTVSPost2010Prop55
280
     0
102
RTVSPost2010PropOp55
 70
     1
102
RTVSPost2010Prop56
140
1.0
102
RTVSPost2010PropOp56
 70
     0
102
RTVSPost2010Prop57
140
1.0
102
RTVSPost2010PropOp57
 70
     0
  0
XRECORD
  5
1F74
102
{ACAD_REACTORS
330
1F73
102
}
330
1F73
100
AcDbXrecord
280
     1
102
RTVSPost2010Prop28
280
     0
102
RTVSPost2010PropOp28
 70
     1
102
RTVSPost2010Prop29
280
     1
102
RTVSPost2010PropOp29
 70
     1
102
RTVSPost2010Prop30
280
     1
102
RTVSPost2010PropOp30
 70
     1
102
RTVSPost2010Prop31
280
     0
102
RTVSPost2010PropOp31
 70
     1
102
RTVSPost2010Prop32
280
     0
102
RTVSPost2010PropOp32
 70
     1
102
RTVSPost2010Prop33
280
     0
102
RTVSPost2010PropOp33
 70
     1
102
RTVSPost2010Prop34
280
     0
102
RTVSPost2010PropOp34
 70
     1
102
RTVSPost2010Prop35
280
     0
102
RTVSPost2010PropOp35
 70
     1
102
RTVSPost2010Prop36
280
     0
102
RTVSPost2010PropOp36
 70
     1
102
RTVSPost2010Prop37
 90
       50
102
RTVSPost2010PropOp37
 70
     1
102
RTVSPost2010Prop38
140
0.0
102
RTVSPost2010PropOp38
 70
     1
102
RTVSPost2010Prop39
140
1.0
102
RTVSPost2010PropOp39
 70
     1
102
RTVSPost2010Prop40
 90
        0
102
RTVSPost2010PropOp40
 70
     1
102
RTVSPost2010Prop41ColorIndex
 90
       18
102
RTVSPost2010Prop41ColorRGB
 90
        0
102
RTVSPost2010PropOp41
 70
     1
102
RTVSPost2010Prop42
 90
       50
102
RTVSPost2010PropOp42
 70
     1
102
RTVSPost2010Prop43
 90
        3
102
RTVSPost2010PropOp43
 70
     1
102
RTVSPost2010Prop44ColorIndex
 90
        5
102
RTVSPost2010Prop44ColorRGB
 90
      255
102
RTVSPost2010PropOp44
 70
     1
102
RTVSPost2010Prop45
280
     0
102
RTVSPost2010PropOp45
 70
     1
102
RTVSPost2010Prop46
 90
       50
102
RTVSPost2010PropOp46
 70
     1
102
RTVSPost2010Prop47
 90
       50
102
RTVSPost2010PropOp47
 70
     1
102
RTVSPost2010Prop48
 90
       50
102
RTVSPost2010PropOp48
 70
     1
102
RTVSPost2010Prop49
280
     0
102
RTVSPost2010PropOp49
 70
     1
102
RTVSPost2010Prop50
 90
       50
102
RTVSPost2010PropOp50
 70
     1
102
RTVSPost2010Prop51ColorIndex
 90
      256
102
RTVSPost2010Prop51ColorRGB
 90
-16777216
102
RTVSPost2010PropOp51
 70
     0
102
RTVSPost2010Prop52
140
1.0
102
RTVSPost2010PropOp52
 70
     0
102
RTVSPost2010Prop53
 90
        2
102
RTVSPost2010PropOp53
 70
     1
102
RTVSPost2010Prop54
  1
strokes_ogs.tif
102
RTVSPost2010PropOp54
 70
     1
102
RTVSPost2010Prop55
280
     0
102
RTVSPost2010PropOp55
 70
     1
102
RTVSPost2010Prop56
140
1.0
102
RTVSPost2010PropOp56
 70
     1
102
RTVSPost2010Prop57
140
1.0
102
RTVSPost2010PropOp57
 70
     1
  0
XRECORD
  5
1F86
102
{ACAD_REACTORS
330
1F85
102
}
330
1F85
100
AcDbXrecord
280
     1
102
RTVSPost2010Prop28
280
     0
102
RTVSPost2010PropOp28
 70
     1
102
RTVSPost2010Prop29
280
     1
102
RTVSPost2010PropOp29
 70
     1
102
RTVSPost2010Prop30
280
     1
102
RTVSPost2010PropOp30
 70
     1
102
RTVSPost2010Prop31
280
     0
102
RTVSPost2010PropOp31
 70
     1
102
RTVSPost2010Prop32
280
     0
102
RTVSPost2010PropOp32
 70
     1
102
RTVSPost2010Prop33
280
     0
102
RTVSPost2010PropOp33
 70
     1
102
RTVSPost2010Prop34
280
     0
102
RTVSPost2010PropOp34
 70
     1
102
RTVSPost2010Prop35
280
     0
102
RTVSPost2010PropOp35
 70
     1
102
RTVSPost2010Prop36
280
     0
102
RTVSPost2010PropOp36
 70
     1
102
RTVSPost2010Prop37
 90
       50
102
RTVSPost2010PropOp37
 70
     0
102
RTVSPost2010Prop38
140
0.0
102
RTVSPost2010PropOp38
 70
     0
102
RTVSPost2010Prop39
140
1.0
102
RTVSPost2010PropOp39
 70
     0
102
RTVSPost2010Prop40
 90
        0
102
RTVSPost2010PropOp40
 70
     0
102
RTVSPost2010Prop41ColorIndex
 90
       18
102
RTVSPost2010Prop41ColorRGB
 90
        0
102
RTVSPost2010PropOp41
 70
     0
102
RTVSPost2010Prop42
 90
       50
102
RTVSPost2010PropOp42
 70
     0
102
RTVSPost2010Prop43
 90
        3
102
RTVSPost2010PropOp43
 70
     0
102
RTVSPost2010Prop44ColorIndex
 90
        5
102
RTVSPost2010Prop44ColorRGB
 90
      255
102
RTVSPost2010PropOp44
 70
     0
102
RTVSPost2010Prop45
280
     0
102
RTVSPost2010PropOp45
 70
     1
102
RTVSPost2010Prop46
 90
       50
102
RTVSPost2010PropOp46
 70
     0
102
RTVSPost2010Prop47
 90
       50
102
RTVSPost2010PropOp47
 70
     0
102
RTVSPost2010Prop48
 90
       50
102
RTVSPost2010PropOp48
 70
     0
102
RTVSPost2010Prop49
280
     0
102
RTVSPost2010PropOp49
 70
     1
102
RTVSPost2010Prop50
 90
       50
102
RTVSPost2010PropOp50
 70
     0
102
RTVSPost2010Prop51ColorIndex
 90
      256
102
RTVSPost2010Prop51ColorRGB
 90
-16777216
102
RTVSPost2010PropOp51
 70
     0
102
RTVSPost2010Prop52
140
1.0
102
RTVSPost2010PropOp52
 70
     0
102
RTVSPost2010Prop53
 90
        2
102
RTVSPost2010PropOp53
 70
     0
102
RTVSPost2010Prop54
  1
strokes_ogs.tif
102
RTVSPost2010PropOp54
 70
     0
102
RTVSPost2010Prop55
280
     0
102
RTVSPost2010PropOp55
 70
     1
102
RTVSPost2010Prop56
140
1.0
102
RTVSPost2010PropOp56
 70
     0
102
RTVSPost2010Prop57
140
1.0
102
RTVSPost2010PropOp57
 70
     0
  0
XRECORD
  5
1F6C
102
{ACAD_REACTORS
330
1F6B
102
}
330
1F6B
100
AcDbXrecord
280
     1
102
RTVSPost2010Prop28
280
     0
102
RTVSPost2010PropOp28
 70
     1
102
RTVSPost2010Prop29
280
     1
102
RTVSPost2010PropOp29
 70
     1
102
RTVSPost2010Prop30
280
     1
102
RTVSPost2010PropOp30
 70
     1
102
RTVSPost2010Prop31
280
     0
102
RTVSPost2010PropOp31
 70
     1
102
RTVSPost2010Prop32
280
     0
102
RTVSPost2010PropOp32
 70
     1
102
RTVSPost2010Prop33
280
     0
102
RTVSPost2010PropOp33
 70
     1
102
RTVSPost2010Prop34
280
     0
102
RTVSPost2010PropOp34
 70
     1
102
RTVSPost2010Prop35
280
     0
102
RTVSPost2010PropOp35
 70
     1
102
RTVSPost2010Prop36
280
     0
102
RTVSPost2010PropOp36
 70
     1
102
RTVSPost2010Prop37
 90
       50
102
RTVSPost2010PropOp37
 70
     1
102
RTVSPost2010Prop38
140
0.0
102
RTVSPost2010PropOp38
 70
     1
102
RTVSPost2010Prop39
140
1.0
102
RTVSPost2010PropOp39
 70
     1
102
RTVSPost2010Prop40
 90
        0
102
RTVSPost2010PropOp40
 70
     1
102
RTVSPost2010Prop41ColorIndex
 90
       18
102
RTVSPost2010Prop41ColorRGB
 90
        0
102
RTVSPost2010PropOp41
 70
     1
102
RTVSPost2010Prop42
 90
       50
102
RTVSPost2010PropOp42
 70
     1
102
RTVSPost2010Prop43
 90
        3
102
RTVSPost2010PropOp43
 70
     1
102
RTVSPost2010Prop44ColorIndex
 90
        5
102
RTVSPost2010Prop44ColorRGB
 90
      255
102
RTVSPost2010PropOp44
 70
     1
102
RTVSPost2010Prop45
280
     0
102
RTVSPost2010PropOp45
 70
     1
102
RTVSPost2010Prop46
 90
       50
102
RTVSPost2010PropOp46
 70
     1
102
RTVSPost2010Prop47
 90
       50
102
RTVSPost2010PropOp47
 70
     1
102
RTVSPost2010Prop48
 90
       50
102
RTVSPost2010PropOp48
 70
     1
102
RTVSPost2010Prop49
280
     0
102
RTVSPost2010PropOp49
 70
     1
102
RTVSPost2010Prop50
 90
       50
102
RTVSPost2010PropOp50
 70
     1
102
RTVSPost2010Prop51ColorIndex
 90
      256
102
RTVSPost2010Prop51ColorRGB
 90
-16777216
102
RTVSPost2010PropOp51
 70
     0
102
RTVSPost2010Prop52
140
1.0
102
RTVSPost2010PropOp52
 70
     0
102
RTVSPost2010Prop53
 90
        2
102
RTVSPost2010PropOp53
 70
     1
102
RTVSPost2010Prop54
  1
strokes_ogs.tif
102
RTVSPost2010PropOp54
 70
     1
102
RTVSPost2010Prop55
280
     0
102
RTVSPost2010PropOp55
 70
     1
102
RTVSPost2010Prop56
140
1.0
102
RTVSPost2010PropOp56
 70
     1
102
RTVSPost2010Prop57
140
1.0
102
RTVSPost2010PropOp57
 70
     1
  0
XRECORD
  5
1F82
102
{ACAD_REACTORS
330
1F81
102
}
330
1F81
100
AcDbXrecord
280
     1
102
RTVSPost2010Prop28
280
     0
102
RTVSPost2010PropOp28
 70
     1
102
RTVSPost2010Prop29
280
     1
102
RTVSPost2010PropOp29
 70
     1
102
RTVSPost2010Prop30
280
     1
102
RTVSPost2010PropOp30
 70
     1
102
RTVSPost2010Prop31
280
     0
102
RTVSPost2010PropOp31
 70
     1
102
RTVSPost2010Prop32
280
     0
102
RTVSPost2010PropOp32
 70
     1
102
RTVSPost2010Prop33
280
     0
102
RTVSPost2010PropOp33
 70
     1
102
RTVSPost2010Prop34
280
     0
102
RTVSPost2010PropOp34
 70
     1
102
RTVSPost2010Prop35
280
     0
102
RTVSPost2010PropOp35
 70
     1
102
RTVSPost2010Prop36
280
     0
102
RTVSPost2010PropOp36
 70
     1
102
RTVSPost2010Prop37
 90
       50
102
RTVSPost2010PropOp37
 70
     1
102
RTVSPost2010Prop38
140
0.0
102
RTVSPost2010PropOp38
 70
     1
102
RTVSPost2010Prop39
140
1.0
102
RTVSPost2010PropOp39
 70
     1
102
RTVSPost2010Prop40
 90
        0
102
RTVSPost2010PropOp40
 70
     1
102
RTVSPost2010Prop41ColorIndex
 90
       18
102
RTVSPost2010Prop41ColorRGB
 90
        0
102
RTVSPost2010PropOp41
 70
     1
102
RTVSPost2010Prop42
 90
       50
102
RTVSPost2010PropOp42
 70
     1
102
RTVSPost2010Prop43
 90
        3
102
RTVSPost2010PropOp43
 70
     1
102
RTVSPost2010Prop44ColorIndex
 90
        5
102
RTVSPost2010Prop44ColorRGB
 90
      255
102
RTVSPost2010PropOp44
 70
     1
102
RTVSPost2010Prop45
280
     0
102
RTVSPost2010PropOp45
 70
     1
102
RTVSPost2010Prop46
 90
       50
102
RTVSPost2010PropOp46
 70
     1
102
RTVSPost2010Prop47
 90
       50
102
RTVSPost2010PropOp47
 70
     1
102
RTVSPost2010Prop48
 90
       50
102
RTVSPost2010PropOp48
 70
     1
102
RTVSPost2010Prop49
280
     0
102
RTVSPost2010PropOp49
 70
     1
102
RTVSPost2010Prop50
 90
       50
102
RTVSPost2010PropOp50
 70
     1
102
RTVSPost2010Prop51ColorIndex
 90
      256
102
RTVSPost2010Prop51ColorRGB
 90
-16777216
102
RTVSPost2010PropOp51
 70
     0
102
RTVSPost2010Prop52
140
1.0
102
RTVSPost2010PropOp52
 70
     0
102
RTVSPost2010Prop53
 90
        2
102
RTVSPost2010PropOp53
 70
     1
102
RTVSPost2010Prop54
  1
strokes_ogs.tif
102
RTVSPost2010PropOp54
 70
     1
102
RTVSPost2010Prop55
280
     0
102
RTVSPost2010PropOp55
 70
     1
102
RTVSPost2010Prop56
140
1.0
102
RTVSPost2010PropOp56
 70
     1
102
RTVSPost2010Prop57
140
1.0
102
RTVSPost2010PropOp57
 70
     1
  0
XRECORD
  5
1F80
102
{ACAD_REACTORS
330
1F7F
102
}
330
1F7F
100
AcDbXrecord
280
     1
102
RTVSPost2010Prop28
280
     0
102
RTVSPost2010PropOp28
 70
     1
102
RTVSPost2010Prop29
280
     1
102
RTVSPost2010PropOp29
 70
     1
102
RTVSPost2010Prop30
280
     1
102
RTVSPost2010PropOp30
 70
     1
102
RTVSPost2010Prop31
280
     0
102
RTVSPost2010PropOp31
 70
     1
102
RTVSPost2010Prop32
280
     0
102
RTVSPost2010PropOp32
 70
     1
102
RTVSPost2010Prop33
280
     0
102
RTVSPost2010PropOp33
 70
     1
102
RTVSPost2010Prop34
280
     0
102
RTVSPost2010PropOp34
 70
     1
102
RTVSPost2010Prop35
280
     0
102
RTVSPost2010PropOp35
 70
     1
102
RTVSPost2010Prop36
280
     0
102
RTVSPost2010PropOp36
 70
     1
102
RTVSPost2010Prop37
 90
       50
102
RTVSPost2010PropOp37
 70
     1
102
RTVSPost2010Prop38
140
0.0
102
RTVSPost2010PropOp38
 70
     1
102
RTVSPost2010Prop39
140
1.0
102
RTVSPost2010PropOp39
 70
     1
102
RTVSPost2010Prop40
 90
        0
102
RTVSPost2010PropOp40
 70
     1
102
RTVSPost2010Prop41ColorIndex
 90
       18
102
RTVSPost2010Prop41ColorRGB
 90
        0
102
RTVSPost2010PropOp41
 70
     1
102
RTVSPost2010Prop42
 90
       50
102
RTVSPost2010PropOp42
 70
     1
102
RTVSPost2010Prop43
 90
        3
102
RTVSPost2010PropOp43
 70
     1
102
RTVSPost2010Prop44ColorIndex
 90
        5
102
RTVSPost2010Prop44ColorRGB
 90
      255
102
RTVSPost2010PropOp44
 70
     1
102
RTVSPost2010Prop45
280
     0
102
RTVSPost2010PropOp45
 70
     1
102
RTVSPost2010Prop46
 90
       50
102
RTVSPost2010PropOp46
 70
     1
102
RTVSPost2010Prop47
 90
       50
102
RTVSPost2010PropOp47
 70
     1
102
RTVSPost2010Prop48
 90
       50
102
RTVSPost2010PropOp48
 70
     1
102
RTVSPost2010Prop49
280
     0
102
RTVSPost2010PropOp49
 70
     1
102
RTVSPost2010Prop50
 90
       50
102
RTVSPost2010PropOp50
 70
     1
102
RTVSPost2010Prop51ColorIndex
 90
      256
102
RTVSPost2010Prop51ColorRGB
 90
-16777216
102
RTVSPost2010PropOp51
 70
     0
102
RTVSPost2010Prop52
140
1.0
102
RTVSPost2010PropOp52
 70
     0
102
RTVSPost2010Prop53
 90
        2
102
RTVSPost2010PropOp53
 70
     1
102
RTVSPost2010Prop54
  1
strokes_ogs.tif
102
RTVSPost2010PropOp54
 70
     1
102
RTVSPost2010Prop55
280
     0
102
RTVSPost2010PropOp55
 70
     1
102
RTVSPost2010Prop56
140
1.0
102
RTVSPost2010PropOp56
 70
     1
102
RTVSPost2010Prop57
140
1.0
102
RTVSPost2010PropOp57
 70
     1
  0
XRECORD
  5
1F7A
102
{ACAD_REACTORS
330
1F79
102
}
330
1F79
100
AcDbXrecord
280
     1
102
RTVSPost2010Prop28
280
     0
102
RTVSPost2010PropOp28
 70
     1
102
RTVSPost2010Prop29
280
     1
102
RTVSPost2010PropOp29
 70
     1
102
RTVSPost2010Prop30
280
     1
102
RTVSPost2010PropOp30
 70
     1
102
RTVSPost2010Prop31
280
     0
102
RTVSPost2010PropOp31
 70
     1
102
RTVSPost2010Prop32
280
     0
102
RTVSPost2010PropOp32
 70
     1
102
RTVSPost2010Prop33
280
     0
102
RTVSPost2010PropOp33
 70
     1
102
RTVSPost2010Prop34
280
     0
102
RTVSPost2010PropOp34
 70
     1
102
RTVSPost2010Prop35
280
     0
102
RTVSPost2010PropOp35
 70
     1
102
RTVSPost2010Prop36
280
     0
102
RTVSPost2010PropOp36
 70
     1
102
RTVSPost2010Prop37
 90
       50
102
RTVSPost2010PropOp37
 70
     1
102
RTVSPost2010Prop38
140
0.0
102
RTVSPost2010PropOp38
 70
     1
102
RTVSPost2010Prop39
140
1.0
102
RTVSPost2010PropOp39
 70
     1
102
RTVSPost2010Prop40
 90
        0
102
RTVSPost2010PropOp40
 70
     1
102
RTVSPost2010Prop41ColorIndex
 90
       18
102
RTVSPost2010Prop41ColorRGB
 90
        0
102
RTVSPost2010PropOp41
 70
     1
102
RTVSPost2010Prop42
 90
       50
102
RTVSPost2010PropOp42
 70
     1
102
RTVSPost2010Prop43
 90
        3
102
RTVSPost2010PropOp43
 70
     1
102
RTVSPost2010Prop44ColorIndex
 90
        5
102
RTVSPost2010Prop44ColorRGB
 90
      255
102
RTVSPost2010PropOp44
 70
     1
102
RTVSPost2010Prop45
280
     0
102
RTVSPost2010PropOp45
 70
     1
102
RTVSPost2010Prop46
 90
       50
102
RTVSPost2010PropOp46
 70
     1
102
RTVSPost2010Prop47
 90
       50
102
RTVSPost2010PropOp47
 70
     1
102
RTVSPost2010Prop48
 90
       50
102
RTVSPost2010PropOp48
 70
     1
102
RTVSPost2010Prop49
280
     0
102
RTVSPost2010PropOp49
 70
     1
102
RTVSPost2010Prop50
 90
       50
102
RTVSPost2010PropOp50
 70
     1
102
RTVSPost2010Prop51ColorIndex
 90
      256
102
RTVSPost2010Prop51ColorRGB
 90
-16777216
102
RTVSPost2010PropOp51
 70
     0
102
RTVSPost2010Prop52
140
1.0
102
RTVSPost2010PropOp52
 70
     0
102
RTVSPost2010Prop53
 90
        2
102
RTVSPost2010PropOp53
 70
     1
102
RTVSPost2010Prop54
  1
strokes_ogs.tif
102
RTVSPost2010PropOp54
 70
     1
102
RTVSPost2010Prop55
280
     0
102
RTVSPost2010PropOp55
 70
     1
102
RTVSPost2010Prop56
140
1.0
102
RTVSPost2010PropOp56
 70
     1
102
RTVSPost2010Prop57
140
1.0
102
RTVSPost2010PropOp57
 70
     1
  0
XRECORD
  5
1F7C
102
{ACAD_REACTORS
330
1F7B
102
}
330
1F7B
100
AcDbXrecord
280
     1
102
RTVSPost2010Prop28
280
     0
102
RTVSPost2010PropOp28
 70
     1
102
RTVSPost2010Prop29
280
     1
102
RTVSPost2010PropOp29
 70
     1
102
RTVSPost2010Prop30
280
     1
102
RTVSPost2010PropOp30
 70
     1
102
RTVSPost2010Prop31
280
     0
102
RTVSPost2010PropOp31
 70
     1
102
RTVSPost2010Prop32
280
     0
102
RTVSPost2010PropOp32
 70
     1
102
RTVSPost2010Prop33
280
     0
102
RTVSPost2010PropOp33
 70
     1
102
RTVSPost2010Prop34
280
     0
102
RTVSPost2010PropOp34
 70
     1
102
RTVSPost2010Prop35
280
     0
102
RTVSPost2010PropOp35
 70
     1
102
RTVSPost2010Prop36
280
     0
102
RTVSPost2010PropOp36
 70
     1
102
RTVSPost2010Prop37
 90
       50
102
RTVSPost2010PropOp37
 70
     1
102
RTVSPost2010Prop38
140
0.0
102
RTVSPost2010PropOp38
 70
     1
102
RTVSPost2010Prop39
140
1.0
102
RTVSPost2010PropOp39
 70
     1
102
RTVSPost2010Prop40
 90
        0
102
RTVSPost2010PropOp40
 70
     1
102
RTVSPost2010Prop41ColorIndex
 90
       18
102
RTVSPost2010Prop41ColorRGB
 90
        0
102
RTVSPost2010PropOp41
 70
     1
102
RTVSPost2010Prop42
 90
       50
102
RTVSPost2010PropOp42
 70
     1
102
RTVSPost2010Prop43
 90
        3
102
RTVSPost2010PropOp43
 70
     1
102
RTVSPost2010Prop44ColorIndex
 90
        5
102
RTVSPost2010Prop44ColorRGB
 90
      255
102
RTVSPost2010PropOp44
 70
     1
102
RTVSPost2010Prop45
280
     0
102
RTVSPost2010PropOp45
 70
     1
102
RTVSPost2010Prop46
 90
       50
102
RTVSPost2010PropOp46
 70
     1
102
RTVSPost2010Prop47
 90
       50
102
RTVSPost2010PropOp47
 70
     1
102
RTVSPost2010Prop48
 90
       50
102
RTVSPost2010PropOp48
 70
     1
102
RTVSPost2010Prop49
280
     0
102
RTVSPost2010PropOp49
 70
     1
102
RTVSPost2010Prop50
 90
       50
102
RTVSPost2010PropOp50
 70
     1
102
RTVSPost2010Prop51ColorIndex
 90
      256
102
RTVSPost2010Prop51ColorRGB
 90
-16777216
102
RTVSPost2010PropOp51
 70
     0
102
RTVSPost2010Prop52
140
1.0
102
RTVSPost2010PropOp52
 70
     0
102
RTVSPost2010Prop53
 90
        2
102
RTVSPost2010PropOp53
 70
     1
102
RTVSPost2010Prop54
  1
strokes_ogs.tif
102
RTVSPost2010PropOp54
 70
     1
102
RTVSPost2010Prop55
280
     0
102
RTVSPost2010PropOp55
 70
     1
102
RTVSPost2010Prop56
140
1.0
102
RTVSPost2010PropOp56
 70
     1
102
RTVSPost2010Prop57
140
1.0
102
RTVSPost2010PropOp57
 70
     1
  0
XRECORD
  5
1F72
102
{ACAD_REACTORS
330
1F71
102
}
330
1F71
100
AcDbXrecord
280
     1
102
RTVSPost2010Prop28
280
     0
102
RTVSPost2010PropOp28
 70
     1
102
RTVSPost2010Prop29
280
     1
102
RTVSPost2010PropOp29
 70
     1
102
RTVSPost2010Prop30
280
     1
102
RTVSPost2010PropOp30
 70
     1
102
RTVSPost2010Prop31
280
     0
102
RTVSPost2010PropOp31
 70
     1
102
RTVSPost2010Prop32
280
     0
102
RTVSPost2010PropOp32
 70
     1
102
RTVSPost2010Prop33
280
     0
102
RTVSPost2010PropOp33
 70
     1
102
RTVSPost2010Prop34
280
     0
102
RTVSPost2010PropOp34
 70
     1
102
RTVSPost2010Prop35
280
     0
102
RTVSPost2010PropOp35
 70
     1
102
RTVSPost2010Prop36
280
     0
102
RTVSPost2010PropOp36
 70
     1
102
RTVSPost2010Prop37
 90
       50
102
RTVSPost2010PropOp37
 70
     1
102
RTVSPost2010Prop38
140
0.0
102
RTVSPost2010PropOp38
 70
     1
102
RTVSPost2010Prop39
140
1.0
102
RTVSPost2010PropOp39
 70
     1
102
RTVSPost2010Prop40
 90
        0
102
RTVSPost2010PropOp40
 70
     1
102
RTVSPost2010Prop41ColorIndex
 90
       18
102
RTVSPost2010Prop41ColorRGB
 90
        0
102
RTVSPost2010PropOp41
 70
     1
102
RTVSPost2010Prop42
 90
       50
102
RTVSPost2010PropOp42
 70
     1
102
RTVSPost2010Prop43
 90
        3
102
RTVSPost2010PropOp43
 70
     1
102
RTVSPost2010Prop44ColorIndex
 90
        5
102
RTVSPost2010Prop44ColorRGB
 90
      255
102
RTVSPost2010PropOp44
 70
     1
102
RTVSPost2010Prop45
280
     0
102
RTVSPost2010PropOp45
 70
     1
102
RTVSPost2010Prop46
 90
       50
102
RTVSPost2010PropOp46
 70
     1
102
RTVSPost2010Prop47
 90
       50
102
RTVSPost2010PropOp47
 70
     1
102
RTVSPost2010Prop48
 90
       50
102
RTVSPost2010PropOp48
 70
     1
102
RTVSPost2010Prop49
280
     0
102
RTVSPost2010PropOp49
 70
     1
102
RTVSPost2010Prop50
 90
       50
102
RTVSPost2010PropOp50
 70
     1
102
RTVSPost2010Prop51ColorIndex
 90
      256
102
RTVSPost2010Prop51ColorRGB
 90
-16777216
102
RTVSPost2010PropOp51
 70
     0
102
RTVSPost2010Prop52
140
1.0
102
RTVSPost2010PropOp52
 70
     0
102
RTVSPost2010Prop53
 90
        2
102
RTVSPost2010PropOp53
 70
     1
102
RTVSPost2010Prop54
  1
strokes_ogs.tif
102
RTVSPost2010PropOp54
 70
     1
102
RTVSPost2010Prop55
280
     0
102
RTVSPost2010PropOp55
 70
     1
102
RTVSPost2010Prop56
140
1.0
102
RTVSPost2010PropOp56
 70
     1
102
RTVSPost2010Prop57
140
1.0
102
RTVSPost2010PropOp57
 70
     1
  0
XRECORD
  5
1F66
102
{ACAD_REACTORS
330
1F65
102
}
330
1F65
100
AcDbXrecord
280
     1
102
RTVSPost2010Prop28
280
     0
102
RTVSPost2010PropOp28
 70
     1
102
RTVSPost2010Prop29
280
     1
102
RTVSPost2010PropOp29
 70
     1
102
RTVSPost2010Prop30
280
     1
102
RTVSPost2010PropOp30
 70
     1
102
RTVSPost2010Prop31
280
     0
102
RTVSPost2010PropOp31
 70
     1
102
RTVSPost2010Prop32
280
     0
102
RTVSPost2010PropOp32
 70
     1
102
RTVSPost2010Prop33
280
     0
102
RTVSPost2010PropOp33
 70
     1
102
RTVSPost2010Prop34
280
     0
102
RTVSPost2010PropOp34
 70
     1
102
RTVSPost2010Prop35
280
     0
102
RTVSPost2010PropOp35
 70
     1
102
RTVSPost2010Prop36
280
     0
102
RTVSPost2010PropOp36
 70
     1
102
RTVSPost2010Prop37
 90
       50
102
RTVSPost2010PropOp37
 70
     1
102
RTVSPost2010Prop38
140
0.0
102
RTVSPost2010PropOp38
 70
     1
102
RTVSPost2010Prop39
140
1.0
102
RTVSPost2010PropOp39
 70
     1
102
RTVSPost2010Prop40
 90
        0
102
RTVSPost2010PropOp40
 70
     1
102
RTVSPost2010Prop41ColorIndex
 90
       18
102
RTVSPost2010Prop41ColorRGB
 90
        0
102
RTVSPost2010PropOp41
 70
     1
102
RTVSPost2010Prop42
 90
       50
102
RTVSPost2010PropOp42
 70
     1
102
RTVSPost2010Prop43
 90
        3
102
RTVSPost2010PropOp43
 70
     1
102
RTVSPost2010Prop44ColorIndex
 90
        5
102
RTVSPost2010Prop44ColorRGB
 90
      255
102
RTVSPost2010PropOp44
 70
     1
102
RTVSPost2010Prop45
280
     0
102
RTVSPost2010PropOp45
 70
     1
102
RTVSPost2010Prop46
 90
       50
102
RTVSPost2010PropOp46
 70
     1
102
RTVSPost2010Prop47
 90
       50
102
RTVSPost2010PropOp47
 70
     1
102
RTVSPost2010Prop48
 90
       50
102
RTVSPost2010PropOp48
 70
     1
102
RTVSPost2010Prop49
280
     0
102
RTVSPost2010PropOp49
 70
     1
102
RTVSPost2010Prop50
 90
       50
102
RTVSPost2010PropOp50
 70
     1
102
RTVSPost2010Prop51ColorIndex
 90
      256
102
RTVSPost2010Prop51ColorRGB
 90
-16777216
102
RTVSPost2010PropOp51
 70
     0
102
RTVSPost2010Prop52
140
1.0
102
RTVSPost2010PropOp52
 70
     0
102
RTVSPost2010Prop53
 90
        2
102
RTVSPost2010PropOp53
 70
     1
102
RTVSPost2010Prop54
  1
strokes_ogs.tif
102
RTVSPost2010PropOp54
 70
     1
102
RTVSPost2010Prop55
280
     0
102
RTVSPost2010PropOp55
 70
     1
102
RTVSPost2010Prop56
140
1.0
102
RTVSPost2010PropOp56
 70
     1
102
RTVSPost2010Prop57
140
1.0
102
RTVSPost2010PropOp57
 70
     1
  0
XRECORD
  5
1F7E
102
{ACAD_REACTORS
330
1F7D
102
}
330
1F7D
100
AcDbXrecord
280
     1
102
RTVSPost2010Prop28
280
     0
102
RTVSPost2010PropOp28
 70
     1
102
RTVSPost2010Prop29
280
     1
102
RTVSPost2010PropOp29
 70
     1
102
RTVSPost2010Prop30
280
     1
102
RTVSPost2010PropOp30
 70
     1
102
RTVSPost2010Prop31
280
     0
102
RTVSPost2010PropOp31
 70
     1
102
RTVSPost2010Prop32
280
     0
102
RTVSPost2010PropOp32
 70
     1
102
RTVSPost2010Prop33
280
     0
102
RTVSPost2010PropOp33
 70
     1
102
RTVSPost2010Prop34
280
     0
102
RTVSPost2010PropOp34
 70
     1
102
RTVSPost2010Prop35
280
     0
102
RTVSPost2010PropOp35
 70
     1
102
RTVSPost2010Prop36
280
     0
102
RTVSPost2010PropOp36
 70
     1
102
RTVSPost2010Prop37
 90
       50
102
RTVSPost2010PropOp37
 70
     1
102
RTVSPost2010Prop38
140
0.0
102
RTVSPost2010PropOp38
 70
     1
102
RTVSPost2010Prop39
140
1.0
102
RTVSPost2010PropOp39
 70
     1
102
RTVSPost2010Prop40
 90
        0
102
RTVSPost2010PropOp40
 70
     1
102
RTVSPost2010Prop41ColorIndex
 90
       18
102
RTVSPost2010Prop41ColorRGB
 90
        0
102
RTVSPost2010PropOp41
 70
     1
102
RTVSPost2010Prop42
 90
       50
102
RTVSPost2010PropOp42
 70
     1
102
RTVSPost2010Prop43
 90
        3
102
RTVSPost2010PropOp43
 70
     1
102
RTVSPost2010Prop44ColorIndex
 90
        5
102
RTVSPost2010Prop44ColorRGB
 90
      255
102
RTVSPost2010PropOp44
 70
     1
102
RTVSPost2010Prop45
280
     0
102
RTVSPost2010PropOp45
 70
     1
102
RTVSPost2010Prop46
 90
       50
102
RTVSPost2010PropOp46
 70
     1
102
RTVSPost2010Prop47
 90
       50
102
RTVSPost2010PropOp47
 70
     1
102
RTVSPost2010Prop48
 90
       50
102
RTVSPost2010PropOp48
 70
     1
102
RTVSPost2010Prop49
280
     0
102
RTVSPost2010PropOp49
 70
     1
102
RTVSPost2010Prop50
 90
       50
102
RTVSPost2010PropOp50
 70
     1
102
RTVSPost2010Prop51ColorIndex
 90
      256
102
RTVSPost2010Prop51ColorRGB
 90
-16777216
102
RTVSPost2010PropOp51
 70
     0
102
RTVSPost2010Prop52
140
1.0
102
RTVSPost2010PropOp52
 70
     0
102
RTVSPost2010Prop53
 90
        2
102
RTVSPost2010PropOp53
 70
     1
102
RTVSPost2010Prop54
  1
strokes_ogs.tif
102
RTVSPost2010PropOp54
 70
     1
102
RTVSPost2010Prop55
280
     0
102
RTVSPost2010PropOp55
 70
     1
102
RTVSPost2010Prop56
140
1.0
102
RTVSPost2010PropOp56
 70
     1
102
RTVSPost2010Prop57
140
1.0
102
RTVSPost2010PropOp57
 70
     1
  0
ENDSEC
  0
EOF
