  0
SECTION
  2
HEADER
  9
$ACADVER
  1
AC1024
  9
$ACADMAINTVER
 70
   205
  9
$DWGCODEPAGE
  3
ANSI_1252
  9
$LASTSAVEDBY
  1
kaschu
  9
$INSBASE
 10
0.0
 20
0.0
 30
0.0
  9
$EXTMIN
 10
-2845.236030632056
 20
-3187.070916101018
 30
-0.0029903937887778
  9
$EXTMAX
 10
415.2967841595418
 20
-1441.135111413995
 30
0.0029920673813101
  9
$LIMMIN
 10
0.0
 20
0.0
  9
$LIMMAX
 10
0.0
 20
0.0
  9
$ORTHOMODE
 70
     1
  9
$REGENMODE
 70
     1
  9
$FILLMODE
 70
     1
  9
$QTEXTMODE
 70
     0
  9
$MIRRTEXT
 70
     1
  9
$LTSCALE
 40
1.0
  9
$ATTMODE
 70
     1
  9
$TEXTSIZE
 40
0.0
  9
$TRACEWID
 40
0.05
  9
$TEXTSTYLE
  7
STANDARD
  9
$CLAYER
  8
0
  9
$CELTYPE
  6
CONTINUOUS
  9
$CECOLOR
 62
   256
  9
$CELTSCALE
 40
1.0
  9
$DISPSILH
 70
     0
  9
$DIMSCALE
 40
1.0
  9
$DIMASZ
 40
0.18
  9
$DIMEXO
 40
0.0625
  9
$DIMDLI
 40
0.38
  9
$DIMRND
 40
0.0
  9
$DIMDLE
 40
0.0
  9
$DIMEXE
 40
0.18
  9
$DIMTP
 40
0.0
  9
$DIMTM
 40
0.0
  9
$DIMTXT
 40
0.18
  9
$DIMCEN
 40
0.09
  9
$DIMTSZ
 40
0.0
  9
$DIMTOL
 70
     0
  9
$DIMLIM
 70
     0
  9
$DIMTIH
 70
     1
  9
$DIMTOH
 70
     1
  9
$DIMSE1
 70
     0
  9
$DIMSE2
 70
     0
  9
$DIMTAD
 70
     0
  9
$DIMZIN
 70
     0
  9
$DIMBLK
  1

  9
$DIMASO
 70
     1
  9
$DIMSHO
 70
     1
  9
$DIMPOST
  1

  9
$DIMAPOST
  1

  9
$DIMALT
 70
     0
  9
$DIMALTD
 70
     2
  9
$DIMALTF
 40
25.4
  9
$DIMLFAC
 40
1.0
  9
$DIMTOFL
 70
     0
  9
$DIMTVP
 40
0.0
  9
$DIMTIX
 70
     0
  9
$DIMSOXD
 70
     0
  9
$DIMSAH
 70
     0
  9
$DIMBLK1
  1

  9
$DIMBLK2
  1

  9
$DIMSTYLE
  2
STANDARD
  9
$DIMCLRD
 70
     0
  9
$DIMCLRE
 70
     0
  9
$DIMCLRT
 70
     0
  9
$DIMTFAC
 40
1.0
  9
$DIMGAP
 40
0.09
  9
$DIMJUST
 70
     0
  9
$DIMSD1
 70
     0
  9
$DIMSD2
 70
     0
  9
$DIMTOLJ
 70
     1
  9
$DIMTZIN
 70
     0
  9
$DIMALTZ
 70
     0
  9
$DIMALTTZ
 70
     0
  9
$DIMUPT
 70
     0
  9
$DIMDEC
 70
     4
  9
$DIMTDEC
 70
     4
  9
$DIMALTU
 70
     2
  9
$DIMALTTD
 70
     2
  9
$DIMTXSTY
  7
STANDARD
  9
$DIMAUNIT
 70
     0
  9
$DIMADEC
 70
     0
  9
$DIMALTRND
 40
0.0
  9
$DIMAZIN
 70
     0
  9
$DIMDSEP
 70
    46
  9
$DIMATFIT
 70
     3
  9
$DIMFRAC
 70
     0
  9
$DIMLDRBLK
  1

  9
$DIMLUNIT
 70
     2
  9
$DIMLWD
 70
    -2
  9
$DIMLWE
 70
    -2
  9
$DIMTMOVE
 70
     0
  9
$DIMFXL
 40
1.0
  9
$DIMFXLON
 70
     0
  9
$DIMJOGANG
 40
0.7853981633974483
  9
$DIMTFILL
 70
     0
  9
$DIMTFILLCLR
 70
     0
  9
$DIMARCSYM
 70
     0
  9
$DIMLTYPE
  6

  9
$DIMLTEX1
  6

  9
$DIMLTEX2
  6

  9
$DIMTXTDIRECTION
 70
     0
  9
$LUNITS
 70
     2
  9
$LUPREC
 70
     4
  9
$SKETCHINC
 40
0.1
  9
$FILLETRAD
 40
0.0
  9
$AUNITS
 70
     0
  9
$AUPREC
 70
     0
  9
$MENU
  1
acad
  9
$ELEVATION
 40
0.0
  9
$PELEVATION
 40
0.0
  9
$THICKNESS
 40
0.0
  9
$LIMCHECK
 70
     0
  9
$CHAMFERA
 40
0.0
  9
$CHAMFERB
 40
0.0
  9
$CHAMFERC
 40
0.0
  9
$CHAMFERD
 40
0.0
  9
$SKPOLY
 70
     0
  9
$TDCREATE
 40
2305824.133323553
  9
$TDUCREATE
 40
2305824.091656887
  9
$TDUPDATE
 40
2458502.687370856
  9
$TDUUPDATE
 40
2458502.645704190
  9
$TDINDWG
 40
0.0220679630
  9
$TDUSRTIMER
 40
0.0220678819
  9
$USRTIMER
 70
     1
  9
$ANGBASE
 50
0.0
  9
$ANGDIR
 70
     0
  9
$PDMODE
 70
     0
  9
$PDSIZE
 40
0.0
  9
$PLINEWID
 40
0.0
  9
$SPLFRAME
 70
     0
  9
$SPLINETYPE
 70
     6
  9
$SPLINESEGS
 70
     8
  9
$HANDSEED
  5
1B80
  9
$SURFTAB1
 70
     6
  9
$SURFTAB2
 70
     6
  9
$SURFTYPE
 70
     6
  9
$SURFU
 70
     6
  9
$SURFV
 70
     6
  9
$UCSBASE
  2

  9
$UCSNAME
  2

  9
$UCSORG
 10
0.0
 20
0.0
 30
0.0
  9
$UCSXDIR
 10
1.0
 20
0.0
 30
0.0
  9
$UCSYDIR
 10
0.0
 20
1.0
 30
0.0
  9
$UCSORTHOREF
  2

  9
$UCSORTHOVIEW
 70
     0
  9
$UCSORGTOP
 10
0.0
 20
0.0
 30
0.0
  9
$UCSORGBOTTOM
 10
0.0
 20
0.0
 30
0.0
  9
$UCSORGLEFT
 10
0.0
 20
0.0
 30
0.0
  9
$UCSORGRIGHT
 10
0.0
 20
0.0
 30
0.0
  9
$UCSORGFRONT
 10
0.0
 20
0.0
 30
0.0
  9
$UCSORGBACK
 10
0.0
 20
0.0
 30
0.0
  9
$PUCSBASE
  2

  9
$PUCSNAME
  2

  9
$PUCSORG
 10
0.0
 20
0.0
 30
0.0
  9
$PUCSXDIR
 10
1.0
 20
0.0
 30
0.0
  9
$PUCSYDIR
 10
0.0
 20
1.0
 30
0.0
  9
$PUCSORTHOREF
  2

  9
$PUCSORTHOVIEW
 70
     0
  9
$PUCSORGTOP
 10
0.0
 20
0.0
 30
0.0
  9
$PUCSORGBOTTOM
 10
0.0
 20
0.0
 30
0.0
  9
$PUCSORGLEFT
 10
0.0
 20
0.0
 30
0.0
  9
$PUCSORGRIGHT
 10
0.0
 20
0.0
 30
0.0
  9
$PUCSORGFRONT
 10
0.0
 20
0.0
 30
0.0
  9
$PUCSORGBACK
 10
0.0
 20
0.0
 30
0.0
  9
$USERI1
 70
     0
  9
$USERI2
 70
     0
  9
$USERI3
 70
     0
  9
$USERI4
 70
     0
  9
$USERI5
 70
     0
  9
$USERR1
 40
0.0
  9
$USERR2
 40
0.0
  9
$USERR3
 40
0.0
  9
$USERR4
 40
0.0
  9
$USERR5
 40
0.0
  9
$WORLDVIEW
 70
     1
  9
$SHADEDGE
 70
     3
  9
$SHADEDIF
 70
    70
  9
$TILEMODE
 70
     1
  9
$MAXACTVP
 70
    16
  9
$PINSBASE
 10
0.0
 20
0.0
 30
0.0
  9
$PLIMCHECK
 70
     0
  9
$PEXTMIN
 10
1.000000000000000E+20
 20
1.000000000000000E+20
 30
1.000000000000000E+20
  9
$PEXTMAX
 10
-1.000000000000000E+20
 20
-1.000000000000000E+20
 30
-1.000000000000000E+20
  9
$PLIMMIN
 10
0.0
 20
0.0
  9
$PLIMMAX
 10
12.0
 20
9.0
  9
$UNITMODE
 70
     0
  9
$VISRETAIN
 70
     0
  9
$PLINEGEN
 70
     1
  9
$PSLTSCALE
 70
     0
  9
$TREEDEPTH
 70
  3020
  9
$CMLSTYLE
  2
STANDARD
  9
$CMLJUST
 70
     0
  9
$CMLSCALE
 40
1.0
  9
$PROXYGRAPHICS
 70
     1
  9
$MEASUREMENT
 70
     0
  9
$CELWEIGHT
370
    -1
  9
$ENDCAPS
280
     0
  9
$JOINSTYLE
280
     0
  9
$LWDISPLAY
290
     0
  9
$INSUNITS
 70
     0
  9
$HYPERLINKBASE
  1

  9
$STYLESHEET
  1

  9
$XEDIT
290
     1
  9
$CEPSNTYPE
380
     0
  9
$PSTYLEMODE
290
     1
  9
$FINGERPRINTGUID
  2
{5243222F-CC4B-4302-8C19-076DE45F7F99}
  9
$VERSIONGUID
  2
{479FD7D3-1C51-4A9A-A822-B8B45999683A}
  9
$EXTNAMES
290
     1
  9
$PSVPSCALE
 40
0.0
  9
$OLESTARTUP
290
     0
  9
$SORTENTS
280
   127
  9
$INDEXCTL
280
     0
  9
$HIDETEXT
280
     0
  9
$XCLIPFRAME
280
     2
  9
$HALOGAP
280
     0
  9
$OBSCOLOR
 70
   257
  9
$OBSLTYPE
280
     0
  9
$INTERSECTIONDISPLAY
280
     0
  9
$INTERSECTIONCOLOR
 70
   257
  9
$DIMASSOC
280
     1
  9
$PROJECTNAME
  1

  9
$CAMERADISPLAY
290
     0
  9
$LENSLENGTH
 40
50.0
  9
$CAMERAHEIGHT
 40
0.0
  9
$STEPSPERSEC
 40
2.0
  9
$STEPSIZE
 40
6.0
  9
$3DDWFPREC
 40
2.0
  9
$PSOLWIDTH
 40
0.25
  9
$PSOLHEIGHT
 40
4.0
  9
$LOFTANG1
 40
1.570796326794896
  9
$LOFTANG2
 40
1.570796326794896
  9
$LOFTMAG1
 40
0.0
  9
$LOFTMAG2
 40
0.0
  9
$LOFTPARAM
 70
     7
  9
$LOFTNORMALS
280
     1
  9
$LATITUDE
 40
37.795
  9
$LONGITUDE
 40
-122.394
  9
$NORTHDIRECTION
 40
0.0
  9
$TIMEZONE
 70
 -8000
  9
$LIGHTGLYPHDISPLAY
280
     1
  9
$TILEMODELIGHTSYNCH
280
     1
  9
$CMATERIAL
347
31A
  9
$SOLIDHIST
280
     0
  9
$SHOWHIST
280
     1
  9
$DWFFRAME
280
     2
  9
$DGNFRAME
280
     0
  9
$REALWORLDSCALE
290
     1
  9
$INTERFERECOLOR
 62
     1
  9
$INTERFEREOBJVS
345
33C
  9
$INTERFEREVPVS
346
339
  9
$CSHADOW
280
     0
  9
$SHADOWPLANELOCATION
 40
0.0
  0
ENDSEC
  0
SECTION
  2
CLASSES
  0
CLASS
  1
IMAGE
  2
AcDbRasterImage
  3
ISM
 90
     2175
 91
        0
280
     0
281
     1
  0
CLASS
  1
DICTIONARYVAR
  2
AcDbDictionaryVar
  3
ObjectDBX Classes
 90
        0
 91
        9
280
     0
281
     0
  0
CLASS
  1
RASTERVARIABLES
  2
AcDbRasterVariables
  3
ISM
 90
        0
 91
        0
280
     0
281
     0
  0
CLASS
  1
IMAGEDEF
  2
AcDbRasterImageDef
  3
ISM
 90
        0
 91
        0
280
     0
281
     0
  0
CLASS
  1
IMAGEDEF_REACTOR
  2
AcDbRasterImageDefReactor
  3
ISM
 90
        1
 91
        0
280
     0
281
     0
  0
CLASS
  1
IDBUFFER
  2
AcDbIdBuffer
  3
ObjectDBX Classes
 90
        0
 91
        0
280
     0
281
     0
  0
CLASS
  1
SPATIAL_FILTER
  2
AcDbSpatialFilter
  3
ObjectDBX Classes
 90
        0
 91
        0
280
     0
281
     0
  0
CLASS
  1
SORTENTSTABLE
  2
AcDbSortentsTable
  3
ObjectDBX Classes
 90
        0
 91
        2
280
     0
281
     0
  0
CLASS
  1
LAYER_INDEX
  2
AcDbLayerIndex
  3
ObjectDBX Classes
 90
        0
 91
        0
280
     0
281
     0
  0
CLASS
  1
SPATIAL_INDEX
  2
AcDbSpatialIndex
  3
ObjectDBX Classes
 90
        0
 91
        0
280
     0
281
     0
  0
CLASS
  1
OBJECT_PTR
  2
CAseDLPNTableRecord
  3
"ASE-LPNTableRecord"
 90
        0
 91
        0
280
     0
281
     0
  0
CLASS
  1
PLOTSETTINGS
  2
AcDbPlotSettings
  3
ObjectDBX Classes
 90
        0
 91
        0
280
     0
281
     0
  0
CLASS
  1
ACDBDICTIONARYWDFLT
  2
AcDbDictionaryWithDefault
  3
ObjectDBX Classes
 90
        0
 91
        1
280
     0
281
     0
  0
CLASS
  1
WIPEOUT
  2
AcDbWipeout
  3
WipeOut|Product Desc: Object Enabler for WipeOut entity | Company: Autodesk, Inc. | WEB Address: www.autodesk.com
 90
     2175
 91
        0
280
     0
281
     1
  0
CLASS
  1
WIPEOUTVARIABLES
  2
AcDbWipeoutVariables
  3
"WipeOut|Product Desc:     WipeOut Dbx Application|Company:          Autodesk, Inc.|WEB Address:      www.autodesk.com"
 90
        0
 91
        0
280
     0
281
     0
  0
CLASS
  1
RTEXT
  2
RText
  3
RText|AutoCAD Express Tool|expresstools@autodesk.com
 90
        0
 91
        0
280
     0
281
     1
  0
CLASS
  1
ARCALIGNEDTEXT
  2
AcDbArcAlignedText
  3
ATEXT|AutoCAD Express Tool|expresstools@autodesk.com
 90
        0
 91
        0
280
     0
281
     1
  0
CLASS
  1
MATERIAL
  2
AcDbMaterial
  3
ObjectDBX Classes
 90
     1153
 91
        3
280
     0
281
     0
  0
CLASS
  1
VISUALSTYLE
  2
AcDbVisualStyle
  3
ObjectDBX Classes
 90
     4095
 91
       24
280
     0
281
     0
  0
CLASS
  1
TABLESTYLE
  2
AcDbTableStyle
  3
ObjectDBX Classes
 90
     4095
 91
        1
280
     0
281
     0
  0
CLASS
  1
SCALE
  2
AcDbScale
  3
ObjectDBX Classes
 90
     1153
 91
       17
280
     0
281
     0
  0
CLASS
  1
MLEADERSTYLE
  2
AcDbMLeaderStyle
  3
ACDB_MLEADERSTYLE_CLASS
 90
     4095
 91
        1
280
     0
281
     0
  0
CLASS
  1
ACDBSECTIONVIEWSTYLE
  2
AcDbSectionViewStyle
  3
ObjectDBX Classes
 90
     1025
 91
        1
280
     0
281
     0
  0
CLASS
  1
ACDBDETAILVIEWSTYLE
  2
AcDbDetailViewStyle
  3
ObjectDBX Classes
 90
     1025
 91
        1
280
     0
281
     0
  0
CLASS
  1
CELLSTYLEMAP
  2
AcDbCellStyleMap
  3
ObjectDBX Classes
 90
     1152
 91
        7
280
     0
281
     0
  0
ENDSEC
  0
SECTION
  2
TABLES
  0
TABLE
  2
VPORT
  5
7
330
0
100
AcDbSymbolTable
 70
     1
  0
VPORT
  5
15
330
7
100
AcDbSymbolTableRecord
100
AcDbViewportTableRecord
  2
*ACTIVE
 70
     0
 10
0.0
 20
0.0
 11
1.0
 21
1.0
 12
-1125.156710243673
 22
-2389.591666154538
 13
0.0
 23
0.0
 14
1.0
 24
1.0
 15
0.0
 25
0.0
 16
0.0
 26
0.0
 36
1.0
 17
0.0
 27
0.0
 37
0.0
 40
1713.029160785646
 41
2.282336578581363
 42
50.0
 43
0.0
 44
0.0
 50
0.0
 51
0.0
 71
     0
 72
   100
 73
     1
 74
     1
 75
     0
 76
     0
 77
     0
 78
     0
281
     0
 65
     1
110
0.0
120
0.0
130
0.0
111
1.0
121
0.0
131
0.0
112
0.0
122
1.0
132
0.0
 79
     0
146
0.0
348
338
 60
     3
 61
     5
292
     1
282
     1
141
0.0
142
0.0
 63
   250
421
  3355443
1001
ACAD_NAV_VCDISPLAY
1070
     3
  0
ENDTAB
  0
TABLE
  2
LTYPE
  5
4
330
0
100
AcDbSymbolTable
 70
     4
  0
LTYPE
  5
11
330
4
100
AcDbSymbolTableRecord
100
AcDbLinetypeTableRecord
  2
BYBLOCK
 70
     0
  3

 72
    65
 73
     0
 40
0.0
  0
LTYPE
  5
12
330
4
100
AcDbSymbolTableRecord
100
AcDbLinetypeTableRecord
  2
BYLAYER
 70
     0
  3

 72
    65
 73
     0
 40
0.0
  0
LTYPE
  5
13
330
4
100
AcDbSymbolTableRecord
100
AcDbLinetypeTableRecord
  2
CONTINUOUS
 70
     0
  3
Solid line
 72
    65
 73
     0
 40
0.0
  0
LTYPE
  5
1E
330
4
100
AcDbSymbolTableRecord
100
AcDbLinetypeTableRecord
  2
STANDARD
 70
     0
  3

 72
    65
 73
     0
 40
0.0
  0
LTYPE
  5
A65
330
4
100
AcDbSymbolTableRecord
100
AcDbLinetypeTableRecord
  2
CUSTOM
 70
     0
  3

 72
    65
 73
     0
 40
0.0
  0
ENDTAB
  0
TABLE
  2
LAYER
  5
2
102
{ACAD_XDICTIONARY
360
372
102
}
330
0
100
AcDbSymbolTable
 70
     4
  0
LAYER
  5
14
102
{ACAD_XDICTIONARY
360
65A
102
}
330
2
100
AcDbSymbolTableRecord
100
AcDbLayerTableRecord
  2
0
 70
     0
 62
     7
  6
CONTINUOUS
370
    -3
390
318
347
32A
  0
LAYER
  5
1D
102
{ACAD_XDICTIONARY
360
65C
102
}
330
2
100
AcDbSymbolTableRecord
100
AcDbLayerTableRecord
  2
BEMA_UNG
 70
     0
 62
   171
  6
CONTINUOUS
370
    -3
390
318
347
32A
  0
LAYER
  5
36D
102
{ACAD_XDICTIONARY
360
65E
102
}
330
2
100
AcDbSymbolTableRecord
100
AcDbLayerTableRecord
  2
HEWI
 70
     0
 62
     7
  6
CONTINUOUS
370
     9
390
318
347
32A
1001
AcAecLayerStandard
1000

1000

1001
AcCmTransparency
1071
        0
  0
LAYER
  5
554
330
2
100
AcDbSymbolTableRecord
100
AcDbLayerTableRecord
  2
Defpoints
 70
     0
 62
     7
  6
CONTINUOUS
290
     0
370
    -3
390
318
347
32A
  0
ENDTAB
  0
TABLE
  2
STYLE
  5
3
330
0
100
AcDbSymbolTable
 70
     1
  0
STYLE
  5
17
330
3
100
AcDbSymbolTableRecord
100
AcDbTextStyleTableRecord
  2
STANDARD
 70
     0
 40
0.0
 41
1.0
 50
0.0
 71
     0
 42
0.0
  3
txt
  4

  0
ENDTAB
  0
TABLE
  2
VIEW
  5
5
330
0
100
AcDbSymbolTable
 70
     0
  0
ENDTAB
  0
TABLE
  2
UCS
  5
6
330
0
100
AcDbSymbolTable
 70
     0
  0
ENDTAB
  0
TABLE
  2
APPID
  5
8
330
0
100
AcDbSymbolTable
 70
     8
  0
APPID
  5
16
330
8
100
AcDbSymbolTableRecord
100
AcDbRegAppTableRecord
  2
ACAD
 70
     0
  0
APPID
  5
36E
330
8
100
AcDbSymbolTableRecord
100
AcDbRegAppTableRecord
  2
ACAD_NAV_VCDISPLAY
 70
     0
  0
APPID
  5
36F
330
8
100
AcDbSymbolTableRecord
100
AcDbRegAppTableRecord
  2
AcAecLayerStandard
 70
     0
  0
APPID
  5
370
330
8
100
AcDbSymbolTableRecord
100
AcDbRegAppTableRecord
  2
AcCmTransparency
 70
     0
  0
APPID
  5
371
330
8
100
AcDbSymbolTableRecord
100
AcDbRegAppTableRecord
  2
ACAD_PSEXT
 70
     0
  0
APPID
  5
484
330
8
100
AcDbSymbolTableRecord
100
AcDbRegAppTableRecord
  2
ACAD_EXEMPT_FROM_CAD_STANDARDS
 70
     0
  0
APPID
  5
781
330
8
100
AcDbSymbolTableRecord
100
AcDbRegAppTableRecord
  2
GradientColor1ACI
 70
     0
  0
APPID
  5
782
330
8
100
AcDbSymbolTableRecord
100
AcDbRegAppTableRecord
  2
GradientColor2ACI
 70
     0
  0
ENDTAB
  0
TABLE
  2
DIMSTYLE
  5
9
330
0
100
AcDbSymbolTable
 70
     2
100
AcDbDimStyleTable
 71
     1
340
18
  0
DIMSTYLE
105
18
330
9
100
AcDbSymbolTableRecord
100
AcDbDimStyleTableRecord
  2
STANDARD
 70
     0
340
17
  0
ENDTAB
  0
TABLE
  2
BLOCK_RECORD
  5
1
330
0
100
AcDbSymbolTable
 70
    12
  0
BLOCK_RECORD
  5
A
330
1
100
AcDbSymbolTableRecord
100
AcDbBlockTableRecord
  2
*MODEL_SPACE
340
368
 70
     0
280
     1
281
     0
  0
BLOCK_RECORD
  5
B
330
1
100
AcDbSymbolTableRecord
100
AcDbBlockTableRecord
  2
*PAPER_SPACE
340
369
 70
     0
280
     1
281
     0
  0
BLOCK_RECORD
  5
555
330
1
100
AcDbSymbolTableRecord
100
AcDbBlockTableRecord
  2
*D0
340
0
 70
     0
280
     1
281
     0
  0
BLOCK_RECORD
  5
98E
330
1
100
AcDbSymbolTableRecord
100
AcDbBlockTableRecord
  2
*D1
340
0
 70
     0
280
     1
281
     0
  0
BLOCK_RECORD
  5
E39
330
1
100
AcDbSymbolTableRecord
100
AcDbBlockTableRecord
  2
*D2
340
0
 70
     0
280
     1
281
     0
  0
BLOCK_RECORD
  5
E7D
330
1
100
AcDbSymbolTableRecord
100
AcDbBlockTableRecord
  2
*D3
340
0
 70
     0
280
     1
281
     0
  0
BLOCK_RECORD
  5
FD5
330
1
100
AcDbSymbolTableRecord
100
AcDbBlockTableRecord
  2
*D4
340
0
 70
     0
280
     1
281
     0
  0
BLOCK_RECORD
  5
FFB
330
1
100
AcDbSymbolTableRecord
100
AcDbBlockTableRecord
  2
*D5
340
0
 70
     0
280
     1
281
     0
  0
BLOCK_RECORD
  5
1009
330
1
100
AcDbSymbolTableRecord
100
AcDbBlockTableRecord
  2
*D6
340
0
 70
     0
280
     1
281
     0
  0
BLOCK_RECORD
  5
1618
330
1
100
AcDbSymbolTableRecord
100
AcDbBlockTableRecord
  2
*D8
340
0
 70
     0
280
     1
281
     0
  0
BLOCK_RECORD
  5
1A65
330
1
100
AcDbSymbolTableRecord
100
AcDbBlockTableRecord
  2
*D11
340
0
 70
     0
280
     1
281
     0
  0
ENDTAB
  0
ENDSEC
  0
SECTION
  2
BLOCKS
  0
BLOCK
  5
D
330
A
100
AcDbEntity
  8
0
100
AcDbBlockBegin
  2
*MODEL_SPACE
 70
     0
 10
0.0
 20
0.0
 30
0.0
  3
*MODEL_SPACE
  1

  0
ENDBLK
  5
E
330
A
100
AcDbEntity
  8
0
100
AcDbBlockEnd
  0
BLOCK
  5
F
330
B
100
AcDbEntity
 67
     1
  8
0
100
AcDbBlockBegin
  2
*PAPER_SPACE
 70
     0
 10
0.0
 20
0.0
 30
0.0
  3
*PAPER_SPACE
  1

  0
ENDBLK
  5
10
330
B
100
AcDbEntity
 67
     1
  8
0
100
AcDbBlockEnd
  0
BLOCK
  5
556
330
555
100
AcDbEntity
  8
0
100
AcDbBlockBegin
  2
*D0
 70
     1
 10
0.0
 20
0.0
 30
0.0
  3
*D0
  1

  0
LINE
  5
558
330
555
100
AcDbEntity
  8
0
  6
Continuous
 62
     0
440
 16777216
370
    -2
100
AcDbLine
 10
-1571.884155084999
 20
-1674.538160844551
 30
0.0
 11
-1571.884155084999
 21
-1948.499022356918
 31
0.0
  0
LINE
  5
559
330
555
100
AcDbEntity
  8
0
  6
Continuous
 62
     0
440
 16777216
370
    -2
100
AcDbLine
 10
-871.8841930849997
 20
-1674.538160844551
 30
0.0
 11
-871.8841930849997
 21
-1948.499022356918
 31
0.0
  0
LINE
  5
55A
330
555
100
AcDbEntity
  8
0
  6
Continuous
 62
     0
440
 16777216
370
    -2
100
AcDbLine
 10
-1571.704155084999
 20
-1948.319022356918
 30
0.0
 11
-1222.514174084999
 21
-1948.319022356918
 31
0.0
  0
LINE
  5
55B
330
555
100
AcDbEntity
  8
0
  6
Continuous
 62
     0
440
 16777216
370
    -2
100
AcDbLine
 10
-872.0641930849996
 20
-1948.319022356918
 30
0.0
 11
-1221.254174084999
 21
-1948.319022356918
 31
0.0
  0
SOLID
  5
55C
330
555
100
AcDbEntity
  8
0
  6
Continuous
 62
     0
440
 16777216
100
AcDbTrace
 10
-1571.704155084999
 20
-1948.289022356918
 30
0.0
 11
-1571.704155084999
 21
-1948.349022356918
 31
0.0
 12
-1571.884155084999
 22
-1948.319022356918
 32
0.0
 13
-1571.884155084999
 23
-1948.319022356918
 33
0.0
  0
SOLID
  5
55D
330
555
100
AcDbEntity
  8
0
  6
Continuous
 62
     0
440
 16777216
100
AcDbTrace
 10
-872.0641930849996
 20
-1948.289022356918
 30
0.0
 11
-872.0641930849996
 21
-1948.349022356918
 31
0.0
 12
-871.8841930849997
 22
-1948.319022356918
 32
0.0
 13
-871.8841930849997
 23
-1948.319022356918
 33
0.0
  0
MTEXT
  5
55E
330
555
100
AcDbEntity
  8
0
  6
Continuous
 62
     0
440
 16777216
100
AcDbMText
 10
-1221.884174084999
 20
-1948.319022356918
 30
0.0
 40
0.18
 41
0.0
 46
0.0
 71
     5
 72
     1
  1
\A1;700.0000
 73
     1
 44
1.0
  0
POINT
  5
55F
330
555
100
AcDbEntity
  8
Defpoints
  6
Continuous
 62
     0
440
 16777216
100
AcDbPoint
 10
-1571.884155084999
 20
-1674.475660844551
 30
0.0
  0
POINT
  5
560
330
555
100
AcDbEntity
  8
Defpoints
  6
Continuous
 62
     0
440
 16777216
100
AcDbPoint
 10
-871.8841930849997
 20
-1674.475660844551
 30
0.0
  0
POINT
  5
561
330
555
100
AcDbEntity
  8
Defpoints
  6
Continuous
 62
     0
440
 16777216
100
AcDbPoint
 10
-871.8841930849997
 20
-1948.319022356918
 30
0.0
  0
ENDBLK
  5
557
330
555
100
AcDbEntity
  8
0
100
AcDbBlockEnd
  0
BLOCK
  5
98F
330
98E
100
AcDbEntity
  8
0
100
AcDbBlockBegin
  2
*D1
 70
     1
 10
0.0
 20
0.0
 30
0.0
  3
*D1
  1

  0
LINE
  5
991
330
98E
100
AcDbEntity
  8
0
  6
Continuous
 62
     0
440
 16777216
370
    -2
100
AcDbLine
 10
-671.8841930849996
 20
-1685.2228015
 30
0.0
 11
-671.8841930849996
 21
-1441.684931733702
 31
0.0
  0
LINE
  5
992
330
98E
100
AcDbEntity
  8
0
  6
Continuous
 62
     0
440
 16777216
370
    -2
100
AcDbLine
 10
-1571.884155084999
 20
-1685.2228015
 30
0.0
 11
-1571.884155084999
 21
-1441.684931733702
 31
0.0
  0
LINE
  5
993
330
98E
100
AcDbEntity
  8
0
  6
Continuous
 62
     0
440
 16777216
370
    -2
100
AcDbLine
 10
-672.0641930849994
 20
-1441.864931733702
 30
0.0
 11
-1121.254174084999
 21
-1441.864931733702
 31
0.0
  0
LINE
  5
994
330
98E
100
AcDbEntity
  8
0
  6
Continuous
 62
     0
440
 16777216
370
    -2
100
AcDbLine
 10
-1571.704155084999
 20
-1441.864931733702
 30
0.0
 11
-1122.514174084999
 21
-1441.864931733702
 31
0.0
  0
SOLID
  5
995
330
98E
100
AcDbEntity
  8
0
  6
Continuous
 62
     0
440
 16777216
100
AcDbTrace
 10
-672.0641930849994
 20
-1441.834931733702
 30
0.0
 11
-672.0641930849994
 21
-1441.894931733702
 31
0.0
 12
-671.8841930849996
 22
-1441.864931733702
 32
0.0
 13
-671.8841930849996
 23
-1441.864931733702
 33
0.0
  0
SOLID
  5
996
330
98E
100
AcDbEntity
  8
0
  6
Continuous
 62
     0
440
 16777216
100
AcDbTrace
 10
-1571.704155084999
 20
-1441.834931733702
 30
0.0
 11
-1571.704155084999
 21
-1441.894931733702
 31
0.0
 12
-1571.884155084999
 22
-1441.864931733702
 32
0.0
 13
-1571.884155084999
 23
-1441.864931733702
 33
0.0
  0
MTEXT
  5
997
330
98E
100
AcDbEntity
  8
0
  6
Continuous
 62
     0
440
 16777216
100
AcDbMText
 10
-1121.884174084999
 20
-1441.864931733702
 30
0.0
 40
0.18
 41
0.0
 46
0.0
 71
     5
 72
     1
  1
\A1;900.0000
 73
     1
 44
1.0
  0
POINT
  5
998
330
98E
100
AcDbEntity
  8
Defpoints
  6
Continuous
 62
     0
440
 16777216
100
AcDbPoint
 10
-671.8841930849996
 20
-1685.2853015
 30
0.0
  0
POINT
  5
999
330
98E
100
AcDbEntity
  8
Defpoints
  6
Continuous
 62
     0
440
 16777216
100
AcDbPoint
 10
-1571.884155084999
 20
-1685.2853015
 30
0.0
  0
POINT
  5
99A
330
98E
100
AcDbEntity
  8
Defpoints
  6
Continuous
 62
     0
440
 16777216
100
AcDbPoint
 10
-1571.884155084999
 20
-1441.864931733702
 30
0.0
  0
ENDBLK
  5
990
330
98E
100
AcDbEntity
  8
0
100
AcDbBlockEnd
  0
BLOCK
  5
E3A
330
E39
100
AcDbEntity
  8
0
100
AcDbBlockBegin
  2
*D2
 70
     1
 10
0.0
 20
0.0
 30
0.0
  3
*D2
  1

  0
LINE
  5
E3C
330
E39
100
AcDbEntity
  8
0
  6
Continuous
 62
     0
440
 16777216
370
    -2
100
AcDbLine
 10
-2058.778195915001
 20
-1755.122799499999
 30
0.0
 11
-2058.778195915001
 21
-1438.826499125775
 31
0.0
  0
LINE
  5
E3D
330
E39
100
AcDbEntity
  8
0
  6
Continuous
 62
     0
440
 16777216
370
    -2
100
AcDbLine
 10
-2958.778157915
 20
-1685.222801499997
 30
0.0
 11
-2958.778157915
 21
-1438.826499125775
 31
0.0
  0
LINE
  5
E3E
330
E39
100
AcDbEntity
  8
0
  6
Continuous
 62
     0
440
 16777216
370
    -2
100
AcDbLine
 10
-2058.958195915001
 20
-1439.006499125775
 30
0.0
 11
-2508.148176915001
 21
-1439.006499125775
 31
0.0
  0
LINE
  5
E3F
330
E39
100
AcDbEntity
  8
0
  6
Continuous
 62
     0
440
 16777216
370
    -2
100
AcDbLine
 10
-2958.598157915
 20
-1439.006499125775
 30
0.0
 11
-2509.408176915001
 21
-1439.006499125775
 31
0.0
  0
SOLID
  5
E40
330
E39
100
AcDbEntity
  8
0
  6
Continuous
 62
     0
440
 16777216
100
AcDbTrace
 10
-2058.958195915001
 20
-1438.976499125775
 30
0.0
 11
-2058.958195915001
 21
-1439.036499125775
 31
0.0
 12
-2058.778195915001
 22
-1439.006499125775
 32
0.0
 13
-2058.778195915001
 23
-1439.006499125775
 33
0.0
  0
SOLID
  5
E41
330
E39
100
AcDbEntity
  8
0
  6
Continuous
 62
     0
440
 16777216
100
AcDbTrace
 10
-2958.598157915
 20
-1438.976499125775
 30
0.0
 11
-2958.598157915
 21
-1439.036499125775
 31
0.0
 12
-2958.778157915
 22
-1439.006499125775
 32
0.0
 13
-2958.778157915
 23
-1439.006499125775
 33
0.0
  0
MTEXT
  5
E42
330
E39
100
AcDbEntity
  8
0
  6
Continuous
 62
     0
440
 16777216
100
AcDbMText
 10
-2508.778176915001
 20
-1439.006499125775
 30
0.0
 40
0.18
 41
0.0
 46
0.0
 71
     5
 72
     1
  1
\A1;900.0000
 73
     1
 44
1.0
  0
POINT
  5
E43
330
E39
100
AcDbEntity
  8
Defpoints
  6
Continuous
 62
     0
440
 16777216
100
AcDbPoint
 10
-2058.778195915001
 20
-1755.185299499999
 30
0.0
  0
POINT
  5
E44
330
E39
100
AcDbEntity
  8
Defpoints
  6
Continuous
 62
     0
440
 16777216
100
AcDbPoint
 10
-2958.778157915
 20
-1685.285301499998
 30
0.0
  0
POINT
  5
E45
330
E39
100
AcDbEntity
  8
Defpoints
  6
Continuous
 62
     0
440
 16777216
100
AcDbPoint
 10
-2958.778157915
 20
-1439.006499125775
 30
0.0
  0
ENDBLK
  5
E3B
330
E39
100
AcDbEntity
  8
0
100
AcDbBlockEnd
  0
BLOCK
  5
E7E
330
E7D
100
AcDbEntity
  8
0
100
AcDbBlockBegin
  2
*D3
 70
     1
 10
0.0
 20
0.0
 30
0.0
  3
*D3
  1

  0
LINE
  5
E80
330
E7D
100
AcDbEntity
  8
0
  6
Continuous
 62
     0
440
 16777216
370
    -2
100
AcDbLine
 10
-2958.778157915
 20
-1685.222801499997
 30
0.0
 11
-2958.778157915
 21
-1488.083773311466
 31
0.0
  0
LINE
  5
E81
330
E7D
100
AcDbEntity
  8
0
  6
Continuous
 62
     0
440
 16777216
370
    -2
100
AcDbLine
 10
-2058.778195915
 20
-1685.222801500001
 30
0.0
 11
-2058.778195915
 21
-1488.083773311466
 31
0.0
  0
LINE
  5
E82
330
E7D
100
AcDbEntity
  8
0
  6
Continuous
 62
     0
440
 16777216
370
    -2
100
AcDbLine
 10
-2958.598157915
 20
-1488.263773311466
 30
0.0
 11
-2509.408176915
 21
-1488.263773311466
 31
0.0
  0
LINE
  5
E83
330
E7D
100
AcDbEntity
  8
0
  6
Continuous
 62
     0
440
 16777216
370
    -2
100
AcDbLine
 10
-2058.958195915
 20
-1488.263773311466
 30
0.0
 11
-2508.148176915
 21
-1488.263773311466
 31
0.0
  0
SOLID
  5
E84
330
E7D
100
AcDbEntity
  8
0
  6
Continuous
 62
     0
440
 16777216
100
AcDbTrace
 10
-2958.598157915
 20
-1488.233773311466
 30
0.0
 11
-2958.598157915
 21
-1488.293773311466
 31
0.0
 12
-2958.778157915
 22
-1488.263773311466
 32
0.0
 13
-2958.778157915
 23
-1488.263773311466
 33
0.0
  0
SOLID
  5
E85
330
E7D
100
AcDbEntity
  8
0
  6
Continuous
 62
     0
440
 16777216
100
AcDbTrace
 10
-2058.958195915
 20
-1488.233773311466
 30
0.0
 11
-2058.958195915
 21
-1488.293773311466
 31
0.0
 12
-2058.778195915
 22
-1488.263773311466
 32
0.0
 13
-2058.778195915
 23
-1488.263773311466
 33
0.0
  0
MTEXT
  5
E86
330
E7D
100
AcDbEntity
  8
0
  6
Continuous
 62
     0
440
 16777216
100
AcDbMText
 10
-2508.778176915
 20
-1488.263773311466
 30
0.0
 40
0.18
 41
0.0
 46
0.0
 71
     5
 72
     1
  1
\A1;900.0000
 73
     1
 44
1.0
  0
POINT
  5
E87
330
E7D
100
AcDbEntity
  8
Defpoints
  6
Continuous
 62
     0
440
 16777216
100
AcDbPoint
 10
-2958.778157915
 20
-1685.285301499998
 30
0.0
  0
POINT
  5
E88
330
E7D
100
AcDbEntity
  8
Defpoints
  6
Continuous
 62
     0
440
 16777216
100
AcDbPoint
 10
-2058.778195915
 20
-1685.285301500001
 30
0.0
  0
POINT
  5
E89
330
E7D
100
AcDbEntity
  8
Defpoints
  6
Continuous
 62
     0
440
 16777216
100
AcDbPoint
 10
-2058.778195915
 20
-1488.263773311466
 30
0.0
  0
ENDBLK
  5
E7F
330
E7D
100
AcDbEntity
  8
0
100
AcDbBlockEnd
  0
BLOCK
  5
FD6
330
FD5
100
AcDbEntity
  8
0
100
AcDbBlockBegin
  2
*D4
 70
     1
 10
0.0
 20
0.0
 30
0.0
  3
*D4
  1

  0
LINE
  5
FD8
330
FD5
100
AcDbEntity
  8
0
  6
Continuous
 62
     0
440
 16777216
370
    -2
100
AcDbLine
 10
-821.884193084999
 20
-1685.222801499997
 30
0.0
 11
-821.884193084999
 21
-1513.013430958396
 31
0.0
  0
LINE
  5
FD9
330
FD5
100
AcDbEntity
  8
0
  6
Continuous
 62
     0
440
 16777216
370
    -2
100
AcDbLine
 10
-1571.884155084999
 20
-1685.2228015
 30
0.0
 11
-1571.884155084999
 21
-1513.013430958396
 31
0.0
  0
LINE
  5
FDA
330
FD5
100
AcDbEntity
  8
0
  6
Continuous
 62
     0
440
 16777216
370
    -2
100
AcDbLine
 10
-822.0641930849989
 20
-1513.193430958396
 30
0.0
 11
-1196.239174084999
 21
-1513.193430958396
 31
0.0
  0
LINE
  5
FDB
330
FD5
100
AcDbEntity
  8
0
  6
Continuous
 62
     0
440
 16777216
370
    -2
100
AcDbLine
 10
-1571.704155084998
 20
-1513.193430958396
 30
0.0
 11
-1197.529174084998
 21
-1513.193430958396
 31
0.0
  0
SOLID
  5
FDC
330
FD5
100
AcDbEntity
  8
0
  6
Continuous
 62
     0
440
 16777216
100
AcDbTrace
 10
-822.0641930849989
 20
-1513.163430958396
 30
0.0
 11
-822.0641930849989
 21
-1513.223430958396
 31
0.0
 12
-821.884193084999
 22
-1513.193430958396
 32
0.0
 13
-821.884193084999
 23
-1513.193430958396
 33
0.0
  0
SOLID
  5
FDD
330
FD5
100
AcDbEntity
  8
0
  6
Continuous
 62
     0
440
 16777216
100
AcDbTrace
 10
-1571.704155084998
 20
-1513.163430958396
 30
0.0
 11
-1571.704155084998
 21
-1513.223430958396
 31
0.0
 12
-1571.884155084999
 22
-1513.193430958396
 32
0.0
 13
-1571.884155084999
 23
-1513.193430958396
 33
0.0
  0
MTEXT
  5
FDE
330
FD5
100
AcDbEntity
  8
0
  6
Continuous
 62
     0
440
 16777216
100
AcDbMText
 10
-1196.884174084998
 20
-1513.193430958396
 30
0.0
 40
0.18
 41
0.0
 46
0.0
 71
     5
 72
     1
  1
\A1;750.0000
 73
     1
 44
1.0
  0
POINT
  5
FDF
330
FD5
100
AcDbEntity
  8
Defpoints
  6
Continuous
 62
     0
440
 16777216
100
AcDbPoint
 10
-821.884193084999
 20
-1685.285301499998
 30
0.0
  0
POINT
  5
FE0
330
FD5
100
AcDbEntity
  8
Defpoints
  6
Continuous
 62
     0
440
 16777216
100
AcDbPoint
 10
-1571.884155084999
 20
-1685.2853015
 30
0.0
  0
POINT
  5
FE1
330
FD5
100
AcDbEntity
  8
Defpoints
  6
Continuous
 62
     0
440
 16777216
100
AcDbPoint
 10
-1571.884155084999
 20
-1513.193430958396
 30
0.0
  0
ENDBLK
  5
FD7
330
FD5
100
AcDbEntity
  8
0
100
AcDbBlockEnd
  0
BLOCK
  5
FFC
330
FFB
100
AcDbEntity
  8
0
100
AcDbBlockBegin
  2
*D5
 70
     1
 10
0.0
 20
0.0
 30
0.0
  3
*D5
  1

  0
LINE
  5
FFE
330
FFB
100
AcDbEntity
  8
0
  6
Continuous
 62
     0
440
 16777216
370
    -2
100
AcDbLine
 10
-871.884193084999
 20
-1685.222801499997
 30
0.0
 11
-871.884193084999
 21
-1482.543854341207
 31
0.0
  0
LINE
  5
FFF
330
FFB
100
AcDbEntity
  8
0
  6
Continuous
 62
     0
440
 16777216
370
    -2
100
AcDbLine
 10
-1571.884155084999
 20
-1685.2228015
 30
0.0
 11
-1571.884155084999
 21
-1482.543854341207
 31
0.0
  0
LINE
  5
1000
330
FFB
100
AcDbEntity
  8
0
  6
Continuous
 62
     0
440
 16777216
370
    -2
100
AcDbLine
 10
-872.0641930849989
 20
-1482.723854341208
 30
0.0
 11
-1221.254174084998
 21
-1482.723854341208
 31
0.0
  0
LINE
  5
1001
330
FFB
100
AcDbEntity
  8
0
  6
Continuous
 62
     0
440
 16777216
370
    -2
100
AcDbLine
 10
-1571.704155084998
 20
-1482.723854341208
 30
0.0
 11
-1222.514174084999
 21
-1482.723854341208
 31
0.0
  0
SOLID
  5
1002
330
FFB
100
AcDbEntity
  8
0
  6
Continuous
 62
     0
440
 16777216
100
AcDbTrace
 10
-872.0641930849989
 20
-1482.693854341207
 30
0.0
 11
-872.0641930849989
 21
-1482.753854341208
 31
0.0
 12
-871.884193084999
 22
-1482.723854341208
 32
0.0
 13
-871.884193084999
 23
-1482.723854341208
 33
0.0
  0
SOLID
  5
1003
330
FFB
100
AcDbEntity
  8
0
  6
Continuous
 62
     0
440
 16777216
100
AcDbTrace
 10
-1571.704155084998
 20
-1482.693854341207
 30
0.0
 11
-1571.704155084998
 21
-1482.753854341208
 31
0.0
 12
-1571.884155084999
 22
-1482.723854341208
 32
0.0
 13
-1571.884155084999
 23
-1482.723854341208
 33
0.0
  0
MTEXT
  5
1004
330
FFB
100
AcDbEntity
  8
0
  6
Continuous
 62
     0
440
 16777216
100
AcDbMText
 10
-1221.884174084999
 20
-1482.723854341208
 30
0.0
 40
0.18
 41
0.0
 46
0.0
 71
     5
 72
     1
  1
\A1;700.0000
 73
     1
 44
1.0
  0
POINT
  5
1005
330
FFB
100
AcDbEntity
  8
Defpoints
  6
Continuous
 62
     0
440
 16777216
100
AcDbPoint
 10
-871.884193084999
 20
-1685.285301499998
 30
0.0
  0
POINT
  5
1006
330
FFB
100
AcDbEntity
  8
Defpoints
  6
Continuous
 62
     0
440
 16777216
100
AcDbPoint
 10
-1571.884155084999
 20
-1685.2853015
 30
0.0
  0
POINT
  5
1007
330
FFB
100
AcDbEntity
  8
Defpoints
  6
Continuous
 62
     0
440
 16777216
100
AcDbPoint
 10
-1571.884155084999
 20
-1482.723854341208
 30
0.0
  0
ENDBLK
  5
FFD
330
FFB
100
AcDbEntity
  8
0
100
AcDbBlockEnd
  0
BLOCK
  5
100A
330
1009
100
AcDbEntity
  8
0
100
AcDbBlockBegin
  2
*D6
 70
     1
 10
0.0
 20
0.0
 30
0.0
  3
*D6
  1

  0
LINE
  5
100C
330
1009
100
AcDbEntity
  8
0
  6
Continuous
 62
     0
440
 16777216
370
    -2
100
AcDbLine
 10
-871.884193084999
 20
-1685.222801499997
 30
0.0
 11
-871.884193084999
 21
-1440.211033253052
 31
0.0
  0
LINE
  5
100D
330
1009
100
AcDbEntity
  8
0
  6
Continuous
 62
     0
440
 16777216
370
    -2
100
AcDbLine
 10
-1571.884155084999
 20
-1685.2228015
 30
0.0
 11
-1571.884155084999
 21
-1440.211033253052
 31
0.0
  0
LINE
  5
100E
330
1009
100
AcDbEntity
  8
0
  6
Continuous
 62
     0
440
 16777216
370
    -2
100
AcDbLine
 10
-872.0641930849989
 20
-1440.391033253052
 30
0.0
 11
-1221.254174084998
 21
-1440.391033253052
 31
0.0
  0
LINE
  5
100F
330
1009
100
AcDbEntity
  8
0
  6
Continuous
 62
     0
440
 16777216
370
    -2
100
AcDbLine
 10
-1571.704155084998
 20
-1440.391033253052
 30
0.0
 11
-1222.514174084999
 21
-1440.391033253052
 31
0.0
  0
SOLID
  5
1010
330
1009
100
AcDbEntity
  8
0
  6
Continuous
 62
     0
440
 16777216
100
AcDbTrace
 10
-872.0641930849989
 20
-1440.361033253052
 30
0.0
 11
-872.0641930849989
 21
-1440.421033253052
 31
0.0
 12
-871.884193084999
 22
-1440.391033253052
 32
0.0
 13
-871.884193084999
 23
-1440.391033253052
 33
0.0
  0
SOLID
  5
1011
330
1009
100
AcDbEntity
  8
0
  6
Continuous
 62
     0
440
 16777216
100
AcDbTrace
 10
-1571.704155084998
 20
-1440.361033253052
 30
0.0
 11
-1571.704155084998
 21
-1440.421033253052
 31
0.0
 12
-1571.884155084999
 22
-1440.391033253052
 32
0.0
 13
-1571.884155084999
 23
-1440.391033253052
 33
0.0
  0
MTEXT
  5
1012
330
1009
100
AcDbEntity
  8
0
  6
Continuous
 62
     0
440
 16777216
100
AcDbMText
 10
-1221.884174084999
 20
-1440.391033253052
 30
0.0
 40
0.18
 41
0.0
 46
0.0
 71
     5
 72
     1
  1
\A1;700.0000
 73
     1
 44
1.0
  0
POINT
  5
1013
330
1009
100
AcDbEntity
  8
Defpoints
  6
Continuous
 62
     0
440
 16777216
100
AcDbPoint
 10
-871.884193084999
 20
-1685.285301499998
 30
0.0
  0
POINT
  5
1014
330
1009
100
AcDbEntity
  8
Defpoints
  6
Continuous
 62
     0
440
 16777216
100
AcDbPoint
 10
-1571.884155084999
 20
-1685.2853015
 30
0.0
  0
POINT
  5
1015
330
1009
100
AcDbEntity
  8
Defpoints
  6
Continuous
 62
     0
440
 16777216
100
AcDbPoint
 10
-1571.884155084999
 20
-1440.391033253052
 30
0.0
  0
ENDBLK
  5
100B
330
1009
100
AcDbEntity
  8
0
100
AcDbBlockEnd
  0
BLOCK
  5
1619
330
1618
100
AcDbEntity
  8
0
100
AcDbBlockBegin
  2
*D8
 70
     1
 10
0.0
 20
0.0
 30
0.0
  3
*D8
  1

  0
LINE
  5
161B
330
1618
100
AcDbEntity
  8
0
  6
Continuous
 62
     0
440
 16777216
370
    -2
100
AcDbLine
 10
-871.884193084999
 20
-1685.222801499997
 30
0.0
 11
-871.884193084999
 21
-1531.693040944239
 31
0.0
  0
LINE
  5
161C
330
1618
100
AcDbEntity
  8
0
  6
Continuous
 62
     0
440
 16777216
370
    -2
100
AcDbLine
 10
-1571.884155084999
 20
-1685.222801500001
 30
0.0
 11
-1571.884155084999
 21
-1531.693040944239
 31
0.0
  0
LINE
  5
161D
330
1618
100
AcDbEntity
  8
0
  6
Continuous
 62
     0
440
 16777216
370
    -2
100
AcDbLine
 10
-872.0641930849989
 20
-1531.873040944239
 30
0.0
 11
-1221.254174084999
 21
-1531.873040944239
 31
0.0
  0
LINE
  5
161E
330
1618
100
AcDbEntity
  8
0
  6
Continuous
 62
     0
440
 16777216
370
    -2
100
AcDbLine
 10
-1571.704155084999
 20
-1531.873040944239
 30
0.0
 11
-1222.514174084999
 21
-1531.873040944239
 31
0.0
  0
SOLID
  5
161F
330
1618
100
AcDbEntity
  8
0
  6
Continuous
 62
     0
440
 16777216
100
AcDbTrace
 10
-872.0641930849989
 20
-1531.843040944238
 30
0.0
 11
-872.0641930849989
 21
-1531.903040944239
 31
0.0
 12
-871.884193084999
 22
-1531.873040944239
 32
0.0
 13
-871.884193084999
 23
-1531.873040944239
 33
0.0
  0
SOLID
  5
1620
330
1618
100
AcDbEntity
  8
0
  6
Continuous
 62
     0
440
 16777216
100
AcDbTrace
 10
-1571.704155084999
 20
-1531.843040944238
 30
0.0
 11
-1571.704155084999
 21
-1531.903040944239
 31
0.0
 12
-1571.884155084999
 22
-1531.873040944239
 32
0.0
 13
-1571.884155084999
 23
-1531.873040944239
 33
0.0
  0
MTEXT
  5
1621
330
1618
100
AcDbEntity
  8
0
  6
Continuous
 62
     0
440
 16777216
100
AcDbMText
 10
-1221.884174084999
 20
-1531.873040944239
 30
0.0
 40
0.18
 41
0.0
 46
0.0
 71
     5
 72
     1
  1
\A1;700.0000
 73
     1
 44
1.0
  0
POINT
  5
1622
330
1618
100
AcDbEntity
  8
Defpoints
  6
Continuous
 62
     0
440
 16777216
100
AcDbPoint
 10
-871.884193084999
 20
-1685.285301499998
 30
0.0
  0
POINT
  5
1623
330
1618
100
AcDbEntity
  8
Defpoints
  6
Continuous
 62
     0
440
 16777216
100
AcDbPoint
 10
-1571.884155084999
 20
-1685.285301500001
 30
0.0
  0
POINT
  5
1624
330
1618
100
AcDbEntity
  8
Defpoints
  6
Continuous
 62
     0
440
 16777216
100
AcDbPoint
 10
-1571.884155084999
 20
-1531.873040944239
 30
0.0
  0
ENDBLK
  5
161A
330
1618
100
AcDbEntity
  8
0
100
AcDbBlockEnd
  0
BLOCK
  5
1A66
330
1A65
100
AcDbEntity
  8
0
100
AcDbBlockBegin
  2
*D11
 70
     1
 10
0.0
 20
0.0
 30
0.0
  3
*D11
  1

  0
LINE
  5
1A68
330
1A65
100
AcDbEntity
  8
0
  6
Continuous
 62
     0
440
 16777216
370
    -2
100
AcDbLine
 10
-860.7841550849954
 20
-1696.997799500018
 30
0.0
 11
-860.7841550849954
 21
-1441.135111413995
 31
0.0
  0
LINE
  5
1A69
330
1A65
100
AcDbEntity
  8
0
  6
Continuous
 62
     0
440
 16777216
370
    -2
100
AcDbLine
 10
-1571.884155084997
 20
-1696.997799499998
 30
0.0
 11
-1571.884155084997
 21
-1441.135111413995
 31
0.0
  0
LINE
  5
1A6A
330
1A65
100
AcDbEntity
  8
0
  6
Continuous
 62
     0
440
 16777216
370
    -2
100
AcDbLine
 10
-860.9641550849955
 20
-1441.315111413995
 30
0.0
 11
-1215.749155084996
 21
-1441.315111413995
 31
0.0
  0
LINE
  5
1A6B
330
1A65
100
AcDbEntity
  8
0
  6
Continuous
 62
     0
440
 16777216
370
    -2
100
AcDbLine
 10
-1571.704155084997
 20
-1441.315111413995
 30
0.0
 11
-1216.919155084996
 21
-1441.315111413995
 31
0.0
  0
SOLID
  5
1A6C
330
1A65
100
AcDbEntity
  8
0
  6
Continuous
 62
     0
440
 16777216
100
AcDbTrace
 10
-860.9641550849955
 20
-1441.285111413995
 30
0.0
 11
-860.9641550849955
 21
-1441.345111413995
 31
0.0
 12
-860.7841550849954
 22
-1441.315111413995
 32
0.0
 13
-860.7841550849954
 23
-1441.315111413995
 33
0.0
  0
SOLID
  5
1A6D
330
1A65
100
AcDbEntity
  8
0
  6
Continuous
 62
     0
440
 16777216
100
AcDbTrace
 10
-1571.704155084997
 20
-1441.285111413995
 30
0.0
 11
-1571.704155084997
 21
-1441.345111413995
 31
0.0
 12
-1571.884155084997
 22
-1441.315111413995
 32
0.0
 13
-1571.884155084997
 23
-1441.315111413995
 33
0.0
  0
MTEXT
  5
1A6E
330
1A65
100
AcDbEntity
  8
0
  6
Continuous
 62
     0
440
 16777216
100
AcDbMText
 10
-1216.334155084996
 20
-1441.315111413995
 30
0.0
 40
0.18
 41
0.0
 46
0.0
 71
     5
 72
     1
  1
\A1;711.1000
 73
     1
 44
1.0
  0
POINT
  5
1A6F
330
1A65
100
AcDbEntity
  8
Defpoints
  6
Continuous
 62
     0
440
 16777216
100
AcDbPoint
 10
-860.7841550849954
 20
-1697.060299500018
 30
0.0
  0
POINT
  5
1A70
330
1A65
100
AcDbEntity
  8
Defpoints
  6
Continuous
 62
     0
440
 16777216
100
AcDbPoint
 10
-1571.884155084997
 20
-1697.060299499998
 30
0.0
  0
POINT
  5
1A71
330
1A65
100
AcDbEntity
  8
Defpoints
  6
Continuous
 62
     0
440
 16777216
100
AcDbPoint
 10
-1571.884155084997
 20
-1441.315111413995
 30
0.0
  0
ENDBLK
  5
1A67
330
1A65
100
AcDbEntity
  8
0
100
AcDbBlockEnd
  0
ENDSEC
  0
SECTION
  2
ENTITIES
  0
LINE
  5
1804
330
A
100
AcDbEntity
  8
HEWI
100
AcDbLine
 10
-1769.813430396316
 20
-1726.4352995
 30
0.0
 11
-1770.013430396317
 21
-1726.2352995
 31
0.0
  0
LINE
  5
1805
330
A
100
AcDbEntity
  8
HEWI
100
AcDbLine
 10
-1775.813430396316
 20
-1727.9352995
 30
0.0
 11
-1810.013944396315
 21
-1727.935299499999
 31
0.0
  0
LINE
  5
1806
330
A
100
AcDbEntity
  8
HEWI
100
AcDbLine
 10
-1825.012914396316
 20
-1727.935299499998
 30
0.0
 11
-1859.213430396316
 21
-1727.935299499997
 31
0.0
  0
LINE
  5
1807
330
A
100
AcDbEntity
  8
HEWI
100
AcDbLine
 10
-1770.013430396315
 20
-1684.6352995
 30
0.0
 11
-1769.813430396315
 21
-1684.4352995
 31
0.0
  0
LINE
  5
1808
330
A
100
AcDbEntity
  8
HEWI
100
AcDbLine
 10
-1767.213430396314
 20
-1684.4352995
 30
0.0
 11
-1767.013430396314
 21
-1684.6352995
 31
0.0
  0
LINE
  5
1809
330
A
100
AcDbEntity
  8
HEWI
100
AcDbLine
 10
-1767.013430396314
 20
-1726.2352995
 30
0.0
 11
-1767.213430396316
 21
-1726.4352995
 31
0.0
  0
LINE
  5
180A
330
A
100
AcDbEntity
  8
HEWI
100
AcDbLine
 10
-1769.813430396315
 20
-1684.4352995
 30
0.0
 11
-1767.213430396314
 21
-1684.4352995
 31
0.0
  0
LINE
  5
180B
330
A
100
AcDbEntity
  8
HEWI
100
AcDbLine
 10
-1767.213430396316
 20
-1726.4352995
 30
0.0
 11
-1769.813430396316
 21
-1726.4352995
 31
0.0
  0
LINE
  5
180C
330
A
100
AcDbEntity
  8
HEWI
100
AcDbLine
 10
-1867.813430396316
 20
-1726.435299499997
 30
0.0
 11
-1868.013430396317
 21
-1726.235299499997
 31
0.0
  0
LINE
  5
180D
330
A
100
AcDbEntity
  8
HEWI
100
AcDbLine
 10
-1868.013430396315
 20
-1684.635299499997
 30
0.0
 11
-1867.813430396315
 21
-1684.435299499997
 31
0.0
  0
LINE
  5
180E
330
A
100
AcDbEntity
  8
HEWI
100
AcDbLine
 10
-1865.213430396314
 20
-1684.435299499997
 30
0.0
 11
-1865.013430396315
 21
-1684.635299499997
 31
0.0
  0
LINE
  5
180F
330
A
100
AcDbEntity
  8
HEWI
100
AcDbLine
 10
-1865.013430396317
 20
-1726.235299499997
 30
0.0
 11
-1865.213430396315
 21
-1726.435299499997
 31
0.0
  0
LINE
  5
1810
330
A
100
AcDbEntity
  8
HEWI
100
AcDbLine
 10
-1865.213430396315
 20
-1726.435299499997
 30
0.0
 11
-1867.813430396316
 21
-1726.435299499997
 31
0.0
  0
LINE
  5
1811
330
A
100
AcDbEntity
  8
HEWI
100
AcDbLine
 10
-1867.813430396315
 20
-1684.435299499997
 30
0.0
 11
-1865.213430396314
 21
-1684.435299499997
 31
0.0
  0
LINE
  5
1812
330
A
100
AcDbEntity
  8
HEWI
100
AcDbLine
 10
-1859.513430396317
 20
-1726.435299499997
 30
0.0
 11
-1860.013430396314
 21
-1725.935299499997
 31
0.0
  0
LINE
  5
1813
330
A
100
AcDbEntity
  8
HEWI
100
AcDbLine
 10
-1860.013430396314
 20
-1684.935299499997
 30
0.0
 11
-1859.513430396317
 21
-1684.435299499997
 31
0.0
  0
LINE
  5
1814
330
A
100
AcDbEntity
  8
HEWI
100
AcDbLine
 10
-1859.213430396315
 20
-1682.935299499997
 30
0.0
 11
-1775.813430396315
 21
-1682.9352995
 31
0.0
  0
LINE
  5
1815
330
A
100
AcDbEntity
  8
HEWI
100
AcDbLine
 10
-1775.513430396317
 20
-1684.4352995
 30
0.0
 11
-1775.013430396315
 21
-1684.9352995
 31
0.0
  0
LINE
  5
1816
330
A
100
AcDbEntity
  8
HEWI
100
AcDbLine
 10
-1775.013430396316
 20
-1725.9352995
 30
0.0
 11
-1775.513430396317
 21
-1726.4352995
 31
0.0
  0
LINE
  5
1817
330
A
100
AcDbEntity
  8
HEWI
100
AcDbLine
 10
-1813.513430396314
 20
-1721.740863499999
 30
0.0
 11
-1813.513430396314
 21
-1721.3130235
 31
0.0
  0
LINE
  5
1818
330
A
100
AcDbEntity
  8
HEWI
100
AcDbLine
 10
-1821.513430396316
 20
-1721.740863499998
 30
0.0
 11
-1821.513430396316
 21
-1721.312905499999
 31
0.0
  0
LINE
  5
1819
330
A
100
AcDbEntity
  8
HEWI
100
AcDbLine
 10
-1813.513430396314
 20
-1721.740863499999
 30
0.0
 11
-1813.513430396314
 21
-1721.3130235
 31
0.0
  0
LINE
  5
181A
330
A
100
AcDbEntity
  8
HEWI
100
AcDbLine
 10
-1821.513430396316
 20
-1721.740863499998
 30
0.0
 11
-1821.513430396316
 21
-1721.312905499999
 31
0.0
  0
LINE
  5
181B
330
A
100
AcDbEntity
  8
HEWI
100
AcDbLine
 10
-1769.813430396315
 20
-1705.4352995
 30
0.0
 11
-1769.813430396315
 21
-1684.4352995
 31
0.0
  0
LINE
  5
181C
330
A
100
AcDbEntity
  8
HEWI
100
AcDbLine
 10
-1769.813430396316
 20
-1726.4352995
 30
0.0
 11
-1769.813430396315
 21
-1705.4352995
 31
0.0
  0
LINE
  5
181D
330
A
100
AcDbEntity
  8
HEWI
100
AcDbLine
 10
-1767.213430396316
 20
-1726.4352995
 30
0.0
 11
-1767.213430396314
 21
-1684.4352995
 31
0.0
  0
LINE
  5
181E
330
A
100
AcDbEntity
  8
HEWI
100
AcDbLine
 10
-1767.013430396314
 20
-1684.6352995
 30
0.0
 11
-1767.013430396314
 21
-1705.4352995
 31
0.0
  0
LINE
  5
181F
330
A
100
AcDbEntity
  8
HEWI
100
AcDbLine
 10
-1767.013430396314
 20
-1705.4352995
 30
0.0
 11
-1767.013430396314
 21
-1726.2352995
 31
0.0
  0
LINE
  5
1820
330
A
100
AcDbEntity
  8
HEWI
100
AcDbLine
 10
-1800.679208396315
 20
-1703.244409499999
 30
0.0
 11
-1800.807046396316
 21
-1703.244409499999
 31
0.0
  0
LINE
  5
1821
330
A
100
AcDbEntity
  8
HEWI
100
AcDbLine
 10
-1834.219812396314
 20
-1703.244409499998
 30
0.0
 11
-1834.333192396315
 21
-1703.244409499998
 31
0.0
  0
LINE
  5
1822
330
A
100
AcDbEntity
  8
HEWI
100
AcDbLine
 10
-1825.013430396316
 20
-1720.843495499999
 30
0.0
 11
-1825.013430396318
 21
-1793.206013994445
 31
0.0
  0
LINE
  5
1823
330
A
100
AcDbEntity
  8
HEWI
100
AcDbLine
 10
-1823.013430396318
 20
-1792.340660758251
 30
0.0
 11
-1823.013430396316
 21
-1721.573839499998
 31
0.0
  0
LINE
  5
1824
330
A
100
AcDbEntity
  8
HEWI
100
AcDbLine
 10
-1812.013430396316
 20
-1721.573839499999
 30
0.0
 11
-1812.013430396318
 21
-1792.342049085966
 31
0.0
  0
LINE
  5
1825
330
A
100
AcDbEntity
  8
HEWI
100
AcDbLine
 10
-1810.013430396316
 20
-1793.208019537183
 30
0.0
 11
-1810.013430396314
 21
-1720.8434955
 31
0.0
  0
LINE
  5
1826
330
A
100
AcDbEntity
  8
HEWI
100
AcDbLine
 10
-1822.948912396316
 20
-1721.384531499999
 30
0.0
 11
-1823.013430396316
 21
-1721.573839499998
 31
0.0
  0
LINE
  5
1827
330
A
100
AcDbEntity
  8
HEWI
100
AcDbLine
 10
-1812.077946396317
 20
-1721.384531499999
 30
0.0
 11
-1812.013430396316
 21
-1721.573839499999
 31
0.0
  0
LINE
  5
1828
330
A
100
AcDbEntity
  8
HEWI
100
AcDbLine
 10
-1775.213430396321
 20
-1855.9352995
 30
0.0
 11
-1815.224430409234
 21
-1855.935299499999
 31
0.0
  0
LINE
  5
1829
330
A
100
AcDbEntity
  8
HEWI
100
AcDbLine
 10
-1820.22443038101
 20
-1855.935299499999
 30
0.0
 11
-1859.81343039632
 21
-1855.935299499997
 31
0.0
  0
LINE
  5
182A
330
A
100
AcDbEntity
  8
HEWI
100
AcDbLine
 10
-1775.213430396314
 20
-1652.9352995
 30
0.0
 11
-1775.213430396315
 21
-1684.7365175
 31
0.0
  0
LINE
  5
182B
330
A
100
AcDbEntity
  8
HEWI
100
AcDbLine
 10
-1775.213430396316
 20
-1726.1358315
 30
0.0
 11
-1775.213430396321
 21
-1855.9352995
 31
0.0
  0
LINE
  5
182C
330
A
100
AcDbEntity
  8
HEWI
100
AcDbLine
 10
-1859.813430396314
 20
-1652.935299499997
 30
0.0
 11
-1775.213430396314
 21
-1652.9352995
 31
0.0
  0
LINE
  5
182D
330
A
100
AcDbEntity
  8
HEWI
100
AcDbLine
 10
-1859.813430396314
 20
-1652.935299499997
 30
0.0
 11
-1859.813430396315
 21
-1684.736517499997
 31
0.0
  0
LINE
  5
182E
330
A
100
AcDbEntity
  8
HEWI
100
AcDbLine
 10
-1859.813430396316
 20
-1726.135831499997
 30
0.0
 11
-1859.81343039632
 21
-1855.935299499997
 31
0.0
  0
LINE
  5
182F
330
A
100
AcDbEntity
  8
HEWI
100
AcDbLine
 10
-1775.213430396314
 20
-1649.4352995
 30
0.0
 11
-1775.213430396314
 21
-1652.9352995
 31
0.0
  0
LINE
  5
1830
330
A
100
AcDbEntity
  8
HEWI
100
AcDbLine
 10
-1775.213430396314
 20
-1649.4352995
 30
0.0
 11
-1859.813430396314
 21
-1649.435299499997
 31
0.0
  0
LINE
  5
1831
330
A
100
AcDbEntity
  8
HEWI
100
AcDbLine
 10
-1859.813430396314
 20
-1649.435299499997
 30
0.0
 11
-1859.813430396314
 21
-1652.935299499997
 31
0.0
  0
LINE
  5
1832
330
A
100
AcDbEntity
  8
HEWI
100
AcDbLine
 10
-1859.81343039632
 20
-1859.435299499997
 30
0.0
 11
-1820.22443038101
 21
-1859.435299499999
 31
0.0
  0
LINE
  5
1833
330
A
100
AcDbEntity
  8
HEWI
100
AcDbLine
 10
-1815.224430409234
 20
-1859.435299499999
 30
0.0
 11
-1775.213430396321
 21
-1859.4352995
 31
0.0
  0
LINE
  5
1834
330
A
100
AcDbEntity
  8
HEWI
100
AcDbLine
 10
-1775.213430396321
 20
-1859.4352995
 30
0.0
 11
-1775.213430396321
 21
-1855.9352995
 31
0.0
  0
LINE
  5
1835
330
A
100
AcDbEntity
  8
HEWI
100
AcDbLine
 10
-1859.81343039632
 20
-1859.435299499997
 30
0.0
 11
-1859.81343039632
 21
-1855.935299499997
 31
0.0
  0
LINE
  5
1836
330
A
100
AcDbEntity
  8
HEWI
100
AcDbLine
 10
-1775.213430396314
 20
-1649.4352995
 30
0.0
 11
-1775.013392396314
 21
-1649.4352995
 31
0.0
  0
LINE
  5
1837
330
A
100
AcDbEntity
  8
HEWI
100
AcDbLine
 10
-1775.213430396314
 20
-1650.9352995
 30
0.0
 11
-1775.013392396314
 21
-1650.9352995
 31
0.0
  0
LINE
  5
1838
330
A
100
AcDbEntity
  8
HEWI
100
AcDbLine
 10
-1859.813430396314
 20
-1649.435299499997
 30
0.0
 11
-1860.013466396314
 21
-1649.435299499997
 31
0.0
  0
LINE
  5
1839
330
A
100
AcDbEntity
  8
HEWI
100
AcDbLine
 10
-1859.813430396314
 20
-1650.935299499997
 30
0.0
 11
-1860.013466396314
 21
-1650.935299499997
 31
0.0
  0
LINE
  5
183A
330
A
100
AcDbEntity
  8
HEWI
100
AcDbLine
 10
-1867.813430396316
 20
-1705.435299499997
 30
0.0
 11
-1867.813430396315
 21
-1684.435299499997
 31
0.0
  0
LINE
  5
183B
330
A
100
AcDbEntity
  8
HEWI
100
AcDbLine
 10
-1867.813430396316
 20
-1726.435299499997
 30
0.0
 11
-1867.813430396316
 21
-1705.435299499997
 31
0.0
  0
LINE
  5
183C
330
A
100
AcDbEntity
  8
HEWI
100
AcDbLine
 10
-1868.013430396315
 20
-1684.635299499997
 30
0.0
 11
-1868.013430396317
 21
-1726.235299499997
 31
0.0
  0
LINE
  5
183D
330
A
100
AcDbEntity
  8
HEWI
100
AcDbLine
 10
-1865.213430396315
 20
-1726.435299499997
 30
0.0
 11
-1865.213430396314
 21
-1684.435299499997
 31
0.0
  0
LINE
  5
183E
330
A
100
AcDbEntity
  8
HEWI
100
AcDbLine
 10
-1775.813430396316
 20
-1727.9352995
 30
0.0
 11
-1775.813430396315
 21
-1682.9352995
 31
0.0
  0
LINE
  5
183F
330
A
100
AcDbEntity
  8
HEWI
100
AcDbLine
 10
-1859.213430396315
 20
-1682.935299499997
 30
0.0
 11
-1859.213430396316
 21
-1705.435299499997
 31
0.0
  0
LINE
  5
1840
330
A
100
AcDbEntity
  8
HEWI
100
AcDbLine
 10
-1859.213430396316
 20
-1705.435299499997
 30
0.0
 11
-1859.213430396316
 21
-1727.935299499997
 31
0.0
  0
LINE
  5
1841
330
A
100
AcDbEntity
  8
HEWI
100
AcDbLine
 10
-1859.513430396317
 20
-1683.235299499997
 30
0.0
 11
-1859.513430396317
 21
-1727.635299499997
 31
0.0
  0
LINE
  5
1842
330
A
100
AcDbEntity
  8
HEWI
100
AcDbLine
 10
-1775.513430396317
 20
-1705.4352995
 30
0.0
 11
-1775.513430396317
 21
-1683.2353095
 31
0.0
  0
LINE
  5
1843
330
A
100
AcDbEntity
  8
HEWI
100
AcDbLine
 10
-1775.513430396317
 20
-1727.6352995
 30
0.0
 11
-1775.513430396317
 21
-1705.4352995
 31
0.0
  0
LINE
  5
1844
330
A
100
AcDbEntity
  8
HEWI
100
AcDbLine
 10
-1865.013430396317
 20
-1727.835299499997
 30
0.0
 11
-1860.013430396314
 21
-1727.835299499997
 31
0.0
  0
LINE
  5
1845
330
A
100
AcDbEntity
  8
HEWI
100
AcDbLine
 10
-1860.013430396314
 20
-1683.035299499997
 30
0.0
 11
-1865.013430396315
 21
-1683.035299499997
 31
0.0
  0
LINE
  5
1846
330
A
100
AcDbEntity
  8
HEWI
100
AcDbLine
 10
-1865.013430396315
 20
-1683.035299499997
 30
0.0
 11
-1865.013430396317
 21
-1727.835299499997
 31
0.0
  0
LINE
  5
1847
330
A
100
AcDbEntity
  8
HEWI
100
AcDbLine
 10
-1860.013430396314
 20
-1727.835299499997
 30
0.0
 11
-1860.013430396314
 21
-1683.035299499997
 31
0.0
  0
LINE
  5
1848
330
A
100
AcDbEntity
  8
HEWI
100
AcDbLine
 10
-1775.013430396316
 20
-1727.8352995
 30
0.0
 11
-1770.013430396317
 21
-1727.8352995
 31
0.0
  0
LINE
  5
1849
330
A
100
AcDbEntity
  8
HEWI
100
AcDbLine
 10
-1770.013430396315
 20
-1683.0352995
 30
0.0
 11
-1775.013430396315
 21
-1683.0352995
 31
0.0
  0
LINE
  5
184A
330
A
100
AcDbEntity
  8
HEWI
100
AcDbLine
 10
-1770.013430396317
 20
-1727.8352995
 30
0.0
 11
-1770.013430396315
 21
-1683.0352995
 31
0.0
  0
LINE
  5
184B
330
A
100
AcDbEntity
  8
HEWI
100
AcDbLine
 10
-1775.013430396315
 20
-1683.0352995
 30
0.0
 11
-1775.013430396316
 21
-1727.8352995
 31
0.0
  0
LINE
  5
184C
330
A
100
AcDbEntity
  8
HEWI
100
AcDbLine
 10
-1775.013430396316
 20
-1731.3352995
 30
0.0
 11
-1770.013430396317
 21
-1731.3352995
 31
0.0
  0
LINE
  5
184D
330
A
100
AcDbEntity
  8
HEWI
100
AcDbLine
 10
-1770.013430396317
 20
-1731.3352995
 30
0.0
 11
-1770.013430396317
 21
-1727.8352995
 31
0.0
  0
LINE
  5
184E
330
A
100
AcDbEntity
  8
HEWI
100
AcDbLine
 10
-1775.013430396316
 20
-1727.8352995
 30
0.0
 11
-1775.013430396316
 21
-1731.3352995
 31
0.0
  0
LINE
  5
184F
330
A
100
AcDbEntity
  8
HEWI
100
AcDbLine
 10
-1865.013430396317
 20
-1731.335299499997
 30
0.0
 11
-1860.013430396314
 21
-1731.335299499997
 31
0.0
  0
LINE
  5
1850
330
A
100
AcDbEntity
  8
HEWI
100
AcDbLine
 10
-1865.013430396317
 20
-1727.835299499997
 30
0.0
 11
-1865.013430396317
 21
-1731.335299499997
 31
0.0
  0
LINE
  5
1851
330
A
100
AcDbEntity
  8
HEWI
100
AcDbLine
 10
-1860.013430396314
 20
-1731.335299499997
 30
0.0
 11
-1860.013430396314
 21
-1727.835299499997
 31
0.0
  0
LINE
  5
1852
330
A
100
AcDbEntity
  8
HEWI
100
AcDbLine
 10
-1770.013430396315
 20
-1679.5352995
 30
0.0
 11
-1775.013430396315
 21
-1679.5352995
 31
0.0
  0
LINE
  5
1853
330
A
100
AcDbEntity
  8
HEWI
100
AcDbLine
 10
-1770.013430396315
 20
-1683.0352995
 30
0.0
 11
-1770.013430396315
 21
-1679.5352995
 31
0.0
  0
LINE
  5
1854
330
A
100
AcDbEntity
  8
HEWI
100
AcDbLine
 10
-1775.013430396315
 20
-1679.5352995
 30
0.0
 11
-1775.013430396315
 21
-1683.0352995
 31
0.0
  0
LINE
  5
1855
330
A
100
AcDbEntity
  8
HEWI
100
AcDbLine
 10
-1860.013430396313
 20
-1679.535299499997
 30
0.0
 11
-1865.013430396315
 21
-1679.535299499997
 31
0.0
  0
LINE
  5
1856
330
A
100
AcDbEntity
  8
HEWI
100
AcDbLine
 10
-1865.013430396315
 20
-1679.535299499997
 30
0.0
 11
-1865.013430396315
 21
-1683.035299499997
 31
0.0
  0
LINE
  5
1857
330
A
100
AcDbEntity
  8
HEWI
100
AcDbLine
 10
-1860.013430396314
 20
-1683.035299499997
 30
0.0
 11
-1860.013430396313
 21
-1679.535299499997
 31
0.0
  0
LINE
  5
1858
330
A
100
AcDbEntity
  8
HEWI
100
AcDbLine
 10
-1770.01343039632
 20
-1855.9352995
 30
0.0
 11
-1775.01343039632
 21
-1855.9352995
 31
0.0
  0
LINE
  5
1859
330
A
100
AcDbEntity
  8
HEWI
100
AcDbLine
 10
-1770.013430396317
 20
-1731.3352995
 30
0.0
 11
-1770.01343039632
 21
-1855.9352995
 31
0.0
  0
LINE
  5
185A
330
A
100
AcDbEntity
  8
HEWI
100
AcDbLine
 10
-1775.013430396316
 20
-1731.3352995
 30
0.0
 11
-1775.01343039632
 21
-1855.9352995
 31
0.0
  0
LINE
  5
185B
330
A
100
AcDbEntity
  8
HEWI
100
AcDbLine
 10
-1860.013430396318
 20
-1855.935299499997
 30
0.0
 11
-1865.01343039632
 21
-1855.935299499997
 31
0.0
  0
LINE
  5
185C
330
A
100
AcDbEntity
  8
HEWI
100
AcDbLine
 10
-1865.01343039632
 20
-1859.435299499997
 30
0.0
 11
-1860.013430396318
 21
-1859.435299499997
 31
0.0
  0
LINE
  5
185D
330
A
100
AcDbEntity
  8
HEWI
100
AcDbLine
 10
-1865.01343039632
 20
-1855.935299499997
 30
0.0
 11
-1865.01343039632
 21
-1859.435299499997
 31
0.0
  0
LINE
  5
185E
330
A
100
AcDbEntity
  8
HEWI
100
AcDbLine
 10
-1860.013430396318
 20
-1859.435299499997
 30
0.0
 11
-1860.013430396318
 21
-1855.935299499997
 31
0.0
  0
LINE
  5
185F
330
A
100
AcDbEntity
  8
HEWI
100
AcDbLine
 10
-1775.01343039632
 20
-1859.4352995
 30
0.0
 11
-1770.01343039632
 21
-1859.4352995
 31
0.0
  0
LINE
  5
1860
330
A
100
AcDbEntity
  8
HEWI
100
AcDbLine
 10
-1770.01343039632
 20
-1859.4352995
 30
0.0
 11
-1770.01343039632
 21
-1855.9352995
 31
0.0
  0
LINE
  5
1861
330
A
100
AcDbEntity
  8
HEWI
100
AcDbLine
 10
-1775.01343039632
 20
-1855.9352995
 30
0.0
 11
-1775.01343039632
 21
-1859.4352995
 31
0.0
  0
LINE
  5
1862
330
A
100
AcDbEntity
  8
HEWI
100
AcDbLine
 10
-1865.01343039632
 20
-1855.935299499997
 30
0.0
 11
-1865.013430396317
 21
-1731.335299499997
 31
0.0
  0
LINE
  5
1863
330
A
100
AcDbEntity
  8
HEWI
100
AcDbLine
 10
-1860.013430396318
 20
-1855.935299499997
 30
0.0
 11
-1860.013430396314
 21
-1731.335299499997
 31
0.0
  0
LINE
  5
1864
330
A
100
AcDbEntity
  8
HEWI
100
AcDbLine
 10
-1865.013430396314
 20
-1652.935299499997
 30
0.0
 11
-1860.013430396313
 21
-1652.935299499997
 31
0.0
  0
LINE
  5
1865
330
A
100
AcDbEntity
  8
HEWI
100
AcDbLine
 10
-1865.013430396315
 20
-1679.535299499997
 30
0.0
 11
-1865.013430396314
 21
-1652.935299499997
 31
0.0
  0
LINE
  5
1866
330
A
100
AcDbEntity
  8
HEWI
100
AcDbLine
 10
-1860.013430396313
 20
-1679.535299499997
 30
0.0
 11
-1860.013430396313
 21
-1652.935299499997
 31
0.0
  0
LINE
  5
1867
330
A
100
AcDbEntity
  8
HEWI
100
AcDbLine
 10
-1775.013430396314
 20
-1652.9352995
 30
0.0
 11
-1770.013430396315
 21
-1652.9352995
 31
0.0
  0
LINE
  5
1868
330
A
100
AcDbEntity
  8
HEWI
100
AcDbLine
 10
-1770.013430396315
 20
-1652.9352995
 30
0.0
 11
-1770.013430396315
 21
-1679.5352995
 31
0.0
  0
LINE
  5
1869
330
A
100
AcDbEntity
  8
HEWI
100
AcDbLine
 10
-1775.013430396314
 20
-1652.9352995
 30
0.0
 11
-1775.013430396315
 21
-1679.5352995
 31
0.0
  0
LINE
  5
186A
330
A
100
AcDbEntity
  8
HEWI
100
AcDbLine
 10
-1860.013430396313
 20
-1649.435299499997
 30
0.0
 11
-1865.013430396314
 21
-1649.435299499997
 31
0.0
  0
LINE
  5
186B
330
A
100
AcDbEntity
  8
HEWI
100
AcDbLine
 10
-1865.013430396314
 20
-1649.435299499997
 30
0.0
 11
-1865.013430396314
 21
-1652.935299499997
 31
0.0
  0
LINE
  5
186C
330
A
100
AcDbEntity
  8
HEWI
100
AcDbLine
 10
-1860.013430396313
 20
-1652.935299499997
 30
0.0
 11
-1860.013430396313
 21
-1649.435299499997
 31
0.0
  0
LINE
  5
186D
330
A
100
AcDbEntity
  8
HEWI
100
AcDbLine
 10
-1770.013430396315
 20
-1649.4352995
 30
0.0
 11
-1775.013430396314
 21
-1649.4352995
 31
0.0
  0
LINE
  5
186E
330
A
100
AcDbEntity
  8
HEWI
100
AcDbLine
 10
-1770.013430396315
 20
-1652.9352995
 30
0.0
 11
-1770.013430396315
 21
-1649.4352995
 31
0.0
  0
LINE
  5
186F
330
A
100
AcDbEntity
  8
HEWI
100
AcDbLine
 10
-1775.013430396314
 20
-1649.4352995
 30
0.0
 11
-1775.013430396314
 21
-1652.9352995
 31
0.0
  0
LINE
  5
1870
330
A
100
AcDbEntity
  8
HEWI
100
AcDbLine
 10
-1860.013430396318
 20
-1859.435299499997
 30
0.0
 11
-1859.813422396318
 21
-1859.435299499997
 31
0.0
  0
LINE
  5
1871
330
A
100
AcDbEntity
  8
HEWI
100
AcDbLine
 10
-1775.21343639632
 20
-1859.4352995
 30
0.0
 11
-1775.01343039632
 21
-1859.4352995
 31
0.0
  0
LINE
  5
1872
330
A
100
AcDbEntity
  8
HEWI
100
AcDbLine
 10
-692.5908301605727
 20
-1688.685299500018
 30
0.0
 11
-692.7908301605744
 21
-1688.885299500018
 31
0.0
  0
LINE
  5
1873
330
A
100
AcDbEntity
  8
HEWI
100
AcDbLine
 10
-692.7908301605744
 20
-1721.985299500018
 30
0.0
 11
-692.5908301605745
 21
-1722.185299500019
 31
0.0
  0
LINE
  5
1874
330
A
100
AcDbEntity
  8
HEWI
100
AcDbLine
 10
-692.5908301605745
 20
-1722.185299500019
 30
0.0
 11
-690.7908301605743
 21
-1722.185299500019
 31
0.0
  0
LINE
  5
1875
330
A
100
AcDbEntity
  8
HEWI
100
AcDbLine
 10
-690.7908301605726
 20
-1688.685299500018
 30
0.0
 11
-692.5908301605727
 21
-1688.685299500018
 31
0.0
  0
LINE
  5
1876
330
A
100
AcDbEntity
  8
HEWI
100
AcDbLine
 10
-921.2908301605743
 20
-1721.055855500012
 30
0.0
 11
-961.2908301605743
 21
-1721.055855500011
 31
0.0
  0
LINE
  5
1877
330
A
100
AcDbEntity
  8
HEWI
100
AcDbLine
 10
-961.2908301605781
 20
-1796.613811500011
 30
0.0
 11
-921.2908301605763
 21
-1796.613811500012
 31
0.0
  0
LINE
  5
1878
330
A
100
AcDbEntity
  8
HEWI
100
AcDbLine
 10
-883.2908301605744
 20
-1720.643495500014
 30
0.0
 11
-919.2908301605752
 21
-1720.643495500013
 31
0.0
  0
LINE
  5
1879
330
A
100
AcDbEntity
  8
HEWI
100
AcDbLine
 10
-919.2908301605781
 20
-1797.592995500012
 30
0.0
 11
-883.2908301605753
 21
-1797.592995500014
 31
0.0
  0
LINE
  5
187A
330
A
100
AcDbEntity
  8
HEWI
100
AcDbLine
 10
-1521.990830160578
 20
-1794.2352995
 30
0.0
 11
-1529.690830160577
 21
-1794.2352995
 31
0.0
  0
LINE
  5
187B
330
A
100
AcDbEntity
  8
HEWI
100
AcDbLine
 10
-1529.690830160578
 20
-1821.2352995
 30
0.0
 11
-1521.990830160579
 21
-1821.2352995
 31
0.0
  0
LINE
  5
187C
330
A
100
AcDbEntity
  8
HEWI
100
AcDbLine
 10
-1529.690830160577
 20
-1794.2352995
 30
0.0
 11
-1530.390830160575
 21
-1794.9352995
 31
0.0
  0
LINE
  5
187D
330
A
100
AcDbEntity
  8
HEWI
100
AcDbLine
 10
-1530.390830160577
 20
-1820.5352995
 30
0.0
 11
-1529.690830160578
 21
-1821.2352995
 31
0.0
  0
LINE
  5
187E
330
A
100
AcDbEntity
  8
HEWI
100
AcDbLine
 10
-1521.990830160579
 20
-1821.2352995
 30
0.0
 11
-1521.290830160578
 21
-1820.5352995
 31
0.0
  0
LINE
  5
187F
330
A
100
AcDbEntity
  8
HEWI
100
AcDbLine
 10
-1521.290830160576
 20
-1794.9352995
 30
0.0
 11
-1521.990830160578
 21
-1794.2352995
 31
0.0
  0
LINE
  5
1880
330
A
100
AcDbEntity
  8
HEWI
100
AcDbLine
 10
-1530.890830160578
 20
-1819.7352995
 30
0.0
 11
-1530.390830160577
 21
-1819.7352995
 31
0.0
  0
LINE
  5
1881
330
A
100
AcDbEntity
  8
HEWI
100
AcDbLine
 10
-1530.390830160577
 20
-1795.7352995
 30
0.0
 11
-1530.890830160577
 21
-1795.7352995
 31
0.0
  0
LINE
  5
1888
330
A
100
AcDbEntity
  8
HEWI
100
AcDbLine
 10
-881.2893361605743
 20
-1722.285299500013
 30
0.0
 11
-692.7908301605744
 21
-1722.285299500019
 31
0.0
  0
LINE
  5
1889
330
A
100
AcDbEntity
  8
HEWI
100
AcDbLine
 10
-1350.283636160575
 20
-1722.285299500005
 30
0.0
 11
-911.2920321605747
 21
-1722.285299500017
 31
0.0
  0
LINE
  5
188A
330
A
100
AcDbEntity
  8
HEWI
100
AcDbLine
 10
-1483.879928160576
 20
-1722.285299500001
 30
0.0
 11
-1390.291520160574
 21
-1722.285299500003
 31
0.0
  0
LINE
  5
188B
330
A
100
AcDbEntity
  8
HEWI
100
AcDbLine
 10
-692.7908301605744
 20
-1688.585299500001
 30
0.0
 11
-1483.867830160574
 21
-1688.585299500001
 31
0.0
  0
LINE
  5
188C
330
A
100
AcDbEntity
  8
HEWI
100
AcDbLine
 10
-1388.290830160578
 20
-1797.592995500004
 30
0.0
 11
-1352.290830160578
 21
-1797.592995500005
 31
0.0
  0
LINE
  5
188D
330
A
100
AcDbEntity
  8
HEWI
100
AcDbLine
 10
-1352.290830160574
 20
-1720.643495500006
 30
0.0
 11
-1388.290830160574
 21
-1720.643495500005
 31
0.0
  0
LINE
  5
188E
330
A
100
AcDbEntity
  8
HEWI
100
AcDbLine
 10
-1520.290830160575
 20
-1795.3852995
 30
0.0
 11
-1521.090830160577
 21
-1795.3852995
 31
0.0
  0
LINE
  5
188F
330
A
100
AcDbEntity
  8
HEWI
100
AcDbLine
 10
-1521.090830160578
 20
-1820.1852995
 30
0.0
 11
-1520.290830160578
 21
-1820.1852995
 31
0.0
  0
LINE
  5
1890
330
A
100
AcDbEntity
  8
HEWI
100
AcDbLine
 10
-1521.090830160577
 20
-1795.3852995
 30
0.0
 11
-1521.290830160578
 21
-1795.585299500001
 31
0.0
  0
LINE
  5
1891
330
A
100
AcDbEntity
  8
HEWI
100
AcDbLine
 10
-1521.290830160578
 20
-1819.9852995
 30
0.0
 11
-1521.090830160578
 21
-1820.1852995
 31
0.0
  0
LINE
  5
1892
330
A
100
AcDbEntity
  8
HEWI
100
AcDbLine
 10
-771.290830160578
 20
-1820.285299500017
 30
0.0
 11
-751.290830160578
 21
-1820.285299500018
 31
0.0
  0
LINE
  5
1894
330
A
100
AcDbEntity
  8
HEWI
100
AcDbLine
 10
-893.7727881605782
 20
-1820.285299500014
 30
0.0
 11
-771.290830160578
 21
-1820.285299500017
 31
0.0
  0
LINE
  5
1895
330
A
100
AcDbEntity
  8
HEWI
100
AcDbLine
 10
-1362.772788160578
 20
-1820.285299500005
 30
0.0
 11
-901.2908301605779
 21
-1820.285299500055
 31
0.0
  0
LINE
  5
1896
330
A
100
AcDbEntity
  8
HEWI
100
AcDbLine
 10
-1520.290830160578
 20
-1820.285299500001
 30
0.0
 11
-1377.840830160578
 21
-1820.285299500005
 31
0.0
  0
LINE
  5
1897
330
A
100
AcDbEntity
  8
HEWI
100
AcDbLine
 10
-1390.291474160577
 20
-1795.285299500004
 30
0.0
 11
-1520.290830160575
 21
-1795.2852995
 31
0.0
  0
LINE
  5
1898
330
A
100
AcDbEntity
  8
HEWI
100
AcDbLine
 10
-961.2908301605781
 20
-1795.285299500024
 30
0.0
 11
-1350.285250160576
 21
-1795.285299500005
 31
0.0
  0
LINE
  5
1899
330
A
100
AcDbEntity
  8
HEWI
100
AcDbLine
 10
-751.2908301605762
 20
-1795.285299500017
 30
0.0
 11
-881.2895661605775
 21
-1795.285299500013
 31
0.0
  0
LINE
  5
189A
330
A
100
AcDbEntity
  8
HEWI
100
AcDbLine
 10
-692.7908301605744
 20
-1705.435299500019
 30
0.0
 11
-692.7908301605744
 21
-1688.585299500018
 31
0.0
  0
LINE
  5
189B
330
A
100
AcDbEntity
  8
HEWI
100
AcDbLine
 10
-692.7908301605744
 20
-1722.285299500019
 30
0.0
 11
-692.7908301605744
 21
-1705.435299500019
 31
0.0
  0
LINE
  5
189C
330
A
100
AcDbEntity
  8
HEWI
100
AcDbLine
 10
-1352.290830160578
 20
-1797.592995500005
 30
0.0
 11
-1352.290830160578
 21
-1797.392995500006
 31
0.0
  0
LINE
  5
189D
330
A
100
AcDbEntity
  8
HEWI
100
AcDbLine
 10
-1352.290830160574
 20
-1720.643495500006
 30
0.0
 11
-1352.290830160574
 21
-1720.843495500005
 31
0.0
  0
LINE
  5
189E
330
A
100
AcDbEntity
  8
HEWI
100
AcDbLine
 10
-1350.290830160576
 20
-1721.573839500005
 30
0.0
 11
-1350.290830160578
 21
-1796.338029500005
 31
0.0
  0
LINE
  5
189F
330
A
100
AcDbEntity
  8
HEWI
100
AcDbLine
 10
-1352.290830160578
 20
-1797.392995500006
 30
0.0
 11
-1352.290830160574
 21
-1720.843495500005
 31
0.0
  0
LINE
  5
18A0
330
A
100
AcDbEntity
  8
HEWI
100
AcDbLine
 10
-1388.290830160578
 20
-1797.392995500005
 30
0.0
 11
-1352.290830160578
 21
-1797.392995500006
 31
0.0
  0
LINE
  5
18A1
330
A
100
AcDbEntity
  8
HEWI
100
AcDbLine
 10
-1352.290830160574
 20
-1720.843495500005
 30
0.0
 11
-1388.290830160574
 21
-1720.843495500004
 31
0.0
  0
LINE
  5
18A2
330
A
100
AcDbEntity
  8
HEWI
100
AcDbLine
 10
-1390.290830160576
 20
-1796.338029500004
 30
0.0
 11
-1390.290830160574
 21
-1721.573839500004
 31
0.0
  0
LINE
  5
18A3
330
A
100
AcDbEntity
  8
HEWI
100
AcDbLine
 10
-1388.290830160574
 20
-1720.843495500004
 30
0.0
 11
-1388.290830160578
 21
-1797.392995500005
 31
0.0
  0
LINE
  5
18A4
330
A
100
AcDbEntity
  8
HEWI
100
AcDbLine
 10
-1388.290830160578
 20
-1797.592995500004
 30
0.0
 11
-1388.290830160578
 21
-1797.392995500005
 31
0.0
  0
LINE
  5
18A5
330
A
100
AcDbEntity
  8
HEWI
100
AcDbLine
 10
-1388.290830160574
 20
-1720.643495500005
 30
0.0
 11
-1388.290830160574
 21
-1720.843495500004
 31
0.0
  0
LINE
  5
18A6
330
A
100
AcDbEntity
  8
HEWI
100
AcDbLine
 10
-692.5908301605745
 20
-1722.185299500019
 30
0.0
 11
-692.5908301605727
 21
-1688.685299500018
 31
0.0
  0
LINE
  5
18A7
330
A
100
AcDbEntity
  8
HEWI
100
AcDbLine
 10
-921.2908301605763
 20
-1796.113811500012
 30
0.0
 11
-921.2908301605763
 21
-1796.613811500012
 31
0.0
  0
LINE
  5
18A8
330
A
100
AcDbEntity
  8
HEWI
100
AcDbLine
 10
-921.2908301605743
 20
-1721.055855500012
 30
0.0
 11
-921.2908301605743
 21
-1721.555855500012
 31
0.0
  0
LINE
  5
18A9
330
A
100
AcDbEntity
  8
HEWI
100
AcDbLine
 10
-921.2908301605743
 20
-1721.555855500012
 30
0.0
 11
-921.2908301605763
 21
-1796.113811500012
 31
0.0
  0
LINE
  5
18AA
330
A
100
AcDbEntity
  8
HEWI
100
AcDbLine
 10
-921.2908301605743
 20
-1721.555855500012
 30
0.0
 11
-961.2908301605743
 21
-1721.555855500011
 31
0.0
  0
LINE
  5
18AB
330
A
100
AcDbEntity
  8
HEWI
100
AcDbLine
 10
-961.2908301605781
 20
-1796.113811500011
 30
0.0
 11
-921.2908301605763
 21
-1796.113811500012
 31
0.0
  0
LINE
  5
18AC
330
A
100
AcDbEntity
  8
HEWI
100
AcDbLine
 10
-923.7908301605743
 20
-1724.668263500012
 30
0.0
 11
-923.7908301605761
 21
-1793.168263500012
 31
0.0
  0
LINE
  5
18AD
330
A
100
AcDbEntity
  8
HEWI
100
AcDbLine
 10
-924.7908301605743
 20
-1723.668263500012
 30
0.0
 11
-957.7908301605743
 21
-1723.668263500012
 31
0.0
  0
LINE
  5
18AE
330
A
100
AcDbEntity
  8
HEWI
100
AcDbLine
 10
-924.7908301605761
 20
-1794.168263500012
 30
0.0
 11
-957.7908301605761
 21
-1794.168263500012
 31
0.0
  0
LINE
  5
18AF
330
A
100
AcDbEntity
  8
HEWI
100
AcDbLine
 10
-958.7908301605743
 20
-1724.668263500011
 30
0.0
 11
-958.790830160578
 21
-1793.168263500011
 31
0.0
  0
LINE
  5
18B0
330
A
100
AcDbEntity
  8
HEWI
100
AcDbLine
 10
-961.2908301605781
 20
-1796.613811500011
 30
0.0
 11
-961.2908301605781
 21
-1796.113811500011
 31
0.0
  0
LINE
  5
18B1
330
A
100
AcDbEntity
  8
HEWI
100
AcDbLine
 10
-961.2908301605743
 20
-1721.555855500011
 30
0.0
 11
-961.2908301605743
 21
-1721.055855500011
 31
0.0
  0
LINE
  5
18B2
330
A
100
AcDbEntity
  8
HEWI
100
AcDbLine
 10
-961.2908301605743
 20
-1721.555855500011
 30
0.0
 11
-961.2908301605781
 21
-1796.113811500011
 31
0.0
  0
LINE
  5
18B3
330
A
100
AcDbEntity
  8
HEWI
100
AcDbLine
 10
-883.2908301605753
 20
-1797.592995500014
 30
0.0
 11
-883.2908301605753
 21
-1797.392995500014
 31
0.0
  0
LINE
  5
18B4
330
A
100
AcDbEntity
  8
HEWI
100
AcDbLine
 10
-919.2908301605781
 20
-1797.392995500013
 30
0.0
 11
-883.2908301605753
 21
-1797.392995500014
 31
0.0
  0
LINE
  5
18B5
330
A
100
AcDbEntity
  8
HEWI
100
AcDbLine
 10
-883.2908301605744
 20
-1720.843495500013
 30
0.0
 11
-919.2908301605752
 21
-1720.843495500012
 31
0.0
  0
LINE
  5
18B6
330
A
100
AcDbEntity
  8
HEWI
100
AcDbLine
 10
-919.2908301605781
 20
-1797.592995500012
 30
0.0
 11
-919.2908301605781
 21
-1797.392995500013
 31
0.0
  0
LINE
  5
18B7
330
A
100
AcDbEntity
  8
HEWI
100
AcDbLine
 10
-919.2908301605752
 20
-1720.843495500012
 30
0.0
 11
-919.2908301605781
 21
-1797.392995500013
 31
0.0
  0
LINE
  5
18B8
330
A
100
AcDbEntity
  8
HEWI
100
AcDbLine
 10
-919.2908301605752
 20
-1720.643495500013
 30
0.0
 11
-919.2908301605752
 21
-1720.843495500012
 31
0.0
  0
LINE
  5
18B9
330
A
100
AcDbEntity
  8
HEWI
100
AcDbLine
 10
-1521.290830160576
 20
-1794.9352995
 30
0.0
 11
-1521.290830160578
 21
-1820.5352995
 31
0.0
  0
LINE
  5
18BA
330
A
100
AcDbEntity
  8
HEWI
100
AcDbLine
 10
-1521.990830160578
 20
-1807.7352995
 30
0.0
 11
-1521.990830160578
 21
-1794.2352995
 31
0.0
  0
LINE
  5
18BB
330
A
100
AcDbEntity
  8
HEWI
100
AcDbLine
 10
-1521.990830160579
 20
-1821.2352995
 30
0.0
 11
-1521.990830160578
 21
-1807.7352995
 31
0.0
  0
LINE
  5
18BC
330
A
100
AcDbEntity
  8
HEWI
100
AcDbLine
 10
-1529.690830160578
 20
-1821.2352995
 30
0.0
 11
-1529.690830160577
 21
-1794.2352995
 31
0.0
  0
LINE
  5
18BD
330
A
100
AcDbEntity
  8
HEWI
100
AcDbLine
 10
-1530.390830160575
 20
-1794.9352995
 30
0.0
 11
-1530.390830160577
 21
-1807.7352995
 31
0.0
  0
LINE
  5
18BE
330
A
100
AcDbEntity
  8
HEWI
100
AcDbLine
 10
-1530.390830160577
 20
-1807.7352995
 30
0.0
 11
-1530.390830160577
 21
-1820.5352995
 31
0.0
  0
LINE
  5
18BF
330
A
100
AcDbEntity
  8
HEWI
100
AcDbLine
 10
-1530.890830160578
 20
-1819.7352995
 30
0.0
 11
-1530.890830160577
 21
-1795.7352995
 31
0.0
  0
LINE
  5
18C0
330
A
100
AcDbEntity
  8
HEWI
100
AcDbLine
 10
-1538.890806160574
 20
-1649.4352995
 30
0.0
 11
-1539.090830160574
 21
-1649.4352995
 31
0.0
  0
LINE
  5
18C1
330
A
100
AcDbEntity
  8
HEWI
100
AcDbLine
 10
-1539.090830160574
 20
-1649.4352995
 30
0.0
 11
-1539.090830160574
 21
-1650.9352995
 31
0.0
  0
LINE
  5
18C2
330
A
100
AcDbEntity
  8
HEWI
100
AcDbLine
 10
-1541.690830160575
 20
-1649.4352995
 30
0.0
 11
-1539.090830160574
 21
-1649.4352995
 31
0.0
  0
LINE
  5
18C3
330
A
100
AcDbEntity
  8
HEWI
100
AcDbLine
 10
-1541.690830160575
 20
-1650.9352995
 30
0.0
 11
-1539.090830160574
 21
-1650.9352995
 31
0.0
  0
LINE
  5
18C4
330
A
100
AcDbEntity
  8
HEWI
100
AcDbLine
 10
-1551.690830160572
 20
-1650.935299499999
 30
0.0
 11
-1551.690830160572
 21
-1649.435299499999
 31
0.0
  0
LINE
  5
18C5
330
A
100
AcDbEntity
  8
HEWI
100
AcDbLine
 10
-1541.690830160575
 20
-1649.4352995
 30
0.0
 11
-1541.690830160575
 21
-1650.9352995
 31
0.0
  0
LINE
  5
18C6
330
A
100
AcDbEntity
  8
HEWI
100
AcDbLine
 10
-1551.690830160572
 20
-1649.435299499999
 30
0.0
 11
-1541.690830160575
 21
-1649.4352995
 31
0.0
  0
LINE
  5
18C7
330
A
100
AcDbEntity
  8
HEWI
100
AcDbLine
 10
-1541.690830160575
 20
-1650.9352995
 30
0.0
 11
-1541.890848160574
 21
-1650.9352995
 31
0.0
  0
LINE
  5
18C8
330
A
100
AcDbEntity
  8
HEWI
100
AcDbLine
 10
-751.0908301605781
 20
-1820.285299500018
 30
0.0
 11
-751.0908301605772
 21
-1795.285299500017
 31
0.0
  0
LINE
  5
18C9
330
A
100
AcDbEntity
  8
HEWI
100
AcDbLine
 10
-751.2908301605762
 20
-1795.285299500017
 30
0.0
 11
-751.2908301605762
 21
-1807.785299500018
 31
0.0
  0
LINE
  5
18CA
330
A
100
AcDbEntity
  8
HEWI
100
AcDbLine
 10
-751.2908301605762
 20
-1807.785299500018
 30
0.0
 11
-751.290830160578
 21
-1820.285299500018
 31
0.0
  0
LINE
  5
18CB
330
A
100
AcDbEntity
  8
HEWI
100
AcDbLine
 10
-1365.782544160578
 20
-1818.735299500004
 30
0.0
 11
-1374.768220160578
 21
-1818.735299500004
 31
0.0
  0
LINE
  5
18CC
330
A
100
AcDbEntity
  8
HEWI
100
AcDbLine
 10
-1364.590830160578
 20
-1819.535299500005
 30
0.0
 11
-1375.990830160579
 21
-1819.535299500005
 31
0.0
  0
LINE
  5
18CE
330
A
100
AcDbEntity
  8
HEWI
100
AcDbLine
 10
-924.0408301605762
 20
-1792.918263500013
 30
0.0
 11
-924.0408301605752
 21
-1758.918263500013
 31
0.0
  0
LINE
  5
18CF
330
A
100
AcDbEntity
  8
HEWI
100
AcDbLine
 10
-957.5408301605779
 20
-1793.918263500011
 30
0.0
 11
-925.0408301605762
 21
-1793.918263500012
 31
0.0
  0
LINE
  5
18D0
330
A
100
AcDbEntity
  8
HEWI
100
AcDbLine
 10
-958.5408301605761
 20
-1792.918263500012
 30
0.0
 11
-958.5408301605744
 21
-1758.918263500012
 31
0.0
  0
LINE
  5
18D1
330
A
100
AcDbEntity
  8
HEWI
100
AcDbLine
 10
-924.0408301605752
 20
-1758.918263500013
 30
0.0
 11
-924.0408301605743
 21
-1724.918263500012
 31
0.0
  0
LINE
  5
18D2
330
A
100
AcDbEntity
  8
HEWI
100
AcDbLine
 10
-925.0408301605743
 20
-1723.918263500012
 30
0.0
 11
-957.5408301605753
 21
-1723.918263500011
 31
0.0
  0
LINE
  5
18D3
330
A
100
AcDbEntity
  8
HEWI
100
AcDbLine
 10
-958.5408301605744
 20
-1758.918263500012
 30
0.0
 11
-958.5408301605744
 21
-1724.918263500011
 31
0.0
  0
LINE
  5
18D4
330
A
100
AcDbEntity
  8
HEWI
100
AcDbLine
 10
-1521.090830160577
 20
-1795.3852995
 30
0.0
 11
-1521.090830160578
 21
-1820.1852995
 31
0.0
  0
LINE
  5
18D5
330
A
100
AcDbEntity
  8
HEWI
100
AcDbLine
 10
-1527.890830160575
 20
-1683.0352995
 30
0.0
 11
-1498.790830160574
 21
-1683.035299500001
 31
0.0
  0
LINE
  5
18D6
330
A
100
AcDbEntity
  8
HEWI
100
AcDbLine
 10
-1527.890830160576
 20
-1727.8352995
 30
0.0
 11
-1498.790830160574
 21
-1727.835299500001
 31
0.0
  0
LINE
  5
18D7
330
A
100
AcDbEntity
  8
HEWI
100
AcDbLine
 10
-1541.890830160578
 20
-1859.4352995
 30
0.0
 11
-1534.890830160579
 21
-1859.4352995
 31
0.0
  0
LINE
  5
18D8
330
A
100
AcDbEntity
  8
HEWI
100
AcDbLine
 10
-1538.890830160574
 20
-1649.4352995
 30
0.0
 11
-1534.890830160574
 21
-1649.4352995
 31
0.0
  0
LINE
  5
18D9
330
A
100
AcDbEntity
  8
HEWI
100
AcDbLine
 10
-1538.890830160574
 20
-1650.9352995
 30
0.0
 11
-1538.890830160574
 21
-1649.4352995
 31
0.0
  0
LINE
  5
18DA
330
A
100
AcDbEntity
  8
HEWI
100
AcDbLine
 10
-1541.890830160574
 20
-1650.9352995
 30
0.0
 11
-1538.890830160574
 21
-1650.9352995
 31
0.0
  0
LINE
  5
18DB
330
A
100
AcDbEntity
  8
HEWI
100
AcDbLine
 10
-1551.890830160579
 20
-1859.435299499999
 30
0.0
 11
-1551.890830160574
 21
-1650.935299499999
 31
0.0
  0
LINE
  5
18DC
330
A
100
AcDbEntity
  8
HEWI
100
AcDbLine
 10
-1551.890830160574
 20
-1650.935299499999
 30
0.0
 11
-1541.890830160574
 21
-1650.9352995
 31
0.0
  0
LINE
  5
18DD
330
A
100
AcDbEntity
  8
HEWI
100
AcDbLine
 10
-1551.890830160579
 20
-1859.435299499999
 30
0.0
 11
-1541.890830160578
 21
-1859.4352995
 31
0.0
  0
LINE
  5
18DE
330
A
100
AcDbEntity
  8
HEWI
100
AcDbLine
 10
-1541.890830160574
 20
-1650.9352995
 30
0.0
 11
-1541.890830160578
 21
-1859.4352995
 31
0.0
  0
LINE
  5
18DF
330
A
100
AcDbEntity
  8
HEWI
100
AcDbLine
 10
-908.8408321605761
 20
-1820.285301500013
 30
0.0
 11
-908.8408321605761
 21
-1820.285301500013
 31
0.0
  0
LINE
  5
18E0
330
A
100
AcDbEntity
  8
HEWI
100
AcDbLine
 10
-1377.840832160578
 20
-1820.285301500004
 30
0.0
 11
-1377.840832160578
 21
-1820.285301500004
 31
0.0
  0
LINE
  5
18E1
330
A
100
AcDbEntity
  8
HEWI
100
AcDbLine
 10
-1520.290830160578
 20
-1820.285299500001
 30
0.0
 11
-1520.290830160575
 21
-1795.2852995
 31
0.0
  0
LINE
  5
18E2
330
A
100
AcDbEntity
  8
HEWI
100
AcDbLine
 10
-896.8152921605783
 20
-1818.735299500013
 30
0.0
 11
-905.8147221605773
 21
-1818.735299500013
 31
0.0
  0
LINE
  5
18E3
330
A
100
AcDbEntity
  8
HEWI
100
AcDbLine
 10
-895.5908301605782
 20
-1819.535299500014
 30
0.0
 11
-906.9908301605787
 21
-1819.535299500014
 31
0.0
  0
LINE
  5
18E4
330
A
100
AcDbEntity
  8
HEWI
100
AcDbLine
 10
-689.7908301605725
 20
-1689.685299500019
 30
0.0
 11
-689.7908301605744
 21
-1721.185299500019
 31
0.0
  0
LINE
  5
18E5
330
A
100
AcDbEntity
  8
HEWI
100
AcDbLine
 10
-690.7908301605743
 20
-1705.435299500019
 30
0.0
 11
-690.7908301605726
 21
-1688.685299500018
 31
0.0
  0
LINE
  5
18E6
330
A
100
AcDbEntity
  8
HEWI
100
AcDbLine
 10
-690.7908301605743
 20
-1722.185299500019
 30
0.0
 11
-690.7908301605743
 21
-1705.435299500019
 31
0.0
  0
LINE
  5
18E7
330
A
100
AcDbEntity
  8
HEWI
100
AcDbLine
 10
-881.2908301605743
 20
-1721.573839500013
 30
0.0
 11
-881.290830160578
 21
-1796.338029500013
 31
0.0
  0
LINE
  5
18E8
330
A
100
AcDbEntity
  8
HEWI
100
AcDbLine
 10
-883.2908301605753
 20
-1797.392995500014
 30
0.0
 11
-883.2908301605744
 21
-1720.843495500013
 31
0.0
  0
LINE
  5
18E9
330
A
100
AcDbEntity
  8
HEWI
100
AcDbLine
 10
-883.2908301605744
 20
-1720.643495500014
 30
0.0
 11
-883.2908301605744
 21
-1720.843495500013
 31
0.0
  0
LINE
  5
18EA
330
A
100
AcDbEntity
  8
HEWI
100
AcDbLine
 10
-748.2908301605761
 20
-1795.485299500017
 30
0.0
 11
-748.2908301605761
 21
-1820.085299500018
 31
0.0
  0
LINE
  5
18EB
330
A
100
AcDbEntity
  8
HEWI
100
AcDbLine
 10
-748.4908301605778
 20
-1807.785299500018
 30
0.0
 11
-748.4908301605778
 21
-1795.285299500017
 31
0.0
  0
LINE
  5
18EC
330
A
100
AcDbEntity
  8
HEWI
100
AcDbLine
 10
-748.4908301605787
 20
-1820.285299500018
 30
0.0
 11
-748.4908301605778
 21
-1807.785299500018
 31
0.0
  0
LINE
  5
18ED
330
A
100
AcDbEntity
  8
HEWI
100
AcDbLine
 10
-1531.390830160576
 20
-1731.3352995
 30
0.0
 11
-1531.390830160579
 21
-1855.9352995
 31
0.0
  0
LINE
  5
18EE
330
A
100
AcDbEntity
  8
HEWI
100
AcDbLine
 10
-1531.390830160574
 20
-1652.9352995
 30
0.0
 11
-1531.390830160575
 21
-1679.5352995
 31
0.0
  0
LINE
  5
18EF
330
A
100
AcDbEntity
  8
HEWI
100
AcDbLine
 10
-1865.013430396316
 20
-2398.870916101017
 30
0.0
 11
-1865.213430396314
 21
-2399.070916101017
 31
0.0
  0
LINE
  5
18F0
330
A
100
AcDbEntity
  8
HEWI
100
AcDbLine
 10
-1867.813430396315
 20
-2357.070916101017
 30
0.0
 11
-1865.213430396313
 21
-2357.070916101017
 31
0.0
  0
LINE
  5
18F1
330
A
100
AcDbEntity
  8
HEWI
100
AcDbLine
 10
-1859.213430396315
 20
-2355.570916101017
 30
0.0
 11
-1775.813430396314
 21
-2355.570916101019
 31
0.0
  0
LINE
  5
18F2
330
A
100
AcDbEntity
  8
HEWI
100
AcDbLine
 10
-1865.213430396314
 20
-2399.070916101017
 30
0.0
 11
-1867.813430396315
 21
-2399.070916101017
 31
0.0
  0
LINE
  5
18F3
330
A
100
AcDbEntity
  8
HEWI
100
AcDbLine
 10
-1868.013430396315
 20
-2357.270916101017
 30
0.0
 11
-1867.813430396315
 21
-2357.070916101017
 31
0.0
  0
LINE
  5
18F4
330
A
100
AcDbEntity
  8
HEWI
100
AcDbLine
 10
-1859.513430396316
 20
-2399.070916101017
 30
0.0
 11
-1860.013430396314
 21
-2398.570916101018
 31
0.0
  0
LINE
  5
18F5
330
A
100
AcDbEntity
  8
HEWI
100
AcDbLine
 10
-1834.363430396338
 20
-3184.070916101018
 30
0.0
 11
-1834.363430396315
 21
-2400.589316101018
 31
0.0
  0
LINE
  5
18F6
330
A
100
AcDbEntity
  8
HEWI
100
AcDbLine
 10
-1860.013430396313
 20
-2357.570916101018
 30
0.0
 11
-1859.513430396315
 21
-2357.070916101017
 31
0.0
  0
LINE
  5
18F7
330
A
100
AcDbEntity
  8
HEWI
100
AcDbLine
 10
-1800.663430396314
 20
-2400.470126101019
 30
0.0
 11
-1800.663430396336
 21
-3184.070916101018
 31
0.0
  0
LINE
  5
18F8
330
A
100
AcDbEntity
  8
HEWI
100
AcDbLine
 10
-1867.813430396315
 20
-2399.070916101017
 30
0.0
 11
-1868.013430396316
 21
-2398.870916101017
 31
0.0
  0
LINE
  5
18F9
330
A
100
AcDbEntity
  8
HEWI
100
AcDbLine
 10
-1834.462614396316
 20
-2400.570916101018
 30
0.0
 11
-1859.213430396315
 21
-2400.570916101017
 31
0.0
  0
LINE
  5
18FA
330
A
100
AcDbEntity
  8
HEWI
100
AcDbLine
 10
-1770.013430396316
 20
-2400.47091610102
 30
0.0
 11
-1775.013430396315
 21
-2400.47091610102
 31
0.0
  0
LINE
  5
18FB
330
A
100
AcDbEntity
  8
HEWI
100
AcDbLine
 10
-1775.013430396315
 20
-2398.570916101019
 30
0.0
 11
-1775.513430396316
 21
-2399.070916101019
 31
0.0
  0
LINE
  5
18FC
330
A
100
AcDbEntity
  8
HEWI
100
AcDbLine
 10
-1860.013430396314
 20
-2400.470916101017
 30
0.0
 11
-1865.013430396316
 21
-2400.470916101017
 31
0.0
  0
LINE
  5
18FD
330
A
100
AcDbEntity
  8
HEWI
100
AcDbLine
 10
-1775.513430396315
 20
-2357.070916101019
 30
0.0
 11
-1775.013430396315
 21
-2357.57091610102
 31
0.0
  0
LINE
  5
18FE
330
A
100
AcDbEntity
  8
HEWI
100
AcDbLine
 10
-1775.813430396315
 20
-2400.570916101019
 30
0.0
 11
-1800.513430396316
 21
-2400.570916101019
 31
0.0
  0
LINE
  5
18FF
330
A
100
AcDbEntity
  8
HEWI
100
AcDbLine
 10
-1767.213430396315
 20
-2399.07091610102
 30
0.0
 11
-1769.813430396316
 21
-2399.07091610102
 31
0.0
  0
LINE
  5
1900
330
A
100
AcDbEntity
  8
HEWI
100
AcDbLine
 10
-1769.813430396315
 20
-2357.07091610102
 30
0.0
 11
-1767.213430396315
 21
-2357.07091610102
 31
0.0
  0
LINE
  5
1901
330
A
100
AcDbEntity
  8
HEWI
100
AcDbLine
 10
-1834.263430396333
 20
-3186.070916101018
 30
0.0
 11
-1834.263430396333
 21
-3184.270916101018
 31
0.0
  0
LINE
  5
1902
330
A
100
AcDbEntity
  8
HEWI
100
AcDbLine
 10
-1800.763430396333
 20
-3184.270916101019
 30
0.0
 11
-1800.763430396333
 21
-3186.070916101018
 31
0.0
  0
LINE
  5
1903
330
A
100
AcDbEntity
  8
HEWI
100
AcDbLine
 10
-1800.963430396333
 20
-3184.070916101018
 30
0.0
 11
-1800.763430396333
 21
-3184.270916101019
 31
0.0
  0
LINE
  5
1904
330
A
100
AcDbEntity
  8
HEWI
100
AcDbLine
 10
-1834.263430396333
 20
-3184.270916101018
 30
0.0
 11
-1834.063430396333
 21
-3184.070916101018
 31
0.0
  0
LINE
  5
1905
330
A
100
AcDbEntity
  8
HEWI
100
AcDbLine
 10
-1769.813430396316
 20
-2399.07091610102
 30
0.0
 11
-1770.013430396316
 21
-2398.870916101019
 31
0.0
  0
LINE
  5
1906
330
A
100
AcDbEntity
  8
HEWI
100
AcDbLine
 10
-1770.013430396315
 20
-2357.27091610102
 30
0.0
 11
-1769.813430396315
 21
-2357.07091610102
 31
0.0
  0
LINE
  5
1907
330
A
100
AcDbEntity
  8
HEWI
100
AcDbLine
 10
-1767.213430396315
 20
-2357.07091610102
 30
0.0
 11
-1767.013430396313
 21
-2357.27091610102
 31
0.0
  0
LINE
  5
1908
330
A
100
AcDbEntity
  8
HEWI
100
AcDbLine
 10
-1767.013430396314
 20
-2398.870916101019
 30
0.0
 11
-1767.213430396315
 21
-2399.07091610102
 31
0.0
  0
LINE
  5
1909
330
A
100
AcDbEntity
  8
HEWI
100
AcDbLine
 10
-1831.013430396314
 20
-2347.170916101018
 30
0.0
 11
-1830.313430396314
 21
-2346.470916101018
 31
0.0
  0
LINE
  5
190A
330
A
100
AcDbEntity
  8
HEWI
100
AcDbLine
 10
-1804.713430396313
 20
-2346.470916101019
 30
0.0
 11
-1804.013430396314
 21
-2347.170916101019
 31
0.0
  0
LINE
  5
190B
330
A
100
AcDbEntity
  8
HEWI
100
AcDbLine
 10
-1831.013430396315
 20
-2354.870916101018
 30
0.0
 11
-1831.013430396314
 21
-2347.170916101018
 31
0.0
  0
LINE
  5
190C
330
A
100
AcDbEntity
  8
HEWI
100
AcDbLine
 10
-1804.013430396314
 20
-2347.170916101019
 30
0.0
 11
-1804.013430396315
 21
-2354.870916101019
 31
0.0
  0
LINE
  5
190D
330
A
100
AcDbEntity
  8
HEWI
100
AcDbLine
 10
-1804.013430396315
 20
-2354.870916101019
 30
0.0
 11
-1804.713430396313
 21
-2355.570916101019
 31
0.0
  0
LINE
  5
190E
330
A
100
AcDbEntity
  8
HEWI
100
AcDbLine
 10
-1830.313430396314
 20
-2355.570916101018
 30
0.0
 11
-1831.013430396315
 21
-2354.870916101018
 31
0.0
  0
LINE
  5
190F
330
A
100
AcDbEntity
  8
HEWI
100
AcDbLine
 10
-1805.513430396315
 20
-2345.970916101018
 30
0.0
 11
-1805.513430396315
 21
-2346.470916101019
 31
0.0
  0
LINE
  5
1910
330
A
100
AcDbEntity
  8
HEWI
100
AcDbLine
 10
-1829.513430396311
 20
-2346.470916101018
 30
0.0
 11
-1829.513430396311
 21
-2345.970916101018
 31
0.0
  0
LINE
  5
1911
330
A
100
AcDbEntity
  8
HEWI
100
AcDbLine
 10
-1865.213430396313
 20
-2357.070916101017
 30
0.0
 11
-1865.013430396315
 21
-2357.270916101017
 31
0.0
  0
LINE
  5
1912
330
A
100
AcDbEntity
  8
HEWI
100
AcDbLine
 10
-1834.363430396333
 20
-3184.070916101018
 30
0.0
 11
-1800.663430396332
 21
-3184.070916101018
 31
0.0
  0
LINE
  5
1913
330
A
100
AcDbEntity
  8
HEWI
100
AcDbLine
 10
-1834.263430396333
 20
-3184.270916101018
 30
0.0
 11
-1800.763430396333
 21
-3184.270916101019
 31
0.0
  0
LINE
  5
1914
330
A
100
AcDbEntity
  8
HEWI
100
AcDbLine
 10
-1831.013430396315
 20
-2354.870916101018
 30
0.0
 11
-1804.013430396315
 21
-2354.870916101019
 31
0.0
  0
LINE
  5
1915
330
A
100
AcDbEntity
  8
HEWI
100
AcDbLine
 10
-1804.013430396314
 20
-2347.170916101019
 30
0.0
 11
-1831.013430396314
 21
-2347.170916101018
 31
0.0
  0
LINE
  5
1916
330
A
100
AcDbEntity
  8
HEWI
100
AcDbLine
 10
-1804.713430396313
 20
-2346.470916101019
 30
0.0
 11
-1830.313430396314
 21
-2346.470916101018
 31
0.0
  0
LINE
  5
1917
330
A
100
AcDbEntity
  8
HEWI
100
AcDbLine
 10
-1805.513430396315
 20
-2345.970916101018
 30
0.0
 11
-1829.513430396311
 21
-2345.970916101018
 31
0.0
  0
LINE
  5
1918
330
A
100
AcDbEntity
  8
HEWI
100
AcDbLine
 10
-1775.213430396314
 20
-2341.970916101019
 30
0.0
 11
-1775.213430396314
 21
-2337.770916101019
 31
0.0
  0
LINE
  5
1919
330
A
100
AcDbEntity
  8
HEWI
100
AcDbLine
 10
-1859.813430396314
 20
-2337.770916101017
 30
0.0
 11
-1859.813430396314
 21
-2341.970916101017
 31
0.0
  0
LINE
  5
191A
330
A
100
AcDbEntity
  8
HEWI
100
AcDbLine
 10
-1770.013430396314
 20
-2335.17091610102
 30
0.0
 11
-1770.013430396314
 21
-2337.77091610102
 31
0.0
  0
LINE
  5
191B
330
A
100
AcDbEntity
  8
HEWI
100
AcDbLine
 10
-1865.013430396314
 20
-2337.770916101017
 30
0.0
 11
-1865.013430396314
 21
-2335.170916101017
 31
0.0
  0
LINE
  5
191C
330
A
100
AcDbEntity
  8
HEWI
100
AcDbLine
 10
-1780.013430396314
 20
-2325.170916101019
 30
0.0
 11
-1855.013430396314
 21
-2325.170916101017
 31
0.0
  0
LINE
  5
191D
330
A
100
AcDbEntity
  8
HEWI
100
AcDbLine
 10
-1770.013430396314
 20
-2348.97091610102
 30
0.0
 11
-1770.013430396315
 21
-2378.070916101019
 31
0.0
  0
LINE
  5
191E
330
A
100
AcDbEntity
  8
HEWI
100
AcDbLine
 10
-1775.013430396315
 20
-2348.97091610102
 30
0.0
 11
-1775.013430396315
 21
-2378.070916101019
 31
0.0
  0
LINE
  5
191F
330
A
100
AcDbEntity
  8
HEWI
100
AcDbLine
 10
-1865.013430396315
 20
-2378.070916101017
 30
0.0
 11
-1865.013430396314
 21
-2348.970916101017
 31
0.0
  0
LINE
  5
1920
330
A
100
AcDbEntity
  8
HEWI
100
AcDbLine
 10
-1860.013430396314
 20
-2378.070916101017
 30
0.0
 11
-1860.013430396312
 21
-2348.970916101017
 31
0.0
  0
LINE
  5
1921
330
A
100
AcDbEntity
  8
HEWI
100
AcDbLine
 10
-1775.013430396315
 20
-2348.97091610102
 30
0.0
 11
-1770.013430396314
 21
-2348.97091610102
 31
0.0
  0
LINE
  5
1922
330
A
100
AcDbEntity
  8
HEWI
100
AcDbLine
 10
-1865.013430396314
 20
-2348.970916101017
 30
0.0
 11
-1860.013430396312
 21
-2348.970916101017
 31
0.0
  0
LINE
  5
1923
330
A
100
AcDbEntity
  8
HEWI
100
AcDbLine
 10
-1865.013430396314
 20
-2337.970916101017
 30
0.0
 11
-1865.013430396314
 21
-2341.970916101017
 31
0.0
  0
LINE
  5
1924
330
A
100
AcDbEntity
  8
HEWI
100
AcDbLine
 10
-1860.013430396312
 20
-2337.970916101017
 30
0.0
 11
-1860.013430396312
 21
-2341.970916101017
 31
0.0
  0
LINE
  5
1925
330
A
100
AcDbEntity
  8
HEWI
100
AcDbLine
 10
-1770.013430396314
 20
-2337.97091610102
 30
0.0
 11
-1770.013430396314
 21
-2341.97091610102
 31
0.0
  0
LINE
  5
1926
330
A
100
AcDbEntity
  8
HEWI
100
AcDbLine
 10
-1775.013430396315
 20
-2337.970916101019
 30
0.0
 11
-1775.013430396315
 21
-2341.97091610102
 31
0.0
  0
LINE
  5
1927
330
A
100
AcDbEntity
  8
HEWI
100
AcDbLine
 10
-1775.013430396315
 20
-2337.970916101019
 30
0.0
 11
-1770.013430396314
 21
-2337.97091610102
 31
0.0
  0
LINE
  5
1928
330
A
100
AcDbEntity
  8
HEWI
100
AcDbLine
 10
-1865.013430396314
 20
-2337.970916101017
 30
0.0
 11
-1860.013430396312
 21
-2337.970916101017
 31
0.0
  0
LINE
  5
1929
330
A
100
AcDbEntity
  8
HEWI
100
AcDbLine
 10
-1865.013430396314
 20
-2337.970916101017
 30
0.0
 11
-1865.013430396314
 21
-2337.770900101017
 31
0.0
  0
LINE
  5
192A
330
A
100
AcDbEntity
  8
HEWI
100
AcDbLine
 10
-1770.013430396314
 20
-2337.770900101019
 30
0.0
 11
-1770.013430396314
 21
-2337.97091610102
 31
0.0
  0
LINE
  5
192B
330
A
100
AcDbEntity
  8
HEWI
100
AcDbLine
 10
-1860.013430396312
 20
-2337.970916101017
 30
0.0
 11
-1860.013430396312
 21
-2337.770900101017
 31
0.0
  0
LINE
  5
192C
330
A
100
AcDbEntity
  8
HEWI
100
AcDbLine
 10
-1775.013430396315
 20
-2337.770900101019
 30
0.0
 11
-1775.013430396315
 21
-2337.970916101019
 31
0.0
  0
LINE
  5
192D
330
A
100
AcDbEntity
  8
HEWI
100
AcDbLine
 10
-1855.013430396314
 20
-2324.970916101017
 30
0.0
 11
-1780.013430396314
 21
-2324.970916101019
 31
0.0
  0
LINE
  5
192E
330
A
100
AcDbEntity
  8
HEWI
100
AcDbLine
 10
-1801.763430396333
 20
-3187.070916101018
 30
0.0
 11
-1833.263430396333
 21
-3187.070916101018
 31
0.0
  0
LINE
  5
192F
330
A
100
AcDbEntity
  8
HEWI
100
AcDbLine
 10
-1834.263430396333
 20
-3186.070916101018
 30
0.0
 11
-1800.763430396333
 21
-3186.070916101018
 31
0.0
  0
LINE
  5
1930
330
A
100
AcDbEntity
  8
HEWI
100
AcDbLine
 10
-1769.813430396315
 20
-2357.07091610102
 30
0.0
 11
-1769.813430396316
 21
-2399.07091610102
 31
0.0
  0
LINE
  5
1931
330
A
100
AcDbEntity
  8
HEWI
100
AcDbLine
 10
-1767.213430396315
 20
-2399.07091610102
 30
0.0
 11
-1767.213430396315
 21
-2357.07091610102
 31
0.0
  0
LINE
  5
1932
330
A
100
AcDbEntity
  8
HEWI
100
AcDbLine
 10
-1767.013430396314
 20
-2398.870916101019
 30
0.0
 11
-1767.013430396313
 21
-2357.27091610102
 31
0.0
  0
LINE
  5
1933
330
A
100
AcDbEntity
  8
HEWI
100
AcDbLine
 10
-1859.813430396314
 20
-2345.470916101017
 30
0.0
 11
-1775.213430396314
 21
-2345.470916101019
 31
0.0
  0
LINE
  5
1934
330
A
100
AcDbEntity
  8
HEWI
100
AcDbLine
 10
-1775.213430396314
 20
-2345.470916101019
 30
0.0
 11
-1775.213430396314
 21
-2341.970916101019
 31
0.0
  0
LINE
  5
1935
330
A
100
AcDbEntity
  8
HEWI
100
AcDbLine
 10
-1775.213430396314
 20
-2341.970916101019
 30
0.0
 11
-1859.813430396314
 21
-2341.970916101017
 31
0.0
  0
LINE
  5
1936
330
A
100
AcDbEntity
  8
HEWI
100
AcDbLine
 10
-1859.813430396314
 20
-2341.970916101017
 30
0.0
 11
-1859.813430396314
 21
-2345.470916101017
 31
0.0
  0
LINE
  5
1937
330
A
100
AcDbEntity
  8
HEWI
100
AcDbLine
 10
-1775.213430396314
 20
-2337.770916101019
 30
0.0
 11
-1770.013430396314
 21
-2337.77091610102
 31
0.0
  0
LINE
  5
1938
330
A
100
AcDbEntity
  8
HEWI
100
AcDbLine
 10
-1859.813430396314
 20
-2337.770916101017
 30
0.0
 11
-1865.013430396314
 21
-2337.770916101017
 31
0.0
  0
LINE
  5
1939
330
A
100
AcDbEntity
  8
HEWI
100
AcDbLine
 10
-1867.813430396315
 20
-2357.070916101017
 30
0.0
 11
-1867.813430396315
 21
-2399.070916101017
 31
0.0
  0
LINE
  5
193A
330
A
100
AcDbEntity
  8
HEWI
100
AcDbLine
 10
-1868.013430396315
 20
-2357.270916101017
 30
0.0
 11
-1868.013430396316
 21
-2398.870916101017
 31
0.0
  0
LINE
  5
193B
330
A
100
AcDbEntity
  8
HEWI
100
AcDbLine
 10
-1865.213430396314
 20
-2399.070916101017
 30
0.0
 11
-1865.213430396313
 21
-2357.070916101017
 31
0.0
  0
LINE
  5
193C
330
A
100
AcDbEntity
  8
HEWI
100
AcDbLine
 10
-1775.813430396314
 20
-2355.570916101019
 30
0.0
 11
-1775.813430396315
 21
-2400.570916101019
 31
0.0
  0
LINE
  5
193D
330
A
100
AcDbEntity
  8
HEWI
100
AcDbLine
 10
-1859.213430396315
 20
-2355.570916101017
 30
0.0
 11
-1859.213430396315
 21
-2400.570916101017
 31
0.0
  0
LINE
  5
193E
330
A
100
AcDbEntity
  8
HEWI
100
AcDbLine
 10
-1859.513430396316
 20
-2400.270916101017
 30
0.0
 11
-1859.513430396315
 21
-2355.870916101017
 31
0.0
  0
LINE
  5
193F
330
A
100
AcDbEntity
  8
HEWI
100
AcDbLine
 10
-1775.513430396316
 20
-2400.270916101019
 30
0.0
 11
-1775.513430396315
 21
-2355.870916101019
 31
0.0
  0
LINE
  5
1940
330
A
100
AcDbEntity
  8
HEWI
100
AcDbLine
 10
-1860.013430396314
 20
-2378.070916101017
 30
0.0
 11
-1865.013430396315
 21
-2378.070916101017
 31
0.0
  0
LINE
  5
1941
330
A
100
AcDbEntity
  8
HEWI
100
AcDbLine
 10
-1865.013430396316
 20
-2400.470916101017
 30
0.0
 11
-1865.013430396315
 21
-2378.070916101017
 31
0.0
  0
LINE
  5
1942
330
A
100
AcDbEntity
  8
HEWI
100
AcDbLine
 10
-1860.013430396314
 20
-2400.470916101017
 30
0.0
 11
-1860.013430396314
 21
-2378.070916101017
 31
0.0
  0
LINE
  5
1943
330
A
100
AcDbEntity
  8
HEWI
100
AcDbLine
 10
-1770.013430396315
 20
-2378.070916101019
 30
0.0
 11
-1775.013430396315
 21
-2378.070916101019
 31
0.0
  0
LINE
  5
1944
330
A
100
AcDbEntity
  8
HEWI
100
AcDbLine
 10
-1770.013430396315
 20
-2378.070916101019
 30
0.0
 11
-1770.013430396316
 21
-2400.47091610102
 31
0.0
  0
LINE
  5
1945
330
A
100
AcDbEntity
  8
HEWI
100
AcDbLine
 10
-1775.013430396315
 20
-2378.070916101019
 30
0.0
 11
-1775.013430396315
 21
-2400.47091610102
 31
0.0
  0
LINE
  5
1946
330
A
100
AcDbEntity
  8
HEWI
100
AcDbLine
 10
-1770.013430396314
 20
-2345.47091610102
 30
0.0
 11
-1770.013430396314
 21
-2348.97091610102
 31
0.0
  0
LINE
  5
1947
330
A
100
AcDbEntity
  8
HEWI
100
AcDbLine
 10
-1775.013430396315
 20
-2345.47091610102
 30
0.0
 11
-1775.013430396315
 21
-2348.97091610102
 31
0.0
  0
LINE
  5
1948
330
A
100
AcDbEntity
  8
HEWI
100
AcDbLine
 10
-1865.013430396314
 20
-2345.470916101017
 30
0.0
 11
-1865.013430396314
 21
-2348.970916101017
 31
0.0
  0
LINE
  5
1949
330
A
100
AcDbEntity
  8
HEWI
100
AcDbLine
 10
-1860.013430396312
 20
-2348.970916101017
 30
0.0
 11
-1860.013430396312
 21
-2345.470916101017
 31
0.0
  0
LINE
  5
194A
330
A
100
AcDbEntity
  8
HEWI
100
AcDbLine
 10
-1865.013430396314
 20
-2345.470916101017
 30
0.0
 11
-1860.013430396312
 21
-2345.470916101017
 31
0.0
  0
LINE
  5
194B
330
A
100
AcDbEntity
  8
HEWI
100
AcDbLine
 10
-1775.013430396315
 20
-2345.47091610102
 30
0.0
 11
-1770.013430396314
 21
-2345.47091610102
 31
0.0
  0
LINE
  5
194C
330
A
100
AcDbEntity
  8
HEWI
100
AcDbLine
 10
-1860.013430396312
 20
-2341.970916101017
 30
0.0
 11
-1865.013430396314
 21
-2341.970916101017
 31
0.0
  0
LINE
  5
194D
330
A
100
AcDbEntity
  8
HEWI
100
AcDbLine
 10
-1865.013430396314
 20
-2345.470916101017
 30
0.0
 11
-1865.013430396314
 21
-2341.970916101017
 31
0.0
  0
LINE
  5
194E
330
A
100
AcDbEntity
  8
HEWI
100
AcDbLine
 10
-1860.013430396312
 20
-2345.470916101017
 30
0.0
 11
-1860.013430396312
 21
-2341.970916101017
 31
0.0
  0
LINE
  5
194F
330
A
100
AcDbEntity
  8
HEWI
100
AcDbLine
 10
-1770.013430396314
 20
-2341.97091610102
 30
0.0
 11
-1775.013430396315
 21
-2341.97091610102
 31
0.0
  0
LINE
  5
1950
330
A
100
AcDbEntity
  8
HEWI
100
AcDbLine
 10
-1770.013430396314
 20
-2345.47091610102
 30
0.0
 11
-1770.013430396314
 21
-2341.97091610102
 31
0.0
  0
LINE
  5
1951
330
A
100
AcDbEntity
  8
HEWI
100
AcDbLine
 10
-1775.013430396315
 20
-2341.97091610102
 30
0.0
 11
-1775.013430396315
 21
-2345.47091610102
 31
0.0
  0
ARC
  5
1952
330
A
100
AcDbEntity
  8
HEWI
100
AcDbCircle
 10
-1859.213430396315
 20
-1683.235299499997
 30
0.0
 40
0.3
100
AcDbArc
 50
90.0
 51
180.0
  0
ARC
  5
1953
330
A
100
AcDbEntity
  8
HEWI
100
AcDbCircle
 10
-1859.213430396316
 20
-1727.635299499997
 30
0.0
 40
0.3
100
AcDbArc
 50
180.0
 51
270.0
  0
ARC
  5
1954
330
A
100
AcDbEntity
  8
HEWI
100
AcDbCircle
 10
-1775.813430396316
 20
-1727.6352995
 30
0.0
 40
0.3
100
AcDbArc
 50
270.0
 51
0.0
  0
ARC
  5
1955
330
A
100
AcDbEntity
  8
HEWI
100
AcDbCircle
 10
-1775.813430396315
 20
-1683.2352995
 30
0.0
 40
0.3
100
AcDbArc
 50
0.0
 51
90.0
  0
CIRCLE
  5
1956
330
A
100
AcDbEntity
  8
HEWI
100
AcDbCircle
 10
1817.513430396316
 20
-1705.435299499998
 30
0.0
 40
16.85
210
0.0
220
0.0
230
-1.0
  0
CIRCLE
  5
1957
330
A
100
AcDbEntity
  8
HEWI
100
AcDbCircle
 10
-1817.513430396316
 20
-1705.435299499998
 30
0.0
 40
15.75
  0
CIRCLE
  5
1958
330
A
100
AcDbEntity
  8
HEWI
100
AcDbCircle
 10
1817.513430396316
 20
-1705.435299499998
 30
0.0
 40
16.75
210
0.0
220
0.0
230
-1.0
  0
ARC
  5
1959
330
A
100
AcDbEntity
  8
HEWI
100
AcDbCircle
 10
1817.513430396316
 20
-1705.435299499998
 30
0.0
 40
17.04999999999999
210
0.0
220
0.0
230
-1.0
100
AcDbArc
 50
251.1809369999966
 51
288.8190630000034
  0
ARC
  5
195A
330
A
100
AcDbEntity
  8
HEWI
100
AcDbCircle
 10
1824.813430396316
 20
-1720.843495499999
 30
0.0
 40
0.2
210
0.0
220
0.0
230
-1.0
100
AcDbArc
 50
0.0
 51
115.3503699999954
  0
ARC
  5
195B
330
A
100
AcDbEntity
  8
HEWI
100
AcDbCircle
 10
1810.213430396315
 20
-1720.8434955
 30
0.0
 40
0.2
210
0.0
220
0.0
230
-1.0
100
AcDbArc
 50
64.64963000000477
 51
180.0
  0
ARC
  5
195C
330
A
100
AcDbEntity
  8
HEWI
100
AcDbCircle
 10
-690.7908301605726
 20
-1689.685299500018
 30
0.0
 40
1.0
100
AcDbArc
 50
0.000000000000007
 51
90.0
  0
ARC
  5
195D
330
A
100
AcDbEntity
  8
HEWI
100
AcDbCircle
 10
-690.7908301605743
 20
-1721.185299500018
 30
0.0
 40
1.0
100
AcDbArc
 50
270.0
 51
0.000000000000007
  0
ARC
  5
195E
330
A
100
AcDbEntity
  8
HEWI
100
AcDbCircle
 10
-1530.890830160578
 20
-1819.2352995
 30
0.0
 40
0.5
100
AcDbArc
 50
180.0
 51
270.0
  0
ARC
  5
195F
330
A
100
AcDbEntity
  8
HEWI
100
AcDbCircle
 10
-1530.890830160577
 20
-1796.2352995
 30
0.0
 40
0.5
100
AcDbArc
 50
90.0
 51
180.0
  0
ARC
  5
1960
330
A
100
AcDbEntity
  8
HEWI
100
AcDbCircle
 10
-1375.990830160579
 20
-1818.735299500004
 30
0.0
 40
0.8
100
AcDbArc
 50
245.01660500002
 51
270.0
  0
ARC
  5
1961
330
A
100
AcDbEntity
  8
HEWI
100
AcDbCircle
 10
-1364.590830160578
 20
-1818.735299500004
 30
0.0
 40
0.8
100
AcDbArc
 50
270.0
 51
295.6430130000017
  0
ARC
  5
1962
330
A
100
AcDbEntity
  8
HEWI
100
AcDbCircle
 10
-906.9908301605787
 20
-1818.735299500013
 30
0.0
 40
0.8
100
AcDbArc
 50
245.0166050000199
 51
270.0
  0
ARC
  5
1963
330
A
100
AcDbEntity
  8
HEWI
100
AcDbCircle
 10
-895.5908301605782
 20
-1818.735299500013
 30
0.0
 40
0.8
100
AcDbArc
 50
270.0
 51
295.6430130000017
  0
ARC
  5
1964
330
A
100
AcDbEntity
  8
HEWI
100
AcDbCircle
 10
924.7908301605743
 20
-1724.668263500012
 30
0.0
 40
1.0
210
0.0
220
0.0
230
-1.0
100
AcDbArc
 50
90.0
 51
180.0
  0
ARC
  5
1965
330
A
100
AcDbEntity
  8
HEWI
100
AcDbCircle
 10
924.7908301605761
 20
-1793.168263500012
 30
0.0
 40
1.0
210
0.0
220
0.0
230
-1.0
100
AcDbArc
 50
180.0
 51
270.0
  0
ARC
  5
1966
330
A
100
AcDbEntity
  8
HEWI
100
AcDbCircle
 10
957.7908301605743
 20
-1724.668263500011
 30
0.0
 40
1.0
210
0.0
220
0.0
230
-1.0
100
AcDbArc
 50
0.000000000000007
 51
90.0
  0
ARC
  5
1967
330
A
100
AcDbEntity
  8
HEWI
100
AcDbCircle
 10
957.7908301605761
 20
-1793.168263500011
 30
0.0
 40
1.0
210
0.0
220
0.0
230
-1.0
100
AcDbArc
 50
270.0
 51
0.000000000000007
  0
CIRCLE
  5
1968
330
A
100
AcDbEntity
  8
HEWI
100
AcDbCircle
 10
-1498.790830160574
 20
-1711.435299500001
 30
0.0
 40
1.149999999999999
  0
CIRCLE
  5
1969
330
A
100
AcDbEntity
  8
HEWI
100
AcDbCircle
 10
1498.790830160574
 20
-1711.435299500001
 30
0.0
 40
1.45
210
0.0
220
0.0
230
-1.0
  0
CIRCLE
  5
196A
330
A
100
AcDbEntity
  8
HEWI
100
AcDbCircle
 10
-1498.790830160574
 20
-1699.435299500001
 30
0.0
 40
1.149999999999999
  0
CIRCLE
  5
196B
330
A
100
AcDbEntity
  8
HEWI
100
AcDbCircle
 10
1498.790830160574
 20
-1699.435299500001
 30
0.0
 40
1.45
210
0.0
220
0.0
230
-1.0
  0
ARC
  5
196C
330
A
100
AcDbEntity
  8
HEWI
100
AcDbCircle
 10
1498.790830160574
 20
-1705.435299500001
 30
0.0
 40
4.891099999999998
210
0.0
220
0.0
230
-1.0
100
AcDbArc
 50
86.78250399997999
 51
93.22313999999272
  0
ARC
  5
196D
330
A
100
AcDbEntity
  8
HEWI
100
AcDbCircle
 10
1498.790830160574
 20
-1705.435299500001
 30
0.0
 40
4.891099999999998
210
0.0
220
0.0
230
-1.0
100
AcDbArc
 50
266.776879000002
 51
273.2175150000141
  0
ARC
  5
196E
330
A
100
AcDbEntity
  8
HEWI
100
AcDbCircle
 10
-925.0408301605762
 20
-1792.918263500013
 30
0.0
 40
1.0
100
AcDbArc
 50
270.0
 51
0.000000000000007
  0
ARC
  5
196F
330
A
100
AcDbEntity
  8
HEWI
100
AcDbCircle
 10
-957.5408301605779
 20
-1792.918263500012
 30
0.0
 40
1.0
100
AcDbArc
 50
180.0
 51
270.0
  0
ARC
  5
1970
330
A
100
AcDbEntity
  8
HEWI
100
AcDbCircle
 10
-925.0408301605743
 20
-1724.918263500012
 30
0.0
 40
1.0
100
AcDbArc
 50
0.000000000000007
 51
90.0
  0
ARC
  5
1971
330
A
100
AcDbEntity
  8
HEWI
100
AcDbCircle
 10
-957.5408301605753
 20
-1724.918263500011
 30
0.0
 40
1.0
100
AcDbArc
 50
90.0
 51
180.0
  0
ARC
  5
1972
330
A
100
AcDbEntity
  8
HEWI
100
AcDbCircle
 10
-1498.790830160574
 20
-1705.435299500001
 30
0.0
 40
5.5
100
AcDbArc
 50
78.55875999997127
 51
101.4468820000143
  0
ARC
  5
1973
330
A
100
AcDbEntity
  8
HEWI
100
AcDbCircle
 10
-1498.790830160574
 20
-1705.435299500001
 30
0.0
 40
5.5
100
AcDbArc
 50
258.5531300000024
 51
281.4412520000195
  0
ARC
  5
1974
330
A
100
AcDbEntity
  8
HEWI
100
AcDbCircle
 10
-1498.790830160574
 20
-1705.435299500001
 30
0.0
 40
5.099999999999996
100
AcDbArc
 50
82.58062099998557
 51
97.42499199996062
  0
ARC
  5
1975
330
A
100
AcDbEntity
  8
HEWI
100
AcDbCircle
 10
-1498.790830160574
 20
-1705.435299500001
 30
0.0
 40
5.099999999999996
100
AcDbArc
 50
262.5749980000324
 51
277.4193680000003
  0
CIRCLE
  5
1976
330
A
100
AcDbEntity
  8
HEWI
100
AcDbCircle
 10
1498.790830160574
 20
-1705.435299500001
 30
0.0
 40
21.0
210
0.0
220
0.0
230
-1.0
  0
CIRCLE
  5
1977
330
A
100
AcDbEntity
  8
HEWI
100
AcDbCircle
 10
-1498.790830160574
 20
-1705.435299500001
 30
0.0
 40
20.8
  0
ARC
  5
1978
330
A
100
AcDbEntity
  8
HEWI
100
AcDbCircle
 10
1498.790830160574
 20
-1705.435299500001
 30
0.0
 40
22.5
210
0.0
220
0.0
230
-1.0
100
AcDbArc
 50
84.59999900000132
 51
270.0
  0
ARC
  5
1979
330
A
100
AcDbEntity
  8
HEWI
100
AcDbCircle
 10
1498.790830160574
 20
-1705.435299500001
 30
0.0
 40
22.5
210
0.0
220
0.0
230
-1.0
100
AcDbArc
 50
270.0
 51
275.4000020000022
  0
ARC
  5
197A
330
A
100
AcDbEntity
  8
HEWI
100
AcDbCircle
 10
-1498.790830160574
 20
-1705.435299500001
 30
0.0
 40
22.4
100
AcDbArc
 50
270.0
 51
90.0
  0
ARC
  5
197B
330
A
100
AcDbEntity
  8
HEWI
100
AcDbCircle
 10
1527.890830160576
 20
-1731.3352995
 30
-0.0000000000002798
 40
3.5
210
0.0000000000000001
220
0.0
230
-1.0
100
AcDbArc
 50
0.000000000000007
 51
90.0
  0
ARC
  5
197C
330
A
100
AcDbEntity
  8
HEWI
100
AcDbCircle
 10
1527.890830160575
 20
-1679.5352995
 30
-0.0000000000002798
 40
3.5
210
0.0000000000000001
220
0.0
230
-1.0
100
AcDbArc
 50
270.0
 51
0.000000000000007
  0
ARC
  5
197D
330
A
100
AcDbEntity
  8
HEWI
100
AcDbCircle
 10
-1534.890830160579
 20
-1855.9352995
 30
0.0
 40
3.5
100
AcDbArc
 50
270.0
 51
0.000000000000007
  0
ARC
  5
197E
330
A
100
AcDbEntity
  8
HEWI
100
AcDbCircle
 10
-1534.890830160574
 20
-1652.9352995
 30
0.0
 40
3.5
100
AcDbArc
 50
0.000000000000007
 51
90.0
  0
ARC
  5
197F
330
A
100
AcDbEntity
  8
HEWI
100
AcDbCircle
 10
-1833.263430396333
 20
-3186.070916101018
 30
0.0
 40
1.0
100
AcDbArc
 50
180.0
 51
270.0
  0
ARC
  5
1980
330
A
100
AcDbEntity
  8
HEWI
100
AcDbCircle
 10
-1801.763430396333
 20
-3186.070916101018
 30
0.0
 40
1.0
100
AcDbArc
 50
270.0
 51
0.0
  0
ARC
  5
1981
330
A
100
AcDbEntity
  8
HEWI
100
AcDbCircle
 10
-1806.013430396314
 20
-2345.970916101018
 30
0.0
 40
0.5
100
AcDbArc
 50
0.0
 51
90.0
  0
ARC
  5
1982
330
A
100
AcDbEntity
  8
HEWI
100
AcDbCircle
 10
-1829.013430396314
 20
-2345.970916101018
 30
0.0
 40
0.5
100
AcDbArc
 50
90.0
 51
180.0
  0
ARC
  5
1983
330
A
100
AcDbEntity
  8
HEWI
100
AcDbCircle
 10
-1859.213430396315
 20
-2355.870916101017
 30
0.0
 40
0.3
100
AcDbArc
 50
90.0
 51
180.0
  0
ARC
  5
1984
330
A
100
AcDbEntity
  8
HEWI
100
AcDbCircle
 10
-1859.213430396315
 20
-2400.270916101017
 30
0.0
 40
0.3
100
AcDbArc
 50
180.0
 51
270.0
  0
ARC
  5
1985
330
A
100
AcDbEntity
  8
HEWI
100
AcDbCircle
 10
-1775.813430396315
 20
-2400.270916101019
 30
0.0
 40
0.3
100
AcDbArc
 50
270.0
 51
0.0
  0
ARC
  5
1986
330
A
100
AcDbEntity
  8
HEWI
100
AcDbCircle
 10
-1775.813430396314
 20
-2355.870916101019
 30
0.0
 40
0.3
100
AcDbArc
 50
0.0
 51
90.0
  0
ARC
  5
1987
330
A
100
AcDbEntity
  8
HEWI
100
AcDbCircle
 10
-1780.013430396314
 20
-2335.170916101019
 30
0.0
 40
10.0
100
AcDbArc
 50
0.0
 51
90.0
  0
ARC
  5
1988
330
A
100
AcDbEntity
  8
HEWI
100
AcDbCircle
 10
-1855.013430396314
 20
-2335.170916101017
 30
0.0
 40
10.0
100
AcDbArc
 50
90.0
 51
180.0
  0
ARC
  5
1989
330
A
100
AcDbEntity
  8
HEWI
100
AcDbCircle
 10
-1780.013430396314
 20
-2334.970916101019
 30
0.0
 40
10.0
100
AcDbArc
 50
0.0
 51
90.0
  0
ARC
  5
198A
330
A
100
AcDbEntity
  8
HEWI
100
AcDbCircle
 10
-1855.013430396314
 20
-2334.970916101017
 30
0.0
 40
10.0
100
AcDbArc
 50
90.0
 51
180.0
  0
ELLIPSE
  5
198B
330
A
100
AcDbEntity
  8
HEWI
100
AcDbEllipse
 10
-1350.490830160578
 20
-1796.338029500005
 30
0.0
 11
-0.2
 21
0.0000000000000054
 31
0.0
210
0.0
220
0.0
230
1.0
 40
0.90136
 41
2.514698896745267
 42
3.141592653589792
  0
ELLIPSE
  5
198C
330
A
100
AcDbEntity
  8
HEWI
100
AcDbEllipse
 10
-1390.090830160578
 20
-1796.338029500004
 30
0.0
 11
-0.2
 21
0.0000000000000054
 31
0.0
210
0.0
220
0.0
230
1.0
 40
0.90136
 41
0.0
 42
0.6599300405254424
  0
ELLIPSE
  5
198D
330
A
100
AcDbEntity
  8
HEWI
100
AcDbEllipse
 10
-881.4908301605779
 20
-1796.338029500013
 30
0.0
 11
-0.2
 21
0.0000000000000054
 31
0.0
210
0.0
220
0.0
230
1.0
 40
0.90136
 41
2.514698896745267
 42
3.141592653589792
  0
ELLIPSE
  5
198E
330
A
100
AcDbEntity
  8
HEWI
100
AcDbEllipse
 10
-921.0908301605764
 20
-1796.338029500012
 30
0.0
 11
-0.2
 21
0.0000000000000054
 31
0.0
210
0.0
220
0.0
230
1.0
 40
0.90136
 41
0.0
 42
0.6599300405254424
  0
SPLINE
  5
198F
330
A
100
AcDbEntity
  8
HEWI
100
AcDbSpline
210
0.0
220
0.0
230
1.0
 70
     8
 71
     3
 72
    16
 73
    12
 74
     0
 42
0.000000001
 43
0.0000000001
 40
0.0
 40
0.0
 40
0.0
 40
0.0
 40
0.1945552639644181
 40
0.1945552639644181
 40
0.3878946385599309
 40
0.3878946385599309
 40
0.5892372746630532
 40
0.5892372746630532
 40
0.8080348914056749
 40
0.8080348914056749
 40
1.0
 40
1.0
 40
1.0
 40
1.0
 10
-1825.013438603339
 20
-1720.843491486322
 30
0.0
 10
-1825.013420222705
 20
-1720.843499375065
 30
0.0
 10
-1824.979606805692
 20
-1720.858011677755
 30
0.0
 10
-1824.851839078077
 20
-1720.911689716417
 30
0.0
 10
-1824.756783500479
 20
-1720.951259207994
 30
0.0
 10
-1824.515941172863
 20
-1721.048233355578
 30
0.0
 10
-1824.365304249349
 20
-1721.107413026978
 30
0.0
 10
-1824.017030321367
 20
-1721.238218700276
 30
0.0
 10
-1823.811782975353
 20
-1721.312164299158
 30
0.0
 10
-1823.409886779915
 20
-1721.448825518899
 30
0.0
 10
-1823.211183044458
 20
-1721.513185554328
 30
0.0
 10
-1823.013429413021
 20
-1721.573840385898
 30
0.0
  0
SPLINE
  5
1990
330
A
100
AcDbEntity
  8
HEWI
100
AcDbSpline
210
0.0
220
0.0
230
1.0
 70
     8
 71
     3
 72
    16
 73
    12
 74
     0
 42
0.000000001
 43
0.0000000001
 40
0.0
 40
0.0
 40
0.0
 40
0.0
 40
0.2320133565498035
 40
0.2320133565498035
 40
0.464168575931434
 40
0.464168575931434
 40
0.6954789313312828
 40
0.6954789313312828
 40
0.9117015930972556
 40
0.9117015930972556
 40
1.0
 40
1.0
 40
1.0
 40
1.0
 10
-1812.013429413021
 20
-1721.573840385898
 30
0.0
 10
-1811.775355737766
 20
-1721.500818623571
 30
0.0
 10
-1811.535394098875
 20
-1721.422189203931
 30
0.0
 10
-1811.09156795681
 20
-1721.268288577524
 30
0.0
 10
-1810.881224695214
 20
-1721.190823701433
 30
0.0
 10
-1810.520979795869
 20
-1721.052724091473
 30
0.0
 10
-1810.365388604945
 20
-1720.990036426674
 30
0.0
 10
-1810.142968390545
 20
-1720.898558040096
 30
0.0
 10
-1810.067955586613
 20
-1720.866685642421
 30
0.0
 10
-1810.020601271059
 20
-1720.846558013561
 30
0.0
 10
-1810.013512295246
 20
-1720.843530824588
 30
0.0
 10
-1810.013438642063
 20
-1720.843499372003
 30
0.0
  0
SPLINE
  5
1991
330
A
100
AcDbEntity
  8
HEWI
100
AcDbSpline
210
0.0
220
0.0
230
1.0
 70
     8
 71
     3
 72
    12
 73
     8
 74
     0
 42
0.000000001
 43
0.0000000001
 40
0.0
 40
0.0
 40
0.0
 40
0.0
 40
0.3456277780081103
 40
0.3456277780081103
 40
0.6912555560162207
 40
0.6912555560162207
 40
1.0
 40
1.0
 40
1.0
 40
1.0
 10
-1800.51342939681
 20
-1705.435299558415
 30
0.0
 10
-1800.51342939681
 20
-1707.793736785101
 30
0.0
 10
-1801.012184878998
 20
-1710.095104393854
 30
0.0
 10
-1802.779544071251
 20
-1714.20556038431
 30
0.0
 10
-1804.041267184731
 20
-1716.02020389825
 30
0.0
 10
-1806.908472193887
 20
-1718.857561113837
 30
0.0
 10
-1808.45698653341
 20
-1719.95408876449
 30
0.0
 10
-1810.204690096129
 20
-1720.784380700722
 30
0.0
  0
SPLINE
  5
1992
330
A
100
AcDbEntity
  8
HEWI
100
AcDbSpline
210
0.0
220
0.0
230
1.0
 70
     8
 71
     3
 72
     8
 73
     4
 74
     0
 42
0.000000001
 43
0.0000000001
 40
0.0
 40
0.0
 40
0.0
 40
0.0
 40
1.0
 40
1.0
 40
1.0
 40
1.0
 10
-1824.267589642166
 20
-1721.035998243966
 30
0.0
 10
-1824.439654586088
 20
-1720.961545400621
 30
0.0
 10
-1824.609893558904
 20
-1720.884581160347
 30
0.0
 10
-1824.77830309347
 20
-1720.805135098801
 30
0.0
  0
SPLINE
  5
1993
330
A
100
AcDbEntity
  8
HEWI
100
AcDbSpline
210
0.0
220
0.0
230
1.0
 70
     8
 71
     3
 72
    22
 73
    18
 74
     0
 42
0.000000001
 43
0.0000000001
 40
0.0
 40
0.0
 40
0.0
 40
0.0
 40
0.1261546713333348
 40
0.1261546713333348
 40
0.271709779130951
 40
0.271709779130951
 40
0.4172648869285673
 40
0.4172648869285673
 40
0.5628199947261832
 40
0.5628199947261832
 40
0.7083751025237996
 40
0.7083751025237996
 40
0.8539302103214152
 40
0.8539302103214152
 40
0.9994853181190311
 40
0.9994853181190311
 40
1.0
 40
1.0
 40
1.0
 40
1.0
 10
-1824.933913782827
 20
-1720.730769285853
 30
0.0
 10
-1826.624673027495
 20
-1719.912296139006
 30
0.0
 10
-1828.128426296645
 20
-1718.841212386632
 30
0.0
 10
-1830.956703363936
 20
-1716.056037164905
 30
0.0
 10
-1832.221993407889
 20
-1714.247656060207
 30
0.0
 10
-1834.000451862414
 20
-1710.144606577647
 30
0.0
 10
-1834.505392297879
 20
-1707.82338819355
 30
0.0
 10
-1834.52126919001
 20
-1703.163041622036
 30
0.0
 10
-1834.028762019769
 20
-1700.819422005728
 30
0.0
 10
-1832.259291795762
 20
-1696.681895686802
 30
0.0
 10
-1830.996551540741
 20
-1694.864607939222
 30
0.0
 10
-1827.972843867261
 20
-1691.865673440075
 30
0.0
 10
-1826.198304211757
 20
-1690.660258809445
 30
0.0
 10
-1822.199541312221
 20
-1688.949874638162
 30
0.0
 10
-1819.877435933471
 20
-1688.438731635112
 30
0.0
 10
-1817.529968874955
 20
-1688.4353055919
 30
0.0
 10
-1817.521698056765
 20
-1688.435299737567
 30
0.0
 10
-1817.513427810752
 20
-1688.435300094639
 30
0.0
  0
SPLINE
  5
1994
330
A
100
AcDbEntity
  8
HEWI
100
AcDbSpline
210
0.0
220
0.0
230
1.0
 70
     8
 71
     3
 72
    14
 73
    10
 74
     0
 42
0.000000001
 43
0.0000000001
 40
0.0
 40
0.0
 40
0.0
 40
0.0
 40
0.2493364146684839
 40
0.2493364146684839
 40
0.4995576097789893
 40
0.4995576097789893
 40
0.7497788048894947
 40
0.7497788048894947
 40
1.0
 40
1.0
 40
1.0
 40
1.0
 10
-1817.513427811281
 20
-1688.435300094639
 30
0.0
 10
-1815.182823124197
 20
-1688.435400719719
 30
0.0
 10
-1812.897657778247
 20
-1688.928777674632
 30
0.0
 10
-1808.867771635105
 20
-1690.634720796107
 30
0.0
 10
-1807.10449024391
 20
-1691.825178031513
 30
0.0
 10
-1804.05561220542
 20
-1694.83017915792
 30
0.0
 10
-1802.811510912249
 20
-1696.605856984822
 30
0.0
 10
-1801.015582933925
 20
-1700.752722770565
 30
0.0
 10
-1800.51342939681
 20
-1703.07686233173
 30
0.0
 10
-1800.51342939681
 20
-1705.435299558415
 30
0.0
  0
SPLINE
  5
1995
330
A
100
AcDbEntity
  8
HEWI
100
AcDbSpline
210
0.0000000000000001
220
0.0000000000000013
230
1.0
 70
     8
 71
     3
 72
    10
 73
     6
 74
     0
 42
0.000000001
 43
0.0000000001
 40
0.0
 40
0.0
 40
0.0
 40
0.0
 40
0.0691533484577913
 40
0.5486690255593603
 40
1.0
 40
1.0
 40
1.0
 40
1.0
 10
-882.0452270451001
 20
-1720.863685941497
 30
-0.0000000000000002
 10
-882.0651307523872
 20
-1720.853052696764
 30
-0.0000000000000002
 10
-882.2282759254353
 20
-1720.771866120391
 30
-0.0000000000000002
 10
-882.6672528291215
 20
-1720.678890822994
 30
-0.0000000000000004
 10
-883.075915939356
 20
-1720.648614539503
 30
-0.0000000000000004
 10
-883.2919447743083
 20
-1720.649607378144
 30
-0.0000000000000004
  0
SPLINE
  5
1996
330
A
100
AcDbEntity
  8
HEWI
100
AcDbSpline
210
0.0000000000000001
220
0.0000000000000013
230
1.0
 70
     8
 71
     3
 72
    10
 73
     6
 74
     0
 42
0.000000001
 43
0.0000000001
 40
0.0
 40
0.0
 40
0.0
 40
0.0
 40
0.0691533484577913
 40
0.5486690255593603
 40
1.0
 40
1.0
 40
1.0
 40
1.0
 10
-882.0452270451001
 20
-1720.863685941497
 30
-0.0000000000000002
 10
-882.0651307523872
 20
-1720.853052696764
 30
-0.0000000000000002
 10
-882.2282759254353
 20
-1720.771866120391
 30
-0.0000000000000002
 10
-882.6672528291215
 20
-1720.678890822994
 30
-0.0000000000000004
 10
-883.075915939356
 20
-1720.648614539503
 30
-0.0000000000000004
 10
-883.2919447743083
 20
-1720.649607378144
 30
-0.0000000000000004
  0
SPLINE
  5
1997
330
A
100
AcDbEntity
  8
HEWI
100
AcDbSpline
210
0.0
220
0.0
230
1.0
 70
     8
 71
     3
 72
    11
 73
     7
 74
     0
 42
0.000000001
 43
0.0000000001
 40
0.0
 40
0.0
 40
0.0
 40
0.0
 40
0.0085407042298158
 40
0.294495578516009
 40
0.6285837272446312
 40
1.0
 40
1.0
 40
1.0
 40
1.0
 10
-881.2930302106748
 20
-1721.573240321877
 30
-0.0000000000000002
 10
-881.2922815416326
 20
-1721.570599158467
 30
-0.0000000000000002
 10
-881.2676940185461
 20
-1721.479682866509
 30
-0.0000000000000002
 10
-881.3788450806219
 20
-1721.283086793582
 30
-0.0000000000000002
 10
-881.6035962542686
 20
-1721.058468465675
 30
-0.0000000000000002
 10
-881.8766408675951
 20
-1720.923733365528
 30
-0.0000000000000002
 10
-882.0452270451001
 20
-1720.863685941497
 30
-0.0000000000000002
  0
SPLINE
  5
1998
330
A
100
AcDbEntity
  8
HEWI
100
AcDbSpline
210
0.0
220
0.0
230
1.0
 70
     8
 71
     3
 72
    12
 73
     8
 74
     0
 42
0.000000001
 43
0.0000000001
 40
0.0
 40
0.0
 40
0.0
 40
0.0
 40
0.129584674490289
 40
0.3660981216981058
 40
0.6122957521584437
 40
0.8793126725148667
 40
1.0
 40
1.0
 40
1.0
 40
1.0
 10
-919.5594116141542
 20
-1720.666312708428
 30
0.0
 10
-919.6856968071601
 20
-1720.669360544466
 30
0.0
 10
-920.0261547155783
 20
-1720.693914281978
 30
0.0
 10
-920.53551980791
 20
-1720.836252803043
 30
0.0
 10
-920.9920960365931
 20
-1721.067335482071
 30
0.0
 10
-921.2585996900065
 20
-1721.309959571307
 30
0.0
 10
-921.2735022889459
 20
-1721.510193366171
 30
0.0
 10
-921.2674608178755
 20
-1721.576360844986
 30
0.0
  0
SPLINE
  5
1999
330
A
100
AcDbEntity
  8
HEWI
100
AcDbSpline
210
0.0000000000000001
220
0.0000000000000013
230
1.0
 70
     8
 71
     3
 72
    10
 73
     6
 74
     0
 42
0.000000001
 43
0.0000000001
 40
0.0
 40
0.0
 40
0.0
 40
0.0
 40
0.0691533484577662
 40
0.5486690255593675
 40
1.0
 40
1.0
 40
1.0
 40
1.0
 10
-1351.045227045098
 20
-1720.863685941489
 30
0.0
 10
-1351.065130752388
 20
-1720.853052696756
 30
0.0
 10
-1351.228275925433
 20
-1720.771866120383
 30
-0.0000000000000002
 10
-1351.667252829122
 20
-1720.678890822986
 30
-0.0000000000000002
 10
-1352.075915939357
 20
-1720.648614539495
 30
-0.0000000000000002
 10
-1352.291944774308
 20
-1720.649607378136
 30
-0.0000000000000002
  0
SPLINE
  5
199A
330
A
100
AcDbEntity
  8
HEWI
100
AcDbSpline
210
0.0000000000000001
220
0.0000000000000013
230
1.0
 70
     8
 71
     3
 72
    10
 73
     6
 74
     0
 42
0.000000001
 43
0.0000000001
 40
0.0
 40
0.0
 40
0.0
 40
0.0
 40
0.0691533484577662
 40
0.5486690255593675
 40
1.0
 40
1.0
 40
1.0
 40
1.0
 10
-1351.045227045098
 20
-1720.863685941489
 30
0.0
 10
-1351.065130752388
 20
-1720.853052696756
 30
0.0
 10
-1351.228275925433
 20
-1720.771866120383
 30
-0.0000000000000002
 10
-1351.667252829122
 20
-1720.678890822986
 30
-0.0000000000000002
 10
-1352.075915939357
 20
-1720.648614539495
 30
-0.0000000000000002
 10
-1352.291944774308
 20
-1720.649607378136
 30
-0.0000000000000002
  0
SPLINE
  5
199B
330
A
100
AcDbEntity
  8
HEWI
100
AcDbSpline
210
0.0
220
0.0
230
1.0
 70
     8
 71
     3
 72
    11
 73
     7
 74
     0
 42
0.000000001
 43
0.0000000001
 40
0.0
 40
0.0
 40
0.0
 40
0.0
 40
0.0085407042298183
 40
0.2944955785160063
 40
0.6285837272446198
 40
1.0
 40
1.0
 40
1.0
 40
1.0
 10
-1350.293030210675
 20
-1721.573240321869
 30
0.0
 10
-1350.292281541634
 20
-1721.570599158459
 30
0.0
 10
-1350.267694018546
 20
-1721.479682866501
 30
0.0
 10
-1350.378845080622
 20
-1721.283086793574
 30
0.0
 10
-1350.60359625427
 20
-1721.058468465667
 30
0.0
 10
-1350.876640867594
 20
-1720.92373336552
 30
0.0
 10
-1351.045227045098
 20
-1720.863685941489
 30
0.0
  0
SPLINE
  5
199C
330
A
100
AcDbEntity
  8
HEWI
100
AcDbSpline
210
0.0
220
0.0
230
1.0
 70
     8
 71
     3
 72
    12
 73
     8
 74
     0
 42
0.000000001
 43
0.0000000001
 40
0.0
 40
0.0
 40
0.0
 40
0.0
 40
0.1295846744902901
 40
0.3660981216981005
 40
0.6122957521584405
 40
0.8793126725148658
 40
1.0
 40
1.0
 40
1.0
 40
1.0
 10
-1388.559411614155
 20
-1720.66631270842
 30
0.0000000000000002
 10
-1388.685696807159
 20
-1720.669360544458
 30
0.0000000000000002
 10
-1389.026154715578
 20
-1720.69391428197
 30
0.0000000000000002
 10
-1389.535519807909
 20
-1720.836252803035
 30
0.0000000000000002
 10
-1389.992096036591
 20
-1721.067335482063
 30
0.0000000000000002
 10
-1390.258599690007
 20
-1721.309959571298
 30
0.0000000000000002
 10
-1390.273502288945
 20
-1721.510193366162
 30
0.0000000000000002
 10
-1390.267460817874
 20
-1721.576360844978
 30
0.0000000000000002
  0
SPLINE
  5
199D
330
A
100
AcDbEntity
  8
HEWI
100
AcDbSpline
210
0.0000000000000001
220
-0.0000000000000006
230
1.0
 70
     8
 71
     3
 72
    16
 73
    12
 74
     0
 42
0.000000001
 43
0.0000000001
 40
0.0
 40
0.0
 40
0.0
 40
0.0
 40
0.0127710530080071
 40
0.0127710530080071
 40
0.298714081222836
 40
0.298714081222836
 40
0.5432081856598872
 40
0.5432081856598872
 40
0.7705827780638037
 40
0.7705827780638037
 40
1.0
 40
1.0
 40
1.0
 40
1.0
 10
-1350.600290218255
 20
-1796.831380670555
 30
0.0
 10
-1350.603334145682
 20
-1796.835887861116
 30
0.0
 10
-1350.606438833958
 20
-1796.840392501325
 30
0.0
 10
-1350.680629755902
 20
-1796.945906999696
 30
0.0
 10
-1350.783657787488
 20
-1797.04775214299
 30
0.0
 10
-1351.024678993793
 20
-1797.221368090922
 30
0.0
 10
-1351.157882668276
 20
-1797.296933721964
 30
-0.0000000000000002
 10
-1351.446840431743
 20
-1797.419638835213
 30
-0.0000000000000002
 10
-1351.603501017558
 20
-1797.469486291529
 30
-0.0000000000000002
 10
-1351.934821216115
 20
-1797.537838816172
 30
-0.0000000000000002
 10
-1352.114027335342
 20
-1797.55665305828
 30
-0.0000000000000002
 10
-1352.290830341961
 20
-1797.55665305828
 30
-0.0000000000000002
  0
SPLINE
  5
199E
330
A
100
AcDbEntity
  8
HEWI
100
AcDbSpline
210
-0.0000000000000002
220
-0.0000000000000002
230
1.0
 70
     8
 71
     3
 72
    16
 73
    12
 74
     0
 42
0.000000001
 43
0.0000000001
 40
0.0
 40
0.0
 40
0.0
 40
0.0
 40
0.2318639328501264
 40
0.2318639328501264
 40
0.4638696371680758
 40
0.4638696371680758
 40
0.6950310216224952
 40
0.6950310216224952
 40
0.9111144293793211
 40
0.9111144293793211
 40
1.0
 40
1.0
 40
1.0
 40
1.0
 10
-1350.290830341959
 20
-1721.573840385905
 30
0.0
 10
-1350.290830341959
 20
-1721.500818623578
 30
0.0
 10
-1350.334411468586
 20
-1721.422189203937
 30
0.0
 10
-1350.50021184646
 20
-1721.26828857753
 30
0.0
 10
-1350.624880498245
 20
-1721.190823701439
 30
0.0
 10
-1350.938305250966
 20
-1721.052724091479
 30
0.0
 10
-1351.131864401432
 20
-1720.99003642668
 30
0.0
 10
-1351.547063127899
 20
-1720.898558040102
 30
-0.0000000000000002
 10
-1351.772469947583
 20
-1720.866685642427
 30
-0.0000000000000002
 10
-1352.09703118163
 20
-1720.846514986321
 30
-0.0000000000000002
 10
-1352.19407879539
 20
-1720.843495430701
 30
-0.0000000000000002
 10
-1352.290830341959
 20
-1720.843495430701
 30
-0.0000000000000002
  0
SPLINE
  5
199F
330
A
100
AcDbEntity
  8
HEWI
100
AcDbSpline
210
-0.0000000000000002
220
0.0000000000000002
230
1.0
 70
     8
 71
     3
 72
    16
 73
    12
 74
     0
 42
0.000000001
 43
0.0000000001
 40
0.0
 40
0.0
 40
0.0
 40
0.0
 40
0.1771404143545236
 40
0.1771404143545236
 40
0.3522186943510297
 40
0.3522186943510297
 40
0.539954319336339
 40
0.539954319336339
 40
0.7594025013289695
 40
0.7594025013289695
 40
1.0
 40
1.0
 40
1.0
 40
1.0
 10
-1352.290830341961
 20
-1797.392994714258
 30
-0.0000000000000002
 10
-1352.09447853221
 20
-1797.392994714258
 30
-0.0000000000000002
 10
-1351.895509952213
 20
-1797.373925719698
 30
-0.0000000000000002
 10
-1351.527430839909
 20
-1797.304489824748
 30
-0.0000000000000002
 10
-1351.353324132707
 20
-1797.253889359828
 30
-0.0000000000000002
 10
-1351.032206695664
 20
-1797.129200285828
 30
0.0
 10
-1350.884088433423
 20
-1797.052406393236
 30
0.0
 10
-1350.616173993505
 20
-1796.875938094375
 30
0.0
 10
-1350.501652032528
 20
-1796.772390176721
 30
0.0
 10
-1350.336542420792
 20
-1796.557671439592
 30
0.0
 10
-1350.290830341961
 20
-1796.443702374634
 30
0.0
 10
-1350.290830341961
 20
-1796.338029142668
 30
0.0
  0
SPLINE
  5
19A0
330
A
100
AcDbEntity
  8
HEWI
100
AcDbSpline
210
0.0
220
0.0
230
1.0
 70
     8
 71
     3
 72
    16
 73
    12
 74
     0
 42
0.000000001
 43
0.0000000001
 40
0.0
 40
0.0
 40
0.0
 40
0.0
 40
0.1945552639644179
 40
0.1945552639644179
 40
0.3878946385599321
 40
0.3878946385599321
 40
0.5892372746630514
 40
0.5892372746630514
 40
0.8080348914056751
 40
0.8080348914056751
 40
1.0
 40
1.0
 40
1.0
 40
1.0
 10
-1388.290830341959
 20
-1720.8434954307
 30
0.0000000000000002
 10
-1388.499847549939
 20
-1720.8434954307
 30
0.0000000000000002
 10
-1388.711675492432
 20
-1720.85801167776
 30
0.0000000000000002
 10
-1389.104942046231
 20
-1720.911689716422
 30
0.0000000000000002
 10
-1389.29168243045
 20
-1720.951259207999
 30
0.0000000000000002
 10
-1389.627589363893
 20
-1721.048233355584
 30
0.0000000000000002
 10
-1389.779256863114
 20
-1721.107413026982
 30
0.0000000000000002
 10
-1390.035366310627
 20
-1721.238218700282
 30
0.0000000000000002
 10
-1390.138153330706
 20
-1721.312164299163
 30
0.0000000000000002
 10
-1390.260986483571
 20
-1721.448825518904
 30
0.0000000000000002
 10
-1390.290830341958
 20
-1721.513185554333
 30
0.0000000000000002
 10
-1390.290830341958
 20
-1721.573840385903
 30
0.0000000000000002
  0
SPLINE
  5
19A1
330
A
100
AcDbEntity
  8
HEWI
100
AcDbSpline
210
0.0
220
0.0
230
1.0
 70
     8
 71
     3
 72
    16
 73
    12
 74
     0
 42
0.000000001
 43
0.0000000001
 40
0.0
 40
0.0
 40
0.0
 40
0.0
 40
0.2481016251448624
 40
0.2481016251448624
 40
0.4963851440995061
 40
0.4963851440995061
 40
0.7438538839225557
 40
0.7438538839225557
 40
0.9181884979193776
 40
0.9181884979193776
 40
1.0
 40
1.0
 40
1.0
 40
1.0
 10
-1390.29083034196
 20
-1796.338029142667
 30
0.0000000000000002
 10
-1390.29083034196
 20
-1796.447017104682
 30
0.0000000000000002
 10
-1390.242146844776
 20
-1796.564895138884
 30
0.0000000000000002
 10
-1390.058811943906
 20
-1796.796268565112
 30
0.0000000000000002
 10
-1389.921368663145
 20
-1796.913271612638
 30
0.0000000000000002
 10
-1389.573954169113
 20
-1797.120993411307
 30
0.0000000000000002
 10
-1389.357576613838
 20
-1797.215206539715
 30
0.0000000000000002
 10
-1388.945211125969
 20
-1797.329543917291
 30
0.0000000000000002
 10
-1388.757148029121
 20
-1797.364276810081
 30
0.0000000000000002
 10
-1388.475047228792
 20
-1797.388944479269
 30
0.0000000000000002
 10
-1388.38279007719
 20
-1797.392994714257
 30
0.0000000000000002
 10
-1388.290830341961
 20
-1797.392994714257
 30
0.0000000000000002
  0
SPLINE
  5
19A2
330
A
100
AcDbEntity
  8
HEWI
100
AcDbSpline
210
0.0
220
0.0
230
1.0
 70
     8
 71
     3
 72
    16
 73
    12
 74
     0
 42
0.000000001
 43
0.0000000001
 40
0.0
 40
0.0
 40
0.0
 40
0.0
 40
0.1053123592843669
 40
0.1053123592843669
 40
0.3301327988397534
 40
0.3301327988397534
 40
0.6504275187068417
 40
0.6504275187068417
 40
0.9722491720567552
 40
0.9722491720567552
 40
1.0
 40
1.0
 40
1.0
 40
1.0
 10
-1388.290830341961
 20
-1797.556653058279
 30
0.0000000000000002
 10
-1388.37360328298
 20
-1797.556653058279
 30
0.0000000000000002
 10
-1388.456652115771
 20
-1797.552664065129
 30
0.0000000000000002
 10
-1388.710727042222
 20
-1797.528367247803
 30
0.0000000000000002
 10
-1388.880035055521
 20
-1797.494122038243
 30
0.0000000000000002
 10
-1389.251358876747
 20
-1797.381526155511
 30
0.0000000000000002
 10
-1389.445873256325
 20
-1797.288783886904
 30
0.0000000000000002
 10
-1389.758330836358
 20
-1797.084474185612
 30
0.0000000000000002
 10
-1389.881946177364
 20
-1796.969417479475
 30
0.0000000000000002
 10
-1389.97165735832
 20
-1796.845600933093
 30
0.0000000000000002
 10
-1389.978493051692
 20
-1796.835752527557
 30
0.0000000000000002
 10
-1389.985037936556
 20
-1796.825893512656
 30
0.0000000000000002
  0
SPLINE
  5
19A3
330
A
100
AcDbEntity
  8
HEWI
100
AcDbSpline
210
0.0
220
0.0
230
1.0
 70
     8
 71
     3
 72
     8
 73
     4
 74
     0
 42
0.000000001
 43
0.0000000001
 40
0.0
 40
0.0
 40
0.0
 40
0.0
 40
1.0
 40
1.0
 40
1.0
 40
1.0
 10
-1388.549667728026
 20
-1720.671601108398
 30
0.0000000000000002
 10
-1388.463874526492
 20
-1720.665771710702
 30
0.0000000000000002
 10
-1388.377084831993
 20
-1720.66275413016
 30
0.0000000000000002
 10
-1388.290830341959
 20
-1720.66275413016
 30
0.0000000000000002
  0
SPLINE
  5
19A4
330
A
100
AcDbEntity
  8
HEWI
100
AcDbSpline
210
-0.0000000000000002
220
0.0000000000000002
230
1.0
 70
     8
 71
     3
 72
    16
 73
    12
 74
     0
 42
0.000000001
 43
0.0000000001
 40
0.0
 40
0.0
 40
0.0
 40
0.0
 40
0.1771404143545236
 40
0.1771404143545236
 40
0.3522186943510297
 40
0.3522186943510297
 40
0.539954319336339
 40
0.539954319336339
 40
0.7594025013289695
 40
0.7594025013289695
 40
1.0
 40
1.0
 40
1.0
 40
1.0
 10
-883.2908303419612
 20
-1797.392994714267
 30
-0.0000000000000004
 10
-883.0944785322094
 20
-1797.392994714267
 30
-0.0000000000000004
 10
-882.8955099522113
 20
-1797.373925719706
 30
-0.0000000000000004
 10
-882.527430839908
 20
-1797.304489824756
 30
-0.0000000000000004
 10
-882.3533241327064
 20
-1797.253889359837
 30
-0.0000000000000004
 10
-882.0322066956627
 20
-1797.129200285836
 30
-0.0000000000000002
 10
-881.8840884334226
 20
-1797.052406393244
 30
-0.0000000000000002
 10
-881.6161739935054
 20
-1796.875938094383
 30
-0.0000000000000002
 10
-881.5016520325276
 20
-1796.772390176729
 30
-0.0000000000000002
 10
-881.3365424207908
 20
-1796.5576714396
 30
-0.0000000000000002
 10
-881.2908303419604
 20
-1796.443702374642
 30
-0.0000000000000002
 10
-881.2908303419604
 20
-1796.338029142676
 30
-0.0000000000000002
  0
SPLINE
  5
19A5
330
A
100
AcDbEntity
  8
HEWI
100
AcDbSpline
210
-0.0000000000000002
220
0.0000000000000003
230
1.0
 70
     8
 71
     3
 72
    16
 73
    12
 74
     0
 42
0.000000001
 43
0.0000000001
 40
0.0
 40
0.0
 40
0.0
 40
0.0
 40
0.012771053008153
 40
0.012771053008153
 40
0.2987140812229396
 40
0.2987140812229396
 40
0.5432081856599547
 40
0.5432081856599547
 40
0.7705827780638374
 40
0.7705827780638374
 40
1.0
 40
1.0
 40
1.0
 40
1.0
 10
-881.600290218255
 20
-1796.831380670563
 30
-0.0000000000000002
 10
-881.6033341456828
 20
-1796.835887861125
 30
-0.0000000000000002
 10
-881.6064388339587
 20
-1796.840392501333
 30
-0.0000000000000002
 10
-881.680629755901
 20
-1796.945906999704
 30
-0.0000000000000002
 10
-881.7836577874873
 20
-1797.047752142998
 30
-0.0000000000000002
 10
-882.0246789937932
 20
-1797.22136809093
 30
-0.0000000000000002
 10
-882.1578826682758
 20
-1797.296933721972
 30
-0.0000000000000002
 10
-882.4468404317435
 20
-1797.419638835221
 30
-0.0000000000000004
 10
-882.6035010175578
 20
-1797.469486291537
 30
-0.0000000000000004
 10
-882.9348212161162
 20
-1797.53783881618
 30
-0.0000000000000004
 10
-883.1140273353398
 20
-1797.556653058288
 30
-0.0000000000000004
 10
-883.2908303419612
 20
-1797.556653058288
 30
-0.0000000000000004
  0
SPLINE
  5
19A6
330
A
100
AcDbEntity
  8
HEWI
100
AcDbSpline
210
0.0
220
0.0
230
1.0
 70
     8
 71
     3
 72
    16
 73
    12
 74
     0
 42
0.000000001
 43
0.0000000001
 40
0.0
 40
0.0
 40
0.0
 40
0.0
 40
0.1053123592843732
 40
0.1053123592843732
 40
0.3301327988397731
 40
0.3301327988397731
 40
0.6504275187068807
 40
0.6504275187068807
 40
0.9722491720568131
 40
0.9722491720568131
 40
1.0
 40
1.0
 40
1.0
 40
1.0
 10
-919.2908303419612
 20
-1797.556653058287
 30
0.0
 10
-919.3736032829805
 20
-1797.556653058287
 30
0.0
 10
-919.4566521157709
 20
-1797.552664065137
 30
0.0
 10
-919.7107270422225
 20
-1797.528367247811
 30
0.0
 10
-919.8800350555215
 20
-1797.494122038251
 30
0.0
 10
-920.2513588767473
 20
-1797.38152615552
 30
0.0
 10
-920.4458732563239
 20
-1797.288783886913
 30
0.0
 10
-920.7583308363551
 20
-1797.08447418562
 30
0.0
 10
-920.8819461773632
 20
-1796.969417479484
 30
0.0
 10
-920.9716573583195
 20
-1796.845600933102
 30
0.0
 10
-920.9784930516947
 20
-1796.835752527566
 30
0.0
 10
-920.9850379365539
 20
-1796.825893512664
 30
0.0
  0
SPLINE
  5
19A7
330
A
100
AcDbEntity
  8
HEWI
100
AcDbSpline
210
0.0
220
0.0
230
1.0
 70
     8
 71
     3
 72
    16
 73
    12
 74
     0
 42
0.000000001
 43
0.0000000001
 40
0.0
 40
0.0
 40
0.0
 40
0.0
 40
0.1945552639644179
 40
0.1945552639644179
 40
0.3878946385599321
 40
0.3878946385599321
 40
0.5892372746630514
 40
0.5892372746630514
 40
0.8080348914056751
 40
0.8080348914056751
 40
1.0
 40
1.0
 40
1.0
 40
1.0
 10
-919.2908303419576
 20
-1720.843495430708
 30
0.0
 10
-919.4998475499373
 20
-1720.843495430708
 30
0.0
 10
-919.7116754924286
 20
-1720.858011677769
 30
0.0
 10
-920.1049420462309
 20
-1720.911689716431
 30
0.0
 10
-920.2916824304498
 20
-1720.951259208008
 30
0.0
 10
-920.6275893638926
 20
-1721.048233355592
 30
0.0
 10
-920.7792568631134
 20
-1721.107413026991
 30
0.0
 10
-921.0353663106275
 20
-1721.23821870029
 30
0.0
 10
-921.1381533307081
 20
-1721.312164299171
 30
0.0
 10
-921.2609864835698
 20
-1721.448825518912
 30
0.0
 10
-921.2908303419593
 20
-1721.513185554342
 30
0.0
 10
-921.2908303419593
 20
-1721.573840385912
 30
0.0
  0
SPLINE
  5
19A8
330
A
100
AcDbEntity
  8
HEWI
100
AcDbSpline
210
0.0
220
0.0
230
1.0
 70
     8
 71
     3
 72
    16
 73
    12
 74
     0
 42
0.000000001
 43
0.0000000001
 40
0.0
 40
0.0
 40
0.0
 40
0.0
 40
0.2481016251448624
 40
0.2481016251448624
 40
0.4963851440995061
 40
0.4963851440995061
 40
0.7438538839225557
 40
0.7438538839225557
 40
0.9181884979193776
 40
0.9181884979193776
 40
1.0
 40
1.0
 40
1.0
 40
1.0
 10
-921.2908303419622
 20
-1796.338029142675
 30
0.0
 10
-921.2908303419622
 20
-1796.44701710469
 30
0.0
 10
-921.2421468447741
 20
-1796.564895138892
 30
0.0
 10
-921.0588119439066
 20
-1796.79626856512
 30
0.0
 10
-920.9213686631452
 20
-1796.913271612646
 30
0.0
 10
-920.5739541691132
 20
-1797.120993411315
 30
0.0
 10
-920.3575766138378
 20
-1797.215206539723
 30
0.0
 10
-919.9452111259693
 20
-1797.329543917299
 30
0.0
 10
-919.7571480291212
 20
-1797.364276810089
 30
0.0
 10
-919.475047228791
 20
-1797.388944479279
 30
0.0
 10
-919.3827900771898
 20
-1797.392994714265
 30
0.0
 10
-919.2908303419612
 20
-1797.392994714265
 30
0.0
  0
SPLINE
  5
19A9
330
A
100
AcDbEntity
  8
HEWI
100
AcDbSpline
210
0.0
220
0.0
230
1.0
 70
     8
 71
     3
 72
     8
 73
     4
 74
     0
 42
0.000000001
 43
0.0000000001
 40
0.0
 40
0.0
 40
0.0
 40
0.0
 40
1.0
 40
1.0
 40
1.0
 40
1.0
 10
-919.5496677280257
 20
-1720.671601108406
 30
0.0
 10
-919.4638745264906
 20
-1720.665771710711
 30
0.0
 10
-919.3770848319914
 20
-1720.662754130168
 30
0.0
 10
-919.2908303419576
 20
-1720.662754130168
 30
0.0
  0
SPLINE
  5
19AD
330
A
100
AcDbEntity
  8
HEWI
100
AcDbSpline
210
0.0
220
-0.0000000000000002
230
1.0
 70
     8
 71
     3
 72
    14
 73
    10
 74
     0
 42
0.000000001
 43
0.0000000001
 40
0.0
 40
0.0
 40
0.0
 40
0.0
 40
0.2499087050623483
 40
0.2499087050623483
 40
0.4999391367082322
 40
0.4999391367082322
 40
0.7499695683541161
 40
0.7499695683541161
 40
1.0
 40
1.0
 40
1.0
 40
1.0
 10
-893.7408622063662
 20
-1820.285280284321
 30
-0.0000000000000002
 10
-893.734963166578
 20
-1820.288803235343
 30
-0.0000000000000002
 10
-894.5871970976991
 20
-1819.732960387241
 30
-0.0000000000000002
 10
-897.310770340459
 20
-1818.445851864255
 30
-0.0000000000000004
 10
-899.2466729540597
 20
-1817.750526817152
 30
0.0000000000000004
 10
-903.3063939391919
 20
-1817.744700720444
 30
0.0000000000000002
 10
-905.2418378580773
 20
-1818.433556149266
 30
0.0
 10
-907.9940398067151
 20
-1819.731341796908
 30
-0.0000000000000002
 10
-908.8408437388894
 20
-1820.285308310295
 30
-0.0000000000000002
 10
-908.840832957348
 20
-1820.285301270625
 30
-0.0000000000000002
  0
SPLINE
  5
19AE
330
A
100
AcDbEntity
  8
HEWI
100
AcDbSpline
210
0.0
220
-0.0000000000000002
230
1.0
 70
     8
 71
     3
 72
    14
 73
    10
 74
     0
 42
0.000000001
 43
0.0000000001
 40
0.0
 40
0.0
 40
0.0
 40
0.0
 40
0.249909423420967
 40
0.249909423420967
 40
0.4999405692898073
 40
0.4999405692898073
 40
0.7499717151586476
 40
0.7499717151586476
 40
1.0
 40
1.0
 40
1.0
 40
1.0
 10
-1362.740862206684
 20
-1820.285280284124
 30
0.0
 10
-1362.734963135999
 20
-1820.288803255277
 30
0.0
 10
-1363.587197073274
 20
-1819.732960398775
 30
0.0
 10
-1366.310770340457
 20
-1818.445851864246
 30
-0.0000000000000002
 10
-1368.246672954059
 20
-1817.750526817143
 30
-0.0000000000000002
 10
-1372.306393939192
 20
-1817.744700720435
 30
0.0000000000000004
 10
-1374.241837858078
 20
-1818.433556149257
 30
0.0000000000000002
 10
-1376.994024060428
 20
-1819.731334371823
 30
0.0
 10
-1377.840824359401
 20
-1820.285295632545
 30
0.0
 10
-1377.840832957385
 20
-1820.28530127064
 30
0.0
  0
SPLINE
  5
19B2
330
A
100
AcDbEntity
  8
HEWI
100
AcDbSpline
210
-0.0000000000000002
220
-0.0000000000000002
230
1.0
 70
     8
 71
     3
 72
    16
 73
    12
 74
     0
 42
0.000000001
 43
0.0000000001
 40
0.0
 40
0.0
 40
0.0
 40
0.0
 40
0.2318639328501264
 40
0.2318639328501264
 40
0.4638696371680758
 40
0.4638696371680758
 40
0.6950310216224952
 40
0.6950310216224952
 40
0.9111144293793211
 40
0.9111144293793211
 40
1.0
 40
1.0
 40
1.0
 40
1.0
 10
-881.2908303419586
 20
-1721.573840385913
 30
-0.0000000000000002
 10
-881.2908303419586
 20
-1721.500818623586
 30
-0.0000000000000002
 10
-881.3344114685865
 20
-1721.422189203945
 30
-0.0000000000000002
 10
-881.5002118464594
 20
-1721.268288577538
 30
-0.0000000000000002
 10
-881.6248804982437
 20
-1721.190823701447
 30
-0.0000000000000002
 10
-881.9383052509678
 20
-1721.052724091487
 30
-0.0000000000000002
 10
-882.1318644014313
 20
-1720.990036426689
 30
-0.0000000000000002
 10
-882.5470631278982
 20
-1720.89855804011
 30
-0.0000000000000004
 10
-882.7724699475824
 20
-1720.866685642435
 30
-0.0000000000000004
 10
-883.0970311816285
 20
-1720.846514986329
 30
-0.0000000000000004
 10
-883.1940787953895
 20
-1720.843495430709
 30
-0.0000000000000004
 10
-883.2908303419577
 20
-1720.843495430709
 30
-0.0000000000000004
  0
SPLINE
  5
19B3
330
A
100
AcDbEntity
  8
HEWI
100
AcDbSpline
210
0.0
220
0.0000000000000001
230
1.0
 70
     8
 71
     3
 72
    16
 73
    12
 74
     0
 42
0.000000001
 43
0.0000000001
 40
0.0
 40
0.0
 40
0.0
 40
0.0
 40
0.24976624795592
 40
0.24976624795592
 40
0.4995497416883016
 40
0.4995497416883016
 40
0.7493332354206832
 40
0.7493332354206832
 40
0.9991167291530643
 40
0.9991167291530643
 40
1.0
 40
1.0
 40
1.0
 40
1.0
 10
-1834.513332801116
 20
-2400.570841816944
 30
-0.0000000000000024
 10
-1834.521201599942
 20
-2400.576786281993
 30
-0.0000000000000024
 10
-1834.028701355139
 20
-2400.198631145991
 30
-0.0000000000000024
 10
-1832.259292215809
 20
-2398.911309299703
 30
-0.0000000000000026
 10
-1830.996551960788
 20
-2398.012514156793
 30
-0.0000000000000026
 10
-1827.972844287309
 20
-2396.106217736519
 30
-0.0000000000000028
 10
-1826.198304631805
 20
-2395.081547744222
 30
-0.0000000000000028
 10
-1822.199541732269
 20
-2393.429763273954
 30
-0.0000000000000028
 10
-1819.877436353519
 20
-2392.814276538655
 30
-0.000000000000003
 10
-1817.529968938246
 20
-2392.810325048963
 30
-0.000000000000003
 10
-1817.521697763346
 20
-2392.810318645652
 30
-0.000000000000003
 10
-1817.513427160674
 20
-2392.810319746424
 30
-0.000000000000003
  0
SPLINE
  5
19B4
330
A
100
AcDbEntity
  8
HEWI
100
AcDbSpline
210
0.0
220
0.0000000000000001
230
1.0
 70
     8
 71
     3
 72
    14
 73
    10
 74
     0
 42
0.000000001
 43
0.0000000001
 40
0.0
 40
0.0
 40
0.0
 40
0.0
 40
0.2493364395575
 40
0.2493364395575
 40
0.4995576263716667
 40
0.4995576263716667
 40
0.7497788131858333
 40
0.7497788131858333
 40
1.0
 40
1.0
 40
1.0
 40
1.0
 10
-1817.513429161079
 20
-2392.810319746158
 30
-0.000000000000003
 10
-1815.182824151994
 20
-2392.810629596093
 30
-0.000000000000003
 10
-1812.897658465763
 20
-2393.406822121628
 30
-0.0000000000000028
 10
-1808.867772055152
 20
-2395.059386835472
 30
-0.0000000000000028
 10
-1807.104490663958
 20
-2396.076254694734
 30
-0.0000000000000028
 10
-1804.055612625469
 20
-2397.9947471425
 30
-0.0000000000000026
 10
-1802.811511332296
 20
-2398.879953740171
 30
-0.0000000000000026
 10
-1801.015583353972
 20
-2400.185358795483
 30
-0.0000000000000024
 10
-1800.513417124073
 20
-2400.570924861667
 30
-0.0000000000000024
 10
-1800.513427337954
 20
-2400.570917021041
 30
-0.0000000000000024
  0
SPLINE
  5
19B5
330
A
100
AcDbEntity
  8
HEWI
100
AcDbSpline
210
0.0
220
0.0
230
1.0
 70
    24
 71
     1
 72
     5
 73
     3
 74
     0
 42
0.000000001
 43
0.0000000001
 40
0.0
 40
0.0
 40
0.2666666666666667
 40
1.0
 40
1.0
 10
-1761.013429413022
 20
-1705.435299559666
 30
0.0
 10
-1765.013429413022
 20
-1705.435299559666
 30
0.0
 10
-1776.01342941302
 20
-1705.435299559666
 30
0.0
  0
SPLINE
  5
19B6
330
A
100
AcDbEntity
  8
HEWI
100
AcDbSpline
210
0.0
220
0.0
230
1.0
 70
    24
 71
     1
 72
     5
 73
     3
 74
     0
 42
0.000000001
 43
0.0000000001
 40
0.0
 40
0.0
 40
0.2666666666666667
 40
1.0
 40
1.0
 10
-1874.013429413022
 20
-1705.435299559663
 30
0.0
 10
-1870.013429413022
 20
-1705.435299559663
 30
0.0
 10
-1859.013429413022
 20
-1705.435299559663
 30
0.0
  0
SPLINE
  5
19B8
330
A
100
AcDbEntity
  8
HEWI
100
AcDbSpline
210
0.0
220
0.0
230
1.0
 70
    24
 71
     1
 72
     5
 73
     3
 74
     0
 42
0.000000001
 43
0.0000000001
 40
0.0
 40
0.0
 40
0.6800000000000001
 40
1.0
 40
1.0
 10
-1866.013429413021
 20
-1705.435299559663
 30
0.0
 10
-1857.513429413021
 20
-1705.435299559663
 30
0.0
 10
-1853.513429413021
 20
-1705.435299559663
 30
0.0
  0
SPLINE
  5
19B9
330
A
100
AcDbEntity
  8
HEWI
100
AcDbSpline
210
0.0
220
0.0
230
1.0
 70
    24
 71
     1
 72
     5
 73
     3
 74
     0
 42
0.000000001
 43
0.0000000001
 40
0.0
 40
0.0
 40
0.6800000000000001
 40
1.0
 40
1.0
 10
-1769.013429413021
 20
-1705.435299559666
 30
0.0
 10
-1777.513429413021
 20
-1705.435299559665
 30
0.0
 10
-1781.513429413021
 20
-1705.435299559665
 30
0.0
  0
SPLINE
  5
19BA
330
A
100
AcDbEntity
  8
HEWI
100
AcDbSpline
210
0.0
220
0.0
230
1.0
 70
    24
 71
     1
 72
     5
 73
     3
 74
     0
 42
0.000000001
 43
0.0000000001
 40
0.0
 40
0.0
 40
0.185185185185186
 40
1.0
 40
1.0
 10
-1817.513429833067
 20
-2339.970915117724
 30
0.0
 10
-1817.513429833067
 20
-2343.970915117724
 30
0.0
 10
-1817.513429833067
 20
-2361.570915117724
 30
0.0
  0
LWPOLYLINE
  5
19BE
330
A
100
AcDbEntity
  8
HEWI
  6
STANDARD
 62
     7
100
AcDbPolyline
 90
       56
 70
     1
 43
0.0
 10
-1303.18883030292
 20
-1822.490299560708
 10
-1303.322830302843
 20
-1822.370299557406
 10
-1303.564830302703
 20
-1822.300299555478
 10
-1303.720830302616
 20
-1822.162299551677
 10
-1304.367830302245
 20
-1821.838299542759
 10
-1304.67883030207
 20
-1821.737299539978
 10
-1305.238830301746
 20
-1821.418299531196
 10
-1306.299830301139
 20
-1821.012299520021
 10
-1307.088830300689
 20
-1820.81629951462
 10
-1307.509830300447
 20
-1820.658299510273
 10
-1308.822830299694
 20
-1820.37929950259
 10
-1310.188830298913
 20
-1820.285299500007
 10
-1311.553830298132
 20
-1820.37929950259
 10
-1312.86683029738
 20
-1820.658299510273
 10
-1313.287830297141
 20
-1820.81629951462
 10
-1314.07783029669
 20
-1821.012299520021
 10
-1315.137830296082
 20
-1821.418299531196
 10
-1315.697830295763
 20
-1821.737299539978
 10
-1316.008830295584
 20
-1821.838299542759
 10
-1316.655830295213
 20
-1822.162299551677
 10
-1316.811830295125
 20
-1822.300299555478
 10
-1317.053830294987
 20
-1822.370299557406
 10
-1317.187830294908
 20
-1822.490299560708
 10
-1317.188830294909
 20
-1827.357299694692
 10
-1317.16883029492
 20
-1827.552299700063
 10
-1317.112830294951
 20
-1827.739299705211
 10
-1317.019830295004
 20
-1827.912299709973
 10
-1316.895830295075
 20
-1828.064299714158
 10
-1316.743830295164
 20
-1828.188299717571
 10
-1316.570830295263
 20
-1828.280299720103
 10
-1316.383830295368
 20
-1828.337299721672
 10
-1316.18883029548
 20
-1828.357299722221
 10
-1316.072830295548
 20
-1828.357299722221
 10
-1315.731830295741
 20
-1828.357299722221
 10
-1315.176830296058
 20
-1828.357299722221
 10
-1314.430830296488
 20
-1828.357299722221
 10
-1313.521830297005
 20
-1828.357299722221
 10
-1312.484830297603
 20
-1828.357299722221
 10
-1311.358830298245
 20
-1828.357299722221
 10
-1310.188830298913
 20
-1828.357299722221
 10
-1309.017830299587
 20
-1828.357299722221
 10
-1307.892830300231
 20
-1828.357299722221
 10
-1306.854830300821
 20
-1828.357299722221
 10
-1305.945830301344
 20
-1828.357299722221
 10
-1305.199830301768
 20
-1828.357299722221
 10
-1304.644830302086
 20
-1828.357299722221
 10
-1304.303830302283
 20
-1828.357299722221
 10
-1304.188830302347
 20
-1828.357299722221
 10
-1303.99383030246
 20
-1828.337299721672
 10
-1303.805830302568
 20
-1828.280299720103
 10
-1303.632830302666
 20
-1828.188299717571
 10
-1303.481830302753
 20
-1828.064299714158
 10
-1303.356830302825
 20
-1827.912299709973
 10
-1303.264830302876
 20
-1827.739299705211
 10
-1303.207830302911
 20
-1827.552299700063
 10
-1303.18883030292
 20
-1827.357299694692
  0
LINE
  5
19BF
330
A
100
AcDbEntity
  8
HEWI
  6
STANDARD
 62
     7
100
AcDbLine
 10
-1541.067110644003
 20
-2032.519402903396
 30
0.0
 11
-1541.12783016674
 21
-2032.521305342802
 31
0.0
  0
LINE
  5
19C0
330
A
100
AcDbEntity
  8
HEWI
  6
STANDARD
 62
     7
100
AcDbLine
 10
-1540.744830166959
 20
-2032.509305342468
 30
0.0
 11
-1540.993262588143
 21
-2032.517089126122
 31
0.0
  0
LINE
  5
19C1
330
A
100
AcDbEntity
  8
HEWI
  6
STANDARD
 62
     7
100
AcDbLine
 10
-1539.736830190245
 20
-2032.475854361899
 30
0.0
 11
-1540.117830167317
 21
-2032.488305341892
 31
0.0
  0
LINE
  5
19C2
330
A
100
AcDbEntity
  8
HEWI
  6
STANDARD
 62
     7
100
AcDbLine
 10
-1539.046830167931
 20
-2032.453305340926
 30
0.0
 11
-1539.505830172229
 21
-2032.468305341488
 31
0.0
  0
LINE
  5
19C3
330
A
100
AcDbEntity
  8
HEWI
  6
STANDARD
 62
     7
100
AcDbLine
 10
-1541.035049910634
 20
-2032.518283049677
 30
0.0
 11
-1540.22315203827
 21
-2032.491835684064
 31
0.0
  0
LINE
  5
19C4
330
A
100
AcDbEntity
  8
HEWI
  6
STANDARD
 62
     7
100
AcDbLine
 10
-1541.12783016674
 20
-2032.521305342802
 30
0.0
 11
-1541.037073156146
 21
-2032.518348956385
 31
0.0
  0
LWPOLYLINE
  5
19C5
330
A
100
AcDbEntity
  8
HEWI
  6
STANDARD
 62
     7
100
AcDbPolyline
 90
        3
 70
     0
 43
0.0
 10
-1539.046830167931
 20
-2032.453305340926
 10
-1538.886830168023
 20
-2032.448305340789
 10
-1538.640830168161
 20
-2032.440305340569
  0
LINE
  5
19C6
330
A
100
AcDbEntity
  8
HEWI
  6
STANDARD
 62
     7
100
AcDbLine
 10
-1539.356830167753
 20
-2032.463305341204
 30
0.0
 11
-1539.423445554812
 21
-2032.465613033659
 31
0.0
  0
LINE
  5
19C7
330
A
100
AcDbEntity
  8
HEWI
  6
STANDARD
 62
     7
100
AcDbLine
 10
-1539.301830171066
 20
-2032.461638674591
 30
0.0
 11
-1539.356830167753
 21
-2032.463305341204
 31
0.0
  0
LINE
  5
19C8
330
A
100
AcDbEntity
  8
HEWI
  6
STANDARD
 62
     7
100
AcDbLine
 10
-1539.356830167753
 20
-2032.463305341204
 30
0.0
 11
-1539.395777536444
 21
-2032.464708850024
 31
0.0
  0
LWPOLYLINE
  5
19C9
330
A
100
AcDbEntity
  8
HEWI
  6
STANDARD
 62
     7
100
AcDbPolyline
 90
        2
 70
     1
 43
0.0
 10
-1540.229426290444
 20
-2032.492040066216
 10
-1540.178830167284
 20
-2032.490305341948
  0
LWPOLYLINE
  5
19CA
330
A
100
AcDbEntity
  8
HEWI
  6
STANDARD
 62
     7
100
AcDbPolyline
 90
       43
 70
     0
 43
0.0
 10
-1307.586701961708
 20
-1828.35729963921
 10
-1306.402830301082
 20
-1856.030300484053
 10
-1302.42183030336
 20
-1903.946301803167
 10
-1297.240830306324
 20
-1956.087303238593
 10
-1293.621830308395
 20
-2000.541304462399
 10
-1291.066830309858
 20
-2028.924305243774
 10
-1290.521830310169
 20
-2060.58230611531
 10
-1292.053830309295
 20
-2077.806306589483
 10
-1294.413830307941
 20
-2090.283306932972
 10
-1297.340830306267
 20
-2100.126307203943
 10
-1299.569830304992
 20
-2105.741307358527
 10
-1301.261830304025
 20
-2109.371307458459
 10
-1305.02583030187
 20
-2116.184307646021
 10
-1309.342830299399
 20
-2122.583307822185
 10
-1315.40383029593
 20
-2129.931308024469
 10
-1322.153830292067
 20
-2136.623308208698
 10
-1330.997830287004
 20
-2143.777308405646
 10
-1340.54883028154
 20
-2150.045308578199
 10
-1352.35983027478
 20
-2156.271308749602
 10
-1366.451830266711
 20
-2162.033308908231
 10
-1375.495830261536
 20
-2164.957308988727
 10
-1382.837830257337
 20
-2166.914309042605
 10
-1397.567830248904
 20
-2169.740309120403
 10
-1410.584830241456
 20
-2171.005309155225
 10
-1423.585830234012
 20
-2171.085309157429
 10
-1436.485830226631
 20
-2169.932309125688
 10
-1447.416830220376
 20
-2167.919309070268
 10
-1458.15083021423
 20
-2164.938308988204
 10
-1468.61883020824
 20
-2160.971308878995
 10
-1478.731830202455
 20
-2156.097308744814
 10
-1489.910830196054
 20
-2149.391308560197
 10
-1500.296830190109
 20
-2141.710308348741
 10
-1509.712830184717
 20
-2133.202308114517
 10
-1516.904830180604
 20
-2125.336307897975
 10
-1523.148830177031
 20
-2117.057307670053
 10
-1527.563830174502
 20
-2109.883307472555
 10
-1530.541830172797
 20
-2104.010307310874
 10
-1532.477830171691
 20
-2099.503307186795
 10
-1535.578830169914
 20
-2090.456306937733
 10
-1538.129830168457
 20
-2079.683306641157
 10
-1540.055830167356
 20
-2065.611306253758
 10
-1541.139830166732
 20
-2032.522305342827
 10
-1541.12783016674
 20
-2032.521305342802
  0
LWPOLYLINE
  5
19CB
330
A
100
AcDbEntity
  8
HEWI
  6
STANDARD
 62
     7
100
AcDbPolyline
 90
       42
 70
     0
 43
0.0
 10
-1536.139145207124
 20
-2032.440305343225
 10
-1535.066830170207
 20
-2065.189306242141
 10
-1533.20883017127
 20
-2078.766306615912
 10
-1530.76983017267
 20
-2089.066306899466
 10
-1527.811830174364
 20
-2097.705307137298
 10
-1526.012830175391
 20
-2101.892307252565
 10
-1523.201830177001
 20
-2107.440307405298
 10
-1519.015830179396
 20
-2114.235307592361
 10
-1513.054830182807
 20
-2122.137307809902
 10
-1506.183830186739
 20
-2129.65230801679
 10
-1497.126830191925
 20
-2137.836308242095
 10
-1487.131830197641
 20
-2145.228308445592
 10
-1476.354830203809
 20
-2151.692308623548
 10
-1466.645830209367
 20
-2156.376308752494
 10
-1456.592830215123
 20
-2160.181308857245
 10
-1446.293830221016
 20
-2163.046308936118
 10
-1435.808830227018
 20
-2164.972308989141
 10
-1423.378830234131
 20
-2166.084309019753
 10
-1410.841830241309
 20
-2166.007309017631
 10
-1398.281830248495
 20
-2164.786308984017
 10
-1383.952830256696
 20
-2162.040308908421
 10
-1376.90883026073
 20
-2160.161308856696
 10
-1368.16783026573
 20
-2157.337308778952
 10
-1354.476830273569
 20
-2151.735308624727
 10
-1343.09183028008
 20
-2145.733308459494
 10
-1333.948830285315
 20
-2139.733308294315
 10
-1325.494830290153
 20
-2132.894308106043
 10
-1319.101830293814
 20
-2126.556307931558
 10
-1313.351830297104
 20
-2119.586307739679
 10
-1309.29083029943
 20
-2113.574307574166
 10
-1305.718830301472
 20
-2107.105307396075
 10
-1304.160830302363
 20
-2103.761307304016
 10
-1302.064830303564
 20
-2098.490307158908
 10
-1299.27883030516
 20
-2089.103306900488
 10
-1297.011830306455
 20
-2077.118306570541
 10
-1295.524830307309
 20
-2060.403306110384
 10
-1296.058830307
 20
-2029.19130525113
 10
-1298.603830305543
 20
-2000.968304474154
 10
-1302.219830303474
 20
-1956.538303251006
 10
-1307.401830300509
 20
-1904.40130181569
 10
-1311.392830298224
 20
-1856.344300492696
 10
-1312.59173050482
 20
-1828.357299288421
  0
LINE
  5
19CC
330
A
100
AcDbEntity
  8
HEWI
  6
STANDARD
 62
     7
100
AcDbLine
 10
-1541.035830166792
 20
-2032.518305342717
 30
0.0
 11
-1540.860830166892
 21
-2032.513305342582
 31
0.0
  0
LWPOLYLINE
  5
19CD
330
A
100
AcDbEntity
  8
HEWI
  6
STANDARD
 62
     7
100
AcDbPolyline
 90
        2
 70
     1
 43
0.0
 10
-1541.12783016674
 20
-2032.521305342802
 10
-1541.09283016676
 20
-2032.520305342773
  0
LWPOLYLINE
  5
19CE
330
A
100
AcDbEntity
  8
HEWI
  6
STANDARD
 62
     7
100
AcDbPolyline
 90
        3
 70
     0
 43
0.0
 10
-1541.035830166792
 20
-2032.518305342717
 10
-1540.958830166838
 20
-2032.516305342666
 10
-1540.860830166892
 20
-2032.513305342582
  0
LINE
  5
19CF
330
A
100
AcDbEntity
  8
HEWI
  6
STANDARD
 62
     7
100
AcDbLine
 10
-1540.860830166892
 20
-2032.513305342582
 30
0.0
 11
-1540.744830166959
 21
-2032.509305342468
 31
0.0
  0
LWPOLYLINE
  5
19D0
330
A
100
AcDbEntity
  8
HEWI
  6
STANDARD
 62
     7
100
AcDbPolyline
 90
        5
 70
     0
 43
0.0
 10
-1540.744830166959
 20
-2032.509305342468
 10
-1540.611830167034
 20
-2032.505305342362
 10
-1540.46183016712
 20
-2032.500305342223
 10
-1540.296830167215
 20
-2032.494305342058
 10
-1540.117830167317
 20
-2032.488305341892
  0
LWPOLYLINE
  5
19D1
330
A
100
AcDbEntity
  8
HEWI
  6
STANDARD
 62
     7
100
AcDbPolyline
 90
        4
 70
     0
 43
0.0
 10
-1540.117830167317
 20
-2032.488305341892
 10
-1539.924830167427
 20
-2032.482305341728
 10
-1539.720830167544
 20
-2032.475305341534
 10
-1539.505830167668
 20
-2032.468305341339
  0
LWPOLYLINE
  5
19D2
330
A
100
AcDbEntity
  8
HEWI
  6
STANDARD
 62
     7
100
AcDbPolyline
 90
        3
 70
     0
 43
0.0
 10
-1539.505830167668
 20
-2032.468305341339
 10
-1539.280830167796
 20
-2032.461305341149
 10
-1539.046830167931
 20
-2032.453305340926
  0
LWPOLYLINE
  5
19D3
330
A
100
AcDbEntity
  8
HEWI
  6
STANDARD
 62
     7
100
AcDbPolyline
 90
       16
 70
     0
 43
0.0
 10
-1544.890830164585
 20
-2032.440305340569
 10
-1532.390830171741
 20
-2032.440305340569
 10
-1532.261830171815
 20
-2032.423305340105
 10
-1532.140830171882
 20
-2032.373305338726
 10
-1532.036830171944
 20
-2032.294305336549
 10
-1531.957830171989
 20
-2032.190305333687
 10
-1531.907830172019
 20
-2032.069305330355
 10
-1531.890830172024
 20
-2031.940305326806
 10
-1531.890830172024
 20
-1977.940303840201
 10
-1531.907830172019
 20
-1977.811303836649
 10
-1531.957830171989
 20
-1977.690303833318
 10
-1532.036830171944
 20
-1977.586303830456
 10
-1532.140830171882
 20
-1977.507303828282
 10
-1532.261830171815
 20
-1977.457303826905
 10
-1532.390830171741
 20
-1977.440303826435
 10
-1544.890830164585
 20
-1977.440303826435
  0
LWPOLYLINE
  5
19D4
330
A
100
AcDbEntity
  8
HEWI
  6
STANDARD
 62
     7
100
AcDbPolyline
 90
       28
 70
     1
 43
0.0
 10
-1544.890830164585
 20
-2044.440305670927
 10
-1544.907830164578
 20
-2044.569305674479
 10
-1544.957830164547
 20
-2044.690305677811
 10
-1545.036830164503
 20
-2044.794305680676
 10
-1545.140830164443
 20
-2044.87330568285
 10
-1545.261830164375
 20
-2044.923305684223
 10
-1545.390830164302
 20
-2044.94030568469
 10
-1551.89083016058
 20
-2044.94030568469
 10
-1551.89083016058
 20
-2044.923305684223
 10
-1551.89083016058
 20
-2044.87330568285
 10
-1551.89083016058
 20
-2044.794305680676
 10
-1551.89083016058
 20
-2044.690305677811
 10
-1551.89083016058
 20
-2044.569305674479
 10
-1551.89083016058
 20
-2044.440305670927
 10
-1551.89083016058
 20
-1965.440303496078
 10
-1551.89083016058
 20
-1965.311303492529
 10
-1551.89083016058
 20
-1965.190303489199
 10
-1551.89083016058
 20
-1965.086303486335
 10
-1551.89083016058
 20
-1965.007303484155
 10
-1551.89083016058
 20
-1964.957303482784
 10
-1551.89083016058
 20
-1964.940303482314
 10
-1545.390830164302
 20
-1964.940303482314
 10
-1545.261830164375
 20
-1964.957303482784
 10
-1545.140830164443
 20
-1965.007303484155
 10
-1545.036830164503
 20
-1965.086303486335
 10
-1544.957830164547
 20
-1965.190303489199
 10
-1544.907830164578
 20
-1965.311303492529
 10
-1544.890830164585
 20
-1965.440303496078
  0
LWPOLYLINE
  5
19D5
330
A
100
AcDbEntity
  8
HEWI
  6
CUSTOM
 62
    18
420
        0
370
     9
100
AcDbPolyline
 90
       83
 70
     0
 43
0.0
 10
-1820.22443038101
 20
-1826.191094478265
 10
-1820.22443038101
 20
-1854.021094978173
 10
-1820.22443038101
 20
-1902.008096571299
 10
-1820.22443038101
 20
-1954.146098302238
 10
-1820.22443038101
 20
-1998.589099777706
 10
-1820.22443038101
 20
-2026.892100717342
 10
-1820.22443038101
 20
-2058.327101760963
 10
-1820.22443038101
 20
-2075.296102324317
 10
-1820.22443038101
 20
-2087.527102730376
 10
-1820.22443038101
 20
-2097.142103049585
 10
-1820.22443038101
 20
-2102.585103230287
 10
-1820.22443038101
 20
-2106.072103346058
 10
-1820.22443038101
 20
-2112.71310356653
 10
-1820.22443038101
 20
-2118.918103772532
 10
-1820.22443038101
 20
-2126.077104010203
 10
-1820.22443038101
 20
-2132.592104226497
 10
-1820.22443038101
 20
-2139.589104458789
 10
-1820.22443038101
 20
-2145.723104662438
 10
-1820.22443038101
 20
-2151.837104865417
 10
-1820.22443038101
 20
-2157.519105054049
 10
-1820.22443038101
 20
-2160.393105149466
 10
-1820.22443038101
 20
-2162.31110521314
 10
-1820.22443038101
 20
-2165.097105305636
 10
-1820.22443038101
 20
-2166.340105346899
 10
-1820.22443038101
 20
-2166.419105349525
 10
-1820.212430381076
 20
-2166.66510535769
 10
-1820.191430381193
 20
-2166.825105363002
 10
-1820.142430381471
 20
-2167.059105370773
 10
-1820.071430381872
 20
-2167.28410537824
 10
-1819.980430382387
 20
-2167.499105385378
 10
-1819.870430383006
 20
-2167.704105392187
 10
-1819.742430383729
 20
-2167.897105398596
 10
-1819.598430384544
 20
-2168.076105404537
 10
-1819.438430385444
 20
-2168.241105410014
 10
-1819.263430386433
 20
-2168.391105414992
 10
-1819.075430387496
 20
-2168.525105419442
 10
-1818.87443038863
 20
-2168.64110542329
 10
-1818.662430389827
 20
-2168.738105426511
 10
-1818.44043039108
 20
-2168.816105429102
 10
-1818.209430392383
 20
-2168.872105430962
 10
-1817.970430393733
 20
-2168.907105432126
 10
-1817.724430395122
 20
-2168.91910543252
 10
-1817.47843039651
 20
-2168.907105432126
 10
-1817.318430397412
 20
-2168.887105431459
 10
-1817.084430398733
 20
-2168.837105429798
 10
-1816.859430400004
 20
-2168.76610542744
 10
-1816.643430401222
 20
-2168.675105424421
 10
-1816.439430402374
 20
-2168.565105420768
 10
-1816.246430403465
 20
-2168.437105416522
 10
-1816.067430404475
 20
-2168.29310541174
 10
-1815.902430405406
 20
-2168.133105406429
 10
-1815.752430406253
 20
-2167.95810540062
 10
-1815.619430407002
 20
-2167.770105394376
 10
-1815.503430407658
 20
-2167.569105387703
 10
-1815.405430408211
 20
-2167.357105380667
 10
-1815.328430408647
 20
-2167.135105373295
 10
-1815.271430408967
 20
-2166.904105365627
 10
-1815.236430409165
 20
-2166.66510535769
 10
-1815.224430409234
 20
-2166.419105349525
 10
-1815.224430409234
 20
-2166.340105346899
 10
-1815.224430409234
 20
-2165.097105305636
 10
-1815.224430409234
 20
-2162.31110521314
 10
-1815.224430409234
 20
-2160.393105149466
 10
-1815.224430409234
 20
-2157.519105054049
 10
-1815.224430409234
 20
-2151.837104865417
 10
-1815.224430409234
 20
-2145.723104662438
 10
-1815.224430409234
 20
-2139.589104458789
 10
-1815.224430409234
 20
-2132.592104226497
 10
-1815.224430409234
 20
-2126.077104010203
 10
-1815.224430409234
 20
-2118.918103772532
 10
-1815.224430409234
 20
-2112.71310356653
 10
-1815.224430409234
 20
-2106.072103346058
 10
-1815.224430409234
 20
-2102.585103230287
 10
-1815.224430409234
 20
-2097.142103049585
 10
-1815.224430409234
 20
-2087.527102730376
 10
-1815.224430409234
 20
-2075.296102324317
 10
-1815.224430409234
 20
-2058.327101760963
 10
-1815.224430409234
 20
-2026.892100717342
 10
-1815.224430409234
 20
-1998.589099777706
 10
-1815.224430409234
 20
-1954.146098302238
 10
-1815.224430409234
 20
-1902.008096571299
 10
-1815.224430409234
 20
-1854.021094978173
 10
-1815.224430409234
 20
-1826.191094478265
  0
LWPOLYLINE
  5
19D6
330
A
100
AcDbEntity
  8
HEWI
  6
CUSTOM
 62
    18
420
        0
370
     9
100
AcDbPolyline
 90
       16
 70
     0
 43
0.0
 10
-1820.224430500217
 20
-1973.21288804536
 10
-1844.724430242709
 20
-1973.21288804536
 10
-1844.85343024198
 20
-1973.229888045926
 10
-1844.974430241297
 20
-1973.279888047581
 10
-1845.078430240709
 20
-1973.358888050206
 10
-1845.157430240261
 20
-1973.462888053661
 10
-1845.207430239981
 20
-1973.583888057676
 10
-1845.224430239885
 20
-1973.71288806196
 10
-1845.224430239885
 20
-2027.712889854715
 10
-1845.207430239981
 20
-2027.841889858995
 10
-1845.157430240261
 20
-2027.962889863017
 10
-1845.078430240709
 20
-2028.066889866469
 10
-1844.974430241297
 20
-2028.14588986909
 10
-1844.85343024198
 20
-2028.195889870747
 10
-1844.724430242709
 20
-2028.212889871316
 10
-1820.224430500217
 20
-2028.212889871316
  0
LWPOLYLINE
  5
19D7
330
A
100
AcDbEntity
  8
HEWI
  6
CUSTOM
 62
    18
420
        0
370
     9
100
AcDbPolyline
 90
       16
 70
     0
 43
0.0
 10
-1815.224430290025
 20
-2028.212889871316
 10
-1790.724430547533
 20
-2028.212889871316
 10
-1790.595430548262
 20
-2028.195889870747
 10
-1790.474430548945
 20
-2028.14588986909
 10
-1790.370430549533
 20
-2028.066889866469
 10
-1790.291430549978
 20
-2027.962889863017
 10
-1790.24143055026
 20
-2027.841889858995
 10
-1790.224430550356
 20
-2027.712889854715
 10
-1790.224430550356
 20
-1973.71288806196
 10
-1790.24143055026
 20
-1973.583888057676
 10
-1790.291430549978
 20
-1973.462888053661
 10
-1790.370430549533
 20
-1973.358888050206
 10
-1790.474430548945
 20
-1973.279888047581
 10
-1790.595430548262
 20
-1973.229888045926
 10
-1790.724430547533
 20
-1973.21288804536
 10
-1815.224430290025
 20
-1973.21288804536
  0
LWPOLYLINE
  5
19D8
330
A
100
AcDbEntity
  8
HEWI
  6
CUSTOM
 62
    18
420
        0
370
     9
100
AcDbPolyline
 90
       16
 70
     0
 43
0.0
 10
-1815.224428323071
 20
-2040.712890286304
 10
-1778.224430618093
 20
-2040.712890286304
 10
-1778.095430618822
 20
-2040.695890285736
 10
-1777.974430619505
 20
-2040.645890284078
 10
-1777.870430620093
 20
-2040.566890281457
 10
-1777.791430620541
 20
-2040.462890278005
 10
-1777.741430620821
 20
-2040.341890273985
 10
-1777.724430620918
 20
-2040.212890269704
 10
-1777.724430620918
 20
-1961.212887646972
 10
-1777.741430620821
 20
-1961.083887642685
 10
-1777.791430620541
 20
-1960.96288763867
 10
-1777.870430620093
 20
-1960.858887635217
 10
-1777.974430619505
 20
-1960.779887632593
 10
-1778.095430618822
 20
-1960.729887630932
 10
-1778.224430618093
 20
-1960.712887630372
 10
-1815.224430677453
 20
-1960.712887630372
  0
LWPOLYLINE
  5
19D9
330
A
100
AcDbEntity
  8
HEWI
  6
CUSTOM
 62
    18
420
        0
370
     9
100
AcDbPolyline
 90
       16
 70
     0
 43
0.0
 10
-1820.22443246717
 20
-1960.712887630372
 10
-1857.224430172147
 20
-1960.712887630372
 10
-1857.353430171416
 20
-1960.729887630932
 10
-1857.474430170736
 20
-1960.779887632593
 10
-1857.578430170148
 20
-1960.858887635217
 10
-1857.6574301697
 20
-1960.96288763867
 10
-1857.70743016942
 20
-1961.083887642685
 10
-1857.724430169325
 20
-1961.212887646972
 10
-1857.724430169325
 20
-2040.212890269704
 10
-1857.70743016942
 20
-2040.341890273985
 10
-1857.6574301697
 20
-2040.462890278005
 10
-1857.578430170148
 20
-2040.566890281457
 10
-1857.474430170736
 20
-2040.645890284078
 10
-1857.353430171416
 20
-2040.695890285736
 10
-1857.224430172147
 20
-2040.712890286304
 10
-1820.224430112786
 20
-2040.712890286304
  0
LWPOLYLINE
  5
19DA
330
A
100
AcDbEntity
  8
HEWI
  6
CUSTOM
 62
    18
420
        0
370
     9
100
AcDbPolyline
 90
       35
 70
     0
 43
0.0
 10
-1824.520430356758
 20
-1822.620261467184
 10
-1824.520430356758
 20
-1825.191094445065
 10
-1824.501430356864
 20
-1825.386094451536
 10
-1824.444430357188
 20
-1825.573094457748
 10
-1824.351430357715
 20
-1825.746094463491
 10
-1824.227430358412
 20
-1825.898094468535
 10
-1824.076430359267
 20
-1826.02209447265
 10
-1823.903430360241
 20
-1826.114094475706
 10
-1823.715430361303
 20
-1826.171094477602
 10
-1823.520430362404
 20
-1826.191094478265
 10
-1823.405430363054
 20
-1826.191094478265
 10
-1823.063430364982
 20
-1826.191094478265
 10
-1822.509430368111
 20
-1826.191094478265
 10
-1821.763430372321
 20
-1826.191094478265
 10
-1820.85343037746
 20
-1826.191094478265
 10
-1819.816430383314
 20
-1826.191094478265
 10
-1818.691430389661
 20
-1826.191094478265
 10
-1817.520430396271
 20
-1826.191094478265
 10
-1816.349430402884
 20
-1826.191094478265
 10
-1815.224430409234
 20
-1826.191094478265
 10
-1814.187430415089
 20
-1826.191094478265
 10
-1813.277430420225
 20
-1826.191094478265
 10
-1812.531430424437
 20
-1826.191094478265
 10
-1811.977430427564
 20
-1826.191094478265
 10
-1811.635430429494
 20
-1826.191094478265
 10
-1811.520430430144
 20
-1826.191094478265
 10
-1811.325430431242
 20
-1826.171094477602
 10
-1811.137430432307
 20
-1826.114094475706
 10
-1810.964430433282
 20
-1826.02209447265
 10
-1810.813430434134
 20
-1825.898094468535
 10
-1810.689430434833
 20
-1825.746094463491
 10
-1810.59643043536
 20
-1825.573094457748
 10
-1810.53943043568
 20
-1825.386094451536
 10
-1810.520430435787
 20
-1825.191094445065
 10
-1810.520430435787
 20
-1822.625028493861
  0
CIRCLE
  5
19DC
330
A
100
AcDbEntity
  8
HEWI
100
AcDbCircle
 10
-1817.515380396316
 20
-1807.791597499998
 30
0.0
 40
16.2
  0
CIRCLE
  5
19DD
330
A
100
AcDbEntity
  8
HEWI
100
AcDbCircle
 10
1817.515380396316
 20
-1807.791597499998
 30
0.0
 40
16.4
210
0.0
220
0.0
230
-1.0
  0
LINE
  5
19EC
330
A
100
AcDbEntity
  8
HEWI
  6
STANDARD
 62
     7
100
AcDbLine
 10
-751.0908301605781
 20
-1791.385299500017
 30
0.0
 11
-751.290830160578
 21
-1791.585299500017
 31
0.0
  0
LINE
  5
19ED
330
A
100
AcDbEntity
  8
HEWI
  6
STANDARD
 62
     7
100
AcDbLine
 10
-751.290830160578
 20
-1823.985299500017
 30
0.0
 11
-751.0908301605781
 21
-1824.185299500017
 31
0.0
  0
LINE
  5
19EE
330
A
100
AcDbEntity
  8
HEWI
  6
STANDARD
 62
     7
100
AcDbLine
 10
-748.4908301605778
 20
-1824.185299500017
 30
0.0
 11
-748.2908301605761
 21
-1823.985299500017
 31
0.0
  0
LINE
  5
19EF
330
A
100
AcDbEntity
  8
HEWI
  6
STANDARD
 62
     7
100
AcDbLine
 10
-748.2908301605761
 20
-1791.585299500017
 30
0.0
 11
-748.4908301605778
 21
-1791.385299500017
 31
0.0
  0
LINE
  5
19F0
330
A
100
AcDbEntity
  8
HEWI
  6
STANDARD
 62
     7
100
AcDbLine
 10
-751.0908301605781
 20
-1824.185299500017
 30
0.0
 11
-748.4908301605778
 21
-1824.185299500017
 31
0.0
  0
LINE
  5
19F1
330
A
100
AcDbEntity
  8
HEWI
  6
STANDARD
 62
     7
100
AcDbLine
 10
-748.4908301605778
 20
-1791.385299500017
 30
0.0
 11
-751.0908301605781
 21
-1791.385299500017
 31
0.0
  0
LINE
  5
19F2
330
A
100
AcDbEntity
  8
HEWI
  6
STANDARD
 62
     7
100
AcDbLine
 10
-751.0908301605781
 20
-1824.185299500017
 30
0.0
 11
-751.0908301605781
 21
-1791.385299500017
 31
0.0
  0
LINE
  5
19F3
330
A
100
AcDbEntity
  8
HEWI
  6
STANDARD
 62
     7
100
AcDbLine
 10
-751.290830160578
 20
-1791.585299500017
 30
0.0
 11
-751.290830160578
 21
-1807.785299500017
 31
0.0
  0
LINE
  5
19F4
330
A
100
AcDbEntity
  8
HEWI
  6
STANDARD
 62
     7
100
AcDbLine
 10
-751.290830160578
 20
-1807.785299500017
 30
0.0
 11
-751.290830160578
 21
-1823.985299500017
 31
0.0
  0
LINE
  5
19F5
330
A
100
AcDbEntity
  8
HEWI
  6
STANDARD
 62
     7
100
AcDbLine
 10
-748.2908301605761
 20
-1791.585299500017
 30
0.0
 11
-748.2908301605761
 21
-1807.785299500017
 31
0.0
  0
LINE
  5
19F6
330
A
100
AcDbEntity
  8
HEWI
  6
STANDARD
 62
     7
100
AcDbLine
 10
-748.2908301605761
 20
-1807.785299500017
 30
0.0
 11
-748.2908301605761
 21
-1823.985299500017
 31
0.0
  0
LINE
  5
19F7
330
A
100
AcDbEntity
  8
HEWI
  6
STANDARD
 62
     7
100
AcDbLine
 10
-748.4908301605778
 20
-1807.785299500017
 30
0.0
 11
-748.4908301605778
 21
-1791.385299500017
 31
0.0
  0
LINE
  5
19F8
330
A
100
AcDbEntity
  8
HEWI
  6
STANDARD
 62
     7
100
AcDbLine
 10
-748.4908301605778
 20
-1824.185299500017
 30
0.0
 11
-748.4908301605778
 21
-1807.785299500017
 31
0.0
  0
LINE
  5
19F9
330
A
100
AcDbEntity
  8
HEWI
  6
STANDARD
 62
     7
100
AcDbLine
 10
-771.541120160577
 20
-1822.644293500017
 30
0.0
 11
-772.5126541605782
 21
-1822.407395500017
 31
0.0
  0
LINE
  5
19FA
330
A
100
AcDbEntity
  8
HEWI
  6
STANDARD
 62
     7
100
AcDbLine
 10
-771.2908301605762
 20
-1819.979035500017
 30
0.0
 11
-771.2908301605762
 21
-1820.585299500017
 31
0.0
  0
LINE
  5
19FB
330
A
100
AcDbEntity
  8
HEWI
  6
STANDARD
 62
     7
100
AcDbLine
 10
-772.2908301605762
 20
-1821.160389500017
 30
0.0
 11
-772.2908301605762
 21
-1820.290217500017
 31
0.0
  0
LINE
  5
19FC
330
A
100
AcDbEntity
  8
HEWI
  6
STANDARD
 62
     7
100
AcDbLine
 10
-856.040540160578
 20
-1822.644293500017
 30
0.0
 11
-855.0690061605768
 21
-1822.407395500017
 31
0.0
  0
LINE
  5
19FD
330
A
100
AcDbEntity
  8
HEWI
  6
STANDARD
 62
     7
100
AcDbLine
 10
-772.2908301605762
 20
-1820.290217500017
 30
0.0
 11
-855.2908301605757
 21
-1820.290217500017
 31
0.0
  0
LINE
  5
19FE
330
A
100
AcDbEntity
  8
HEWI
  6
STANDARD
 62
     7
100
AcDbLine
 10
-771.2908301605762
 20
-1822.407395500017
 30
0.0
 11
-855.0690061605768
 21
-1822.407395500017
 31
0.0
  0
LINE
  5
19FF
330
A
100
AcDbEntity
  8
HEWI
  6
STANDARD
 62
     7
100
AcDbLine
 10
-856.290830160578
 20
-1820.585299500017
 30
0.0
 11
-856.290830160578
 21
-1819.979035500017
 31
0.0
  0
LINE
  5
1A00
330
A
100
AcDbEntity
  8
HEWI
  6
STANDARD
 62
     7
100
AcDbLine
 10
-855.2908301605757
 20
-1820.290217500017
 30
0.0
 11
-855.2908301605757
 21
-1821.160389500017
 31
0.0
  0
LINE
  5
1A01
330
A
100
AcDbEntity
  8
HEWI
  6
STANDARD
 62
     7
100
AcDbLine
 10
-771.2908301605762
 20
-1819.979047500017
 30
0.0
 11
-856.290830160578
 21
-1819.979047500017
 31
0.0
  0
LINE
  5
1A02
330
A
100
AcDbEntity
  8
HEWI
  6
STANDARD
 62
     7
100
AcDbLine
 10
-771.2908301605762
 20
-1819.979047500017
 30
0.0
 11
-771.2908301605762
 21
-1820.285299500017
 31
0.0
  0
LINE
  5
1A03
330
A
100
AcDbEntity
  8
HEWI
  6
STANDARD
 62
     7
100
AcDbLine
 10
-856.290830160578
 20
-1820.285299500017
 30
0.0
 11
-856.290830160578
 21
-1819.979047500017
 31
0.0
  0
ELLIPSE
  5
1A04
330
A
100
AcDbEntity
  8
HEWI
  6
STANDARD
 62
     7
100
AcDbEllipse
 10
-772.2908301605762
 20
-1820.585299500017
 30
0.0
 11
1.0
 21
0.0000000000000018
 31
0.0
210
0.0
220
0.0
230
1.0
 40
0.57509
 41
4.71238898038469
 42
6.283185307179563
  0
ELLIPSE
  5
1A05
330
A
100
AcDbEntity
  8
HEWI
  6
STANDARD
 62
     7
100
AcDbEllipse
 10
-855.2908301605757
 20
-1820.585299500017
 30
0.0
 11
-1.0
 21
-0.0000000000000017
 31
0.0
210
0.0
220
0.0
230
1.0
 40
0.57509
 41
0.0
 42
1.570796326794897
  0
SPLINE
  5
1A06
330
A
100
AcDbEntity
  8
HEWI
  6
STANDARD
 62
     7
100
AcDbSpline
210
0.0
220
0.0
230
1.0
 70
     8
 71
     3
 72
    10
 73
     6
 74
     0
 42
0.000000001
 43
0.0000000001
 40
0.0
 40
0.0
 40
0.0
 40
0.0
 40
0.5631963510114814
 40
0.5631963510114814
 40
1.0
 40
1.0
 40
1.0
 40
1.0
 10
-771.2908303419622
 20
-1820.585299559681
 30
0.0
 10
-771.2908303419622
 20
-1820.931614166813
 30
0.0
 10
-771.3134578148542
 20
-1821.319704855295
 30
0.0
 10
-771.4065203190698
 20
-1822.019576969131
 30
0.0
 10
-771.4657699699387
 20
-1822.335277948188
 30
0.0
 10
-771.5411198046754
 20
-1822.644293486758
 30
0.0
  0
SPLINE
  5
1A07
330
A
100
AcDbEntity
  8
HEWI
  6
STANDARD
 62
     7
100
AcDbSpline
210
0.0
220
0.0
230
1.0
 70
     8
 71
     3
 72
    10
 73
     6
 74
     0
 42
0.000000001
 43
0.0000000001
 40
0.0
 40
0.0
 40
0.0
 40
0.0
 40
0.4861134168230314
 40
0.4861134168230314
 40
1.0
 40
1.0
 40
1.0
 40
1.0
 10
-772.5126544786212
 20
-1822.407396088454
 30
0.0
 10
-772.4393089151113
 20
-1822.201537403838
 30
0.0
 10
-772.382031194144
 20
-1821.986512530487
 30
0.0
 10
-772.3071302730354
 20
-1821.562663887104
 30
0.0
 10
-772.2908303419626
 20
-1821.34898253097
 30
0.0
 10
-772.2908303419622
 20
-1821.160389607408
 30
0.0
  0
SPLINE
  5
1A08
330
A
100
AcDbEntity
  8
HEWI
  6
STANDARD
 62
     7
100
AcDbSpline
210
0.0000000000000013
220
-0.0000000000000017
230
1.0
 70
     8
 71
     3
 72
    12
 73
     8
 74
     0
 42
0.000000001
 43
0.0000000001
 40
0.0
 40
0.0
 40
0.0
 40
0.0
 40
0.4202079642026861
 40
0.4202079642026861
 40
0.8401692150779277
 40
0.8401692150779277
 40
1.0
 40
1.0
 40
1.0
 40
1.0
 10
-772.2908303419626
 20
-1820.290216601592
 30
0.0000000000000002
 10
-772.1801293076619
 20
-1820.290216601592
 30
0.0000000000000002
 10
-772.0679041615567
 20
-1820.270979762549
 30
-0.0000000000000002
 10
-771.8590977065909
 20
-1820.197522606505
 30
-0.0000000000000002
 10
-771.7596478677173
 20
-1820.142347373908
 30
-0.0000000000000002
 10
-771.6401436013689
 20
-1820.047215954186
 30
-0.0000000000000002
 10
-771.608727316197
 20
-1820.018736334258
 30
-0.0000000000000002
 10
-771.5791621660342
 20
-1819.988377903246
 30
-0.0000000000000002
  0
SPLINE
  5
1A09
330
A
100
AcDbEntity
  8
HEWI
  6
STANDARD
 62
     7
100
AcDbSpline
210
0.0
220
0.0
230
1.0
 70
     8
 71
     3
 72
    10
 73
     6
 74
     0
 42
0.000000001
 43
0.0000000001
 40
0.0
 40
0.0
 40
0.0
 40
0.0
 40
0.5635302216462811
 40
0.5635302216462811
 40
1.0
 40
1.0
 40
1.0
 40
1.0
 10
-856.0405408792458
 20
-1822.644293486758
 30
0.0
 10
-856.1372011140838
 20
-1822.247882338275
 30
0.0
 10
-856.2070841973495
 20
-1821.839023307282
 30
0.0
 10
-856.277442718791
 20
-1821.149752613824
 30
0.0
 10
-856.2908303419622
 20
-1820.85521926638
 30
0.0
 10
-856.2908303419622
 20
-1820.585299559677
 30
0.0
  0
SPLINE
  5
1A0A
330
A
100
AcDbEntity
  8
HEWI
  6
STANDARD
 62
     7
100
AcDbSpline
210
0.0
220
0.0
230
1.0
 70
     8
 71
     3
 72
    10
 73
     6
 74
     0
 42
0.000000001
 43
0.0000000001
 40
0.0
 40
0.0
 40
0.0
 40
0.0
 40
0.4830490318618912
 40
0.4830490318618912
 40
1.0
 40
1.0
 40
1.0
 40
1.0
 10
-855.2908303419622
 20
-1821.160389607408
 30
0.0
 10
-855.2908303419622
 20
-1821.338008227222
 30
0.0
 10
-855.2764981691829
 20
-1821.537636425891
 30
0.0
 10
-855.2065350818562
 20
-1821.959800185245
 30
0.0
 10
-855.1468549438281
 20
-1822.188898361465
 30
0.0
 10
-855.0690062053018
 20
-1822.407396088454
 30
0.0
  0
SPLINE
  5
1A0B
330
A
100
AcDbEntity
  8
HEWI
  6
STANDARD
 62
     7
100
AcDbSpline
210
0.0
220
0.0
230
1.0
 70
     8
 71
     3
 72
    12
 73
     8
 74
     0
 42
0.000000001
 43
0.0000000001
 40
0.0
 40
0.0
 40
0.0
 40
0.0
 40
0.3099027414590628
 40
0.3099027414590628
 40
0.7381692089327201
 40
0.7381692089327201
 40
1.0
 40
1.0
 40
1.0
 40
1.0
 10
-856.0036202166397
 20
-1819.987246883984
 30
0.0
 10
-855.946351021444
 20
-1820.046077695616
 30
0.0
 10
-855.8816911216258
 20
-1820.098241539139
 30
0.0
 10
-855.716418334477
 20
-1820.200682204513
 30
0.0
 10
-855.6087891639895
 20
-1820.244275240591
 30
0.0
 10
-855.4304494967086
 20
-1820.282741244191
 30
0.0
 10
-855.3604463565889
 20
-1820.290216601592
 30
0.0
 10
-855.2908303419631
 20
-1820.290216601592
 30
0.0
  0
SPLINE
  5
1A0C
330
A
100
AcDbEntity
  8
HEWI
  6
STANDARD
 62
     7
100
AcDbSpline
210
0.0
220
0.0
230
1.0
 70
     8
 71
     3
 72
    26
 73
    22
 74
     0
 42
0.000000001
 43
0.0000000001
 40
0.0
 40
0.0
 40
0.0
 40
0.0
 40
0.0625
 40
0.0625
 40
0.1249999999999999
 40
0.1249999999999999
 40
0.25
 40
0.25
 40
0.3750000000000001
 40
0.3750000000000001
 40
0.5000000000000001
 40
0.5000000000000001
 40
0.6250000000000001
 40
0.6250000000000001
 40
0.7500000000000002
 40
0.7500000000000002
 40
0.8750000000000001
 40
0.8750000000000001
 40
0.9375
 40
0.9375
 40
1.0
 40
1.0
 40
1.0
 40
1.0
 10
-856.0405408792458
 20
-1822.644293486758
 30
0.0
 10
-855.5575470971289
 20
-1824.625088590412
 30
0.0
 10
-854.4376379112659
 20
-1826.364157066953
 30
0.0
 10
-851.6785627110898
 20
-1829.34325272833
 30
0.0
 10
-850.0860428484298
 20
-1830.557023795556
 30
0.0
 10
-844.9703855965108
 20
-1833.760556506161
 30
0.0
 10
-841.2296856235707
 20
-1835.240210964146
 30
0.0
 10
-833.5695172355068
 20
-1837.528003935341
 30
0.0
 10
-829.6157258067497
 20
-1838.314074534637
 30
0.0
 10
-821.7423709272939
 20
-1839.339595488672
 30
0.0
 10
-817.7875621608881
 20
-1839.584232928672
 30
0.0
 10
-809.8450021123422
 20
-1839.586359376522
 30
0.0
 10
-805.8328979068356
 20
-1839.340190732031
 30
0.0
 10
-797.9114572929907
 20
-1838.305539907605
 30
0.0
 10
-794.0038178408189
 20
-1837.526330024431
 30
0.0
 10
-786.337100530673
 20
-1835.234953438092
 30
0.0
 10
-782.5511603374653
 20
-1833.729567558322
 30
0.0
 10
-777.4705801917848
 20
-1830.537962230268
 30
0.0
 10
-775.887011929332
 20
-1829.328629663811
 30
0.0
 10
-773.138807551009
 20
-1826.355758864264
 30
0.0
 10
-772.0228363386191
 20
-1824.619850496201
 30
0.0
 10
-771.5411198046754
 20
-1822.644293486758
 30
0.0
  0
SPLINE
  5
1A0D
330
A
100
AcDbEntity
  8
HEWI
  6
STANDARD
 62
     7
100
AcDbSpline
210
0.0
220
0.0
230
1.0
 70
     8
 71
     3
 72
    24
 73
    20
 74
     0
 42
0.000000001
 43
0.0000000001
 40
0.0
 40
0.0
 40
0.0
 40
0.0
 40
0.0625000000000001
 40
0.0625000000000001
 40
0.1250000000000001
 40
0.1250000000000001
 40
0.2500000000000001
 40
0.2500000000000001
 40
0.3749999999999999
 40
0.3749999999999999
 40
0.5
 40
0.5
 40
0.75
 40
0.75
 40
0.8749999999999998
 40
0.8749999999999998
 40
0.9375
 40
0.9375
 40
1.0
 40
1.0
 40
1.0
 40
1.0
 10
-855.0690062053018
 20
-1822.407396088454
 30
0.0
 10
-854.5979602085967
 20
-1824.339192393939
 30
0.0
 10
-853.4550442091568
 20
-1826.006067770058
 30
0.0
 10
-850.74589739146
 20
-1828.816300268604
 30
0.0
 10
-849.1443487484239
 20
-1829.996102649448
 30
0.0
 10
-844.1539671778109
 20
-1833.022297384203
 30
0.0
 10
-840.4634347586279
 20
-1834.449506400801
 30
0.0
 10
-833.0224469173341
 20
-1836.621118563193
 30
0.0
 10
-829.2258192480817
 20
-1837.364373182593
 30
0.0
 10
-821.5215899565018
 20
-1838.351573106645
 30
0.0
 10
-817.6173968672665
 20
-1838.586622458995
 30
0.0
 10
-806.0405486816033
 20
-1838.582637038971
 30
0.0
 10
-798.3685712869751
 20
-1837.730478914769
 30
0.0
 10
-787.0998825159026
 20
-1834.445338893093
 30
0.0
 10
-783.4143495799098
 20
-1833.016035478597
 30
0.0
 10
-778.4280866794156
 20
-1829.989589060114
 30
0.0
 10
-776.8345261650643
 20
-1828.815994629875
 30
0.0
 10
-774.1198401862898
 20
-1825.99805810114
 30
0.0000000000000002
 10
-772.9825949947117
 20
-1824.334658731874
 30
0.0
 10
-772.5126544786212
 20
-1822.407396088454
 30
0.0
  0
LINE
  5
1A14
330
A
100
AcDbEntity
  8
HEWI
  6
STANDARD
 62
     7
100
AcDbLine
 10
-921.0908211605751
 20
-1796.180933000014
 30
0.0
 11
-921.0908211605751
 21
-1721.730936000014
 31
0.0
  0
LINE
  5
1A15
330
A
100
AcDbEntity
  8
HEWI
  6
STANDARD
 62
     7
100
AcDbLine
 10
-920.9228211605742
 20
-1796.613901000014
 30
0.0
 11
-920.7938271605762
 21
-1796.770914000014
 31
0.0
  0
LINE
  5
1A16
330
A
100
AcDbEntity
  8
HEWI
  6
STANDARD
 62
     7
100
AcDbLine
 10
-920.7888301605754
 20
-1721.312922000014
 30
0.0
 11
-920.6318271605741
 21
-1721.201914000014
 31
0.0
  0
LINE
  5
1A17
330
A
100
AcDbEntity
  8
HEWI
  6
STANDARD
 62
     7
100
AcDbLine
 10
-920.8348261605742
 20
-1721.344889000014
 30
0.0
 11
-920.7888301605754
 21
-1721.312922000014
 31
0.0
  0
LINE
  5
1A18
330
A
100
AcDbEntity
  8
HEWI
  6
STANDARD
 62
     7
100
AcDbLine
 10
-921.0158241605764
 20
-1796.460932000014
 30
0.0
 11
-920.9228211605742
 21
-1796.613901000014
 31
0.0
  0
LINE
  5
1A19
330
A
100
AcDbEntity
  8
HEWI
  6
STANDARD
 62
     7
100
AcDbLine
 10
-920.6318271605741
 20
-1721.201914000014
 30
0.0
 11
-920.4368291605751
 21
-1721.091898000014
 31
0.0
  0
LINE
  5
1A1A
330
A
100
AcDbEntity
  8
HEWI
  6
STANDARD
 62
     7
100
AcDbLine
 10
-920.4368291605751
 20
-1721.091898000014
 30
0.0
 11
-920.2128301605762
 21
-1720.987910000013
 31
0.0
  0
LINE
  5
1A1B
330
A
100
AcDbEntity
  8
HEWI
  6
STANDARD
 62
     7
100
AcDbLine
 10
-920.2128301605762
 20
-1720.987910000013
 30
0.0
 11
-919.961823160575
 21
-1720.889948000016
 31
0.0
  0
LINE
  5
1A1C
330
A
100
AcDbEntity
  8
HEWI
  6
STANDARD
 62
     7
100
AcDbLine
 10
-921.0838211605759
 20
-1796.262949000014
 30
0.0
 11
-921.0158241605764
 21
-1796.460932000014
 31
0.0
  0
LINE
  5
1A1D
330
A
100
AcDbEntity
  8
HEWI
  6
STANDARD
 62
     7
100
AcDbLine
 10
-919.961823160575
 20
-1720.889948000016
 30
0.0
 11
-919.6878231605751
 21
-1720.801905000016
 31
0.0
  0
LINE
  5
1A1E
330
A
100
AcDbEntity
  8
HEWI
  6
STANDARD
 62
     7
100
AcDbLine
 10
-919.6878231605751
 20
-1720.801905000016
 30
0.0
 11
-919.3928231605751
 21
-1720.725916000014
 31
0.0
  0
LINE
  5
1A1F
330
A
100
AcDbEntity
  8
HEWI
  6
STANDARD
 62
     7
100
AcDbLine
 10
-919.3928231605751
 20
-1720.725916000014
 30
0.0
 11
-919.0838231605763
 21
-1720.664881000014
 31
0.0
  0
LINE
  5
1A20
330
A
100
AcDbEntity
  8
HEWI
  6
STANDARD
 62
     7
100
AcDbLine
 10
-919.0838231605763
 20
-1720.664881000014
 30
0.0
 11
-918.7588291605752
 21
-1720.618876000014
 31
0.0
  0
LINE
  5
1A21
330
A
100
AcDbEntity
  8
HEWI
  6
STANDARD
 62
     7
100
AcDbLine
 10
-921.0908211605751
 20
-1796.180933000014
 30
0.0
 11
-921.0838211605759
 21
-1796.262949000014
 31
0.0
  0
LINE
  5
1A22
330
A
100
AcDbEntity
  8
HEWI
  6
STANDARD
 62
     7
100
AcDbLine
 10
-918.7588291605752
 20
-1720.618876000014
 30
0.0
 11
-918.4288291605753
 21
-1720.590876000014
 31
0.0
  0
LINE
  5
1A23
330
A
100
AcDbEntity
  8
HEWI
  6
STANDARD
 62
     7
100
AcDbLine
 10
-918.4288291605753
 20
-1720.590876000014
 30
0.0
 11
-918.0908281605752
 21
-1720.581949000014
 31
0.0
  0
LINE
  5
1A24
330
A
100
AcDbEntity
  8
HEWI
  6
STANDARD
 62
     7
100
AcDbLine
 10
-921.0908211605751
 20
-1721.730936000014
 30
0.0
 11
-921.0718231605751
 21
-1721.633890000014
 31
0.0
  0
LINE
  5
1A25
330
A
100
AcDbEntity
  8
HEWI
  6
STANDARD
 62
     7
100
AcDbLine
 10
-919.3928231605751
 20
-1797.626932000014
 30
0.0
 11
-919.0838231605763
 21
-1797.717951000014
 31
0.0
  0
LINE
  5
1A26
330
A
100
AcDbEntity
  8
HEWI
  6
STANDARD
 62
     7
100
AcDbLine
 10
-919.6908271605753
 20
-1797.511881000014
 30
0.0
 11
-919.3928231605751
 21
-1797.626932000014
 31
0.0
  0
LINE
  5
1A27
330
A
100
AcDbEntity
  8
HEWI
  6
STANDARD
 62
     7
100
AcDbLine
 10
-919.961823160575
 20
-1797.383936000015
 30
0.0
 11
-919.6908271605753
 21
-1797.511881000014
 31
0.0
  0
LINE
  5
1A28
330
A
100
AcDbEntity
  8
HEWI
  6
STANDARD
 62
     7
100
AcDbLine
 10
-921.0718231605751
 20
-1721.633890000014
 30
0.0
 11
-921.0158241605764
 21
-1721.530894000014
 31
0.0
  0
LINE
  5
1A29
330
A
100
AcDbEntity
  8
HEWI
  6
STANDARD
 62
     7
100
AcDbLine
 10
-920.2128301605762
 20
-1797.240885000014
 30
0.0
 11
-919.961823160575
 21
-1797.383936000015
 31
0.0
  0
LINE
  5
1A2A
330
A
100
AcDbEntity
  8
HEWI
  6
STANDARD
 62
     7
100
AcDbLine
 10
-920.4368291605751
 20
-1797.087916000014
 30
0.0
 11
-920.2128301605762
 21
-1797.240885000014
 31
0.0
  0
LINE
  5
1A2B
330
A
100
AcDbEntity
  8
HEWI
  6
STANDARD
 62
     7
100
AcDbLine
 10
-920.5938231605751
 20
-1796.962946000014
 30
0.0
 11
-920.4368291605751
 21
-1797.087916000014
 31
0.0
  0
LINE
  5
1A2C
330
A
100
AcDbEntity
  8
HEWI
  6
STANDARD
 62
     7
100
AcDbLine
 10
-920.7938271605762
 20
-1796.770914000014
 30
0.0
 11
-920.5938231605751
 21
-1796.962946000014
 31
0.0
  0
LINE
  5
1A2D
330
A
100
AcDbEntity
  8
HEWI
  6
STANDARD
 62
     7
100
AcDbLine
 10
-921.0158241605764
 20
-1721.530894000014
 30
0.0
 11
-920.8348261605742
 21
-1721.344889000014
 31
0.0
  0
ARC
  5
1A2E
330
A
100
AcDbEntity
  8
HEWI
  6
STANDARD
 62
     7
100
AcDbCircle
 10
-918.0919771605749
 20
-1793.844450000014
 30
0.0
 40
3.998470999999998
100
AcDbArc
 50
255.6374810000093
 51
270.0164619999969
  0
LINE
  5
1A2F
330
A
100
AcDbEntity
  8
HEWI
100
AcDbLine
 10
-921.2908301605763
 20
-1721.055855500013
 30
0.0
 11
-961.2908301605761
 21
-1721.055855500013
 31
0.0
  0
LINE
  5
1A30
330
A
100
AcDbEntity
  8
HEWI
  6
STANDARD
 62
     7
100
AcDbLine
 10
-961.2908301605761
 20
-1796.613811500013
 30
0.0
 11
-921.2908301605763
 21
-1796.613811500013
 31
0.0
  0
LINE
  5
1A31
330
A
100
AcDbEntity
  8
HEWI
  6
STANDARD
 62
     7
100
AcDbLine
 10
-921.2908301605763
 20
-1796.113811500012
 30
0.0
 11
-921.2908301605763
 21
-1796.613811500013
 31
0.0
  0
LINE
  5
1A32
330
A
100
AcDbEntity
  8
HEWI
100
AcDbLine
 10
-921.2908301605763
 20
-1721.055855500013
 30
0.0
 11
-921.2908301605763
 21
-1721.555855500013
 31
0.0
  0
LINE
  5
1A33
330
A
100
AcDbEntity
  8
HEWI
  6
STANDARD
 62
     7
100
AcDbLine
 10
-921.2908301605763
 20
-1721.555855500013
 30
0.0
 11
-921.2908301605763
 21
-1796.113811500012
 31
0.0
  0
LINE
  5
1A34
330
A
100
AcDbEntity
  8
HEWI
100
AcDbLine
 10
-921.2908301605763
 20
-1721.555855500013
 30
0.0
 11
-961.2908301605761
 21
-1721.555855500013
 31
0.0
  0
LINE
  5
1A35
330
A
100
AcDbEntity
  8
HEWI
  6
STANDARD
 62
     7
100
AcDbLine
 10
-961.2908301605761
 20
-1796.113811500012
 30
0.0
 11
-921.2908301605763
 21
-1796.113811500012
 31
0.0
  0
LINE
  5
1A36
330
A
100
AcDbEntity
  8
HEWI
100
AcDbLine
 10
-923.7908301605761
 20
-1724.668263500014
 30
0.0
 11
-923.7908301605761
 21
-1793.168263500013
 31
0.0
  0
LINE
  5
1A37
330
A
100
AcDbEntity
  8
HEWI
100
AcDbLine
 10
-924.7908301605761
 20
-1723.668263500013
 30
0.0
 11
-957.7908301605761
 21
-1723.668263500013
 31
0.0
  0
LINE
  5
1A38
330
A
100
AcDbEntity
  8
HEWI
100
AcDbLine
 10
-924.7908301605761
 20
-1794.168263500013
 30
0.0
 11
-957.7908301605761
 21
-1794.168263500013
 31
0.0
  0
LINE
  5
1A39
330
A
100
AcDbEntity
  8
HEWI
100
AcDbLine
 10
-958.7908301605763
 20
-1724.668263500014
 30
0.0
 11
-958.7908301605763
 21
-1793.168263500013
 31
0.0
  0
LINE
  5
1A3A
330
A
100
AcDbEntity
  8
HEWI
  6
STANDARD
 62
     7
100
AcDbLine
 10
-961.2908301605761
 20
-1796.613811500013
 30
0.0
 11
-961.2908301605761
 21
-1796.113811500012
 31
0.0
  0
LINE
  5
1A3B
330
A
100
AcDbEntity
  8
HEWI
100
AcDbLine
 10
-961.2908301605761
 20
-1721.555855500013
 30
0.0
 11
-961.2908301605761
 21
-1721.055855500013
 31
0.0
  0
LINE
  5
1A3C
330
A
100
AcDbEntity
  8
HEWI
  6
STANDARD
 62
     7
100
AcDbLine
 10
-961.2908301605761
 20
-1721.555855500013
 30
0.0
 11
-961.2908301605761
 21
-1796.113811500012
 31
0.0
  0
LINE
  5
1A3D
330
A
100
AcDbEntity
  8
HEWI
  6
STANDARD
 62
     7
100
AcDbLine
 10
-919.2908301605761
 20
-1797.592995500013
 30
0.0
 11
-919.2908301605761
 21
-1797.392995500014
 31
0.0
  0
LINE
  5
1A3E
330
A
100
AcDbEntity
  8
HEWI
  6
STANDARD
 62
     7
100
AcDbLine
 10
-919.2908301605761
 20
-1720.843495500013
 30
0.0
 11
-919.2908301605761
 21
-1797.392995500014
 31
0.0
  0
LINE
  5
1A3F
330
A
100
AcDbEntity
  8
HEWI
100
AcDbLine
 10
-919.2908301605761
 20
-1720.643495500014
 30
0.0
 11
-919.2908301605761
 21
-1720.843495500013
 31
0.0
  0
LINE
  5
1A40
330
A
100
AcDbEntity
  8
HEWI
100
AcDbLine
 10
-924.0408301605762
 20
-1792.918263500014
 30
0.0
 11
-924.0408301605762
 21
-1758.918263500014
 31
0.0
  0
LINE
  5
1A41
330
A
100
AcDbEntity
  8
HEWI
100
AcDbLine
 10
-957.5408301605762
 20
-1793.918263500013
 30
0.0
 11
-925.0408301605762
 21
-1793.918263500013
 31
0.0
  0
LINE
  5
1A42
330
A
100
AcDbEntity
  8
HEWI
100
AcDbLine
 10
-958.5408301605761
 20
-1792.918263500014
 30
0.0
 11
-958.5408301605761
 21
-1758.918263500014
 31
0.0
  0
LINE
  5
1A43
330
A
100
AcDbEntity
  8
HEWI
100
AcDbLine
 10
-924.0408301605762
 20
-1758.918263500014
 30
0.0
 11
-924.0408301605762
 21
-1724.918263500013
 31
0.0
  0
LINE
  5
1A44
330
A
100
AcDbEntity
  8
HEWI
100
AcDbLine
 10
-925.0408301605762
 20
-1723.918263500013
 30
0.0
 11
-957.5408301605762
 21
-1723.918263500013
 31
0.0
  0
LINE
  5
1A45
330
A
100
AcDbEntity
  8
HEWI
100
AcDbLine
 10
-958.5408301605761
 20
-1758.918263500014
 30
0.0
 11
-958.5408301605761
 21
-1724.918263500013
 31
0.0
  0
ARC
  5
1A46
330
A
100
AcDbEntity
  8
HEWI
100
AcDbCircle
 10
924.7908301605761
 20
-1724.668263500014
 30
0.0
 40
1.0
210
0.0
220
0.0
230
-1.0
100
AcDbArc
 50
90.0
 51
180.0
  0
ARC
  5
1A47
330
A
100
AcDbEntity
  8
HEWI
100
AcDbCircle
 10
924.7908301605761
 20
-1793.168263500013
 30
0.0
 40
1.0
210
0.0
220
0.0
230
-1.0
100
AcDbArc
 50
180.0
 51
270.0
  0
ARC
  5
1A48
330
A
100
AcDbEntity
  8
HEWI
100
AcDbCircle
 10
957.7908301605761
 20
-1724.668263500014
 30
0.0
 40
1.0
210
0.0
220
0.0
230
-1.0
100
AcDbArc
 50
0.000000000000007
 51
90.0
  0
ARC
  5
1A49
330
A
100
AcDbEntity
  8
HEWI
100
AcDbCircle
 10
957.7908301605761
 20
-1793.168263500013
 30
0.0
 40
1.0
210
0.0
220
0.0
230
-1.0
100
AcDbArc
 50
270.0
 51
0.000000000000007
  0
ARC
  5
1A4A
330
A
100
AcDbEntity
  8
HEWI
100
AcDbCircle
 10
-925.0408301605762
 20
-1792.918263500014
 30
0.0
 40
1.0
100
AcDbArc
 50
270.0
 51
0.000000000000007
  0
ARC
  5
1A4B
330
A
100
AcDbEntity
  8
HEWI
100
AcDbCircle
 10
-957.5408301605762
 20
-1792.918263500014
 30
0.0
 40
1.0
100
AcDbArc
 50
180.0
 51
270.0
  0
ARC
  5
1A4C
330
A
100
AcDbEntity
  8
HEWI
100
AcDbCircle
 10
-925.0408301605762
 20
-1724.918263500013
 30
0.0
 40
1.0
100
AcDbArc
 50
0.000000000000007
 51
90.0
  0
ARC
  5
1A4D
330
A
100
AcDbEntity
  8
HEWI
100
AcDbCircle
 10
-957.5408301605762
 20
-1724.918263500013
 30
0.0
 40
1.0
100
AcDbArc
 50
90.0
 51
180.0
  0
ELLIPSE
  5
1A4E
330
A
100
AcDbEntity
  8
HEWI
  6
STANDARD
 62
     7
100
AcDbEllipse
 10
-921.0908301605764
 20
-1796.338029500013
 30
0.0
 11
-0.2
 21
-0.0000000000000001
 31
0.0
210
0.0
220
0.0
230
1.0
 40
0.90136
 41
0.0
 42
0.6599300405254424
  0
SPLINE
  5
1A4F
330
A
100
AcDbEntity
  8
HEWI
100
AcDbSpline
210
0.0
220
0.0
230
1.0
 70
     8
 71
     3
 72
    12
 73
     8
 74
     0
 42
0.000000001
 43
0.0000000001
 40
0.0
 40
0.0
 40
0.0
 40
0.0
 40
0.129584674490289
 40
0.3660981216981058
 40
0.6122957521584437
 40
0.8793126725148667
 40
1.0
 40
1.0
 40
1.0
 40
1.0
 10
-919.5594116141542
 20
-1720.66631270843
 30
0.0
 10
-919.6856968071601
 20
-1720.669360544467
 30
0.0
 10
-920.0261547155792
 20
-1720.693914281979
 30
0.0
 10
-920.5355198079091
 20
-1720.836252803045
 30
0.0
 10
-920.9920960365939
 20
-1721.067335482072
 30
0.0
 10
-921.2585996900084
 20
-1721.309959571309
 30
0.0
 10
-921.2735022889464
 20
-1721.510193366173
 30
0.0
 10
-921.2674608178764
 20
-1721.576360844987
 30
0.0
  0
SPLINE
  5
1A50
330
A
100
AcDbEntity
  8
HEWI
  6
STANDARD
 62
     7
100
AcDbSpline
210
0.0
220
0.0
230
1.0
 70
     8
 71
     3
 72
    16
 73
    12
 74
     0
 42
0.000000001
 43
0.0000000001
 40
0.0
 40
0.0
 40
0.0
 40
0.0
 40
0.1053123592843732
 40
0.1053123592843732
 40
0.3301327988397731
 40
0.3301327988397731
 40
0.6504275187068807
 40
0.6504275187068807
 40
0.9722491720568131
 40
0.9722491720568131
 40
1.0
 40
1.0
 40
1.0
 40
1.0
 10
-919.2908303419603
 20
-1797.556653058289
 30
0.0
 10
-919.373603282977
 20
-1797.556653058289
 30
0.0
 10
-919.456652115768
 20
-1797.55266406514
 30
0.0
 10
-919.7107270422202
 20
-1797.528367247813
 30
0.0
 10
-919.880035055517
 20
-1797.494122038253
 30
0.0
 10
-920.2513588767452
 20
-1797.381526155521
 30
0.0
 10
-920.4458732563221
 20
-1797.288783886916
 30
0.0
 10
-920.7583308363551
 20
-1797.084474185622
 30
0.0
 10
-920.8819461773632
 20
-1796.969417479485
 30
0.0
 10
-920.9716573583174
 20
-1796.845600933103
 30
0.0
 10
-920.9784930516921
 20
-1796.835752527567
 30
0.0
 10
-920.9850379365533
 20
-1796.825893512665
 30
0.0
  0
SPLINE
  5
1A51
330
A
100
AcDbEntity
  8
HEWI
100
AcDbSpline
210
0.0
220
0.0
230
1.0
 70
     8
 71
     3
 72
    16
 73
    12
 74
     0
 42
0.000000001
 43
0.0000000001
 40
0.0
 40
0.0
 40
0.0
 40
0.0
 40
0.1945552639644179
 40
0.1945552639644179
 40
0.3878946385599321
 40
0.3878946385599321
 40
0.5892372746630514
 40
0.5892372746630514
 40
0.8080348914056751
 40
0.8080348914056751
 40
1.0
 40
1.0
 40
1.0
 40
1.0
 10
-919.2908303419603
 20
-1720.84349543071
 30
0.0
 10
-919.4998475499392
 20
-1720.84349543071
 30
0.0
 10
-919.7116754924314
 20
-1720.85801167777
 30
0.0
 10
-920.1049420462291
 20
-1720.911689716433
 30
0.0
 10
-920.2916824304493
 20
-1720.951259208009
 30
0.0
 10
-920.6275893638931
 20
-1721.048233355593
 30
0.0
 10
-920.7792568631152
 20
-1721.107413026992
 30
0.0
 10
-921.0353663106284
 20
-1721.238218700291
 30
0.0
 10
-921.1381533307081
 20
-1721.312164299172
 30
0.0
 10
-921.2609864835712
 20
-1721.448825518914
 30
0.0
 10
-921.2908303419593
 20
-1721.513185554343
 30
0.0
 10
-921.2908303419593
 20
-1721.573840385913
 30
0.0
  0
SPLINE
  5
1A52
330
A
100
AcDbEntity
  8
HEWI
  6
STANDARD
 62
     7
100
AcDbSpline
210
0.0
220
0.0
230
1.0
 70
     8
 71
     3
 72
    16
 73
    12
 74
     0
 42
0.000000001
 43
0.0000000001
 40
0.0
 40
0.0
 40
0.0
 40
0.0
 40
0.2481016251448624
 40
0.2481016251448624
 40
0.4963851440995061
 40
0.4963851440995061
 40
0.7438538839225557
 40
0.7438538839225557
 40
0.9181884979193776
 40
0.9181884979193776
 40
1.0
 40
1.0
 40
1.0
 40
1.0
 10
-921.2908303419581
 20
-1796.338029142677
 30
0.0
 10
-921.2908303419581
 20
-1796.447017104692
 30
0.0
 10
-921.2421468447733
 20
-1796.564895138894
 30
0.0
 10
-921.0588119439021
 20
-1796.796268565121
 30
0.0
 10
-920.9213686631441
 20
-1796.913271612647
 30
0.0
 10
-920.5739541691114
 20
-1797.120993411317
 30
0.0
 10
-920.3575766138369
 20
-1797.215206539724
 30
0.0
 10
-919.9452111259684
 20
-1797.3295439173
 30
0.0
 10
-919.7571480291204
 20
-1797.36427681009
 30
0.0
 10
-919.4750472287902
 20
-1797.388944479281
 30
0.0
 10
-919.382790077188
 20
-1797.392994714266
 30
0.0
 10
-919.2908303419603
 20
-1797.392994714266
 30
0.0
  0
SPLINE
  5
1A53
330
A
100
AcDbEntity
  8
HEWI
100
AcDbSpline
210
0.0
220
0.0
230
1.0
 70
     8
 71
     3
 72
     8
 73
     4
 74
     0
 42
0.000000001
 43
0.0000000001
 40
0.0
 40
0.0
 40
0.0
 40
0.0
 40
1.0
 40
1.0
 40
1.0
 40
1.0
 10
-919.5496677280253
 20
-1720.671601108407
 30
0.0
 10
-919.4638745264924
 20
-1720.665771710712
 30
0.0
 10
-919.3770848319932
 20
-1720.662754130169
 30
0.0
 10
-919.2908303419603
 20
-1720.662754130169
 30
0.0
  0
HATCH
  5
1A54
330
A
100
AcDbEntity
  8
0
  6
Continuous
 62
   242
420
 13443111
100
AcDbHatch
 10
0.0
 20
0.0
 30
0.0
210
0.0
220
0.0
230
1.0
  2
SOLID
 70
     1
 71
     0
 91
        1
 92
        7
 72
     0
 73
     1
 93
       40
 10
-939.1298301273574
 20
-1774.666934932534
 10
-939.144830127349
 20
-1774.410934925486
 10
-939.1898301273222
 20
-1774.157934918519
 10
-939.2628301272811
 20
-1773.91093491172
 10
-939.3648301272232
 20
-1773.674934905226
 10
-939.4938301271499
 20
-1773.452934899108
 10
-939.6468301270624
 20
-1773.245934893414
 10
-939.8238301269602
 20
-1773.058934888267
 10
-940.0208301268481
 20
-1772.893934883723
 10
-940.235830126724
 20
-1772.752934879841
 10
-940.4648301265943
 20
-1772.636934876645
 10
-940.7068301264562
 20
-1772.548934874226
 10
-940.9568301263112
 20
-1772.489934872603
 10
-941.2118301261662
 20
-1772.459934871774
 10
-941.4698301260191
 20
-1772.459934871774
 10
-941.7248301258723
 20
-1772.489934872603
 10
-941.9748301257291
 20
-1772.548934874226
 10
-942.2168301255901
 20
-1772.636934876645
 10
-942.4458301254613
 20
-1772.752934879841
 10
-942.6608301253372
 20
-1772.893934883723
 10
-942.8578301252231
 20
-1773.058934888267
 10
-943.0348301251225
 20
-1773.245934893414
 10
-943.1878301250353
 20
-1773.452934899108
 10
-943.3168301249603
 20
-1773.674934905226
 10
-943.4188301249022
 20
-1773.91093491172
 10
-943.4918301248613
 20
-1774.157934918519
 10
-943.5368301248354
 20
-1774.410934925486
 10
-943.5518301248261
 20
-1774.666934932534
 10
-943.5518301248261
 20
-1778.141935028197
 10
-943.5648301248193
 20
-1778.331935033428
 10
-943.6038301247963
 20
-1778.517935038547
 10
-943.6678301247603
 20
-1778.696935043477
 10
-943.7548301247112
 20
-1778.865935048128
 10
-943.8648301246471
 20
-1779.020935052398
 10
-938.8168301275349
 20
-1779.020935052398
 10
-938.9268301274723
 20
-1778.865935048128
 10
-939.0138301274241
 20
-1778.696935043477
 10
-939.0778301273872
 20
-1778.517935038547
 10
-939.116830127366
 20
-1778.331935033428
 10
-939.1298301273574
 20
-1778.141935028197
 97
        0
 75
     1
 76
     1
 47
0.035064110363633
 98
        1
 10
-941.9234932956211
 20
-1776.826274779371
450
        0
451
        0
460
0.0
461
0.0
452
        0
462
0.0
453
        2
463
0.0
 63
     5
421
      255
463
1.0
 63
     2
421
 16776960
470
LINEAR
1001
GradientColor1ACI
1070
     5
1001
GradientColor2ACI
1070
     2
1001
ACAD
1010
0.0
1020
0.0
1030
0.0
  0
LWPOLYLINE
  5
1A55
330
A
100
AcDbEntity
  8
0
  6
CUSTOM
 62
    18
420
        0
370
     9
100
AcDbPolyline
 90
       40
 70
     1
 43
0.0
 10
-939.2628301272811
 20
-1773.91093491172
 10
-939.3648301272232
 20
-1773.674934905226
 10
-939.4938301271499
 20
-1773.452934899108
 10
-939.6468301270624
 20
-1773.245934893414
 10
-939.8238301269602
 20
-1773.058934888267
 10
-940.0208301268481
 20
-1772.893934883723
 10
-940.235830126724
 20
-1772.752934879841
 10
-940.4648301265943
 20
-1772.636934876645
 10
-940.7068301264562
 20
-1772.548934874226
 10
-940.9568301263112
 20
-1772.489934872603
 10
-941.2118301261662
 20
-1772.459934871774
 10
-941.4698301260191
 20
-1772.459934871774
 10
-941.7248301258723
 20
-1772.489934872603
 10
-941.9748301257291
 20
-1772.548934874226
 10
-942.2168301255901
 20
-1772.636934876645
 10
-942.4458301254613
 20
-1772.752934879841
 10
-942.6608301253372
 20
-1772.893934883723
 10
-942.8578301252231
 20
-1773.058934888267
 10
-943.0348301251225
 20
-1773.245934893414
 10
-943.1878301250353
 20
-1773.452934899108
 10
-943.3168301249603
 20
-1773.674934905226
 10
-943.4188301249022
 20
-1773.91093491172
 10
-943.4918301248613
 20
-1774.157934918519
 10
-943.5368301248354
 20
-1774.410934925486
 10
-943.5518301248261
 20
-1774.666934932534
 10
-943.5518301248261
 20
-1778.141935028197
 10
-943.5648301248193
 20
-1778.331935033428
 10
-943.6038301247963
 20
-1778.517935038547
 10
-943.6678301247603
 20
-1778.696935043477
 10
-943.7548301247112
 20
-1778.865935048128
 10
-943.8648301246471
 20
-1779.020935052398
 10
-938.8168301275349
 20
-1779.020935052398
 10
-938.9268301274723
 20
-1778.865935048128
 10
-939.0138301274241
 20
-1778.696935043477
 10
-939.0778301273872
 20
-1778.517935038547
 10
-939.116830127366
 20
-1778.331935033428
 10
-939.1298301273574
 20
-1778.141935028197
 10
-939.1298301273574
 20
-1774.666934932534
 10
-939.144830127349
 20
-1774.410934925486
 10
-939.1898301273222
 20
-1774.157934918519
  0
LWPOLYLINE
  5
1A56
330
A
100
AcDbEntity
  8
0
  6
CUSTOM
 62
    18
420
        0
370
     9
100
AcDbPolyline
 90
       64
 70
     1
 43
0.0
 10
-948.9258301217502
 20
-1772.949934885262
 10
-948.765830121842
 20
-1772.574934874941
 10
-948.585830121946
 20
-1772.208934864866
 10
-948.3868301220599
 20
-1771.852934855065
 10
-948.3448301220823
 20
-1771.798934853577
 10
-948.2898301221153
 20
-1771.758934852478
 10
-948.2268301221511
 20
-1771.733934851785
 10
-948.1598301221879
 20
-1771.725934851569
 10
-948.0928301222279
 20
-1771.734934851814
 10
-948.0308301222621
 20
-1771.761934852563
 10
-947.9768301222931
 20
-1771.803934853713
 10
-947.9368301223185
 20
-1771.85893485523
 10
-947.911830122331
 20
-1771.921934856964
 10
-947.9038301223363
 20
-1771.988934858811
 10
-947.9128301223314
 20
-1772.055934860654
 10
-947.939830122314
 20
-1772.118934862389
 10
-948.1348301222032
 20
-1772.467934871998
 10
-948.3098301221021
 20
-1772.827934881905
 10
-948.4638301220142
 20
-1773.196934892068
 10
-948.596830121939
 20
-1773.573934902444
 10
-948.7088301218751
 20
-1773.957934913014
 10
-948.7978301218241
 20
-1774.347934923753
 10
-948.8658301217851
 20
-1774.741934934602
 10
-948.9108301217592
 20
-1775.138934945527
 10
-948.9328301217469
 20
-1775.538934956537
 10
-948.9328301217469
 20
-1775.938934967554
 10
-948.9108301217592
 20
-1776.337934978539
 10
-948.8658301217851
 20
-1776.734934989464
 10
-948.7978301218241
 20
-1777.129935000339
 10
-948.7088301218751
 20
-1777.519935011074
 10
-948.596830121939
 20
-1777.903935021644
 10
-948.4638301220142
 20
-1778.280935032024
 10
-948.3098301221021
 20
-1778.649935042187
 10
-948.1348301222032
 20
-1779.009935052094
 10
-947.939830122314
 20
-1779.3589350617
 10
-947.914830122329
 20
-1779.415935063269
 10
-947.9038301223363
 20
-1779.477935064977
 10
-947.907830122333
 20
-1779.54093506671
 10
-947.9268301223211
 20
-1779.599935068334
 10
-947.959830122304
 20
-1779.653935069822
 10
-948.0048301222781
 20
-1779.697935071035
 10
-948.0578301222472
 20
-1779.729935071914
 10
-948.117830122212
 20
-1779.747935072409
 10
-948.180830122178
 20
-1779.750935072494
 10
-948.2428301221421
 20
-1779.739935072193
 10
-948.2988301221094
 20
-1779.713935071478
 10
-948.3488301220814
 20
-1779.674935070401
 10
-948.3868301220599
 20
-1779.624935069023
 10
-948.585830121946
 20
-1779.268935059226
 10
-948.765830121842
 20
-1778.90293504915
 10
-948.9258301217502
 20
-1778.527935038822
 10
-949.064830121671
 20
-1778.143935028256
 10
-949.183830121602
 20
-1777.753935017518
 10
-949.281830121547
 20
-1777.357935006617
 10
-949.3578301215034
 20
-1776.956934995578
 10
-949.4118301214721
 20
-1776.552934984458
 10
-949.4448301214552
 20
-1776.146934973276
 10
-949.455830121446
 20
-1775.738934962046
 10
-949.4448301214552
 20
-1775.330934950812
 10
-949.4118301214721
 20
-1774.923934939608
 10
-949.3578301215034
 20
-1774.519934928484
 10
-949.281830121547
 20
-1774.119934917474
 10
-949.183830121602
 20
-1773.722934906545
 10
-949.064830121671
 20
-1773.332934895806
  0
HATCH
  5
1A57
330
A
100
AcDbEntity
  8
0
  6
Continuous
 62
   242
420
 13443111
100
AcDbHatch
 10
0.0
 20
0.0
 30
0.0
210
0.0
220
0.0
230
1.0
  2
SOLID
 70
     1
 71
     0
 91
        7
 92
        7
 72
     1
 73
     1
 93
        6
 10
-924.0408301605762
 20
-1759.540934516117
 42
0.0
 10
-958.5408301605761
 20
-1759.540934516117
 42
0.0
 10
-958.5408301605761
 20
-1792.918263500014
 42
0.414213562373091
 10
-957.5408301605762
 20
-1793.918263500015
 42
0.0
 10
-925.0408301605762
 20
-1793.918263500015
 42
0.4142135623730888
 10
-924.0408301605762
 20
-1792.918263500014
 42
0.0
 97
        0
 92
       22
 72
     0
 73
     1
 93
       69
 10
-940.8228301263893
 20
-1771.985934858726
 10
-940.5418301265504
 20
-1772.055934860654
 10
-940.269830126706
 20
-1772.154934863378
 10
-940.0098301268531
 20
-1772.282934866904
 10
-939.7648301269942
 20
-1772.436934871144
 10
-939.5368301271242
 20
-1772.616934876096
 10
-939.3298301272411
 20
-1772.819934881685
 10
-939.1458301273482
 20
-1773.042934887824
 10
-938.9858301274411
 20
-1773.284934894488
 10
-938.8528301275163
 20
-1773.541934901564
 10
-938.7468301275761
 20
-1773.811934908993
 10
-938.6718301276191
 20
-1774.091934916705
 10
-938.625830127647
 20
-1774.377934924577
 10
-938.6098301276552
 20
-1774.666934932534
 10
-938.6098301276552
 20
-1778.141935028197
 10
-938.5968301276621
 20
-1778.291935032328
 10
-938.5578301276851
 20
-1778.436935036319
 10
-938.4948301277214
 20
-1778.57393504009
 10
-938.4088301277692
 20
-1778.696935043477
 10
-938.3038301278293
 20
-1778.80393504642
 10
-938.1808301279011
 20
-1778.890935048817
 10
-937.9852889325212
 20
-1778.984392240415
 10
-937.8916855229482
 20
-1779.066500496739
 10
-937.8371476956649
 20
-1779.20991478733
 10
-937.8553385645332
 20
-1779.361505365488
 10
-937.9428252205253
 20
-1779.487648919534
 10
-938.0448301279784
 20
-1779.54093506671
 10
-940.8208301263902
 20
-1779.54093506671
 10
-940.8435646628131
 20
-1779.728873906442
 10
-940.9883347059372
 20
-1779.938892425594
 10
-941.2142439192743
 20
-1780.05693508092
 10
-941.4674163329092
 20
-1780.05693508092
 10
-941.6933255462513
 20
-1779.938892425589
 10
-941.8380955893681
 20
-1779.728873906442
 10
-941.860830125795
 20
-1779.54093506671
 10
-944.663930124193
 20
-1779.54093506671
 10
-944.7896755786624
 20
-1779.430632033377
 10
-944.844558937646
 20
-1779.288341839423
 10
-944.8261765807911
 20
-1779.135155527986
 10
-944.7388350316542
 20
-1779.009221197783
 10
-944.6368301242051
 20
-1778.955935050609
 10
-944.5008301242841
 20
-1778.890935048817
 10
-944.3778301243542
 20
-1778.80393504642
 10
-944.2728301244143
 20
-1778.696935043477
 10
-944.1868301244639
 20
-1778.57393504009
 10
-944.1238301244979
 20
-1778.436935036319
 10
-944.0848301245214
 20
-1778.291935032328
 10
-944.0718301245301
 20
-1778.141935028197
 10
-944.0718301245301
 20
-1774.666934932534
 10
-944.0558301245392
 20
-1774.377934924577
 10
-944.0098301245644
 20
-1774.091934916705
 10
-943.9348301246072
 20
-1773.811934908993
 10
-943.828830124668
 20
-1773.541934901564
 10
-943.6958301247441
 20
-1773.284934894488
 10
-943.5358301248353
 20
-1773.042934887824
 10
-943.351830124941
 20
-1772.819934881685
 10
-943.1448301250593
 20
-1772.616934876096
 10
-942.9168301251911
 20
-1772.436934871144
 10
-942.6718301253304
 20
-1772.282934866904
 10
-942.4118301254793
 20
-1772.154934863378
 10
-942.1398301256354
 20
-1772.055934860654
 10
-941.8588301257964
 20
-1771.985934858726
 10
-941.854261973483
 20
-1771.79864060866
 10
-941.7347733629304
 20
-1771.579915688272
 10
-941.5259650311222
 20
-1771.438007109269
 10
-941.2752384461851
 20
-1771.409469123183
 10
-941.0434123478411
 20
-1771.496151927608
 10
-940.8741524873104
 20
-1771.681725996779
 10
-940.8258301263881
 20
-1771.86293485534
 97
        0
 92
        6
 72
     0
 73
     1
 93
       40
 10
-941.4698301260191
 20
-1772.459934871774
 10
-941.2118301261662
 20
-1772.459934871774
 10
-940.9568301263112
 20
-1772.489934872603
 10
-940.7068301264562
 20
-1772.548934874226
 10
-940.4648301265943
 20
-1772.636934876645
 10
-940.235830126724
 20
-1772.752934879841
 10
-940.0208301268481
 20
-1772.893934883723
 10
-939.8238301269602
 20
-1773.058934888267
 10
-939.6468301270624
 20
-1773.245934893414
 10
-939.4938301271499
 20
-1773.452934899108
 10
-939.3648301272232
 20
-1773.674934905226
 10
-939.2628301272811
 20
-1773.91093491172
 10
-939.1898301273222
 20
-1774.157934918519
 10
-939.144830127349
 20
-1774.410934925486
 10
-939.1298301273574
 20
-1774.666934932534
 10
-939.1298301273574
 20
-1778.141935028197
 10
-939.116830127366
 20
-1778.331935033428
 10
-939.0778301273872
 20
-1778.517935038547
 10
-939.0138301274241
 20
-1778.696935043477
 10
-938.9268301274723
 20
-1778.865935048128
 10
-938.8168301275349
 20
-1779.020935052398
 10
-943.8648301246471
 20
-1779.020935052398
 10
-943.7548301247112
 20
-1778.865935048128
 10
-943.6678301247603
 20
-1778.696935043477
 10
-943.6038301247963
 20
-1778.517935038547
 10
-943.5648301248193
 20
-1778.331935033428
 10
-943.5518301248261
 20
-1778.141935028197
 10
-943.5518301248261
 20
-1774.666934932534
 10
-943.5368301248354
 20
-1774.410934925486
 10
-943.4918301248613
 20
-1774.157934918519
 10
-943.4188301249022
 20
-1773.91093491172
 10
-943.3168301249603
 20
-1773.674934905226
 10
-943.1878301250353
 20
-1773.452934899108
 10
-943.0348301251225
 20
-1773.245934893414
 10
-942.8578301252231
 20
-1773.058934888267
 10
-942.6608301253372
 20
-1772.893934883723
 10
-942.4458301254613
 20
-1772.752934879841
 10
-942.2168301255901
 20
-1772.636934876645
 10
-941.9748301257291
 20
-1772.548934874226
 10
-941.7248301258723
 20
-1772.489934872603
 97
        0
 92
       22
 72
     0
 73
     1
 93
       51
 10
-946.6048301230793
 20
-1773.264934893937
 10
-946.7378301230032
 20
-1773.536934901425
 10
-946.8538301229372
 20
-1773.815934909108
 10
-946.9548301228801
 20
-1774.10193491698
 10
-947.0388301228313
 20
-1774.391934924962
 10
-947.1068301227901
 20
-1774.686934933084
 10
-947.1578301227632
 20
-1774.984934941283
 10
-947.1918301227443
 20
-1775.285934949573
 10
-947.208830122735
 20
-1775.58793495789
 10
-947.208830122735
 20
-1775.889934966202
 10
-947.1918301227443
 20
-1776.191934974518
 10
-947.1578301227632
 20
-1776.492934982801
 10
-947.1068301227901
 20
-1776.790934991004
 10
-947.0388301228313
 20
-1777.084934999104
 10
-946.9548301228801
 20
-1777.375935007112
 10
-946.8538301229372
 20
-1777.660935014955
 10
-946.7378301230032
 20
-1777.939935022637
 10
-946.6048301230793
 20
-1778.211935030125
 10
-946.4335513344595
 20
-1778.520702923048
 10
-946.4156108989032
 20
-1778.640903844631
 10
-946.4691202878253
 20
-1778.770561213737
 10
-946.5759970037243
 20
-1778.855255972103
 10
-946.7155810974723
 20
-1778.87400607477
 10
-946.842456291174
 20
-1778.821644882242
 10
-946.9048301229081
 20
-1778.742935044742
 10
-947.0588301228195
 20
-1778.466935037144
 10
-947.19783012274
 20
-1778.183935029355
 10
-947.32083012267
 20
-1777.893935021369
 10
-947.4288301226069
 20
-1777.597935013222
 10
-947.5208301225553
 20
-1777.295935004909
 10
-947.5958301225123
 20
-1776.989934996487
 10
-947.6548301224784
 20
-1776.680934987977
 10
-947.6968301224543
 20
-1776.36793497936
 10
-947.7228301224403
 20
-1776.053934970717
 10
-947.7308301224343
 20
-1775.738934962046
 10
-947.7228301224403
 20
-1775.423934953374
 10
-947.6968301224543
 20
-1775.108934944699
 10
-947.6548301224784
 20
-1774.796934936111
 10
-947.5958301225123
 20
-1774.486934927575
 10
-947.5208301225553
 20
-1774.180934919153
 10
-947.4288301226069
 20
-1773.87893491084
 10
-947.32083012267
 20
-1773.582934902693
 10
-947.19783012274
 20
-1773.292934894707
 10
-947.0588301228195
 20
-1773.009934886918
 10
-946.8839786872191
 20
-1772.697700171708
 10
-946.7799129144815
 20
-1772.620123866215
 10
-946.6436783720851
 20
-1772.603857054726
 10
-946.5157603556923
 20
-1772.658679063287
 10
-946.4328016534272
 20
-1772.770673314494
 10
-946.4166097327311
 20
-1772.906280654118
 10
-946.457830123164
 20
-1773.000934886666
 97
        0
 92
       22
 72
     0
 73
     1
 93
       50
 10
-947.9159194080411
 20
-1771.887687088171
 10
-947.8995344024951
 20
-1772.024911513498
 10
-947.939830122314
 20
-1772.118934862389
 10
-948.1348301222032
 20
-1772.467934871998
 10
-948.3098301221021
 20
-1772.827934881905
 10
-948.4638301220142
 20
-1773.196934892068
 10
-948.596830121939
 20
-1773.573934902444
 10
-948.7088301218751
 20
-1773.957934913014
 10
-948.7978301218241
 20
-1774.347934923753
 10
-948.8658301217851
 20
-1774.741934934602
 10
-948.9108301217592
 20
-1775.138934945527
 10
-948.9328301217469
 20
-1775.538934956537
 10
-948.9328301217469
 20
-1775.938934967554
 10
-948.9108301217592
 20
-1776.337934978539
 10
-948.8658301217851
 20
-1776.734934989464
 10
-948.7978301218241
 20
-1777.129935000339
 10
-948.7088301218751
 20
-1777.519935011074
 10
-948.596830121939
 20
-1777.903935021644
 10
-948.4638301220142
 20
-1778.280935032024
 10
-948.3098301221021
 20
-1778.649935042187
 10
-948.1348301222032
 20
-1779.009935052094
 10
-947.9180164027779
 20
-1779.397976027505
 10
-947.8922301223432
 20
-1779.543316884962
 10
-947.9947008705861
 20
-1779.710996295884
 10
-948.1832974118992
 20
-1779.767575259867
 10
-948.3302914907412
 20
-1779.699328007061
 10
-948.3868301220599
 20
-1779.624935069023
 10
-948.585830121946
 20
-1779.268935059226
 10
-948.765830121842
 20
-1778.90293504915
 10
-948.9258301217502
 20
-1778.527935038822
 10
-949.064830121671
 20
-1778.143935028256
 10
-949.183830121602
 20
-1777.753935017518
 10
-949.281830121547
 20
-1777.357935006617
 10
-949.3578301215034
 20
-1776.956934995578
 10
-949.4118301214721
 20
-1776.552934984458
 10
-949.4448301214552
 20
-1776.146934973276
 10
-949.455830121446
 20
-1775.738934962046
 10
-949.4448301214552
 20
-1775.330934950812
 10
-949.4118301214721
 20
-1774.923934939608
 10
-949.3578301215034
 20
-1774.519934928484
 10
-949.281830121547
 20
-1774.119934917474
 10
-949.183830121602
 20
-1773.722934906545
 10
-949.064830121671
 20
-1773.332934895806
 10
-948.9258301217502
 20
-1772.949934885262
 10
-948.765830121842
 20
-1772.574934874941
 10
-948.585830121946
 20
-1772.208934864866
 10
-948.3647380394563
 20
-1771.813413339346
 10
-948.261077889977
 20
-1771.738024137608
 10
-948.1234669985543
 20
-1771.72159298594
 10
-947.9965039420131
 20
-1771.776883350835
 97
        0
 92
       22
 72
     0
 73
     1
 93
       50
 10
-935.9816073913412
 20
-1772.592668054085
 10
-935.8359886259831
 20
-1772.659090650672
 10
-935.7768301292772
 20
-1772.734934879343
 10
-935.622830129364
 20
-1773.009934886918
 10
-935.483830129443
 20
-1773.292934894707
 10
-935.3608301295144
 20
-1773.582934902693
 10
-935.2528301295761
 20
-1773.87893491084
 10
-935.16083012963
 20
-1774.180934919153
 10
-935.085830129673
 20
-1774.486934927575
 10
-935.0268301297059
 20
-1774.796934936111
 10
-934.9848301297292
 20
-1775.108934944699
 10
-934.9588301297441
 20
-1775.423934953374
 10
-934.9508301297491
 20
-1775.738934962046
 10
-934.9588301297441
 20
-1776.053934970717
 10
-934.9848301297292
 20
-1776.36793497936
 10
-935.0268301297059
 20
-1776.680934987977
 10
-935.085830129673
 20
-1776.989934996487
 10
-935.16083012963
 20
-1777.295935004909
 10
-935.2528301295761
 20
-1777.597935013222
 10
-935.3608301295144
 20
-1777.893935021369
 10
-935.483830129443
 20
-1778.183935029355
 10
-935.622830129364
 20
-1778.466935037144
 10
-935.7979154951244
 20
-1778.780724402776
 10
-935.9050087784479
 20
-1778.858610429196
 10
-936.0408141291381
 20
-1778.872799048319
 10
-936.1664527705752
 20
-1778.81895391475
 10
-936.2489372718659
 20
-1778.705537722277
 10
-936.264956810125
 20
-1778.571374085569
 10
-936.2238301290213
 20
-1778.476935037418
 10
-936.0768301291063
 20
-1778.211935030125
 10
-935.9438301291802
 20
-1777.939935022637
 10
-935.827830129247
 20
-1777.660935014955
 10
-935.7268301293052
 20
-1777.375935007112
 10
-935.642830129354
 20
-1777.084934999104
 10
-935.5748301293919
 20
-1776.790934991004
 10
-935.5238301294203
 20
-1776.492934982801
 10
-935.4898301294401
 20
-1776.191934974518
 10
-935.4728301294503
 20
-1775.889934966202
 10
-935.4728301294503
 20
-1775.58793495789
 10
-935.4898301294401
 20
-1775.285934949573
 10
-935.5238301294203
 20
-1774.984934941283
 10
-935.5748301293919
 20
-1774.686934933084
 10
-935.642830129354
 20
-1774.391934924962
 10
-935.7268301293052
 20
-1774.10193491698
 10
-935.827830129247
 20
-1773.815934909108
 10
-935.9438301291802
 20
-1773.536934901425
 10
-936.0768301291063
 20
-1773.264934893937
 10
-936.2456789212783
 20
-1772.961696238243
 10
-936.2714301289921
 20
-1772.81655306341
 10
-936.168959380755
 20
-1772.648873652487
 97
        0
 92
       22
 72
     0
 73
     1
 93
       50
 10
-934.4990041439301
 20
-1771.71048705532
 10
-934.3521974770382
 20
-1771.777451501747
 10
-934.2948301301253
 20
-1771.852934855065
 10
-934.0958301302389
 20
-1772.208934864866
 10
-933.9158301303424
 20
-1772.574934874941
 10
-933.7558301304333
 20
-1772.949934885262
 10
-933.616830130512
 20
-1773.332934895806
 10
-933.4978301305792
 20
-1773.722934906545
 10
-933.399830130636
 20
-1774.119934917474
 10
-933.3238301306801
 20
-1774.519934928484
 10
-933.2698301307114
 20
-1774.923934939608
 10
-933.2368301307301
 20
-1775.330934950812
 10
-933.2258301307369
 20
-1775.738934962046
 10
-933.2368301307301
 20
-1776.146934973276
 10
-933.2698301307114
 20
-1776.552934984458
 10
-933.3238301306801
 20
-1776.956934995578
 10
-933.399830130636
 20
-1777.357935006617
 10
-933.4978301305792
 20
-1777.753935017518
 10
-933.616830130512
 20
-1778.143935028256
 10
-933.7558301304333
 20
-1778.527935038822
 10
-933.9158301303424
 20
-1778.90293504915
 10
-934.0958301302389
 20
-1779.268935059226
 10
-934.3156170139273
 20
-1779.662121656166
 10
-934.4197473385444
 20
-1779.739746082151
 10
-934.5563910844234
 20
-1779.756061753766
 10
-934.6846184896945
 20
-1779.700220785376
 10
-934.765739220762
 20
-1779.590707795361
 10
-934.7821217250443
 20
-1779.451456505072
 10
-934.7418301298681
 20
-1779.3589350617
 10
-934.5468301299801
 20
-1779.009935052094
 10
-934.37183013008
 20
-1778.649935042187
 10
-934.2178301301691
 20
-1778.280935032024
 10
-934.0848301302463
 20
-1777.903935021644
 10
-933.9728301303084
 20
-1777.519935011074
 10
-933.8838301303603
 20
-1777.129935000339
 10
-933.8158301303984
 20
-1776.734934989464
 10
-933.7708301304251
 20
-1776.337934978539
 10
-933.748830130437
 20
-1775.938934967554
 10
-933.748830130437
 20
-1775.538934956537
 10
-933.7708301304251
 20
-1775.138934945527
 10
-933.8158301303984
 20
-1774.741934934602
 10
-933.8838301303603
 20
-1774.347934923753
 10
-933.9728301303084
 20
-1773.957934913014
 10
-934.0848301302463
 20
-1773.573934902444
 10
-934.2178301301691
 20
-1773.196934892068
 10
-934.37183013008
 20
-1772.827934881905
 10
-934.5468301299801
 20
-1772.467934871998
 10
-934.763300462529
 20
-1772.080508471059
 10
-934.7898640281464
 20
-1771.933201421226
 10
-934.6861503155233
 20
-1771.766630908375
 97
        0
 75
     1
 76
     1
 47
0.1418325683022728
 98
        7
 10
-941.8212726552193
 20
-1764.499189591906
 10
-941.8212726552193
 20
-1764.499189591906
 10
-941.8212726552193
 20
-1764.499189591906
 10
-941.8212726552193
 20
-1764.499189591906
 10
-941.8212726552193
 20
-1764.499189591906
 10
-941.8212726552193
 20
-1764.499189591906
 10
-941.8212726552193
 20
-1764.499189591906
450
        0
451
        0
460
0.0
461
0.0
452
        0
462
0.0
453
        2
463
0.0
 63
     5
421
      255
463
1.0
 63
     2
421
 16776960
470
LINEAR
1001
GradientColor1ACI
1070
     5
1001
GradientColor2ACI
1070
     2
1001
ACAD
1010
0.0
1020
0.0
1030
0.0
  0
LWPOLYLINE
  5
1A58
330
A
100
AcDbEntity
  8
0
  6
CUSTOM
 62
    18
420
        0
370
     9
100
AcDbPolyline
 90
       64
 70
     1
 43
0.0
 10
-933.2368301307301
 20
-1776.146934973276
 10
-933.2698301307114
 20
-1776.552934984458
 10
-933.3238301306801
 20
-1776.956934995578
 10
-933.399830130636
 20
-1777.357935006617
 10
-933.4978301305792
 20
-1777.753935017518
 10
-933.616830130512
 20
-1778.143935028256
 10
-933.7558301304333
 20
-1778.527935038822
 10
-933.9158301303424
 20
-1778.90293504915
 10
-934.0958301302389
 20
-1779.268935059226
 10
-934.2948301301253
 20
-1779.624935069023
 10
-934.3368301301001
 20
-1779.677935070485
 10
-934.39183013007
 20
-1779.718935071614
 10
-934.4548301300324
 20
-1779.743935072299
 10
-934.5218301299951
 20
-1779.751935072523
 10
-934.5888301299551
 20
-1779.741935072248
 10
-934.6508301299191
 20
-1779.7149350715
 10
-934.7048301298901
 20
-1779.672935070346
 10
-934.7448301298673
 20
-1779.618935068862
 10
-934.7698301298523
 20
-1779.555935067124
 10
-934.777830129849
 20
-1779.487935065255
 10
-934.7688301298539
 20
-1779.420935063408
 10
-934.7418301298681
 20
-1779.3589350617
 10
-934.5468301299801
 20
-1779.009935052094
 10
-934.37183013008
 20
-1778.649935042187
 10
-934.2178301301691
 20
-1778.280935032024
 10
-934.0848301302463
 20
-1777.903935021644
 10
-933.9728301303084
 20
-1777.519935011074
 10
-933.8838301303603
 20
-1777.129935000339
 10
-933.8158301303984
 20
-1776.734934989464
 10
-933.7708301304251
 20
-1776.337934978539
 10
-933.748830130437
 20
-1775.938934967554
 10
-933.748830130437
 20
-1775.538934956537
 10
-933.7708301304251
 20
-1775.138934945527
 10
-933.8158301303984
 20
-1774.741934934602
 10
-933.8838301303603
 20
-1774.347934923753
 10
-933.9728301303084
 20
-1773.957934913014
 10
-934.0848301302463
 20
-1773.573934902444
 10
-934.2178301301691
 20
-1773.196934892068
 10
-934.37183013008
 20
-1772.827934881905
 10
-934.5468301299801
 20
-1772.467934871998
 10
-934.7418301298681
 20
-1772.118934862389
 10
-934.7668301298554
 20
-1772.060934860791
 10
-934.777830129849
 20
-1771.999934859115
 10
-934.77383012985
 20
-1771.936934857374
 10
-934.7548301298601
 20
-1771.876934855725
 10
-934.7218301298813
 20
-1771.823934854262
 10
-934.6768301299062
 20
-1771.779934853057
 10
-934.6238301299354
 20
-1771.747934852173
 10
-934.5638301299713
 20
-1771.729934851679
 10
-934.5008301300072
 20
-1771.725934851569
 10
-934.4388301300432
 20
-1771.737934851899
 10
-934.3818301300753
 20
-1771.763934852613
 10
-934.3328301301029
 20
-1771.802934853691
 10
-934.2948301301253
 20
-1771.852934855065
 10
-934.0958301302389
 20
-1772.208934864866
 10
-933.9158301303424
 20
-1772.574934874941
 10
-933.7558301304333
 20
-1772.949934885262
 10
-933.616830130512
 20
-1773.332934895806
 10
-933.4978301305792
 20
-1773.722934906545
 10
-933.399830130636
 20
-1774.119934917474
 10
-933.3238301306801
 20
-1774.519934928484
 10
-933.2698301307114
 20
-1774.923934939608
 10
-933.2368301307301
 20
-1775.330934950812
 10
-933.2258301307369
 20
-1775.738934962046
  0
LWPOLYLINE
  5
1A59
330
A
100
AcDbEntity
  8
0
  6
CUSTOM
 62
    18
420
        0
370
     9
100
AcDbPolyline
 90
       91
 70
     1
 43
0.0
 10
-937.8778301280741
 20
-1779.102935054656
 10
-937.8508301280904
 20
-1779.173935056609
 10
-937.8418301280953
 20
-1779.248935058676
 10
-937.8508301280904
 20
-1779.32393506074
 10
-937.8778301280741
 20
-1779.393935062667
 10
-937.9208301280501
 20
-1779.455935064375
 10
-937.9778301280161
 20
-1779.50593506575
 10
-938.0448301279784
 20
-1779.54093506671
 10
-940.8208301263902
 20
-1779.54093506671
 10
-940.8358301263811
 20
-1779.664935070126
 10
-940.8808301263553
 20
-1779.782935073377
 10
-940.9518301263151
 20
-1779.885935076207
 10
-941.0458301262602
 20
-1779.968935078497
 10
-941.1568301261972
 20
-1780.026935080091
 10
-941.2778301261292
 20
-1780.05693508092
 10
-941.4038301260561
 20
-1780.05693508092
 10
-941.5248301259863
 20
-1780.026935080091
 10
-941.635830125921
 20
-1779.968935078497
 10
-941.7298301258702
 20
-1779.885935076207
 10
-941.8008301258282
 20
-1779.782935073377
 10
-941.8458301258024
 20
-1779.664935070126
 10
-941.860830125795
 20
-1779.54093506671
 10
-944.6368301242051
 20
-1779.54093506671
 10
-944.7038301241674
 20
-1779.50593506575
 10
-944.7608301241329
 20
-1779.455935064375
 10
-944.8038301241091
 20
-1779.393935062667
 10
-944.8308301240954
 20
-1779.32393506074
 10
-944.839830124089
 20
-1779.248935058676
 10
-944.8308301240954
 20
-1779.173935056609
 10
-944.8038301241091
 20
-1779.102935054656
 10
-944.7608301241329
 20
-1779.040935052948
 10
-944.7038301241674
 20
-1778.99093505157
 10
-944.6368301242051
 20
-1778.955935050609
 10
-944.5008301242841
 20
-1778.890935048817
 10
-944.3778301243542
 20
-1778.80393504642
 10
-944.2728301244143
 20
-1778.696935043477
 10
-944.1868301244639
 20
-1778.57393504009
 10
-944.1238301244979
 20
-1778.436935036319
 10
-944.0848301245214
 20
-1778.291935032328
 10
-944.0718301245301
 20
-1778.141935028197
 10
-944.0718301245301
 20
-1774.666934932534
 10
-944.0558301245392
 20
-1774.377934924577
 10
-944.0098301245644
 20
-1774.091934916705
 10
-943.9348301246072
 20
-1773.811934908993
 10
-943.828830124668
 20
-1773.541934901564
 10
-943.6958301247441
 20
-1773.284934894488
 10
-943.5358301248353
 20
-1773.042934887824
 10
-943.351830124941
 20
-1772.819934881685
 10
-943.1448301250593
 20
-1772.616934876096
 10
-942.9168301251911
 20
-1772.436934871144
 10
-942.6718301253304
 20
-1772.282934866904
 10
-942.4118301254793
 20
-1772.154934863378
 10
-942.1398301256354
 20
-1772.055934860654
 10
-941.8588301257964
 20
-1771.985934858726
 10
-941.8558301257972
 20
-1771.86293485534
 10
-941.8238301258142
 20
-1771.742934852038
 10
-941.7648301258505
 20
-1771.634934849062
 10
-941.6818301258981
 20
-1771.543934846558
 10
-941.5788301259553
 20
-1771.473934844631
 10
-941.4638301260211
 20
-1771.430934843447
 10
-941.3408301260924
 20
-1771.416934843058
 10
-941.2178301261619
 20
-1771.430934843447
 10
-941.102830126228
 20
-1771.473934844631
 10
-940.9998301262872
 20
-1771.543934846558
 10
-940.9168301263353
 20
-1771.634934849062
 10
-940.8578301263673
 20
-1771.742934852038
 10
-940.8258301263881
 20
-1771.86293485534
 10
-940.8228301263893
 20
-1771.985934858726
 10
-940.5418301265504
 20
-1772.055934860654
 10
-940.269830126706
 20
-1772.154934863378
 10
-940.0098301268531
 20
-1772.282934866904
 10
-939.7648301269942
 20
-1772.436934871144
 10
-939.5368301271242
 20
-1772.616934876096
 10
-939.3298301272411
 20
-1772.819934881685
 10
-939.1458301273482
 20
-1773.042934887824
 10
-938.9858301274411
 20
-1773.284934894488
 10
-938.8528301275163
 20
-1773.541934901564
 10
-938.7468301275761
 20
-1773.811934908993
 10
-938.6718301276191
 20
-1774.091934916705
 10
-938.625830127647
 20
-1774.377934924577
 10
-938.6098301276552
 20
-1774.666934932534
 10
-938.6098301276552
 20
-1778.141935028197
 10
-938.5968301276621
 20
-1778.291935032328
 10
-938.5578301276851
 20
-1778.436935036319
 10
-938.4948301277214
 20
-1778.57393504009
 10
-938.4088301277692
 20
-1778.696935043477
 10
-938.3038301278293
 20
-1778.80393504642
 10
-938.1808301279011
 20
-1778.890935048817
 10
-938.0448301279784
 20
-1778.955935050609
 10
-937.9778301280161
 20
-1778.99093505157
 10
-937.9208301280501
 20
-1779.040935052948
  0
LWPOLYLINE
  5
1A5A
330
A
100
AcDbEntity
  8
0
  6
CUSTOM
 62
    18
420
        0
370
     9
100
AcDbPolyline
 90
       64
 70
     1
 43
0.0
 10
-935.7268301293052
 20
-1774.10193491698
 10
-935.827830129247
 20
-1773.815934909108
 10
-935.9438301291802
 20
-1773.536934901425
 10
-936.0768301291063
 20
-1773.264934893937
 10
-936.2238301290213
 20
-1773.000934886666
 10
-936.2488301290063
 20
-1772.943934885098
 10
-936.259830128999
 20
-1772.881934883393
 10
-936.2558301290023
 20
-1772.818934881655
 10
-936.2368301290121
 20
-1772.759934880032
 10
-936.2038301290313
 20
-1772.705934878544
 10
-936.1598301290573
 20
-1772.661934877338
 10
-936.1058301290881
 20
-1772.629934876455
 10
-936.0458301291233
 20
-1772.611934875961
 10
-935.9828301291591
 20
-1772.608934875876
 10
-935.9218301291944
 20
-1772.61993487618
 10
-935.8648301292264
 20
-1772.645934876894
 10
-935.8158301292542
 20
-1772.684934877972
 10
-935.7768301292772
 20
-1772.734934879343
 10
-935.622830129364
 20
-1773.009934886918
 10
-935.483830129443
 20
-1773.292934894707
 10
-935.3608301295144
 20
-1773.582934902693
 10
-935.2528301295761
 20
-1773.87893491084
 10
-935.16083012963
 20
-1774.180934919153
 10
-935.085830129673
 20
-1774.486934927575
 10
-935.0268301297059
 20
-1774.796934936111
 10
-934.9848301297292
 20
-1775.108934944699
 10
-934.9588301297441
 20
-1775.423934953374
 10
-934.9508301297491
 20
-1775.738934962046
 10
-934.9588301297441
 20
-1776.053934970717
 10
-934.9848301297292
 20
-1776.36793497936
 10
-935.0268301297059
 20
-1776.680934987977
 10
-935.085830129673
 20
-1776.989934996487
 10
-935.16083012963
 20
-1777.295935004909
 10
-935.2528301295761
 20
-1777.597935013222
 10
-935.3608301295144
 20
-1777.893935021369
 10
-935.483830129443
 20
-1778.183935029355
 10
-935.622830129364
 20
-1778.466935037144
 10
-935.7768301292772
 20
-1778.742935044742
 10
-935.8188301292512
 20
-1778.795935046204
 10
-935.87383012922
 20
-1778.835935047303
 10
-935.9368301291842
 20
-1778.861935048022
 10
-936.0038301291474
 20
-1778.868935048212
 10
-936.0708301291101
 20
-1778.859935047967
 10
-936.133830129072
 20
-1778.832935047219
 10
-936.1868301290424
 20
-1778.790935046068
 10
-936.2268301290182
 20
-1778.735935044552
 10
-936.2528301290053
 20
-1778.672935042817
 10
-936.2608301289993
 20
-1778.605935040974
 10
-936.2508301290063
 20
-1778.538935039126
 10
-936.2238301290213
 20
-1778.476935037418
 10
-936.0768301291063
 20
-1778.211935030125
 10
-935.9438301291802
 20
-1777.939935022637
 10
-935.827830129247
 20
-1777.660935014955
 10
-935.7268301293052
 20
-1777.375935007112
 10
-935.642830129354
 20
-1777.084934999104
 10
-935.5748301293919
 20
-1776.790934991004
 10
-935.5238301294203
 20
-1776.492934982801
 10
-935.4898301294401
 20
-1776.191934974518
 10
-935.4728301294503
 20
-1775.889934966202
 10
-935.4728301294503
 20
-1775.58793495789
 10
-935.4898301294401
 20
-1775.285934949573
 10
-935.5238301294203
 20
-1774.984934941283
 10
-935.5748301293919
 20
-1774.686934933084
 10
-935.642830129354
 20
-1774.391934924962
  0
LWPOLYLINE
  5
1A5B
330
A
100
AcDbEntity
  8
0
  6
CUSTOM
 62
    18
420
        0
370
     9
100
AcDbPolyline
 90
       63
 70
     1
 43
0.0
 10
-946.8628301229323
 20
-1772.681934877888
 10
-946.8078301229621
 20
-1772.640934876759
 10
-946.7448301229993
 20
-1772.615934876071
 10
-946.6778301230384
 20
-1772.607934875851
 10
-946.6108301230752
 20
-1772.617934876126
 10
-946.547830123111
 20
-1772.644934876865
 10
-946.4948301231419
 20
-1772.686934878023
 10
-946.4548301231653
 20
-1772.740934879511
 10
-946.42883012318
 20
-1772.803934881245
 10
-946.4208301231842
 20
-1772.870934883088
 10
-946.4308301231799
 20
-1772.938934884958
 10
-946.457830123164
 20
-1773.000934886666
 10
-946.6048301230793
 20
-1773.264934893937
 10
-946.7378301230032
 20
-1773.536934901425
 10
-946.8538301229372
 20
-1773.815934909108
 10
-946.9548301228801
 20
-1774.10193491698
 10
-947.0388301228313
 20
-1774.391934924962
 10
-947.1068301227901
 20
-1774.686934933084
 10
-947.1578301227632
 20
-1774.984934941283
 10
-947.1918301227443
 20
-1775.285934949573
 10
-947.208830122735
 20
-1775.58793495789
 10
-947.208830122735
 20
-1775.889934966202
 10
-947.1918301227443
 20
-1776.191934974518
 10
-947.1578301227632
 20
-1776.492934982801
 10
-947.1068301227901
 20
-1776.790934991004
 10
-947.0388301228313
 20
-1777.084934999104
 10
-946.9548301228801
 20
-1777.375935007112
 10
-946.8538301229372
 20
-1777.660935014955
 10
-946.7378301230032
 20
-1777.939935022637
 10
-946.6048301230793
 20
-1778.211935030125
 10
-946.457830123164
 20
-1778.476935037418
 10
-946.4308301231799
 20
-1778.538935039126
 10
-946.4208301231842
 20
-1778.605935040974
 10
-946.42883012318
 20
-1778.672935042817
 10
-946.4548301231653
 20
-1778.735935044552
 10
-946.4948301231419
 20
-1778.790935046068
 10
-946.547830123111
 20
-1778.832935047219
 10
-946.6108301230752
 20
-1778.859935047967
 10
-946.6778301230384
 20
-1778.868935048212
 10
-946.7448301229993
 20
-1778.861935048022
 10
-946.8078301229621
 20
-1778.835935047303
 10
-946.8628301229323
 20
-1778.795935046204
 10
-946.9048301229081
 20
-1778.742935044742
 10
-947.0588301228195
 20
-1778.466935037144
 10
-947.19783012274
 20
-1778.183935029355
 10
-947.32083012267
 20
-1777.893935021369
 10
-947.4288301226069
 20
-1777.597935013222
 10
-947.5208301225553
 20
-1777.295935004909
 10
-947.5958301225123
 20
-1776.989934996487
 10
-947.6548301224784
 20
-1776.680934987977
 10
-947.6968301224543
 20
-1776.36793497936
 10
-947.7228301224403
 20
-1776.053934970717
 10
-947.7308301224343
 20
-1775.738934962046
 10
-947.7228301224403
 20
-1775.423934953374
 10
-947.6968301224543
 20
-1775.108934944699
 10
-947.6548301224784
 20
-1774.796934936111
 10
-947.5958301225123
 20
-1774.486934927575
 10
-947.5208301225553
 20
-1774.180934919153
 10
-947.4288301226069
 20
-1773.87893491084
 10
-947.32083012267
 20
-1773.582934902693
 10
-947.19783012274
 20
-1773.292934894707
 10
-947.0588301228195
 20
-1773.009934886918
 10
-946.9048301229081
 20
-1772.734934879343
  0
LINE
  5
1A5C
330
A
100
AcDbEntity
  8
0
  6
CUSTOM
 62
    18
420
        0
370
     9
100
AcDbLine
 10
-923.5908301362501
 20
-1759.540934516117
 30
0.0
 11
-958.5908301162193
 21
-1759.540934516117
 31
0.0
  0
LWPOLYLINE
  5
1A5D
330
A
100
AcDbEntity
  8
0
  6
CUSTOM
 62
    18
420
        0
370
     9
100
AcDbPolyline
 90
       98
 70
     1
 43
0.0
 10
-934.0498301302641
 20
-1741.262934012928
 10
-933.9488301303221
 20
-1741.213934011579
 10
-933.8498301303802
 20
-1741.162934010175
 10
-933.7618301304292
 20
-1741.11693400891
 10
-933.606830130518
 20
-1741.036934006711
 10
-933.4638301305989
 20
-1740.979934005139
 10
-933.3378301306721
 20
-1740.956934004505
 10
-933.2578301307171
 20
-1740.95893400456
 10
-933.1788301307634
 20
-1740.97893400511
 10
-933.1088301308023
 20
-1741.014934006103
 10
-933.0518301308361
 20
-1741.066934007536
 10
-933.013830130857
 20
-1741.122934009075
 10
-932.9858301308732
 20
-1741.194934011058
 10
-932.9758301308801
 20
-1741.275934013286
 10
-932.9858301308732
 20
-1741.359934015599
 10
-933.0168301308562
 20
-1741.446934017993
 10
-933.0828301308184
 20
-1741.543934020664
 10
-933.1778301307631
 20
-1741.635934023197
 10
-933.3118301306871
 20
-1741.724934025653
 10
-933.4228301306243
 20
-1741.786934027353
 10
-933.5308301305621
 20
-1741.842934028896
 10
-934.0088301302881
 20
-1742.069934035149
 10
-934.5018301300074
 20
-1742.265934040544
 10
-935.0058301297172
 20
-1742.429934045059
 10
-935.5178301294241
 20
-1742.561934048688
 10
-936.0368301291282
 20
-1742.660934051418
 10
-936.5598301288272
 20
-1742.726934053236
 10
-937.085830128527
 20
-1742.759934054141
 10
-937.610830128227
 20
-1742.758934054112
 10
-938.1348301279263
 20
-1742.724934053181
 10
-938.653830127629
 20
-1742.65893405136
 10
-939.1668301273371
 20
-1742.559934048637
 10
-939.6718301270471
 20
-1742.429934045059
 10
-940.1658301267643
 20
-1742.268934040624
 10
-940.6478301264883
 20
-1742.07793403537
 10
-941.1158301262211
 20
-1741.857934029314
 10
-941.2678301261344
 20
-1741.778934027133
 10
-941.7178301258763
 20
-1741.556934021024
 10
-942.1868301256081
 20
-1741.363934015713
 10
-942.666830125333
 20
-1741.202934011278
 10
-943.1548301250542
 20
-1741.074934007756
 10
-943.6498301247693
 20
-1740.97893400511
 10
-944.1498301244841
 20
-1740.91593400338
 10
-944.6518301241972
 20
-1740.886934002577
 10
-945.1538301239102
 20
-1740.890934002691
 10
-945.6528301236239
 20
-1740.927934003706
 10
-946.1478301233414
 20
-1740.996934005605
 10
-946.6358301230602
 20
-1741.098934008412
 10
-947.1148301227872
 20
-1741.231934012074
 10
-947.5828301225201
 20
-1741.394934016567
 10
-948.0378301222581
 20
-1741.587934021878
 10
-948.4198301220395
 20
-1741.778934027133
 10
-948.6068301219324
 20
-1741.87393402975
 10
-948.7468301218532
 20
-1741.922934031099
 10
-948.864830121785
 20
-1741.938934031539
 10
-948.9548301217341
 20
-1741.930934031319
 10
-949.0298301216911
 20
-1741.904934030604
 10
-949.0938301216552
 20
-1741.863934029475
 10
-949.1458301216253
 20
-1741.807934027932
 10
-949.1828301216042
 20
-1741.740934026089
 10
-949.2028301215913
 20
-1741.663934023967
 10
-949.2038301215911
 20
-1741.579934021655
 10
-949.183830121602
 20
-1741.492934019261
 10
-949.1348301216303
 20
-1741.397934016644
 10
-949.0598301216733
 20
-1741.308934014196
 10
-948.9438301217401
 20
-1741.215934011637
 10
-948.7718301218382
 20
-1741.115934008885
 10
-948.7188301218694
 20
-1741.087934008115
 10
-948.2428301221421
 20
-1740.856934001753
 10
-947.7508301224229
 20
-1740.655933996222
 10
-947.2478301227102
 20
-1740.487933991594
 10
-946.7358301230042
 20
-1740.350933987825
 10
-946.2178301233011
 20
-1740.247933984988
 10
-945.6948301236002
 20
-1740.17793398306
 10
-945.1688301239023
 20
-1740.139933982012
 10
-944.6428301242022
 20
-1740.136933981928
 10
-944.1178301245031
 20
-1740.165933982731
 10
-943.5978301248001
 20
-1740.227933984438
 10
-943.0828301250963
 20
-1740.321933987026
 10
-942.5768301253842
 20
-1740.447933990493
 10
-942.0808301256661
 20
-1740.604933994814
 10
-941.5968301259463
 20
-1740.790933999938
 10
-941.125830126216
 20
-1741.007934005909
 10
-940.9138301263361
 20
-1741.11693400891
 10
-940.4638301265922
 20
-1741.337934014994
 10
-939.9958301268611
 20
-1741.531934020335
 10
-939.5168301271365
 20
-1741.692934024766
 10
-939.0288301274171
 20
-1741.821934028321
 10
-938.5338301276979
 20
-1741.917934030963
 10
-938.0348301279841
 20
-1741.980934032697
 10
-937.5338301282713
 20
-1742.009934033492
 10
-937.0318301285584
 20
-1742.006934033412
 10
-936.5328301288441
 20
-1741.969934032393
 10
-936.0388301291255
 20
-1741.900934030494
 10
-935.5508301294062
 20
-1741.798934027687
 10
-935.072830129679
 20
-1741.666934024051
 10
-934.6048301299484
 20
-1741.502934019536
 10
-934.1508301302059
 20
-1741.310934014251
  0
HATCH
  5
1A5E
330
A
100
AcDbEntity
  8
0
 62
   152
420
    28896
100
AcDbHatch
 10
0.0
 20
0.0
 30
0.0
210
0.0
220
0.0
230
1.0
  2
SOLID
 70
     1
 71
     0
 91
        3
 92
        7
 72
     1
 73
     1
 93
       14
 10
-924.0408301605762
 20
-1724.918263500013
 42
0.271290521185319
 10
-924.5516589869462
 20
-1724.046075697479
 42
0.0
 10
-924.5908301356781
 20
-1724.040933538814
 42
0.0
 10
-957.5908301167924
 20
-1724.040933538814
 42
0.0
 10
-957.8498301166431
 20
-1724.074933539748
 42
0.0
 10
-958.090830116504
 20
-1724.174933542504
 42
0.0
 10
-958.2978301163871
 20
-1724.33393354688
 42
0.0
 10
-958.4568301162953
 20
-1724.54093355258
 42
0.0
 10
-958.5080860621001
 20
-1724.664460385437
 42
0.064240677403046
 10
-958.5408301605761
 20
-1724.918263500013
 42
0.0
 10
-958.5408301605761
 20
-1758.918263500014
 42
0.0
 10
-958.5408301605761
 20
-1759.540934516117
 42
0.0
 10
-924.0408301605762
 20
-1759.540934516117
 42
0.0
 10
-924.0408301605762
 20
-1758.918263500014
 42
0.0
 97
        0
 92
       22
 72
     0
 73
     1
 93
       84
 10
-943.5978301248001
 20
-1740.227933984438
 10
-943.0828301250963
 20
-1740.321933987026
 10
-942.5768301253842
 20
-1740.447933990493
 10
-942.0808301256661
 20
-1740.604933994814
 10
-941.5968301259463
 20
-1740.790933999938
 10
-941.125830126216
 20
-1741.007934005909
 10
-940.9138301263361
 20
-1741.11693400891
 10
-940.4638301265922
 20
-1741.337934014994
 10
-939.9958301268611
 20
-1741.531934020335
 10
-939.5168301271365
 20
-1741.692934024766
 10
-939.0288301274171
 20
-1741.821934028321
 10
-938.5338301276979
 20
-1741.917934030963
 10
-938.0348301279841
 20
-1741.980934032697
 10
-937.5338301282713
 20
-1742.009934033492
 10
-937.0318301285584
 20
-1742.006934033412
 10
-936.5328301288441
 20
-1741.969934032393
 10
-936.0388301291255
 20
-1741.900934030494
 10
-935.5508301294062
 20
-1741.798934027687
 10
-935.072830129679
 20
-1741.666934024051
 10
-934.6048301299484
 20
-1741.502934019536
 10
-934.1508301302059
 20
-1741.310934014251
 10
-934.0498301302641
 20
-1741.262934012928
 10
-933.9488301303221
 20
-1741.213934011579
 10
-933.8498301303802
 20
-1741.162934010175
 10
-933.7618301304292
 20
-1741.11693400891
 10
-933.606830130518
 20
-1741.036934006711
 10
-933.4020975676981
 20
-1740.955327318534
 10
-933.2156695467979
 20
-1740.959988019187
 10
-933.0754758988515
 20
-1741.032087611589
 10
-932.9904687329353
 20
-1741.157361333294
 10
-932.9707014707233
 20
-1741.317476161729
 10
-933.0348299461061
 20
-1741.497449629953
 10
-933.1778301307631
 20
-1741.635934023197
 10
-933.3118301306871
 20
-1741.724934025653
 10
-933.479142813679
 20
-1741.81838795931
 10
-934.0088301302881
 20
-1742.069934035149
 10
-934.5018301300074
 20
-1742.265934040544
 10
-935.0058301297172
 20
-1742.429934045059
 10
-935.5178301294241
 20
-1742.561934048688
 10
-936.0368301291282
 20
-1742.660934051418
 10
-936.5598301288272
 20
-1742.726934053236
 10
-937.085830128527
 20
-1742.759934054141
 10
-937.610830128227
 20
-1742.758934054112
 10
-938.1348301279263
 20
-1742.724934053181
 10
-938.653830127629
 20
-1742.65893405136
 10
-939.1668301273371
 20
-1742.559934048637
 10
-939.6718301270471
 20
-1742.429934045059
 10
-940.1658301267643
 20
-1742.268934040624
 10
-940.6478301264883
 20
-1742.07793403537
 10
-941.1158301262211
 20
-1741.857934029314
 10
-941.2678301261344
 20
-1741.778934027133
 10
-941.7178301258763
 20
-1741.556934021024
 10
-942.1868301256081
 20
-1741.363934015713
 10
-942.666830125333
 20
-1741.202934011278
 10
-943.1548301250542
 20
-1741.074934007756
 10
-943.6498301247693
 20
-1740.97893400511
 10
-944.1498301244841
 20
-1740.91593400338
 10
-944.6518301241972
 20
-1740.886934002577
 10
-945.1538301239102
 20
-1740.890934002691
 10
-945.6528301236239
 20
-1740.927934003706
 10
-946.1478301233414
 20
-1740.996934005605
 10
-946.6358301230602
 20
-1741.098934008412
 10
-947.1148301227872
 20
-1741.231934012074
 10
-947.5828301225201
 20
-1741.394934016567
 10
-948.0378301222581
 20
-1741.587934021878
 10
-948.4198301220395
 20
-1741.778934027133
 10
-948.6068301219324
 20
-1741.87393402975
 10
-948.8071845521972
 20
-1741.944058082313
 10
-948.9947892154823
 20
-1741.927382111775
 10
-949.1264421750461
 20
-1741.843041932185
 10
-949.2023339032421
 20
-1741.705616366454
 10
-949.2043912709624
 20
-1741.532797473223
 10
-949.1094392814803
 20
-1741.348706876193
 10
-948.9438301217401
 20
-1741.215934011637
 10
-948.7481112606511
 20
-1741.102143972923
 10
-948.2428301221421
 20
-1740.856934001753
 10
-947.7508301224229
 20
-1740.655933996222
 10
-947.2478301227102
 20
-1740.487933991594
 10
-946.7358301230042
 20
-1740.350933987825
 10
-946.2178301233011
 20
-1740.247933984988
 10
-945.6948301236002
 20
-1740.17793398306
 10
-945.1688301239023
 20
-1740.139933982012
 10
-944.6428301242022
 20
-1740.136933981928
 10
-944.1178301245031
 20
-1740.165933982731
 97
        0
 92
       22
 72
     0
 73
     1
 93
       86
 10
-943.5978301248001
 20
-1743.354934070521
 10
-943.0828301250963
 20
-1743.448934073112
 10
-942.5768301253842
 20
-1743.574934076576
 10
-942.0808301256661
 20
-1743.7319340809
 10
-941.5968301259463
 20
-1743.91893408605
 10
-941.125830126216
 20
-1744.134934091995
 10
-940.9138301263361
 20
-1744.243934094996
 10
-940.4638301265922
 20
-1744.465934101106
 10
-939.9958301268611
 20
-1744.658934106424
 10
-939.5168301271365
 20
-1744.820934110881
 10
-939.0288301274171
 20
-1744.948934114403
 10
-938.5338301276979
 20
-1745.044934117049
 10
-938.0348301279841
 20
-1745.107934118783
 10
-937.5338301282713
 20
-1745.137934119607
 10
-937.0318301285584
 20
-1745.133934119497
 10
-936.5328301288441
 20
-1745.096934118479
 10
-936.0388301291255
 20
-1745.02793411658
 10
-935.5508301294062
 20
-1744.926934113799
 10
-935.072830129679
 20
-1744.793934110137
 10
-934.6048301299484
 20
-1744.630934105647
 10
-934.1508301302059
 20
-1744.437934100336
 10
-934.0498301302641
 20
-1744.389934099018
 10
-933.9488301303221
 20
-1744.340934097668
 10
-933.8498301303802
 20
-1744.290934096286
 10
-933.7618301304292
 20
-1744.243934094996
 10
-933.606830130518
 20
-1744.163934092794
 10
-933.4638301305989
 20
-1744.107934091254
 10
-933.3001476132022
 20
-1744.076756468013
 10
-933.1396519230352
 20
-1744.115356698389
 10
-933.0266775512663
 20
-1744.216439033866
 10
-932.9709307149201
 20
-1744.361779004146
 10
-932.9917547583882
 20
-1744.536700974222
 10
-933.0828301308184
 20
-1744.671934106776
 10
-933.1778301307631
 20
-1744.762934109283
 10
-933.3118301306871
 20
-1744.852934111764
 10
-933.4228301306243
 20
-1744.913934113444
 10
-933.5308301305621
 20
-1744.970934115012
 10
-934.0088301302881
 20
-1745.196934121231
 10
-934.5018301300074
 20
-1745.393934126655
 10
-935.0058301297172
 20
-1745.557934131171
 10
-935.5178301294241
 20
-1745.689934134803
 10
-936.0368301291282
 20
-1745.788934137531
 10
-936.5598301288272
 20
-1745.853934139319
 10
-937.085830128527
 20
-1745.886934140224
 10
-937.610830128227
 20
-1745.885934140202
 10
-938.1348301279263
 20
-1745.852934139293
 10
-938.653830127629
 20
-1745.785934137449
 10
-939.1668301273371
 20
-1745.687934134748
 10
-939.6718301270471
 20
-1745.556934131142
 10
-940.1658301267643
 20
-1745.395934126711
 10
-940.6478301264883
 20
-1745.204934121451
 10
-941.1158301262211
 20
-1744.984934115397
 10
-941.2678301261344
 20
-1744.905934113224
 10
-941.7178301258763
 20
-1744.684934107135
 10
-942.1868301256081
 20
-1744.491934101825
 10
-942.666830125333
 20
-1744.330934097393
 10
-943.1548301250542
 20
-1744.201934093838
 10
-943.6498301247693
 20
-1744.105934091199
 10
-944.1498301244841
 20
-1744.043934089491
 10
-944.6518301241972
 20
-1744.014934088692
 10
-945.1538301239102
 20
-1744.017934088773
 10
-945.6528301236239
 20
-1744.054934089796
 10
-946.1478301233414
 20
-1744.12493409172
 10
-946.6358301230602
 20
-1744.225934094502
 10
-947.1148301227872
 20
-1744.358934098163
 10
-947.5828301225201
 20
-1744.522934102679
 10
-948.0378301222581
 20
-1744.715934107989
 10
-948.4198301220395
 20
-1744.905934113224
 10
-948.6068301219324
 20
-1745.000934115836
 10
-948.807642621824
 20
-1745.072652867809
 10
-948.99836944754
 20
-1745.053580184706
 10
-949.1281632166993
 20
-1744.968403021306
 10
-949.202358233389
 20
-1744.832044608427
 10
-949.2043733140803
 20
-1744.660762744967
 10
-949.1081931437584
 20
-1744.474290980949
 10
-948.9438301217401
 20
-1744.343934097749
 10
-948.7592764305992
 20
-1744.235562450487
 10
-948.2428301221421
 20
-1743.984934087864
 10
-947.7508301224229
 20
-1743.783934082333
 10
-947.2478301227102
 20
-1743.614934077682
 10
-946.7358301230042
 20
-1743.478934073937
 10
-946.2178301233011
 20
-1743.374934071071
 10
-945.6948301236002
 20
-1743.304934069147
 10
-945.1688301239023
 20
-1743.267934068127
 10
-944.6428301242022
 20
-1743.263934068018
 10
-944.1178301245031
 20
-1743.292934068817
 97
        0
 75
     1
 76
     1
 47
0.1418325683022728
 98
        3
 10
-942.530978192863
 20
-1733.012354692338
 10
-942.530978192863
 20
-1733.012354692338
 10
-942.530978192863
 20
-1733.012354692338
450
        0
451
        0
460
0.0
461
0.0
452
        0
462
0.0
453
        2
463
0.0
 63
     5
421
      255
463
1.0
 63
     2
421
 16776960
470
LINEAR
1001
GradientColor1ACI
1070
     5
1001
GradientColor2ACI
1070
     2
1001
ACAD
1010
0.0
1020
0.0
1030
0.0
  0
LWPOLYLINE
  5
1A5F
330
A
100
AcDbEntity
  8
0
  6
CUSTOM
 62
    18
420
        0
370
     9
100
AcDbPolyline
 90
       98
 70
     1
 43
0.0
 10
-934.1508301302059
 20
-1744.437934100336
 10
-934.0498301302641
 20
-1744.389934099018
 10
-933.9488301303221
 20
-1744.340934097668
 10
-933.8498301303802
 20
-1744.290934096286
 10
-933.7618301304292
 20
-1744.243934094996
 10
-933.606830130518
 20
-1744.163934092794
 10
-933.4638301305989
 20
-1744.107934091254
 10
-933.3378301306721
 20
-1744.083934090591
 10
-933.2578301307171
 20
-1744.086934090672
 10
-933.1788301307634
 20
-1744.105934091199
 10
-933.1088301308023
 20
-1744.142934092215
 10
-933.0518301308361
 20
-1744.193934093618
 10
-933.013830130857
 20
-1744.249934095161
 10
-932.9858301308732
 20
-1744.322934097173
 10
-932.9758301308801
 20
-1744.402934099376
 10
-932.9858301308732
 20
-1744.486934101689
 10
-933.0168301308562
 20
-1744.573934104082
 10
-933.0828301308184
 20
-1744.671934106776
 10
-933.1778301307631
 20
-1744.762934109283
 10
-933.3118301306871
 20
-1744.852934111764
 10
-933.4228301306243
 20
-1744.913934113444
 10
-933.5308301305621
 20
-1744.970934115012
 10
-934.0088301302881
 20
-1745.196934121231
 10
-934.5018301300074
 20
-1745.393934126655
 10
-935.0058301297172
 20
-1745.557934131171
 10
-935.5178301294241
 20
-1745.689934134803
 10
-936.0368301291282
 20
-1745.788934137531
 10
-936.5598301288272
 20
-1745.853934139319
 10
-937.085830128527
 20
-1745.886934140224
 10
-937.610830128227
 20
-1745.885934140202
 10
-938.1348301279263
 20
-1745.852934139293
 10
-938.653830127629
 20
-1745.785934137449
 10
-939.1668301273371
 20
-1745.687934134748
 10
-939.6718301270471
 20
-1745.556934131142
 10
-940.1658301267643
 20
-1745.395934126711
 10
-940.6478301264883
 20
-1745.204934121451
 10
-941.1158301262211
 20
-1744.984934115397
 10
-941.2678301261344
 20
-1744.905934113224
 10
-941.7178301258763
 20
-1744.684934107135
 10
-942.1868301256081
 20
-1744.491934101825
 10
-942.666830125333
 20
-1744.330934097393
 10
-943.1548301250542
 20
-1744.201934093838
 10
-943.6498301247693
 20
-1744.105934091199
 10
-944.1498301244841
 20
-1744.043934089491
 10
-944.6518301241972
 20
-1744.014934088692
 10
-945.1538301239102
 20
-1744.017934088773
 10
-945.6528301236239
 20
-1744.054934089796
 10
-946.1478301233414
 20
-1744.12493409172
 10
-946.6358301230602
 20
-1744.225934094502
 10
-947.1148301227872
 20
-1744.358934098163
 10
-947.5828301225201
 20
-1744.522934102679
 10
-948.0378301222581
 20
-1744.715934107989
 10
-948.4198301220395
 20
-1744.905934113224
 10
-948.6068301219324
 20
-1745.000934115836
 10
-948.7468301218532
 20
-1745.050934117211
 10
-948.864830121785
 20
-1745.066934117654
 10
-948.9548301217341
 20
-1745.057934117409
 10
-949.0298301216911
 20
-1745.032934116716
 10
-949.0938301216552
 20
-1744.990934115561
 10
-949.1458301216253
 20
-1744.935934114044
 10
-949.1828301216042
 20
-1744.867934112175
 10
-949.2028301215913
 20
-1744.791934110086
 10
-949.2038301215911
 20
-1744.706934107743
 10
-949.183830121602
 20
-1744.620934105372
 10
-949.1348301216303
 20
-1744.525934102763
 10
-949.0598301216733
 20
-1744.435934100285
 10
-948.9438301217401
 20
-1744.343934097749
 10
-948.7718301218382
 20
-1744.242934094967
 10
-948.7188301218694
 20
-1744.215934094227
 10
-948.2428301221421
 20
-1743.984934087864
 10
-947.7508301224229
 20
-1743.783934082333
 10
-947.2478301227102
 20
-1743.614934077682
 10
-946.7358301230042
 20
-1743.478934073937
 10
-946.2178301233011
 20
-1743.374934071071
 10
-945.6948301236002
 20
-1743.304934069147
 10
-945.1688301239023
 20
-1743.267934068127
 10
-944.6428301242022
 20
-1743.263934068018
 10
-944.1178301245031
 20
-1743.292934068817
 10
-943.5978301248001
 20
-1743.354934070521
 10
-943.0828301250963
 20
-1743.448934073112
 10
-942.5768301253842
 20
-1743.574934076576
 10
-942.0808301256661
 20
-1743.7319340809
 10
-941.5968301259463
 20
-1743.91893408605
 10
-941.125830126216
 20
-1744.134934091995
 10
-940.9138301263361
 20
-1744.243934094996
 10
-940.4638301265922
 20
-1744.465934101106
 10
-939.9958301268611
 20
-1744.658934106424
 10
-939.5168301271365
 20
-1744.820934110881
 10
-939.0288301274171
 20
-1744.948934114403
 10
-938.5338301276979
 20
-1745.044934117049
 10
-938.0348301279841
 20
-1745.107934118783
 10
-937.5338301282713
 20
-1745.137934119607
 10
-937.0318301285584
 20
-1745.133934119497
 10
-936.5328301288441
 20
-1745.096934118479
 10
-936.0388301291255
 20
-1745.02793411658
 10
-935.5508301294062
 20
-1744.926934113799
 10
-935.072830129679
 20
-1744.793934110137
 10
-934.6048301299484
 20
-1744.630934105647
  0
LWPOLYLINE
  5
1A60
330
A
100
AcDbEntity
  8
0
  6
CUSTOM
 62
    18
420
        0
370
     9
100
AcDbPolyline
 90
       30
 70
     1
 43
0.0
 10
-921.0908301376813
 20
-1721.678933473791
 10
-921.0908301376813
 20
-1796.736935540117
 10
-921.0908301376813
 20
-1796.853935543334
 10
-921.0908301376813
 20
-1796.964935546388
 10
-921.0908301376813
 20
-1797.063935549118
 10
-921.0908301376813
 20
-1797.142935551291
 10
-921.0908301376813
 20
-1797.19993555286
 10
-921.0908301376813
 20
-1797.23093555371
 10
-921.0908301376813
 20
-1797.233935553795
 10
-961.0908301147869
 20
-1797.233935553795
 10
-961.0908301147869
 20
-1797.23093555371
 10
-961.0908301147869
 20
-1797.19993555286
 10
-961.0908301147869
 20
-1797.142935551291
 10
-961.0908301147869
 20
-1797.063935549118
 10
-961.0908301147869
 20
-1796.964935546388
 10
-961.0908301147869
 20
-1796.853935543334
 10
-961.0908301147869
 20
-1796.736935540117
 10
-961.0908301147869
 20
-1721.678933473791
 10
-961.0908301147869
 20
-1721.555933470404
 10
-961.0908301147869
 20
-1721.439933467209
 10
-961.0908301147869
 20
-1721.33893346443
 10
-961.0908301147869
 20
-1721.25993346225
 10
-961.0908301147869
 20
-1721.20493346074
 10
-961.0908301147869
 20
-1721.17993346005
 10
-921.0908301376813
 20
-1721.17993346005
 10
-921.0908301376813
 20
-1721.20493346074
 10
-921.0908301376813
 20
-1721.25993346225
 10
-921.0908301376813
 20
-1721.33893346443
 10
-921.0908301376813
 20
-1721.439933467209
 10
-921.0908301376813
 20
-1721.555933470404
  0
LWPOLYLINE
  5
1A61
330
A
100
AcDbEntity
  8
0
  6
CUSTOM
 62
    18
420
        0
370
     9
100
AcDbPolyline
 90
       28
 70
     1
 43
0.0
 10
-923.5908301362501
 20
-1725.040933566342
 10
-923.624830136231
 20
-1724.781933559213
 10
-923.7248301361733
 20
-1724.54093355258
 10
-923.8838301360843
 20
-1724.33393354688
 10
-924.090830135964
 20
-1724.174933542504
 10
-924.3318301358263
 20
-1724.074933539748
 10
-924.5908301356781
 20
-1724.040933538814
 10
-957.5908301167924
 20
-1724.040933538814
 10
-957.8498301166431
 20
-1724.074933539748
 10
-958.090830116504
 20
-1724.174933542504
 10
-958.2978301163871
 20
-1724.33393354688
 10
-958.4568301162953
 20
-1724.54093355258
 10
-958.5568301162393
 20
-1724.781933559213
 10
-958.5908301162193
 20
-1725.040933566342
 10
-958.5908301162193
 20
-1793.540935452128
 10
-958.5568301162393
 20
-1793.79993545926
 10
-958.4568301162953
 20
-1794.040935465895
 10
-958.2978301163871
 20
-1794.247935471594
 10
-958.090830116504
 20
-1794.40693547597
 10
-957.8498301166431
 20
-1794.506935478719
 10
-957.5908301167924
 20
-1794.540935479657
 10
-924.5908301356781
 20
-1794.540935479657
 10
-924.3318301358263
 20
-1794.506935478719
 10
-924.090830135964
 20
-1794.40693547597
 10
-923.8838301360843
 20
-1794.247935471594
 10
-923.7248301361733
 20
-1794.040935465895
 10
-923.624830136231
 20
-1793.79993545926
 10
-923.5908301362501
 20
-1793.540935452128
  0
ENDSEC
  0
SECTION
  2
OBJECTS
  0
DICTIONARY
  5
19
330
0
100
AcDbDictionary
281
     1
  3
ACAD_CIP_PREVIOUS_PRODUCT_INFO
350
36C
  3
ACAD_COLOR
350
34B
  3
ACAD_DETAILVIEWSTYLE
350
364
  3
ACAD_GROUP
350
1A
  3
ACAD_LAYOUT
350
366
  3
ACAD_MATERIAL
350
319
  3
ACAD_MLEADERSTYLE
350
360
  3
ACAD_MLINESTYLE
350
1B
  3
ACAD_PLOTSETTINGS
350
367
  3
ACAD_PLOTSTYLENAME
350
317
  3
ACAD_SCALELIST
350
34E
  3
ACAD_SECTIONVIEWSTYLE
350
362
  3
ACAD_TABLESTYLE
350
34C
  3
ACAD_VISUALSTYLE
350
332
  3
ACDB_RECOMPOSE_DATA
350
1B4B
  3
AcDbVariableDictionary
350
509
  0
DICTIONARY
  5
372
330
2
100
AcDbDictionary
280
     1
281
     1
  3
ACAD_LAYERSTATES
360
373
  0
DICTIONARY
  5
65A
330
14
100
AcDbDictionary
280
     1
281
     1
  3
ADSK_XREC_LAYER_RECONCILED
360
65B
  0
DICTIONARY
  5
65C
330
1D
100
AcDbDictionary
280
     1
281
     1
  3
ADSK_XREC_LAYER_RECONCILED
360
65D
  0
DICTIONARY
  5
65E
330
36D
100
AcDbDictionary
280
     1
281
     1
  3
ADSK_XREC_LAYER_RECONCILED
360
65F
  0
XRECORD
  5
36C
102
{ACAD_REACTORS
330
19
102
}
330
19
100
AcDbXrecord
280
     1
300
ACDLT
300
2016
300

  0
DICTIONARY
  5
34B
102
{ACAD_REACTORS
330
19
102
}
330
19
100
AcDbDictionary
281
     1
  0
DICTIONARY
  5
364
102
{ACAD_REACTORS
330
19
102
}
330
19
100
AcDbDictionary
281
     1
  3
Imperial24
350
365
  0
DICTIONARY
  5
1A
102
{ACAD_REACTORS
330
19
102
}
330
19
100
AcDbDictionary
281
     1
  0
DICTIONARY
  5
366
102
{ACAD_REACTORS
330
19
102
}
330
19
100
AcDbDictionary
281
     1
  3
Layout1
350
369
  3
Model
350
368
  0
DICTIONARY
  5
319
102
{ACAD_REACTORS
330
19
102
}
330
19
100
AcDbDictionary
281
     1
  3
ByBlock
350
322
  3
ByLayer
350
31A
  3
Global
350
32A
  0
DICTIONARY
  5
360
102
{ACAD_REACTORS
330
19
102
}
330
19
100
AcDbDictionary
281
     1
  3
Standard
350
361
  0
DICTIONARY
  5
1B
102
{ACAD_REACTORS
330
19
102
}
330
19
100
AcDbDictionary
281
     1
  3
STANDARD
350
1C
  0
DICTIONARY
  5
367
102
{ACAD_REACTORS
330
19
102
}
330
19
100
AcDbDictionary
281
     1
  0
ACDBDICTIONARYWDFLT
  5
317
102
{ACAD_REACTORS
330
19
102
}
330
19
100
AcDbDictionary
281
     1
  3
Normal
350
318
100
AcDbDictionaryWithDefault
340
318
  0
DICTIONARY
  5
34E
102
{ACAD_REACTORS
330
19
102
}
330
19
100
AcDbDictionary
281
     1
  3
A0
350
34F
  3
A1
350
350
  3
A2
350
351
  3
A3
350
352
  3
A4
350
353
  3
A5
350
354
  3
A6
350
355
  3
A7
350
356
  3
A8
350
357
  3
A9
350
358
  3
B0
350
359
  3
B1
350
35A
  3
B2
350
35B
  3
B3
350
35C
  3
B4
350
35D
  3
B5
350
35E
  3
B6
350
35F
  0
DICTIONARY
  5
362
102
{ACAD_REACTORS
330
19
102
}
330
19
100
AcDbDictionary
281
     1
  3
Imperial24
350
363
  0
DICTIONARY
  5
34C
102
{ACAD_REACTORS
330
19
102
}
330
19
100
AcDbDictionary
281
     1
  3
Standard
350
34D
  0
DICTIONARY
  5
332
102
{ACAD_REACTORS
330
19
102
}
330
19
100
AcDbDictionary
281
     1
  3
2dWireframe
350
338
  3
Basic
350
337
  3
Brighten
350
33E
  3
ColorChange
350
342
  3
Conceptual
350
33B
  3
Dim
350
33D
  3
EdgeColorOff
350
34A
  3
Facepattern
350
341
  3
Flat
350
333
  3
FlatWithEdges
350
334
  3
Gouraud
350
335
  3
GouraudWithEdges
350
336
  3
Hidden
350
33A
  3
JitterOff
350
348
  3
Linepattern
350
340
  3
OverhangOff
350
349
  3
Realistic
350
33C
  3
Shaded
350
347
  3
Shaded with edges
350
346
  3
Shades of Gray
350
343
  3
Sketchy
350
344
  3
Thicken
350
33F
  3
Wireframe
350
339
  3
X-Ray
350
345
  0
XRECORD
  5
1B4B
102
{ACAD_REACTORS
330
19
102
}
330
19
100
AcDbXrecord
280
     1
 90
        1
330
34D
  0
DICTIONARY
  5
509
102
{ACAD_REACTORS
330
19
102
}
330
19
100
AcDbDictionary
281
     1
  3
CANNOSCALE
350
50F
  3
CMLEADERSTYLE
350
50B
  3
CTABLESTYLE
350
50A
  3
CVIEWDETAILSTYLE
350
50C
  3
CVIEWSECTIONSTYLE
350
50D
  3
LAYEREVAL
350
511
  3
LAYERNOTIFY
350
512
  3
LIGHTINGUNITS
350
510
  3
MSLTSCALE
350
50E
  0
DICTIONARY
  5
373
102
{ACAD_REACTORS
330
372
102
}
330
372
100
AcDbDictionary
281
     1
  0
XRECORD
  5
65B
102
{ACAD_REACTORS
330
65A
102
}
330
65A
100
AcDbXrecord
280
     1
290
     1
  0
XRECORD
  5
65D
102
{ACAD_REACTORS
330
65C
102
}
330
65C
100
AcDbXrecord
280
     1
290
     1
  0
XRECORD
  5
65F
102
{ACAD_REACTORS
330
65E
102
}
330
65E
100
AcDbXrecord
280
     1
290
     1
  0
ACDBDETAILVIEWSTYLE
  5
365
102
{ACAD_XDICTIONARY
360
1B7E
102
}
102
{ACAD_REACTORS
330
364
102
}
330
364
100
AcDbModelDocViewStyle
 70
     0
  3
Imperial24
290
     0
100
AcDbDetailViewStyle
 70
     0
 71
     0
 90
        3
 71
     1
340
17
 62
   256
 40
0.24
340
0
 62
   256
 40
0.24
300

 40
0.36
280
     3
 71
     2
340
13
 90
       25
 62
   256
 71
     3
340
17
 62
   256
 40
0.24
 90
        1
 40
0.75
 90
        1
300
%<\AcVar ViewType \f "%tc1">% %<\AcVar ViewDetailId>%\PVARIA %<\AcVar ViewScale \f "%sn">%
 71
     4
340
13
 90
       25
 62
   256
340
13
 90
       25
 62
   256
280
     0
  0
LAYOUT
  5
369
102
{ACAD_REACTORS
330
366
102
}
330
366
100
AcDbPlotSettings
  1

  2
\\srvadruck01\MFSA15
  4

  6

 40
0.0
 41
0.0
 42
0.0
 43
0.0
 44
0.0
 45
0.0
 46
0.0
 47
0.0
 48
0.0
 49
0.0
140
0.0
141
0.0
142
1.0
143
1.0
 70
   688
 72
     0
 73
     0
 74
     5
  7

 75
    16
147
1.0
 76
     0
 77
     2
 78
   300
148
0.0
149
0.0
100
AcDbLayout
  1
Layout1
 70
     0
 71
     1
 10
0.0
 20
0.0
 11
12.0
 21
9.0
 12
0.0
 22
0.0
 32
0.0
 14
1.000000000000000E+20
 24
1.000000000000000E+20
 34
1.000000000000000E+20
 15
-1.000000000000000E+20
 25
-1.000000000000000E+20
 35
-1.000000000000000E+20
146
0.0
 13
0.0
 23
0.0
 33
0.0
 16
1.0
 26
0.0
 36
0.0
 17
0.0
 27
1.0
 37
0.0
 76
     0
330
B
  0
LAYOUT
  5
368
102
{ACAD_REACTORS
330
366
102
}
330
366
100
AcDbPlotSettings
  1

  2
\\srvadruck01\MFSA15
  4

  6

 40
0.0
 41
0.0
 42
0.0
 43
0.0
 44
0.0
 45
0.0
 46
0.0
 47
0.0
 48
0.0
 49
0.0
140
0.0
141
0.0
142
1.0
143
1.0
 70
  1712
 72
     0
 73
     0
 74
     0
  7

 75
     0
147
1.0
 76
     0
 77
     2
 78
   300
148
0.0
149
0.0
100
AcDbLayout
  1
Model
 70
     1
 71
     0
 10
0.0
 20
0.0
 11
12.0
 21
9.0
 12
0.0
 22
0.0
 32
0.0
 14
0.0
 24
0.0
 34
0.0
 15
0.0
 25
0.0
 35
0.0
146
0.0
 13
0.0
 23
0.0
 33
0.0
 16
1.0
 26
0.0
 36
0.0
 17
0.0
 27
1.0
 37
0.0
 76
     0
330
A
331
15
  0
MATERIAL
  5
322
102
{ACAD_XDICTIONARY
360
323
102
}
102
{ACAD_REACTORS
330
319
102
}
330
319
100
AcDbMaterial
  1
ByBlock
 72
     0
 43
0.0208333333333333
 43
0.0
 43
0.0
 43
0.0
 43
0.0
 43
0.0208333333333333
 43
0.0
 43
0.0
 43
0.0
 43
0.0
 43
1.0
 43
0.0
 43
0.0
 43
0.0
 43
0.0
 43
1.0
 77
     0
 47
0.0208333333333333
 47
0.0
 47
0.0
 47
0.0
 47
0.0
 47
0.0208333333333333
 47
0.0
 47
0.0
 47
0.0
 47
0.0
 47
1.0
 47
0.0
 47
0.0
 47
0.0
 47
0.0
 47
1.0
171
     0
 49
0.0208333333333333
 49
0.0
 49
0.0
 49
0.0
 49
0.0
 49
0.0208333333333333
 49
0.0
 49
0.0
 49
0.0
 49
0.0
 49
1.0
 49
0.0
 49
0.0
 49
0.0
 49
0.0
 49
1.0
175
     0
142
0.0208333333333333
142
0.0
142
0.0
142
0.0
142
0.0
142
0.0208333333333333
142
0.0
142
0.0
142
0.0
142
0.0
142
1.0
142
0.0
142
0.0
142
0.0
142
0.0
142
1.0
179
     0
144
0.0208333333333333
144
0.0
144
0.0
144
0.0
144
0.0
144
0.0208333333333333
144
0.0
144
0.0
144
0.0
144
0.0
144
1.0
144
0.0
144
0.0
144
0.0
144
0.0
144
1.0
147
0.0208333333333333
147
0.0
147
0.0
147
0.0
147
0.0
147
0.0208333333333333
147
0.0
147
0.0
147
0.0
147
0.0
147
1.0
147
0.0
147
0.0
147
0.0
147
0.0
147
1.0
  0
MATERIAL
  5
31A
102
{ACAD_XDICTIONARY
360
31B
102
}
102
{ACAD_REACTORS
330
319
102
}
330
319
100
AcDbMaterial
  1
ByLayer
 72
     0
 43
0.0208333333333333
 43
0.0
 43
0.0
 43
0.0
 43
0.0
 43
0.0208333333333333
 43
0.0
 43
0.0
 43
0.0
 43
0.0
 43
1.0
 43
0.0
 43
0.0
 43
0.0
 43
0.0
 43
1.0
 77
     0
 47
0.0208333333333333
 47
0.0
 47
0.0
 47
0.0
 47
0.0
 47
0.0208333333333333
 47
0.0
 47
0.0
 47
0.0
 47
0.0
 47
1.0
 47
0.0
 47
0.0
 47
0.0
 47
0.0
 47
1.0
171
     0
 49
0.0208333333333333
 49
0.0
 49
0.0
 49
0.0
 49
0.0
 49
0.0208333333333333
 49
0.0
 49
0.0
 49
0.0
 49
0.0
 49
1.0
 49
0.0
 49
0.0
 49
0.0
 49
0.0
 49
1.0
175
     0
142
0.0208333333333333
142
0.0
142
0.0
142
0.0
142
0.0
142
0.0208333333333333
142
0.0
142
0.0
142
0.0
142
0.0
142
1.0
142
0.0
142
0.0
142
0.0
142
0.0
142
1.0
179
     0
144
0.0208333333333333
144
0.0
144
0.0
144
0.0
144
0.0
144
0.0208333333333333
144
0.0
144
0.0
144
0.0
144
0.0
144
1.0
144
0.0
144
0.0
144
0.0
144
0.0
144
1.0
147
0.0208333333333333
147
0.0
147
0.0
147
0.0
147
0.0
147
0.0208333333333333
147
0.0
147
0.0
147
0.0
147
0.0
147
1.0
147
0.0
147
0.0
147
0.0
147
0.0
147
1.0
  0
MATERIAL
  5
32A
102
{ACAD_XDICTIONARY
360
32B
102
}
102
{ACAD_REACTORS
330
319
102
}
330
319
100
AcDbMaterial
  1
Global
 72
     0
 43
0.0208333333333333
 43
0.0
 43
0.0
 43
0.0
 43
0.0
 43
0.0208333333333333
 43
0.0
 43
0.0
 43
0.0
 43
0.0
 43
1.0
 43
0.0
 43
0.0
 43
0.0
 43
0.0
 43
1.0
 77
     0
 47
0.0208333333333333
 47
0.0
 47
0.0
 47
0.0
 47
0.0
 47
0.0208333333333333
 47
0.0
 47
0.0
 47
0.0
 47
0.0
 47
1.0
 47
0.0
 47
0.0
 47
0.0
 47
0.0
 47
1.0
171
     0
 49
0.0208333333333333
 49
0.0
 49
0.0
 49
0.0
 49
0.0
 49
0.0208333333333333
 49
0.0
 49
0.0
 49
0.0
 49
0.0
 49
1.0
 49
0.0
 49
0.0
 49
0.0
 49
0.0
 49
1.0
175
     0
142
0.0208333333333333
142
0.0
142
0.0
142
0.0
142
0.0
142
0.0208333333333333
142
0.0
142
0.0
142
0.0
142
0.0
142
1.0
142
0.0
142
0.0
142
0.0
142
0.0
142
1.0
179
     0
144
0.0208333333333333
144
0.0
144
0.0
144
0.0
144
0.0
144
0.0208333333333333
144
0.0
144
0.0
144
0.0
144
0.0
144
1.0
144
0.0
144
0.0
144
0.0
144
0.0
144
1.0
147
0.0208333333333333
147
0.0
147
0.0
147
0.0
147
0.0
147
0.0208333333333333
147
0.0
147
0.0
147
0.0
147
0.0
147
1.0
147
0.0
147
0.0
147
0.0
147
0.0
147
1.0
  0
MLEADERSTYLE
  5
361
102
{ACAD_REACTORS
330
360
102
}
330
360
100
AcDbMLeaderStyle
179
     2
170
     2
171
     1
172
     0
 90
        2
 40
0.0
 41
0.0
173
     1
 91
-1056964608
340
11
 92
       -2
290
     1
 42
0.09
291
     1
 43
0.36
  3
Standard
 44
0.18
300

342
17
174
     1
178
     6
175
     1
176
     0
 93
-1056964608
 45
0.18
292
     0
297
     0
 46
0.18
 94
-1056964608
 47
1.0
 49
1.0
140
1.0
293
     1
141
0.0
294
     1
177
     0
142
1.0
295
     0
296
     0
143
0.125
271
     0
272
     9
273
     9
  0
MLINESTYLE
  5
1C
102
{ACAD_REACTORS
330
1B
102
}
330
1B
100
AcDbMlineStyle
  2
STANDARD
 70
     0
  3

 62
     0
 51
90.0
 52
90.0
 71
     2
 49
0.5
 62
   256
  6
BYLAYER
 49
-0.5
 62
   256
  6
BYLAYER
  0
ACDBPLACEHOLDER
  5
318
102
{ACAD_REACTORS
330
317
102
}
330
317
  0
SCALE
  5
34F
102
{ACAD_REACTORS
330
34E
102
}
330
34E
100
AcDbScale
 70
     0
300
1:1
140
1.0
141
1.0
290
     1
  0
SCALE
  5
350
102
{ACAD_REACTORS
330
34E
102
}
330
34E
100
AcDbScale
 70
     0
300
1/128" = 1'-0"
140
0.0078125
141
12.0
290
     0
  0
SCALE
  5
351
102
{ACAD_REACTORS
330
34E
102
}
330
34E
100
AcDbScale
 70
     0
300
1/64" = 1'-0"
140
0.015625
141
12.0
290
     0
  0
SCALE
  5
352
102
{ACAD_REACTORS
330
34E
102
}
330
34E
100
AcDbScale
 70
     0
300
1/32" = 1'-0"
140
0.03125
141
12.0
290
     0
  0
SCALE
  5
353
102
{ACAD_REACTORS
330
34E
102
}
330
34E
100
AcDbScale
 70
     0
300
1/16" = 1'-0"
140
0.0625
141
12.0
290
     0
  0
SCALE
  5
354
102
{ACAD_REACTORS
330
34E
102
}
330
34E
100
AcDbScale
 70
     0
300
3/32" = 1'-0"
140
0.09375
141
12.0
290
     0
  0
SCALE
  5
355
102
{ACAD_REACTORS
330
34E
102
}
330
34E
100
AcDbScale
 70
     0
300
1/8" = 1'-0"
140
0.125
141
12.0
290
     0
  0
SCALE
  5
356
102
{ACAD_REACTORS
330
34E
102
}
330
34E
100
AcDbScale
 70
     0
300
3/16" = 1'-0"
140
0.1875
141
12.0
290
     0
  0
SCALE
  5
357
102
{ACAD_REACTORS
330
34E
102
}
330
34E
100
AcDbScale
 70
     0
300
1/4" = 1'-0"
140
0.25
141
12.0
290
     0
  0
SCALE
  5
358
102
{ACAD_REACTORS
330
34E
102
}
330
34E
100
AcDbScale
 70
     0
300
3/8" = 1'-0"
140
0.375
141
12.0
290
     0
  0
SCALE
  5
359
102
{ACAD_REACTORS
330
34E
102
}
330
34E
100
AcDbScale
 70
     0
300
1/2" = 1'-0"
140
0.5
141
12.0
290
     0
  0
SCALE
  5
35A
102
{ACAD_REACTORS
330
34E
102
}
330
34E
100
AcDbScale
 70
     0
300
3/4" = 1'-0"
140
0.75
141
12.0
290
     0
  0
SCALE
  5
35B
102
{ACAD_REACTORS
330
34E
102
}
330
34E
100
AcDbScale
 70
     0
300
1" = 1'-0"
140
1.0
141
12.0
290
     0
  0
SCALE
  5
35C
102
{ACAD_REACTORS
330
34E
102
}
330
34E
100
AcDbScale
 70
     0
300
1-1/2" = 1'-0"
140
1.5
141
12.0
290
     0
  0
SCALE
  5
35D
102
{ACAD_REACTORS
330
34E
102
}
330
34E
100
AcDbScale
 70
     0
300
3" = 1'-0"
140
3.0
141
12.0
290
     0
  0
SCALE
  5
35E
102
{ACAD_REACTORS
330
34E
102
}
330
34E
100
AcDbScale
 70
     0
300
6" = 1'-0"
140
6.0
141
12.0
290
     0
  0
SCALE
  5
35F
102
{ACAD_REACTORS
330
34E
102
}
330
34E
100
AcDbScale
 70
     0
300
1'-0" = 1'-0"
140
12.0
141
12.0
290
     0
  0
ACDBSECTIONVIEWSTYLE
  5
363
102
{ACAD_XDICTIONARY
360
1B7C
102
}
102
{ACAD_REACTORS
330
362
102
}
330
362
100
AcDbModelDocViewStyle
 70
     0
  3
Imperial24
290
     0
100
AcDbSectionViewStyle
 70
     0
 71
     0
 90
       78
 71
     1
340
17
 62
   256
 40
0.24
340
0
340
0
 62
   256
 40
0.24
300
I, O, Q, S, X, Z
 40
0.48
 90
        3
 40
0.18
 90
        1
 71
     2
340
13
 90
       25
 62
   256
340
13
 90
       50
 62
   256
 40
0.24
 40
0.0
 40
0.24
 71
     3
340
17
 62
   256
 40
0.24
 90
        1
 40
0.75
 90
        1
300
%<\AcVar ViewType \f "%tc1">% %<\AcVar ViewSectionStartId>%-%<\AcVar ViewSectionEndId>%\PVARIA %<\AcVar ViewScale \f "%sn">%
 71
     4
 62
   256
 62
   257
300
ANSI31
 40
1.0
 90
        0
290
     0
290
     0
 90
        6
 40
0.0
 40
1.570796326794896
 40
0.2617993877991494
 40
1.308996938995747
 40
-0.2617993877991494
 40
1.832595714594044
  0
TABLESTYLE
  5
34D
102
{ACAD_XDICTIONARY
360
513
102
}
102
{ACAD_REACTORS
330
34C
102
}
330
34C
100
AcDbTableStyle
280
     0
  3
Standard
 70
     0
 71
     0
 40
0.06
 41
0.06
280
     0
281
     0
  7
STANDARD
140
0.18
170
     2
 62
     0
 63
     7
283
     0
 90
      512
 91
        0
  1

274
    -2
284
     1
 64
     0
275
    -2
285
     1
 65
     0
276
    -2
286
     1
 66
     0
277
    -2
287
     1
 67
     0
278
    -2
288
     1
 68
     0
279
    -2
289
     1
 69
     0
  7
STANDARD
140
0.25
170
     5
 62
     0
 63
     7
283
     0
 90
      512
 91
        0
  1

274
    -2
284
     1
 64
     0
275
    -2
285
     1
 65
     0
276
    -2
286
     1
 66
     0
277
    -2
287
     1
 67
     0
278
    -2
288
     1
 68
     0
279
    -2
289
     1
 69
     0
  7
STANDARD
140
0.18
170
     5
 62
     0
 63
     7
283
     0
 90
      512
 91
        0
  1

274
    -2
284
     1
 64
     0
275
    -2
285
     1
 65
     0
276
    -2
286
     1
 66
     0
277
    -2
287
     1
 67
     0
278
    -2
288
     1
 68
     0
279
    -2
289
     1
 69
     0
  0
VISUALSTYLE
  5
338
102
{ACAD_XDICTIONARY
360
1B56
102
}
102
{ACAD_REACTORS
330
332
102
}
330
332
100
AcDbVisualStyle
  2
2dWireframe
 70
     4
177
     2
291
     0
 71
     0
176
     1
 72
     2
176
     1
 73
     0
176
     1
 90
        0
176
     1
 40
0.6
176
     1
 41
30.0
176
     1
 63
     7
421
 16777215
176
     1
 74
     1
176
     1
 91
        4
176
     1
 64
     7
176
     1
 65
   257
176
     1
 75
     1
176
     1
175
     1
176
     1
 42
1.0
176
     1
 92
        0
176
     1
 66
   257
176
     1
 43
1.0
176
     1
 76
     1
176
     1
 77
     6
176
     1
 78
     2
176
     1
 67
     7
176
     1
 79
     5
176
     1
170
     0
176
     1
171
     0
176
     1
290
     0
176
     1
 93
        1
176
     1
 44
0.0
176
     1
173
     0
176
     1
1001
ACAD
1000
AcDbSavedByObjectVersion
1070
     0
  0
VISUALSTYLE
  5
337
102
{ACAD_XDICTIONARY
360
1B54
102
}
102
{ACAD_REACTORS
330
332
102
}
330
332
100
AcDbVisualStyle
  2
Basic
 70
     7
177
     2
291
     1
 71
     1
176
     1
 72
     0
176
     1
 73
     1
176
     1
 90
        0
176
     1
 40
0.6
176
     1
 41
30.0
176
     1
 63
     7
421
 16777215
176
     1
 74
     0
176
     1
 91
        4
176
     1
 64
     7
176
     1
 65
   257
176
     1
 75
     1
176
     1
175
     1
176
     1
 42
1.0
176
     1
 92
        8
176
     1
 66
     7
176
     1
 43
1.0
176
     1
 76
     1
176
     1
 77
     6
176
     1
 78
     2
176
     1
 67
     7
176
     1
 79
     5
176
     1
170
     0
176
     1
171
     0
176
     1
290
     0
176
     1
 93
        1
176
     1
 44
0.0
176
     1
173
     0
176
     1
1001
ACAD
1000
AcDbSavedByObjectVersion
1070
     0
  0
VISUALSTYLE
  5
33E
102
{ACAD_XDICTIONARY
360
1B62
102
}
102
{ACAD_REACTORS
330
332
102
}
330
332
100
AcDbVisualStyle
  2
Brighten
 70
    12
177
     2
291
     1
 71
     2
176
     1
 72
     2
176
     1
 73
     0
176
     1
 90
        0
176
     1
 40
0.6
176
     1
 41
30.0
176
     1
 63
     7
421
 16777215
176
     1
 74
     1
176
     1
 91
        4
176
     1
 64
     7
176
     1
 65
   257
176
     1
 75
     1
176
     1
175
     1
176
     1
 42
1.0
176
     1
 92
        8
176
     1
 66
     7
176
     1
 43
1.0
176
     1
 76
     1
176
     1
 77
     6
176
     1
 78
     2
176
     1
 67
     7
176
     1
 79
     5
176
     1
170
     0
176
     1
171
     0
176
     1
290
     0
176
     1
 93
        1
176
     1
 44
50.0
176
     1
173
     0
176
     1
1001
ACAD
1000
AcDbSavedByObjectVersion
1070
     0
  0
VISUALSTYLE
  5
342
102
{ACAD_XDICTIONARY
360
1B6A
102
}
102
{ACAD_REACTORS
330
332
102
}
330
332
100
AcDbVisualStyle
  2
ColorChange
 70
    16
177
     2
291
     1
 71
     2
176
     1
 72
     2
176
     1
 73
     3
176
     1
 90
        0
176
     1
 40
0.6
176
     1
 41
30.0
176
     1
 63
     8
421
  8421504
176
     1
 74
     1
176
     1
 91
        4
176
     1
 64
     7
176
     1
 65
   257
176
     1
 75
     1
176
     1
175
     1
176
     1
 42
1.0
176
     1
 92
        8
176
     1
 66
     8
424
  8421504
176
     1
 43
1.0
176
     1
 76
     1
176
     1
 77
     6
176
     1
 78
     2
176
     1
 67
     7
176
     1
 79
     5
176
     1
170
     0
176
     1
171
     0
176
     1
290
     0
176
     1
 93
        1
176
     1
 44
0.0
176
     1
173
     0
176
     1
1001
ACAD
1000
AcDbSavedByObjectVersion
1070
     0
  0
VISUALSTYLE
  5
33B
102
{ACAD_XDICTIONARY
360
1B5C
102
}
102
{ACAD_REACTORS
330
332
102
}
330
332
100
AcDbVisualStyle
  2
Conceptual
 70
     9
177
     2
291
     0
 71
     3
176
     1
 72
     2
176
     1
 73
     0
176
     1
 90
        0
176
     1
 40
0.6
176
     1
 41
30.0
176
     1
 63
     7
421
 16777215
176
     1
 74
     2
176
     1
 91
        2
176
     1
 64
     7
176
     1
 65
   257
176
     1
 75
     1
176
     1
175
     1
176
     1
 42
179.0
176
     1
 92
        8
176
     1
 66
     7
176
     1
 43
1.0
176
     1
 76
     1
176
     1
 77
     6
176
     1
 78
     2
176
     1
 67
     7
176
     1
 79
     3
176
     1
170
     0
176
     1
171
     0
176
     1
290
     0
176
     1
 93
        1
176
     1
 44
0.0
176
     1
173
     0
176
     1
1001
ACAD
1000
AcDbSavedByObjectVersion
1070
     0
  0
VISUALSTYLE
  5
33D
102
{ACAD_XDICTIONARY
360
1B60
102
}
102
{ACAD_REACTORS
330
332
102
}
330
332
100
AcDbVisualStyle
  2
Dim
 70
    11
177
     2
291
     1
 71
     2
176
     1
 72
     2
176
     1
 73
     0
176
     1
 90
        0
176
     1
 40
0.6
176
     1
 41
30.0
176
     1
 63
     7
421
 16777215
176
     1
 74
     1
176
     1
 91
        4
176
     1
 64
     7
176
     1
 65
   257
176
     1
 75
     1
176
     1
175
     1
176
     1
 42
1.0
176
     1
 92
        8
176
     1
 66
     7
176
     1
 43
1.0
176
     1
 76
     1
176
     1
 77
     6
176
     1
 78
     2
176
     1
 67
     7
176
     1
 79
     5
176
     1
170
     0
176
     1
171
     0
176
     1
290
     0
176
     1
 93
        1
176
     1
 44
-50.0
176
     1
173
     0
176
     1
1001
ACAD
1000
AcDbSavedByObjectVersion
1070
     0
  0
VISUALSTYLE
  5
34A
102
{ACAD_XDICTIONARY
360
1B7A
102
}
102
{ACAD_REACTORS
330
332
102
}
330
332
100
AcDbVisualStyle
  2
EdgeColorOff
 70
    22
177
     2
291
     1
 71
     2
176
     0
 72
     2
176
     0
 73
     0
176
     0
 90
        0
176
     0
 40
0.6
176
     0
 41
30.0
176
     0
 63
     7
421
 16777215
176
     0
 74
     1
176
     0
 91
        4
176
     0
 64
     7
176
     0
 65
   257
176
     0
 75
     1
176
     0
175
     1
176
     0
 42
1.0
176
     0
 92
        8
176
     2
 66
     7
176
     0
 43
1.0
176
     0
 76
     1
176
     0
 77
     6
176
     0
 78
     2
176
     0
 67
     7
176
     0
 79
     5
176
     0
170
     0
176
     0
171
     0
176
     0
290
     0
176
     0
 93
        1
176
     0
 44
0.0
176
     0
173
     0
176
     0
1001
ACAD
1000
AcDbSavedByObjectVersion
1070
     0
  0
VISUALSTYLE
  5
341
102
{ACAD_XDICTIONARY
360
1B68
102
}
102
{ACAD_REACTORS
330
332
102
}
330
332
100
AcDbVisualStyle
  2
Facepattern
 70
    15
177
     2
291
     1
 71
     2
176
     1
 72
     2
176
     1
 73
     0
176
     1
 90
        0
176
     1
 40
0.6
176
     1
 41
30.0
176
     1
 63
     7
421
 16777215
176
     1
 74
     1
176
     1
 91
        4
176
     1
 64
     7
176
     1
 65
   257
176
     1
 75
     1
176
     1
175
     1
176
     1
 42
1.0
176
     1
 92
        8
176
     1
 66
     7
176
     1
 43
1.0
176
     1
 76
     1
176
     1
 77
     6
176
     1
 78
     2
176
     1
 67
     7
176
     1
 79
     5
176
     1
170
     0
176
     1
171
     0
176
     1
290
     0
176
     1
 93
        1
176
     1
 44
0.0
176
     1
173
     0
176
     1
1001
ACAD
1000
AcDbSavedByObjectVersion
1070
     0
  0
VISUALSTYLE
  5
333
102
{ACAD_XDICTIONARY
360
1B4C
102
}
102
{ACAD_REACTORS
330
332
102
}
330
332
100
AcDbVisualStyle
  2
Flat
 70
     0
177
     2
291
     1
 71
     2
176
     1
 72
     1
176
     1
 73
     1
176
     1
 90
        2
176
     1
 40
0.6
176
     1
 41
30.0
176
     1
 63
     7
421
 16777215
176
     1
 74
     0
176
     1
 91
        0
176
     1
 64
     7
176
     1
 65
   257
176
     1
 75
     1
176
     1
175
     1
176
     1
 42
1.0
176
     1
 92
        8
176
     1
 66
     7
176
     1
 43
1.0
176
     1
 76
     1
176
     1
 77
     6
176
     1
 78
     2
176
     1
 67
     7
176
     1
 79
     5
176
     1
170
     0
176
     1
171
     0
176
     1
290
     0
176
     1
 93
       13
176
     1
 44
0.0
176
     1
173
     0
176
     1
1001
ACAD
1000
AcDbSavedByObjectVersion
1070
     0
  0
VISUALSTYLE
  5
334
102
{ACAD_XDICTIONARY
360
1B4E
102
}
102
{ACAD_REACTORS
330
332
102
}
330
332
100
AcDbVisualStyle
  2
FlatWithEdges
 70
     1
177
     2
291
     1
 71
     2
176
     1
 72
     1
176
     1
 73
     1
176
     1
 90
        2
176
     1
 40
0.6
176
     1
 41
30.0
176
     1
 63
     7
421
 16777215
176
     1
 74
     1
176
     1
 91
        0
176
     1
 64
     7
176
     1
 65
   257
176
     1
 75
     1
176
     1
175
     1
176
     1
 42
1.0
176
     1
 92
        0
176
     1
 66
   257
176
     1
 43
1.0
176
     1
 76
     1
176
     1
 77
     6
176
     1
 78
     2
176
     1
 67
     7
176
     1
 79
     5
176
     1
170
     0
176
     1
171
     0
176
     1
290
     0
176
     1
 93
       13
176
     1
 44
0.0
176
     1
173
     0
176
     1
1001
ACAD
1000
AcDbSavedByObjectVersion
1070
     0
  0
VISUALSTYLE
  5
335
102
{ACAD_XDICTIONARY
360
1B50
102
}
102
{ACAD_REACTORS
330
332
102
}
330
332
100
AcDbVisualStyle
  2
Gouraud
 70
     2
177
     2
291
     1
 71
     2
176
     1
 72
     2
176
     1
 73
     1
176
     1
 90
        2
176
     1
 40
0.6
176
     1
 41
30.0
176
     1
 63
     7
421
 16777215
176
     1
 74
     0
176
     1
 91
        0
176
     1
 64
     7
176
     1
 65
   257
176
     1
 75
     1
176
     1
175
     1
176
     1
 42
1.0
176
     1
 92
        0
176
     1
 66
     7
176
     1
 43
1.0
176
     1
 76
     1
176
     1
 77
     6
176
     1
 78
     2
176
     1
 67
     7
176
     1
 79
     5
176
     1
170
     0
176
     1
171
     0
176
     1
290
     0
176
     1
 93
       13
176
     1
 44
0.0
176
     1
173
     0
176
     1
1001
ACAD
1000
AcDbSavedByObjectVersion
1070
     0
  0
VISUALSTYLE
  5
336
102
{ACAD_XDICTIONARY
360
1B52
102
}
102
{ACAD_REACTORS
330
332
102
}
330
332
100
AcDbVisualStyle
  2
GouraudWithEdges
 70
     3
177
     2
291
     1
 71
     2
176
     1
 72
     2
176
     1
 73
     1
176
     1
 90
        2
176
     1
 40
0.6
176
     1
 41
30.0
176
     1
 63
     7
421
 16777215
176
     1
 74
     1
176
     1
 91
        0
176
     1
 64
     7
176
     1
 65
   257
176
     1
 75
     1
176
     1
175
     1
176
     1
 42
1.0
176
     1
 92
        0
176
     1
 66
   257
176
     1
 43
1.0
176
     1
 76
     1
176
     1
 77
     6
176
     1
 78
     2
176
     1
 67
     7
176
     1
 79
     5
176
     1
170
     0
176
     1
171
     0
176
     1
290
     0
176
     1
 93
       13
176
     1
 44
0.0
176
     1
173
     0
176
     1
1001
ACAD
1000
AcDbSavedByObjectVersion
1070
     0
  0
VISUALSTYLE
  5
33A
102
{ACAD_XDICTIONARY
360
1B5A
102
}
102
{ACAD_REACTORS
330
332
102
}
330
332
100
AcDbVisualStyle
  2
Hidden
 70
     6
177
     2
291
     0
 71
     1
176
     1
 72
     2
176
     1
 73
     2
176
     1
 90
        0
176
     1
 40
0.6
176
     1
 41
30.0
176
     1
 63
     7
421
 16777215
176
     1
 74
     2
176
     1
 91
        2
176
     1
 64
     7
176
     1
 65
   257
176
     1
 75
     2
176
     1
175
     1
176
     1
 42
40.0
176
     1
 92
        0
176
     1
 66
   257
176
     1
 43
1.0
176
     1
 76
     1
176
     1
 77
     6
176
     1
 78
     2
176
     1
 67
     7
176
     1
 79
     3
176
     1
170
     0
176
     1
171
     0
176
     1
290
     0
176
     1
 93
        1
176
     1
 44
0.0
176
     1
173
     0
176
     1
1001
ACAD
1000
AcDbSavedByObjectVersion
1070
     0
  0
VISUALSTYLE
  5
348
102
{ACAD_XDICTIONARY
360
1B76
102
}
102
{ACAD_REACTORS
330
332
102
}
330
332
100
AcDbVisualStyle
  2
JitterOff
 70
    20
177
     2
291
     1
 71
     2
176
     0
 72
     2
176
     0
 73
     0
176
     0
 90
        0
176
     0
 40
0.6
176
     0
 41
30.0
176
     0
 63
     7
421
 16777215
176
     0
 74
     1
176
     0
 91
        4
176
     0
 64
     7
176
     0
 65
   257
176
     0
 75
     1
176
     0
175
     1
176
     0
 42
1.0
176
     0
 92
       10
176
     2
 66
     7
176
     0
 43
1.0
176
     0
 76
     1
176
     0
 77
     6
176
     0
 78
     2
176
     0
 67
     7
176
     0
 79
     5
176
     0
170
     0
176
     0
171
     0
176
     0
290
     0
176
     0
 93
        1
176
     0
 44
0.0
176
     0
173
     0
176
     0
1001
ACAD
1000
AcDbSavedByObjectVersion
1070
     0
  0
VISUALSTYLE
  5
340
102
{ACAD_XDICTIONARY
360
1B66
102
}
102
{ACAD_REACTORS
330
332
102
}
330
332
100
AcDbVisualStyle
  2
Linepattern
 70
    14
177
     2
291
     1
 71
     2
176
     1
 72
     2
176
     1
 73
     0
176
     1
 90
        0
176
     1
 40
0.6
176
     1
 41
30.0
176
     1
 63
     7
421
 16777215
176
     1
 74
     1
176
     1
 91
        4
176
     1
 64
     7
176
     1
 65
   257
176
     1
 75
     7
176
     1
175
     7
176
     1
 42
1.0
176
     1
 92
        8
176
     1
 66
     7
176
     1
 43
1.0
176
     1
 76
     1
176
     1
 77
     6
176
     1
 78
     2
176
     1
 67
     7
176
     1
 79
     5
176
     1
170
     0
176
     1
171
     0
176
     1
290
     0
176
     1
 93
        1
176
     1
 44
0.0
176
     1
173
     0
176
     1
1001
ACAD
1000
AcDbSavedByObjectVersion
1070
     0
  0
VISUALSTYLE
  5
349
102
{ACAD_XDICTIONARY
360
1B78
102
}
102
{ACAD_REACTORS
330
332
102
}
330
332
100
AcDbVisualStyle
  2
OverhangOff
 70
    21
177
     2
291
     1
 71
     2
176
     0
 72
     2
176
     0
 73
     0
176
     0
 90
        0
176
     0
 40
0.6
176
     0
 41
30.0
176
     0
 63
     7
421
 16777215
176
     0
 74
     1
176
     0
 91
        4
176
     0
 64
     7
176
     0
 65
   257
176
     0
 75
     1
176
     0
175
     1
176
     0
 42
1.0
176
     0
 92
        9
176
     2
 66
     7
176
     0
 43
1.0
176
     0
 76
     1
176
     0
 77
     6
176
     0
 78
     2
176
     0
 67
     7
176
     0
 79
     5
176
     0
170
     0
176
     0
171
     0
176
     0
290
     0
176
     0
 93
        1
176
     0
 44
0.0
176
     0
173
     0
176
     0
1001
ACAD
1000
AcDbSavedByObjectVersion
1070
     0
  0
VISUALSTYLE
  5
33C
102
{ACAD_XDICTIONARY
360
1B5E
102
}
102
{ACAD_REACTORS
330
332
102
}
330
332
100
AcDbVisualStyle
  2
Realistic
 70
     8
177
     2
291
     0
 71
     2
176
     1
 72
     3
176
     1
 73
     0
176
     1
 90
        2
176
     1
 40
0.6
176
     1
 41
30.0
176
     1
 63
     7
421
 16777215
176
     1
 74
     0
176
     1
 91
        0
176
     1
 64
     7
176
     1
 65
   257
176
     1
 75
     1
176
     1
175
     1
176
     1
 42
1.0
176
     1
 92
        8
176
     1
 66
   257
176
     1
 43
1.0
176
     1
 76
     1
176
     1
 77
     6
176
     1
 78
     2
176
     1
 67
     7
176
     1
 79
     3
176
     1
170
     0
176
     1
171
     0
176
     1
290
     0
176
     1
 93
       13
176
     1
 44
0.0
176
     1
173
     0
176
     1
1001
ACAD
1000
AcDbSavedByObjectVersion
1070
     0
  0
VISUALSTYLE
  5
347
102
{ACAD_XDICTIONARY
360
1B74
102
}
102
{ACAD_REACTORS
330
332
102
}
330
332
100
AcDbVisualStyle
  2
Shaded
 70
    27
177
     2
291
     0
 71
     2
176
     1
 72
     2
176
     1
 73
     1
176
     1
 90
        2
176
     1
 40
0.6
176
     1
 41
30.0
176
     1
 63
     7
421
 16777215
176
     1
 74
     0
176
     1
 91
        4
176
     1
 64
     7
176
     1
 65
   257
176
     1
 75
     1
176
     1
175
     1
176
     1
 42
1.0
176
     1
 92
        8
176
     1
 66
   257
176
     1
 43
1.0
176
     1
 76
     1
176
     1
 77
     6
176
     1
 78
     2
176
     1
 67
     8
425
  7895160
176
     1
 79
     3
176
     1
170
     0
176
     1
171
     0
176
     1
290
     0
176
     1
 93
        5
176
     1
 44
0.0
176
     1
173
     0
176
     1
1001
ACAD
1000
AcDbSavedByObjectVersion
1070
     0
  0
VISUALSTYLE
  5
346
102
{ACAD_XDICTIONARY
360
1B72
102
}
102
{ACAD_REACTORS
330
332
102
}
330
332
100
AcDbVisualStyle
  2
Shaded with edges
 70
    26
177
     2
291
     0
 71
     2
176
     1
 72
     2
176
     1
 73
     1
176
     1
 90
        2
176
     1
 40
0.6
176
     1
 41
30.0
176
     1
 63
     7
421
 16777215
176
     1
 74
     1
176
     1
 91
       10
176
     1
 64
     7
176
     1
 65
   257
176
     1
 75
     2
176
     1
175
     1
176
     1
 42
1.0
176
     1
 92
        8
176
     1
 66
   257
176
     1
 43
1.0
176
     1
 76
     1
176
     1
 77
     6
176
     1
 78
     2
176
     1
 67
     7
176
     1
 79
     3
176
     1
170
     0
176
     1
171
     0
176
     1
290
     0
176
     1
 93
        5
176
     1
 44
0.0
176
     1
173
     0
176
     1
1001
ACAD
1000
AcDbSavedByObjectVersion
1070
     0
  0
VISUALSTYLE
  5
343
102
{ACAD_XDICTIONARY
360
1B6C
102
}
102
{ACAD_REACTORS
330
332
102
}
330
332
100
AcDbVisualStyle
  2
Shades of Gray
 70
    23
177
     2
291
     0
 71
     2
176
     1
 72
     2
176
     1
 73
     3
176
     1
 90
        0
176
     1
 40
0.6
176
     1
 41
30.0
176
     1
 63
     7
421
 16777215
176
     1
 74
     2
176
     1
 91
        2
176
     1
 64
     7
176
     1
 65
     7
176
     1
 75
     1
176
     1
175
     1
176
     1
 42
40.0
176
     1
 92
        8
176
     1
 66
     7
176
     1
 43
1.0
176
     1
 76
     1
176
     1
 77
     6
176
     1
 78
     2
176
     1
 67
     7
176
     1
 79
     3
176
     1
170
     0
176
     1
171
     0
176
     1
290
     0
176
     1
 93
        1
176
     1
 44
0.0
176
     1
173
     0
176
     1
1001
ACAD
1000
AcDbSavedByObjectVersion
1070
     0
  0
VISUALSTYLE
  5
344
102
{ACAD_XDICTIONARY
360
1B6E
102
}
102
{ACAD_REACTORS
330
332
102
}
330
332
100
AcDbVisualStyle
  2
Sketchy
 70
    24
177
     2
291
     0
 71
     1
176
     1
 72
     2
176
     1
 73
     2
176
     1
 90
        0
176
     1
 40
0.6
176
     1
 41
30.0
176
     1
 63
     7
421
 16777215
176
     1
 74
     2
176
     1
 91
        2
176
     1
 64
     7
176
     1
 65
     7
176
     1
 75
     1
176
     1
175
     1
176
     1
 42
40.0
176
     1
 92
       11
176
     1
 66
     7
176
     1
 43
1.0
176
     1
 76
     1
176
     1
 77
     6
176
     1
 78
     2
176
     1
 67
     7
176
     1
 79
     6
176
     1
170
     0
176
     1
171
     0
176
     1
290
     0
176
     1
 93
        1
176
     1
 44
0.0
176
     1
173
     0
176
     1
1001
ACAD
1000
AcDbSavedByObjectVersion
1070
     0
  0
VISUALSTYLE
  5
33F
102
{ACAD_XDICTIONARY
360
1B64
102
}
102
{ACAD_REACTORS
330
332
102
}
330
332
100
AcDbVisualStyle
  2
Thicken
 70
    13
177
     2
291
     1
 71
     2
176
     1
 72
     2
176
     1
 73
     0
176
     1
 90
        0
176
     1
 40
0.6
176
     1
 41
30.0
176
     1
 63
     7
421
 16777215
176
     1
 74
     1
176
     1
 91
        4
176
     1
 64
     7
176
     1
 65
   257
176
     1
 75
     1
176
     1
175
     1
176
     1
 42
1.0
176
     1
 92
       12
176
     1
 66
     7
176
     1
 43
1.0
176
     1
 76
     1
176
     1
 77
     6
176
     1
 78
     2
176
     1
 67
     7
176
     1
 79
     5
176
     1
170
     0
176
     1
171
     0
176
     1
290
     0
176
     1
 93
        1
176
     1
 44
0.0
176
     1
173
     0
176
     1
1001
ACAD
1000
AcDbSavedByObjectVersion
1070
     0
  0
VISUALSTYLE
  5
339
102
{ACAD_XDICTIONARY
360
1B58
102
}
102
{ACAD_REACTORS
330
332
102
}
330
332
100
AcDbVisualStyle
  2
Wireframe
 70
     5
177
     2
291
     0
 71
     0
176
     1
 72
     2
176
     1
 73
     0
176
     1
 90
        0
176
     1
 40
0.6
176
     1
 41
30.0
176
     1
 63
     7
421
 16777215
176
     1
 74
     1
176
     1
 91
        4
176
     1
 64
     7
176
     1
 65
   257
176
     1
 75
     1
176
     1
175
     1
176
     1
 42
1.0
176
     1
 92
        0
176
     1
 66
   257
176
     1
 43
1.0
176
     1
 76
     1
176
     1
 77
     6
176
     1
 78
     2
176
     1
 67
     7
176
     1
 79
     3
176
     1
170
     0
176
     1
171
     0
176
     1
290
     0
176
     1
 93
        1
176
     1
 44
0.0
176
     1
173
     0
176
     1
1001
ACAD
1000
AcDbSavedByObjectVersion
1070
     0
  0
VISUALSTYLE
  5
345
102
{ACAD_XDICTIONARY
360
1B70
102
}
102
{ACAD_REACTORS
330
332
102
}
330
332
100
AcDbVisualStyle
  2
X-Ray
 70
    25
177
     2
291
     0
 71
     2
176
     1
 72
     2
176
     1
 73
     1
176
     1
 90
        1
176
     1
 40
0.5
176
     1
 41
30.0
176
     1
 63
     7
421
 16777215
176
     1
 74
     1
176
     1
 91
        0
176
     1
 64
     7
176
     1
 65
   257
176
     1
 75
     1
176
     1
175
     1
176
     1
 42
1.0
176
     1
 92
        8
176
     1
 66
     7
176
     1
 43
1.0
176
     1
 76
     1
176
     1
 77
     6
176
     1
 78
     2
176
     1
 67
     7
176
     1
 79
     3
176
     1
170
     0
176
     1
171
     0
176
     1
290
     0
176
     1
 93
       13
176
     1
 44
0.0
176
     1
173
     0
176
     1
1001
ACAD
1000
AcDbSavedByObjectVersion
1070
     0
  0
DICTIONARYVAR
  5
50F
102
{ACAD_REACTORS
330
509
102
}
330
509
100
DictionaryVariables
280
     0
  1
1:1
  0
DICTIONARYVAR
  5
50B
102
{ACAD_REACTORS
330
509
102
}
330
509
100
DictionaryVariables
280
     0
  1
STANDARD
  0
DICTIONARYVAR
  5
50A
102
{ACAD_REACTORS
330
509
102
}
330
509
100
DictionaryVariables
280
     0
  1
STANDARD
  0
DICTIONARYVAR
  5
50C
102
{ACAD_REACTORS
330
509
102
}
330
509
100
DictionaryVariables
280
     0
  1
Imperial24
  0
DICTIONARYVAR
  5
50D
102
{ACAD_REACTORS
330
509
102
}
330
509
100
DictionaryVariables
280
     0
  1
Imperial24
  0
DICTIONARYVAR
  5
511
102
{ACAD_REACTORS
330
509
102
}
330
509
100
DictionaryVariables
280
     0
  1
1
  0
DICTIONARYVAR
  5
512
102
{ACAD_REACTORS
330
509
102
}
330
509
100
DictionaryVariables
280
     0
  1
15
  0
DICTIONARYVAR
  5
510
102
{ACAD_REACTORS
330
509
102
}
330
509
100
DictionaryVariables
280
     0
  1
0
  0
DICTIONARYVAR
  5
50E
102
{ACAD_REACTORS
330
509
102
}
330
509
100
DictionaryVariables
280
     0
  1
0
  0
DICTIONARY
  5
1B7E
330
365
100
AcDbDictionary
280
     1
281
     1
  3
ACAD_XREC_ROUNDTRIP
360
1B7F
  0
DICTIONARY
  5
323
330
322
100
AcDbDictionary
280
     1
281
     1
  3
BUMPTILE
360
325
  3
DIFFUSETILE
360
324
  3
OPACITYTILE
360
328
  3
REFLECTIONTILE
360
327
  3
REFRACTIONTILE
360
329
  3
SPECULARTILE
360
326
  0
DICTIONARY
  5
31B
330
31A
100
AcDbDictionary
280
     1
281
     1
  3
BUMPTILE
360
31D
  3
DIFFUSETILE
360
31C
  3
OPACITYTILE
360
320
  3
REFLECTIONTILE
360
31F
  3
REFRACTIONTILE
360
321
  3
SPECULARTILE
360
31E
  0
DICTIONARY
  5
32B
330
32A
100
AcDbDictionary
280
     1
281
     1
  3
BUMPTILE
360
32D
  3
DIFFUSETILE
360
32C
  3
OPACITYTILE
360
330
  3
REFLECTIONTILE
360
32F
  3
REFRACTIONTILE
360
331
  3
SPECULARTILE
360
32E
  0
DICTIONARY
  5
1B7C
330
363
100
AcDbDictionary
280
     1
281
     1
  3
ACAD_XREC_ROUNDTRIP
360
1B7D
  0
DICTIONARY
  5
513
330
34D
100
AcDbDictionary
280
     1
281
     1
  3
ACAD_ROUNDTRIP_2008_TABLESTYLE_CELLSTYLEMAP
360
1B4A
  0
DICTIONARY
  5
1B56
330
338
100
AcDbDictionary
280
     1
281
     1
  3
ACAD_XREC_ROUNDTRIP
360
1B57
  0
DICTIONARY
  5
1B54
330
337
100
AcDbDictionary
280
     1
281
     1
  3
ACAD_XREC_ROUNDTRIP
360
1B55
  0
DICTIONARY
  5
1B62
330
33E
100
AcDbDictionary
280
     1
281
     1
  3
ACAD_XREC_ROUNDTRIP
360
1B63
  0
DICTIONARY
  5
1B6A
330
342
100
AcDbDictionary
280
     1
281
     1
  3
ACAD_XREC_ROUNDTRIP
360
1B6B
  0
DICTIONARY
  5
1B5C
330
33B
100
AcDbDictionary
280
     1
281
     1
  3
ACAD_XREC_ROUNDTRIP
360
1B5D
  0
DICTIONARY
  5
1B60
330
33D
100
AcDbDictionary
280
     1
281
     1
  3
ACAD_XREC_ROUNDTRIP
360
1B61
  0
DICTIONARY
  5
1B7A
330
34A
100
AcDbDictionary
280
     1
281
     1
  3
ACAD_XREC_ROUNDTRIP
360
1B7B
  0
DICTIONARY
  5
1B68
330
341
100
AcDbDictionary
280
     1
281
     1
  3
ACAD_XREC_ROUNDTRIP
360
1B69
  0
DICTIONARY
  5
1B4C
330
333
100
AcDbDictionary
280
     1
281
     1
  3
ACAD_XREC_ROUNDTRIP
360
1B4D
  0
DICTIONARY
  5
1B4E
330
334
100
AcDbDictionary
280
     1
281
     1
  3
ACAD_XREC_ROUNDTRIP
360
1B4F
  0
DICTIONARY
  5
1B50
330
335
100
AcDbDictionary
280
     1
281
     1
  3
ACAD_XREC_ROUNDTRIP
360
1B51
  0
DICTIONARY
  5
1B52
330
336
100
AcDbDictionary
280
     1
281
     1
  3
ACAD_XREC_ROUNDTRIP
360
1B53
  0
DICTIONARY
  5
1B5A
330
33A
100
AcDbDictionary
280
     1
281
     1
  3
ACAD_XREC_ROUNDTRIP
360
1B5B
  0
DICTIONARY
  5
1B76
330
348
100
AcDbDictionary
280
     1
281
     1
  3
ACAD_XREC_ROUNDTRIP
360
1B77
  0
DICTIONARY
  5
1B66
330
340
100
AcDbDictionary
280
     1
281
     1
  3
ACAD_XREC_ROUNDTRIP
360
1B67
  0
DICTIONARY
  5
1B78
330
349
100
AcDbDictionary
280
     1
281
     1
  3
ACAD_XREC_ROUNDTRIP
360
1B79
  0
DICTIONARY
  5
1B5E
330
33C
100
AcDbDictionary
280
     1
281
     1
  3
ACAD_XREC_ROUNDTRIP
360
1B5F
  0
DICTIONARY
  5
1B74
330
347
100
AcDbDictionary
280
     1
281
     1
  3
ACAD_XREC_ROUNDTRIP
360
1B75
  0
DICTIONARY
  5
1B72
330
346
100
AcDbDictionary
280
     1
281
     1
  3
ACAD_XREC_ROUNDTRIP
360
1B73
  0
DICTIONARY
  5
1B6C
330
343
100
AcDbDictionary
280
     1
281
     1
  3
ACAD_XREC_ROUNDTRIP
360
1B6D
  0
DICTIONARY
  5
1B6E
330
344
100
AcDbDictionary
280
     1
281
     1
  3
ACAD_XREC_ROUNDTRIP
360
1B6F
  0
DICTIONARY
  5
1B64
330
33F
100
AcDbDictionary
280
     1
281
     1
  3
ACAD_XREC_ROUNDTRIP
360
1B65
  0
DICTIONARY
  5
1B58
330
339
100
AcDbDictionary
280
     1
281
     1
  3
ACAD_XREC_ROUNDTRIP
360
1B59
  0
DICTIONARY
  5
1B70
330
345
100
AcDbDictionary
280
     1
281
     1
  3
ACAD_XREC_ROUNDTRIP
360
1B71
  0
XRECORD
  5
1B7F
102
{ACAD_REACTORS
330
1B7E
102
}
330
1B7E
100
AcDbXrecord
280
     1
102
DISPLAYNAME
  1
Imperial24
102
FLAGS
 90
        0
  0
XRECORD
  5
325
102
{ACAD_REACTORS
330
323
102
}
330
323
100
AcDbXrecord
280
     1
270
     1
271
     1
  0
XRECORD
  5
324
102
{ACAD_REACTORS
330
323
102
}
330
323
100
AcDbXrecord
280
     1
270
     1
271
     1
  0
XRECORD
  5
328
102
{ACAD_REACTORS
330
323
102
}
330
323
100
AcDbXrecord
280
     1
270
     1
271
     1
  0
XRECORD
  5
327
102
{ACAD_REACTORS
330
323
102
}
330
323
100
AcDbXrecord
280
     1
270
     1
271
     1
  0
XRECORD
  5
329
102
{ACAD_REACTORS
330
323
102
}
330
323
100
AcDbXrecord
280
     1
270
     1
271
     1
  0
XRECORD
  5
326
102
{ACAD_REACTORS
330
323
102
}
330
323
100
AcDbXrecord
280
     1
270
     1
271
     1
  0
XRECORD
  5
31D
102
{ACAD_REACTORS
330
31B
102
}
330
31B
100
AcDbXrecord
280
     1
270
     1
271
     1
  0
XRECORD
  5
31C
102
{ACAD_REACTORS
330
31B
102
}
330
31B
100
AcDbXrecord
280
     1
270
     1
271
     1
  0
XRECORD
  5
320
102
{ACAD_REACTORS
330
31B
102
}
330
31B
100
AcDbXrecord
280
     1
270
     1
271
     1
  0
XRECORD
  5
31F
102
{ACAD_REACTORS
330
31B
102
}
330
31B
100
AcDbXrecord
280
     1
270
     1
271
     1
  0
XRECORD
  5
321
102
{ACAD_REACTORS
330
31B
102
}
330
31B
100
AcDbXrecord
280
     1
270
     1
271
     1
  0
XRECORD
  5
31E
102
{ACAD_REACTORS
330
31B
102
}
330
31B
100
AcDbXrecord
280
     1
270
     1
271
     1
  0
XRECORD
  5
32D
102
{ACAD_REACTORS
330
32B
102
}
330
32B
100
AcDbXrecord
280
     1
270
     1
271
     1
  0
XRECORD
  5
32C
102
{ACAD_REACTORS
330
32B
102
}
330
32B
100
AcDbXrecord
280
     1
270
     1
271
     1
  0
XRECORD
  5
330
102
{ACAD_REACTORS
330
32B
102
}
330
32B
100
AcDbXrecord
280
     1
270
     1
271
     1
  0
XRECORD
  5
32F
102
{ACAD_REACTORS
330
32B
102
}
330
32B
100
AcDbXrecord
280
     1
270
     1
271
     1
  0
XRECORD
  5
331
102
{ACAD_REACTORS
330
32B
102
}
330
32B
100
AcDbXrecord
280
     1
270
     1
271
     1
  0
XRECORD
  5
32E
102
{ACAD_REACTORS
330
32B
102
}
330
32B
100
AcDbXrecord
280
     1
270
     1
271
     1
  0
XRECORD
  5
1B7D
102
{ACAD_REACTORS
330
1B7C
102
}
330
1B7C
100
AcDbXrecord
280
     1
102
DISPLAYNAME
  1
Imperial24
102
FLAGS
 90
        0
  0
CELLSTYLEMAP
  5
1B4A
102
{ACAD_REACTORS
330
513
102
}
330
513
100
AcDbCellStyleMap
 90
        3
300
CELLSTYLE
  1
TABLEFORMAT_BEGIN
 90
        5
170
     1
 91
        0
 92
    32768
 62
   257
 93
        1
300
CONTENTFORMAT
  1
CONTENTFORMAT_BEGIN
 90
        0
 91
        0
 92
      512
 93
        0
300

 40
0.0
140
1.0
 94
        5
 62
     0
340
17
144
0.25
309
CONTENTFORMAT_END
171
     1
301
MARGIN
  1
CELLMARGIN_BEGIN
 40
0.06
 40
0.06
 40
0.06
 40
0.06
 40
0.18
 40
0.18
309
CELLMARGIN_END
 94
        6
 95
        1
302
GRIDFORMAT
  1
GRIDFORMAT_BEGIN
 90
        0
 91
        1
 62
     0
 92
       -2
340
0
 93
        0
 40
0.045
309
GRIDFORMAT_END
 95
        2
302
GRIDFORMAT
  1
GRIDFORMAT_BEGIN
 90
        0
 91
        1
 62
     0
 92
       -2
340
0
 93
        0
 40
0.045
309
GRIDFORMAT_END
 95
        4
302
GRIDFORMAT
  1
GRIDFORMAT_BEGIN
 90
        0
 91
        1
 62
     0
 92
       -2
340
0
 93
        0
 40
0.045
309
GRIDFORMAT_END
 95
        8
302
GRIDFORMAT
  1
GRIDFORMAT_BEGIN
 90
        0
 91
        1
 62
     0
 92
       -2
340
0
 93
        0
 40
0.045
309
GRIDFORMAT_END
 95
       16
302
GRIDFORMAT
  1
GRIDFORMAT_BEGIN
 90
        0
 91
        1
 62
     0
 92
       -2
340
0
 93
        0
 40
0.045
309
GRIDFORMAT_END
 95
       32
302
GRIDFORMAT
  1
GRIDFORMAT_BEGIN
 90
        0
 91
        1
 62
     0
 92
       -2
340
0
 93
        0
 40
0.045
309
GRIDFORMAT_END
309
TABLEFORMAT_END
  1
CELLSTYLE_BEGIN
 90
        1
 91
        1
300
_TITLE
309
CELLSTYLE_END
300
CELLSTYLE
  1
TABLEFORMAT_BEGIN
 90
        5
170
     1
 91
        0
 92
        0
 62
   257
 93
        1
300
CONTENTFORMAT
  1
CONTENTFORMAT_BEGIN
 90
        0
 91
        0
 92
      512
 93
        0
300

 40
0.0
140
1.0
 94
        5
 62
     0
340
17
144
0.18
309
CONTENTFORMAT_END
171
     1
301
MARGIN
  1
CELLMARGIN_BEGIN
 40
0.06
 40
0.06
 40
0.06
 40
0.06
 40
0.18
 40
0.18
309
CELLMARGIN_END
 94
        6
 95
        1
302
GRIDFORMAT
  1
GRIDFORMAT_BEGIN
 90
        0
 91
        1
 62
     0
 92
       -2
340
0
 93
        0
 40
0.045
309
GRIDFORMAT_END
 95
        2
302
GRIDFORMAT
  1
GRIDFORMAT_BEGIN
 90
        0
 91
        1
 62
     0
 92
       -2
340
0
 93
        0
 40
0.045
309
GRIDFORMAT_END
 95
        4
302
GRIDFORMAT
  1
GRIDFORMAT_BEGIN
 90
        0
 91
        1
 62
     0
 92
       -2
340
0
 93
        0
 40
0.045
309
GRIDFORMAT_END
 95
        8
302
GRIDFORMAT
  1
GRIDFORMAT_BEGIN
 90
        0
 91
        1
 62
     0
 92
       -2
340
0
 93
        0
 40
0.045
309
GRIDFORMAT_END
 95
       16
302
GRIDFORMAT
  1
GRIDFORMAT_BEGIN
 90
        0
 91
        1
 62
     0
 92
       -2
340
0
 93
        0
 40
0.045
309
GRIDFORMAT_END
 95
       32
302
GRIDFORMAT
  1
GRIDFORMAT_BEGIN
 90
        0
 91
        1
 62
     0
 92
       -2
340
0
 93
        0
 40
0.045
309
GRIDFORMAT_END
309
TABLEFORMAT_END
  1
CELLSTYLE_BEGIN
 90
        2
 91
        1
300
_HEADER
309
CELLSTYLE_END
300
CELLSTYLE
  1
TABLEFORMAT_BEGIN
 90
        5
170
     1
 91
        0
 92
        0
 62
   257
 93
        1
300
CONTENTFORMAT
  1
CONTENTFORMAT_BEGIN
 90
        0
 91
        0
 92
      512
 93
        0
300

 40
0.0
140
1.0
 94
        2
 62
     0
340
17
144
0.18
309
CONTENTFORMAT_END
171
     1
301
MARGIN
  1
CELLMARGIN_BEGIN
 40
0.06
 40
0.06
 40
0.06
 40
0.06
 40
0.18
 40
0.18
309
CELLMARGIN_END
 94
        6
 95
        1
302
GRIDFORMAT
  1
GRIDFORMAT_BEGIN
 90
        0
 91
        1
 62
     0
 92
       -2
340
0
 93
        0
 40
0.045
309
GRIDFORMAT_END
 95
        2
302
GRIDFORMAT
  1
GRIDFORMAT_BEGIN
 90
        0
 91
        1
 62
     0
 92
       -2
340
0
 93
        0
 40
0.045
309
GRIDFORMAT_END
 95
        4
302
GRIDFORMAT
  1
GRIDFORMAT_BEGIN
 90
        0
 91
        1
 62
     0
 92
       -2
340
0
 93
        0
 40
0.045
309
GRIDFORMAT_END
 95
        8
302
GRIDFORMAT
  1
GRIDFORMAT_BEGIN
 90
        0
 91
        1
 62
     0
 92
       -2
340
0
 93
        0
 40
0.045
309
GRIDFORMAT_END
 95
       16
302
GRIDFORMAT
  1
GRIDFORMAT_BEGIN
 90
        0
 91
        1
 62
     0
 92
       -2
340
0
 93
        0
 40
0.045
309
GRIDFORMAT_END
 95
       32
302
GRIDFORMAT
  1
GRIDFORMAT_BEGIN
 90
        0
 91
        1
 62
     0
 92
       -2
340
0
 93
        0
 40
0.045
309
GRIDFORMAT_END
309
TABLEFORMAT_END
  1
CELLSTYLE_BEGIN
 90
        3
 91
        2
300
_DATA
309
CELLSTYLE_END
  0
XRECORD
  5
1B57
102
{ACAD_REACTORS
330
1B56
102
}
330
1B56
100
AcDbXrecord
280
     1
102
RTVSPost2010Prop28
280
     1
102
RTVSPost2010PropOp28
 70
     1
102
RTVSPost2010Prop29
280
     1
102
RTVSPost2010PropOp29
 70
     1
102
RTVSPost2010Prop30
280
     0
102
RTVSPost2010PropOp30
 70
     1
102
RTVSPost2010Prop31
280
     0
102
RTVSPost2010PropOp31
 70
     1
102
RTVSPost2010Prop32
280
     0
102
RTVSPost2010PropOp32
 70
     1
102
RTVSPost2010Prop33
280
     0
102
RTVSPost2010PropOp33
 70
     1
102
RTVSPost2010Prop34
280
     0
102
RTVSPost2010PropOp34
 70
     1
102
RTVSPost2010Prop35
280
     0
102
RTVSPost2010PropOp35
 70
     1
102
RTVSPost2010Prop36
280
     0
102
RTVSPost2010PropOp36
 70
     1
102
RTVSPost2010Prop37
 90
       50
102
RTVSPost2010PropOp37
 70
     1
102
RTVSPost2010Prop38
140
0.0
102
RTVSPost2010PropOp38
 70
     1
102
RTVSPost2010Prop39
140
1.0
102
RTVSPost2010PropOp39
 70
     1
102
RTVSPost2010Prop40
 90
        0
102
RTVSPost2010PropOp40
 70
     1
102
RTVSPost2010Prop41ColorIndex
 90
       18
102
RTVSPost2010Prop41ColorRGB
 90
        0
102
RTVSPost2010PropOp41
 70
     1
102
RTVSPost2010Prop42
 90
       50
102
RTVSPost2010PropOp42
 70
     1
102
RTVSPost2010Prop43
 90
        3
102
RTVSPost2010PropOp43
 70
     1
102
RTVSPost2010Prop44ColorIndex
 90
        5
102
RTVSPost2010Prop44ColorRGB
 90
      255
102
RTVSPost2010PropOp44
 70
     1
102
RTVSPost2010Prop45
280
     0
102
RTVSPost2010PropOp45
 70
     1
102
RTVSPost2010Prop46
 90
       50
102
RTVSPost2010PropOp46
 70
     1
102
RTVSPost2010Prop47
 90
       50
102
RTVSPost2010PropOp47
 70
     1
102
RTVSPost2010Prop48
 90
       50
102
RTVSPost2010PropOp48
 70
     1
102
RTVSPost2010Prop49
280
     0
102
RTVSPost2010PropOp49
 70
     1
102
RTVSPost2010Prop50
 90
       50
102
RTVSPost2010PropOp50
 70
     1
102
RTVSPost2010Prop51ColorIndex
 90
      256
102
RTVSPost2010Prop51ColorRGB
 90
-16777216
102
RTVSPost2010PropOp51
 70
     0
102
RTVSPost2010Prop52
140
1.0
102
RTVSPost2010PropOp52
 70
     0
102
RTVSPost2010Prop53
 90
        2
102
RTVSPost2010PropOp53
 70
     1
102
RTVSPost2010Prop54
  1
strokes_ogs.tif
102
RTVSPost2010PropOp54
 70
     1
102
RTVSPost2010Prop55
280
     0
102
RTVSPost2010PropOp55
 70
     1
102
RTVSPost2010Prop56
140
1.0
102
RTVSPost2010PropOp56
 70
     1
102
RTVSPost2010Prop57
140
1.0
102
RTVSPost2010PropOp57
 70
     1
  0
XRECORD
  5
1B55
102
{ACAD_REACTORS
330
1B54
102
}
330
1B54
100
AcDbXrecord
280
     1
102
RTVSPost2010Prop28
280
     0
102
RTVSPost2010PropOp28
 70
     1
102
RTVSPost2010Prop29
280
     1
102
RTVSPost2010PropOp29
 70
     1
102
RTVSPost2010Prop30
280
     1
102
RTVSPost2010PropOp30
 70
     1
102
RTVSPost2010Prop31
280
     0
102
RTVSPost2010PropOp31
 70
     1
102
RTVSPost2010Prop32
280
     0
102
RTVSPost2010PropOp32
 70
     1
102
RTVSPost2010Prop33
280
     0
102
RTVSPost2010PropOp33
 70
     1
102
RTVSPost2010Prop34
280
     0
102
RTVSPost2010PropOp34
 70
     1
102
RTVSPost2010Prop35
280
     0
102
RTVSPost2010PropOp35
 70
     1
102
RTVSPost2010Prop36
280
     0
102
RTVSPost2010PropOp36
 70
     1
102
RTVSPost2010Prop37
 90
       50
102
RTVSPost2010PropOp37
 70
     1
102
RTVSPost2010Prop38
140
0.0
102
RTVSPost2010PropOp38
 70
     1
102
RTVSPost2010Prop39
140
1.0
102
RTVSPost2010PropOp39
 70
     1
102
RTVSPost2010Prop40
 90
        0
102
RTVSPost2010PropOp40
 70
     1
102
RTVSPost2010Prop41ColorIndex
 90
       18
102
RTVSPost2010Prop41ColorRGB
 90
        0
102
RTVSPost2010PropOp41
 70
     1
102
RTVSPost2010Prop42
 90
       50
102
RTVSPost2010PropOp42
 70
     1
102
RTVSPost2010Prop43
 90
        3
102
RTVSPost2010PropOp43
 70
     1
102
RTVSPost2010Prop44ColorIndex
 90
        5
102
RTVSPost2010Prop44ColorRGB
 90
      255
102
RTVSPost2010PropOp44
 70
     1
102
RTVSPost2010Prop45
280
     0
102
RTVSPost2010PropOp45
 70
     1
102
RTVSPost2010Prop46
 90
       50
102
RTVSPost2010PropOp46
 70
     1
102
RTVSPost2010Prop47
 90
       50
102
RTVSPost2010PropOp47
 70
     1
102
RTVSPost2010Prop48
 90
       50
102
RTVSPost2010PropOp48
 70
     1
102
RTVSPost2010Prop49
280
     0
102
RTVSPost2010PropOp49
 70
     1
102
RTVSPost2010Prop50
 90
       50
102
RTVSPost2010PropOp50
 70
     1
102
RTVSPost2010Prop51ColorIndex
 90
      256
102
RTVSPost2010Prop51ColorRGB
 90
-16777216
102
RTVSPost2010PropOp51
 70
     0
102
RTVSPost2010Prop52
140
1.0
102
RTVSPost2010PropOp52
 70
     0
102
RTVSPost2010Prop53
 90
        2
102
RTVSPost2010PropOp53
 70
     1
102
RTVSPost2010Prop54
  1
strokes_ogs.tif
102
RTVSPost2010PropOp54
 70
     1
102
RTVSPost2010Prop55
280
     0
102
RTVSPost2010PropOp55
 70
     1
102
RTVSPost2010Prop56
140
1.0
102
RTVSPost2010PropOp56
 70
     1
102
RTVSPost2010Prop57
140
1.0
102
RTVSPost2010PropOp57
 70
     1
  0
XRECORD
  5
1B63
102
{ACAD_REACTORS
330
1B62
102
}
330
1B62
100
AcDbXrecord
280
     1
102
RTVSPost2010Prop28
280
     0
102
RTVSPost2010PropOp28
 70
     1
102
RTVSPost2010Prop29
280
     1
102
RTVSPost2010PropOp29
 70
     1
102
RTVSPost2010Prop30
280
     1
102
RTVSPost2010PropOp30
 70
     1
102
RTVSPost2010Prop31
280
     0
102
RTVSPost2010PropOp31
 70
     1
102
RTVSPost2010Prop32
280
     0
102
RTVSPost2010PropOp32
 70
     1
102
RTVSPost2010Prop33
280
     0
102
RTVSPost2010PropOp33
 70
     1
102
RTVSPost2010Prop34
280
     0
102
RTVSPost2010PropOp34
 70
     1
102
RTVSPost2010Prop35
280
     0
102
RTVSPost2010PropOp35
 70
     1
102
RTVSPost2010Prop36
280
     0
102
RTVSPost2010PropOp36
 70
     1
102
RTVSPost2010Prop37
 90
       50
102
RTVSPost2010PropOp37
 70
     1
102
RTVSPost2010Prop38
140
0.0
102
RTVSPost2010PropOp38
 70
     1
102
RTVSPost2010Prop39
140
1.0
102
RTVSPost2010PropOp39
 70
     1
102
RTVSPost2010Prop40
 90
        0
102
RTVSPost2010PropOp40
 70
     1
102
RTVSPost2010Prop41ColorIndex
 90
       18
102
RTVSPost2010Prop41ColorRGB
 90
        0
102
RTVSPost2010PropOp41
 70
     1
102
RTVSPost2010Prop42
 90
       50
102
RTVSPost2010PropOp42
 70
     1
102
RTVSPost2010Prop43
 90
        3
102
RTVSPost2010PropOp43
 70
     1
102
RTVSPost2010Prop44ColorIndex
 90
        5
102
RTVSPost2010Prop44ColorRGB
 90
      255
102
RTVSPost2010PropOp44
 70
     1
102
RTVSPost2010Prop45
280
     0
102
RTVSPost2010PropOp45
 70
     1
102
RTVSPost2010Prop46
 90
       50
102
RTVSPost2010PropOp46
 70
     1
102
RTVSPost2010Prop47
 90
       50
102
RTVSPost2010PropOp47
 70
     1
102
RTVSPost2010Prop48
 90
       50
102
RTVSPost2010PropOp48
 70
     1
102
RTVSPost2010Prop49
280
     0
102
RTVSPost2010PropOp49
 70
     1
102
RTVSPost2010Prop50
 90
       50
102
RTVSPost2010PropOp50
 70
     1
102
RTVSPost2010Prop51ColorIndex
 90
      256
102
RTVSPost2010Prop51ColorRGB
 90
-16777216
102
RTVSPost2010PropOp51
 70
     0
102
RTVSPost2010Prop52
140
1.0
102
RTVSPost2010PropOp52
 70
     0
102
RTVSPost2010Prop53
 90
        2
102
RTVSPost2010PropOp53
 70
     1
102
RTVSPost2010Prop54
  1
strokes_ogs.tif
102
RTVSPost2010PropOp54
 70
     1
102
RTVSPost2010Prop55
280
     0
102
RTVSPost2010PropOp55
 70
     1
102
RTVSPost2010Prop56
140
1.0
102
RTVSPost2010PropOp56
 70
     1
102
RTVSPost2010Prop57
140
1.0
102
RTVSPost2010PropOp57
 70
     1
  0
XRECORD
  5
1B6B
102
{ACAD_REACTORS
330
1B6A
102
}
330
1B6A
100
AcDbXrecord
280
     1
102
RTVSPost2010Prop28
280
     0
102
RTVSPost2010PropOp28
 70
     1
102
RTVSPost2010Prop29
280
     1
102
RTVSPost2010PropOp29
 70
     1
102
RTVSPost2010Prop30
280
     1
102
RTVSPost2010PropOp30
 70
     1
102
RTVSPost2010Prop31
280
     0
102
RTVSPost2010PropOp31
 70
     1
102
RTVSPost2010Prop32
280
     0
102
RTVSPost2010PropOp32
 70
     1
102
RTVSPost2010Prop33
280
     0
102
RTVSPost2010PropOp33
 70
     1
102
RTVSPost2010Prop34
280
     0
102
RTVSPost2010PropOp34
 70
     1
102
RTVSPost2010Prop35
280
     0
102
RTVSPost2010PropOp35
 70
     1
102
RTVSPost2010Prop36
280
     0
102
RTVSPost2010PropOp36
 70
     1
102
RTVSPost2010Prop37
 90
       50
102
RTVSPost2010PropOp37
 70
     1
102
RTVSPost2010Prop38
140
0.0
102
RTVSPost2010PropOp38
 70
     1
102
RTVSPost2010Prop39
140
1.0
102
RTVSPost2010PropOp39
 70
     1
102
RTVSPost2010Prop40
 90
        0
102
RTVSPost2010PropOp40
 70
     1
102
RTVSPost2010Prop41ColorIndex
 90
       18
102
RTVSPost2010Prop41ColorRGB
 90
        0
102
RTVSPost2010PropOp41
 70
     1
102
RTVSPost2010Prop42
 90
       50
102
RTVSPost2010PropOp42
 70
     1
102
RTVSPost2010Prop43
 90
        3
102
RTVSPost2010PropOp43
 70
     1
102
RTVSPost2010Prop44ColorIndex
 90
        5
102
RTVSPost2010Prop44ColorRGB
 90
      255
102
RTVSPost2010PropOp44
 70
     1
102
RTVSPost2010Prop45
280
     0
102
RTVSPost2010PropOp45
 70
     1
102
RTVSPost2010Prop46
 90
       50
102
RTVSPost2010PropOp46
 70
     1
102
RTVSPost2010Prop47
 90
       50
102
RTVSPost2010PropOp47
 70
     1
102
RTVSPost2010Prop48
 90
       50
102
RTVSPost2010PropOp48
 70
     1
102
RTVSPost2010Prop49
280
     0
102
RTVSPost2010PropOp49
 70
     1
102
RTVSPost2010Prop50
 90
       50
102
RTVSPost2010PropOp50
 70
     1
102
RTVSPost2010Prop51ColorIndex
 90
      256
102
RTVSPost2010Prop51ColorRGB
 90
-16777216
102
RTVSPost2010PropOp51
 70
     0
102
RTVSPost2010Prop52
140
1.0
102
RTVSPost2010PropOp52
 70
     0
102
RTVSPost2010Prop53
 90
        2
102
RTVSPost2010PropOp53
 70
     1
102
RTVSPost2010Prop54
  1
strokes_ogs.tif
102
RTVSPost2010PropOp54
 70
     1
102
RTVSPost2010Prop55
280
     0
102
RTVSPost2010PropOp55
 70
     1
102
RTVSPost2010Prop56
140
1.0
102
RTVSPost2010PropOp56
 70
     1
102
RTVSPost2010Prop57
140
1.0
102
RTVSPost2010PropOp57
 70
     1
  0
XRECORD
  5
1B5D
102
{ACAD_REACTORS
330
1B5C
102
}
330
1B5C
100
AcDbXrecord
280
     1
102
RTVSPost2010Prop28
280
     0
102
RTVSPost2010PropOp28
 70
     1
102
RTVSPost2010Prop29
280
     1
102
RTVSPost2010PropOp29
 70
     1
102
RTVSPost2010Prop30
280
     1
102
RTVSPost2010PropOp30
 70
     1
102
RTVSPost2010Prop31
280
     0
102
RTVSPost2010PropOp31
 70
     1
102
RTVSPost2010Prop32
280
     0
102
RTVSPost2010PropOp32
 70
     1
102
RTVSPost2010Prop33
280
     0
102
RTVSPost2010PropOp33
 70
     1
102
RTVSPost2010Prop34
280
     0
102
RTVSPost2010PropOp34
 70
     1
102
RTVSPost2010Prop35
280
     0
102
RTVSPost2010PropOp35
 70
     1
102
RTVSPost2010Prop36
280
     0
102
RTVSPost2010PropOp36
 70
     1
102
RTVSPost2010Prop37
 90
       50
102
RTVSPost2010PropOp37
 70
     1
102
RTVSPost2010Prop38
140
0.0
102
RTVSPost2010PropOp38
 70
     1
102
RTVSPost2010Prop39
140
1.0
102
RTVSPost2010PropOp39
 70
     1
102
RTVSPost2010Prop40
 90
        0
102
RTVSPost2010PropOp40
 70
     1
102
RTVSPost2010Prop41ColorIndex
 90
       18
102
RTVSPost2010Prop41ColorRGB
 90
        0
102
RTVSPost2010PropOp41
 70
     1
102
RTVSPost2010Prop42
 90
       50
102
RTVSPost2010PropOp42
 70
     1
102
RTVSPost2010Prop43
 90
        3
102
RTVSPost2010PropOp43
 70
     1
102
RTVSPost2010Prop44ColorIndex
 90
        5
102
RTVSPost2010Prop44ColorRGB
 90
      255
102
RTVSPost2010PropOp44
 70
     1
102
RTVSPost2010Prop45
280
     0
102
RTVSPost2010PropOp45
 70
     1
102
RTVSPost2010Prop46
 90
       50
102
RTVSPost2010PropOp46
 70
     1
102
RTVSPost2010Prop47
 90
       50
102
RTVSPost2010PropOp47
 70
     1
102
RTVSPost2010Prop48
 90
       50
102
RTVSPost2010PropOp48
 70
     1
102
RTVSPost2010Prop49
280
     0
102
RTVSPost2010PropOp49
 70
     1
102
RTVSPost2010Prop50
 90
       50
102
RTVSPost2010PropOp50
 70
     1
102
RTVSPost2010Prop51ColorIndex
 90
      256
102
RTVSPost2010Prop51ColorRGB
 90
-16777216
102
RTVSPost2010PropOp51
 70
     0
102
RTVSPost2010Prop52
140
1.0
102
RTVSPost2010PropOp52
 70
     0
102
RTVSPost2010Prop53
 90
        2
102
RTVSPost2010PropOp53
 70
     1
102
RTVSPost2010Prop54
  1
strokes_ogs.tif
102
RTVSPost2010PropOp54
 70
     1
102
RTVSPost2010Prop55
280
     0
102
RTVSPost2010PropOp55
 70
     1
102
RTVSPost2010Prop56
140
1.0
102
RTVSPost2010PropOp56
 70
     1
102
RTVSPost2010Prop57
140
1.0
102
RTVSPost2010PropOp57
 70
     1
  0
XRECORD
  5
1B61
102
{ACAD_REACTORS
330
1B60
102
}
330
1B60
100
AcDbXrecord
280
     1
102
RTVSPost2010Prop28
280
     0
102
RTVSPost2010PropOp28
 70
     1
102
RTVSPost2010Prop29
280
     1
102
RTVSPost2010PropOp29
 70
     1
102
RTVSPost2010Prop30
280
     1
102
RTVSPost2010PropOp30
 70
     1
102
RTVSPost2010Prop31
280
     0
102
RTVSPost2010PropOp31
 70
     1
102
RTVSPost2010Prop32
280
     0
102
RTVSPost2010PropOp32
 70
     1
102
RTVSPost2010Prop33
280
     0
102
RTVSPost2010PropOp33
 70
     1
102
RTVSPost2010Prop34
280
     0
102
RTVSPost2010PropOp34
 70
     1
102
RTVSPost2010Prop35
280
     0
102
RTVSPost2010PropOp35
 70
     1
102
RTVSPost2010Prop36
280
     0
102
RTVSPost2010PropOp36
 70
     1
102
RTVSPost2010Prop37
 90
       50
102
RTVSPost2010PropOp37
 70
     1
102
RTVSPost2010Prop38
140
0.0
102
RTVSPost2010PropOp38
 70
     1
102
RTVSPost2010Prop39
140
1.0
102
RTVSPost2010PropOp39
 70
     1
102
RTVSPost2010Prop40
 90
        0
102
RTVSPost2010PropOp40
 70
     1
102
RTVSPost2010Prop41ColorIndex
 90
       18
102
RTVSPost2010Prop41ColorRGB
 90
        0
102
RTVSPost2010PropOp41
 70
     1
102
RTVSPost2010Prop42
 90
       50
102
RTVSPost2010PropOp42
 70
     1
102
RTVSPost2010Prop43
 90
        3
102
RTVSPost2010PropOp43
 70
     1
102
RTVSPost2010Prop44ColorIndex
 90
        5
102
RTVSPost2010Prop44ColorRGB
 90
      255
102
RTVSPost2010PropOp44
 70
     1
102
RTVSPost2010Prop45
280
     0
102
RTVSPost2010PropOp45
 70
     1
102
RTVSPost2010Prop46
 90
       50
102
RTVSPost2010PropOp46
 70
     1
102
RTVSPost2010Prop47
 90
       50
102
RTVSPost2010PropOp47
 70
     1
102
RTVSPost2010Prop48
 90
       50
102
RTVSPost2010PropOp48
 70
     1
102
RTVSPost2010Prop49
280
     0
102
RTVSPost2010PropOp49
 70
     1
102
RTVSPost2010Prop50
 90
       50
102
RTVSPost2010PropOp50
 70
     1
102
RTVSPost2010Prop51ColorIndex
 90
      256
102
RTVSPost2010Prop51ColorRGB
 90
-16777216
102
RTVSPost2010PropOp51
 70
     0
102
RTVSPost2010Prop52
140
1.0
102
RTVSPost2010PropOp52
 70
     0
102
RTVSPost2010Prop53
 90
        2
102
RTVSPost2010PropOp53
 70
     1
102
RTVSPost2010Prop54
  1
strokes_ogs.tif
102
RTVSPost2010PropOp54
 70
     1
102
RTVSPost2010Prop55
280
     0
102
RTVSPost2010PropOp55
 70
     1
102
RTVSPost2010Prop56
140
1.0
102
RTVSPost2010PropOp56
 70
     1
102
RTVSPost2010Prop57
140
1.0
102
RTVSPost2010PropOp57
 70
     1
  0
XRECORD
  5
1B7B
102
{ACAD_REACTORS
330
1B7A
102
}
330
1B7A
100
AcDbXrecord
280
     1
102
RTVSPost2010Prop28
280
     0
102
RTVSPost2010PropOp28
 70
     1
102
RTVSPost2010Prop29
280
     1
102
RTVSPost2010PropOp29
 70
     1
102
RTVSPost2010Prop30
280
     1
102
RTVSPost2010PropOp30
 70
     1
102
RTVSPost2010Prop31
280
     0
102
RTVSPost2010PropOp31
 70
     1
102
RTVSPost2010Prop32
280
     0
102
RTVSPost2010PropOp32
 70
     1
102
RTVSPost2010Prop33
280
     0
102
RTVSPost2010PropOp33
 70
     1
102
RTVSPost2010Prop34
280
     0
102
RTVSPost2010PropOp34
 70
     1
102
RTVSPost2010Prop35
280
     0
102
RTVSPost2010PropOp35
 70
     1
102
RTVSPost2010Prop36
280
     0
102
RTVSPost2010PropOp36
 70
     1
102
RTVSPost2010Prop37
 90
       50
102
RTVSPost2010PropOp37
 70
     0
102
RTVSPost2010Prop38
140
0.0
102
RTVSPost2010PropOp38
 70
     0
102
RTVSPost2010Prop39
140
1.0
102
RTVSPost2010PropOp39
 70
     0
102
RTVSPost2010Prop40
 90
        0
102
RTVSPost2010PropOp40
 70
     0
102
RTVSPost2010Prop41ColorIndex
 90
       18
102
RTVSPost2010Prop41ColorRGB
 90
        0
102
RTVSPost2010PropOp41
 70
     0
102
RTVSPost2010Prop42
 90
       50
102
RTVSPost2010PropOp42
 70
     0
102
RTVSPost2010Prop43
 90
        3
102
RTVSPost2010PropOp43
 70
     0
102
RTVSPost2010Prop44ColorIndex
 90
        5
102
RTVSPost2010Prop44ColorRGB
 90
      255
102
RTVSPost2010PropOp44
 70
     0
102
RTVSPost2010Prop45
280
     0
102
RTVSPost2010PropOp45
 70
     1
102
RTVSPost2010Prop46
 90
       50
102
RTVSPost2010PropOp46
 70
     0
102
RTVSPost2010Prop47
 90
       50
102
RTVSPost2010PropOp47
 70
     0
102
RTVSPost2010Prop48
 90
       50
102
RTVSPost2010PropOp48
 70
     0
102
RTVSPost2010Prop49
280
     0
102
RTVSPost2010PropOp49
 70
     1
102
RTVSPost2010Prop50
 90
       50
102
RTVSPost2010PropOp50
 70
     0
102
RTVSPost2010Prop51ColorIndex
 90
      256
102
RTVSPost2010Prop51ColorRGB
 90
-16777216
102
RTVSPost2010PropOp51
 70
     0
102
RTVSPost2010Prop52
140
1.0
102
RTVSPost2010PropOp52
 70
     0
102
RTVSPost2010Prop53
 90
        2
102
RTVSPost2010PropOp53
 70
     0
102
RTVSPost2010Prop54
  1
strokes_ogs.tif
102
RTVSPost2010PropOp54
 70
     0
102
RTVSPost2010Prop55
280
     0
102
RTVSPost2010PropOp55
 70
     1
102
RTVSPost2010Prop56
140
1.0
102
RTVSPost2010PropOp56
 70
     0
102
RTVSPost2010Prop57
140
1.0
102
RTVSPost2010PropOp57
 70
     0
  0
XRECORD
  5
1B69
102
{ACAD_REACTORS
330
1B68
102
}
330
1B68
100
AcDbXrecord
280
     1
102
RTVSPost2010Prop28
280
     0
102
RTVSPost2010PropOp28
 70
     1
102
RTVSPost2010Prop29
280
     1
102
RTVSPost2010PropOp29
 70
     1
102
RTVSPost2010Prop30
280
     1
102
RTVSPost2010PropOp30
 70
     1
102
RTVSPost2010Prop31
280
     0
102
RTVSPost2010PropOp31
 70
     1
102
RTVSPost2010Prop32
280
     0
102
RTVSPost2010PropOp32
 70
     1
102
RTVSPost2010Prop33
280
     0
102
RTVSPost2010PropOp33
 70
     1
102
RTVSPost2010Prop34
280
     0
102
RTVSPost2010PropOp34
 70
     1
102
RTVSPost2010Prop35
280
     0
102
RTVSPost2010PropOp35
 70
     1
102
RTVSPost2010Prop36
280
     0
102
RTVSPost2010PropOp36
 70
     1
102
RTVSPost2010Prop37
 90
       50
102
RTVSPost2010PropOp37
 70
     1
102
RTVSPost2010Prop38
140
0.0
102
RTVSPost2010PropOp38
 70
     1
102
RTVSPost2010Prop39
140
1.0
102
RTVSPost2010PropOp39
 70
     1
102
RTVSPost2010Prop40
 90
        0
102
RTVSPost2010PropOp40
 70
     1
102
RTVSPost2010Prop41ColorIndex
 90
       18
102
RTVSPost2010Prop41ColorRGB
 90
        0
102
RTVSPost2010PropOp41
 70
     1
102
RTVSPost2010Prop42
 90
       50
102
RTVSPost2010PropOp42
 70
     1
102
RTVSPost2010Prop43
 90
        3
102
RTVSPost2010PropOp43
 70
     1
102
RTVSPost2010Prop44ColorIndex
 90
        5
102
RTVSPost2010Prop44ColorRGB
 90
      255
102
RTVSPost2010PropOp44
 70
     1
102
RTVSPost2010Prop45
280
     0
102
RTVSPost2010PropOp45
 70
     1
102
RTVSPost2010Prop46
 90
       50
102
RTVSPost2010PropOp46
 70
     1
102
RTVSPost2010Prop47
 90
       50
102
RTVSPost2010PropOp47
 70
     1
102
RTVSPost2010Prop48
 90
       50
102
RTVSPost2010PropOp48
 70
     1
102
RTVSPost2010Prop49
280
     0
102
RTVSPost2010PropOp49
 70
     1
102
RTVSPost2010Prop50
 90
       50
102
RTVSPost2010PropOp50
 70
     1
102
RTVSPost2010Prop51ColorIndex
 90
      256
102
RTVSPost2010Prop51ColorRGB
 90
-16777216
102
RTVSPost2010PropOp51
 70
     0
102
RTVSPost2010Prop52
140
1.0
102
RTVSPost2010PropOp52
 70
     0
102
RTVSPost2010Prop53
 90
        2
102
RTVSPost2010PropOp53
 70
     1
102
RTVSPost2010Prop54
  1
strokes_ogs.tif
102
RTVSPost2010PropOp54
 70
     1
102
RTVSPost2010Prop55
280
     0
102
RTVSPost2010PropOp55
 70
     1
102
RTVSPost2010Prop56
140
1.0
102
RTVSPost2010PropOp56
 70
     1
102
RTVSPost2010Prop57
140
1.0
102
RTVSPost2010PropOp57
 70
     1
  0
XRECORD
  5
1B4D
102
{ACAD_REACTORS
330
1B4C
102
}
330
1B4C
100
AcDbXrecord
280
     1
102
RTVSPost2010Prop28
280
     0
102
RTVSPost2010PropOp28
 70
     1
102
RTVSPost2010Prop29
280
     1
102
RTVSPost2010PropOp29
 70
     1
102
RTVSPost2010Prop30
280
     1
102
RTVSPost2010PropOp30
 70
     1
102
RTVSPost2010Prop31
280
     0
102
RTVSPost2010PropOp31
 70
     1
102
RTVSPost2010Prop32
280
     0
102
RTVSPost2010PropOp32
 70
     1
102
RTVSPost2010Prop33
280
     0
102
RTVSPost2010PropOp33
 70
     1
102
RTVSPost2010Prop34
280
     0
102
RTVSPost2010PropOp34
 70
     1
102
RTVSPost2010Prop35
280
     0
102
RTVSPost2010PropOp35
 70
     1
102
RTVSPost2010Prop36
280
     0
102
RTVSPost2010PropOp36
 70
     1
102
RTVSPost2010Prop37
 90
       50
102
RTVSPost2010PropOp37
 70
     1
102
RTVSPost2010Prop38
140
0.0
102
RTVSPost2010PropOp38
 70
     1
102
RTVSPost2010Prop39
140
1.0
102
RTVSPost2010PropOp39
 70
     1
102
RTVSPost2010Prop40
 90
        0
102
RTVSPost2010PropOp40
 70
     1
102
RTVSPost2010Prop41ColorIndex
 90
       18
102
RTVSPost2010Prop41ColorRGB
 90
        0
102
RTVSPost2010PropOp41
 70
     1
102
RTVSPost2010Prop42
 90
       50
102
RTVSPost2010PropOp42
 70
     1
102
RTVSPost2010Prop43
 90
        3
102
RTVSPost2010PropOp43
 70
     1
102
RTVSPost2010Prop44ColorIndex
 90
        5
102
RTVSPost2010Prop44ColorRGB
 90
      255
102
RTVSPost2010PropOp44
 70
     1
102
RTVSPost2010Prop45
280
     0
102
RTVSPost2010PropOp45
 70
     1
102
RTVSPost2010Prop46
 90
       50
102
RTVSPost2010PropOp46
 70
     1
102
RTVSPost2010Prop47
 90
       50
102
RTVSPost2010PropOp47
 70
     1
102
RTVSPost2010Prop48
 90
       50
102
RTVSPost2010PropOp48
 70
     1
102
RTVSPost2010Prop49
280
     0
102
RTVSPost2010PropOp49
 70
     1
102
RTVSPost2010Prop50
 90
       50
102
RTVSPost2010PropOp50
 70
     1
102
RTVSPost2010Prop51ColorIndex
 90
      256
102
RTVSPost2010Prop51ColorRGB
 90
-16777216
102
RTVSPost2010PropOp51
 70
     0
102
RTVSPost2010Prop52
140
1.0
102
RTVSPost2010PropOp52
 70
     0
102
RTVSPost2010Prop53
 90
        2
102
RTVSPost2010PropOp53
 70
     1
102
RTVSPost2010Prop54
  1
strokes_ogs.tif
102
RTVSPost2010PropOp54
 70
     1
102
RTVSPost2010Prop55
280
     0
102
RTVSPost2010PropOp55
 70
     1
102
RTVSPost2010Prop56
140
1.0
102
RTVSPost2010PropOp56
 70
     1
102
RTVSPost2010Prop57
140
1.0
102
RTVSPost2010PropOp57
 70
     1
  0
XRECORD
  5
1B4F
102
{ACAD_REACTORS
330
1B4E
102
}
330
1B4E
100
AcDbXrecord
280
     1
102
RTVSPost2010Prop28
280
     0
102
RTVSPost2010PropOp28
 70
     1
102
RTVSPost2010Prop29
280
     1
102
RTVSPost2010PropOp29
 70
     1
102
RTVSPost2010Prop30
280
     1
102
RTVSPost2010PropOp30
 70
     1
102
RTVSPost2010Prop31
280
     0
102
RTVSPost2010PropOp31
 70
     1
102
RTVSPost2010Prop32
280
     0
102
RTVSPost2010PropOp32
 70
     1
102
RTVSPost2010Prop33
280
     0
102
RTVSPost2010PropOp33
 70
     1
102
RTVSPost2010Prop34
280
     0
102
RTVSPost2010PropOp34
 70
     1
102
RTVSPost2010Prop35
280
     0
102
RTVSPost2010PropOp35
 70
     1
102
RTVSPost2010Prop36
280
     0
102
RTVSPost2010PropOp36
 70
     1
102
RTVSPost2010Prop37
 90
       50
102
RTVSPost2010PropOp37
 70
     1
102
RTVSPost2010Prop38
140
0.0
102
RTVSPost2010PropOp38
 70
     1
102
RTVSPost2010Prop39
140
1.0
102
RTVSPost2010PropOp39
 70
     1
102
RTVSPost2010Prop40
 90
        0
102
RTVSPost2010PropOp40
 70
     1
102
RTVSPost2010Prop41ColorIndex
 90
       18
102
RTVSPost2010Prop41ColorRGB
 90
        0
102
RTVSPost2010PropOp41
 70
     1
102
RTVSPost2010Prop42
 90
       50
102
RTVSPost2010PropOp42
 70
     1
102
RTVSPost2010Prop43
 90
        3
102
RTVSPost2010PropOp43
 70
     1
102
RTVSPost2010Prop44ColorIndex
 90
        5
102
RTVSPost2010Prop44ColorRGB
 90
      255
102
RTVSPost2010PropOp44
 70
     1
102
RTVSPost2010Prop45
280
     0
102
RTVSPost2010PropOp45
 70
     1
102
RTVSPost2010Prop46
 90
       50
102
RTVSPost2010PropOp46
 70
     1
102
RTVSPost2010Prop47
 90
       50
102
RTVSPost2010PropOp47
 70
     1
102
RTVSPost2010Prop48
 90
       50
102
RTVSPost2010PropOp48
 70
     1
102
RTVSPost2010Prop49
280
     0
102
RTVSPost2010PropOp49
 70
     1
102
RTVSPost2010Prop50
 90
       50
102
RTVSPost2010PropOp50
 70
     1
102
RTVSPost2010Prop51ColorIndex
 90
      256
102
RTVSPost2010Prop51ColorRGB
 90
-16777216
102
RTVSPost2010PropOp51
 70
     0
102
RTVSPost2010Prop52
140
1.0
102
RTVSPost2010PropOp52
 70
     0
102
RTVSPost2010Prop53
 90
        2
102
RTVSPost2010PropOp53
 70
     1
102
RTVSPost2010Prop54
  1
strokes_ogs.tif
102
RTVSPost2010PropOp54
 70
     1
102
RTVSPost2010Prop55
280
     0
102
RTVSPost2010PropOp55
 70
     1
102
RTVSPost2010Prop56
140
1.0
102
RTVSPost2010PropOp56
 70
     1
102
RTVSPost2010Prop57
140
1.0
102
RTVSPost2010PropOp57
 70
     1
  0
XRECORD
  5
1B51
102
{ACAD_REACTORS
330
1B50
102
}
330
1B50
100
AcDbXrecord
280
     1
102
RTVSPost2010Prop28
280
     0
102
RTVSPost2010PropOp28
 70
     1
102
RTVSPost2010Prop29
280
     1
102
RTVSPost2010PropOp29
 70
     1
102
RTVSPost2010Prop30
280
     1
102
RTVSPost2010PropOp30
 70
     1
102
RTVSPost2010Prop31
280
     0
102
RTVSPost2010PropOp31
 70
     1
102
RTVSPost2010Prop32
280
     0
102
RTVSPost2010PropOp32
 70
     1
102
RTVSPost2010Prop33
280
     0
102
RTVSPost2010PropOp33
 70
     1
102
RTVSPost2010Prop34
280
     0
102
RTVSPost2010PropOp34
 70
     1
102
RTVSPost2010Prop35
280
     0
102
RTVSPost2010PropOp35
 70
     1
102
RTVSPost2010Prop36
280
     0
102
RTVSPost2010PropOp36
 70
     1
102
RTVSPost2010Prop37
 90
       50
102
RTVSPost2010PropOp37
 70
     1
102
RTVSPost2010Prop38
140
0.0
102
RTVSPost2010PropOp38
 70
     1
102
RTVSPost2010Prop39
140
1.0
102
RTVSPost2010PropOp39
 70
     1
102
RTVSPost2010Prop40
 90
        0
102
RTVSPost2010PropOp40
 70
     1
102
RTVSPost2010Prop41ColorIndex
 90
       18
102
RTVSPost2010Prop41ColorRGB
 90
        0
102
RTVSPost2010PropOp41
 70
     1
102
RTVSPost2010Prop42
 90
       50
102
RTVSPost2010PropOp42
 70
     1
102
RTVSPost2010Prop43
 90
        3
102
RTVSPost2010PropOp43
 70
     1
102
RTVSPost2010Prop44ColorIndex
 90
        5
102
RTVSPost2010Prop44ColorRGB
 90
      255
102
RTVSPost2010PropOp44
 70
     1
102
RTVSPost2010Prop45
280
     0
102
RTVSPost2010PropOp45
 70
     1
102
RTVSPost2010Prop46
 90
       50
102
RTVSPost2010PropOp46
 70
     1
102
RTVSPost2010Prop47
 90
       50
102
RTVSPost2010PropOp47
 70
     1
102
RTVSPost2010Prop48
 90
       50
102
RTVSPost2010PropOp48
 70
     1
102
RTVSPost2010Prop49
280
     0
102
RTVSPost2010PropOp49
 70
     1
102
RTVSPost2010Prop50
 90
       50
102
RTVSPost2010PropOp50
 70
     1
102
RTVSPost2010Prop51ColorIndex
 90
      256
102
RTVSPost2010Prop51ColorRGB
 90
-16777216
102
RTVSPost2010PropOp51
 70
     0
102
RTVSPost2010Prop52
140
1.0
102
RTVSPost2010PropOp52
 70
     0
102
RTVSPost2010Prop53
 90
        2
102
RTVSPost2010PropOp53
 70
     1
102
RTVSPost2010Prop54
  1
strokes_ogs.tif
102
RTVSPost2010PropOp54
 70
     1
102
RTVSPost2010Prop55
280
     0
102
RTVSPost2010PropOp55
 70
     1
102
RTVSPost2010Prop56
140
1.0
102
RTVSPost2010PropOp56
 70
     1
102
RTVSPost2010Prop57
140
1.0
102
RTVSPost2010PropOp57
 70
     1
  0
XRECORD
  5
1B53
102
{ACAD_REACTORS
330
1B52
102
}
330
1B52
100
AcDbXrecord
280
     1
102
RTVSPost2010Prop28
280
     0
102
RTVSPost2010PropOp28
 70
     1
102
RTVSPost2010Prop29
280
     1
102
RTVSPost2010PropOp29
 70
     1
102
RTVSPost2010Prop30
280
     1
102
RTVSPost2010PropOp30
 70
     1
102
RTVSPost2010Prop31
280
     0
102
RTVSPost2010PropOp31
 70
     1
102
RTVSPost2010Prop32
280
     0
102
RTVSPost2010PropOp32
 70
     1
102
RTVSPost2010Prop33
280
     0
102
RTVSPost2010PropOp33
 70
     1
102
RTVSPost2010Prop34
280
     0
102
RTVSPost2010PropOp34
 70
     1
102
RTVSPost2010Prop35
280
     0
102
RTVSPost2010PropOp35
 70
     1
102
RTVSPost2010Prop36
280
     0
102
RTVSPost2010PropOp36
 70
     1
102
RTVSPost2010Prop37
 90
       50
102
RTVSPost2010PropOp37
 70
     1
102
RTVSPost2010Prop38
140
0.0
102
RTVSPost2010PropOp38
 70
     1
102
RTVSPost2010Prop39
140
1.0
102
RTVSPost2010PropOp39
 70
     1
102
RTVSPost2010Prop40
 90
        0
102
RTVSPost2010PropOp40
 70
     1
102
RTVSPost2010Prop41ColorIndex
 90
       18
102
RTVSPost2010Prop41ColorRGB
 90
        0
102
RTVSPost2010PropOp41
 70
     1
102
RTVSPost2010Prop42
 90
       50
102
RTVSPost2010PropOp42
 70
     1
102
RTVSPost2010Prop43
 90
        3
102
RTVSPost2010PropOp43
 70
     1
102
RTVSPost2010Prop44ColorIndex
 90
        5
102
RTVSPost2010Prop44ColorRGB
 90
      255
102
RTVSPost2010PropOp44
 70
     1
102
RTVSPost2010Prop45
280
     0
102
RTVSPost2010PropOp45
 70
     1
102
RTVSPost2010Prop46
 90
       50
102
RTVSPost2010PropOp46
 70
     1
102
RTVSPost2010Prop47
 90
       50
102
RTVSPost2010PropOp47
 70
     1
102
RTVSPost2010Prop48
 90
       50
102
RTVSPost2010PropOp48
 70
     1
102
RTVSPost2010Prop49
280
     0
102
RTVSPost2010PropOp49
 70
     1
102
RTVSPost2010Prop50
 90
       50
102
RTVSPost2010PropOp50
 70
     1
102
RTVSPost2010Prop51ColorIndex
 90
      256
102
RTVSPost2010Prop51ColorRGB
 90
-16777216
102
RTVSPost2010PropOp51
 70
     0
102
RTVSPost2010Prop52
140
1.0
102
RTVSPost2010PropOp52
 70
     0
102
RTVSPost2010Prop53
 90
        2
102
RTVSPost2010PropOp53
 70
     1
102
RTVSPost2010Prop54
  1
strokes_ogs.tif
102
RTVSPost2010PropOp54
 70
     1
102
RTVSPost2010Prop55
280
     0
102
RTVSPost2010PropOp55
 70
     1
102
RTVSPost2010Prop56
140
1.0
102
RTVSPost2010PropOp56
 70
     1
102
RTVSPost2010Prop57
140
1.0
102
RTVSPost2010PropOp57
 70
     1
  0
XRECORD
  5
1B5B
102
{ACAD_REACTORS
330
1B5A
102
}
330
1B5A
100
AcDbXrecord
280
     1
102
RTVSPost2010Prop28
280
     0
102
RTVSPost2010PropOp28
 70
     1
102
RTVSPost2010Prop29
280
     1
102
RTVSPost2010PropOp29
 70
     1
102
RTVSPost2010Prop30
280
     1
102
RTVSPost2010PropOp30
 70
     1
102
RTVSPost2010Prop31
280
     0
102
RTVSPost2010PropOp31
 70
     1
102
RTVSPost2010Prop32
280
     0
102
RTVSPost2010PropOp32
 70
     1
102
RTVSPost2010Prop33
280
     0
102
RTVSPost2010PropOp33
 70
     1
102
RTVSPost2010Prop34
280
     0
102
RTVSPost2010PropOp34
 70
     1
102
RTVSPost2010Prop35
280
     0
102
RTVSPost2010PropOp35
 70
     1
102
RTVSPost2010Prop36
280
     0
102
RTVSPost2010PropOp36
 70
     1
102
RTVSPost2010Prop37
 90
       50
102
RTVSPost2010PropOp37
 70
     1
102
RTVSPost2010Prop38
140
0.0
102
RTVSPost2010PropOp38
 70
     1
102
RTVSPost2010Prop39
140
1.0
102
RTVSPost2010PropOp39
 70
     1
102
RTVSPost2010Prop40
 90
        0
102
RTVSPost2010PropOp40
 70
     1
102
RTVSPost2010Prop41ColorIndex
 90
       18
102
RTVSPost2010Prop41ColorRGB
 90
        0
102
RTVSPost2010PropOp41
 70
     1
102
RTVSPost2010Prop42
 90
       50
102
RTVSPost2010PropOp42
 70
     1
102
RTVSPost2010Prop43
 90
        3
102
RTVSPost2010PropOp43
 70
     1
102
RTVSPost2010Prop44ColorIndex
 90
        5
102
RTVSPost2010Prop44ColorRGB
 90
      255
102
RTVSPost2010PropOp44
 70
     1
102
RTVSPost2010Prop45
280
     0
102
RTVSPost2010PropOp45
 70
     1
102
RTVSPost2010Prop46
 90
       50
102
RTVSPost2010PropOp46
 70
     1
102
RTVSPost2010Prop47
 90
       50
102
RTVSPost2010PropOp47
 70
     1
102
RTVSPost2010Prop48
 90
       50
102
RTVSPost2010PropOp48
 70
     1
102
RTVSPost2010Prop49
280
     0
102
RTVSPost2010PropOp49
 70
     1
102
RTVSPost2010Prop50
 90
       50
102
RTVSPost2010PropOp50
 70
     1
102
RTVSPost2010Prop51ColorIndex
 90
      256
102
RTVSPost2010Prop51ColorRGB
 90
-16777216
102
RTVSPost2010PropOp51
 70
     0
102
RTVSPost2010Prop52
140
1.0
102
RTVSPost2010PropOp52
 70
     0
102
RTVSPost2010Prop53
 90
        2
102
RTVSPost2010PropOp53
 70
     1
102
RTVSPost2010Prop54
  1
strokes_ogs.tif
102
RTVSPost2010PropOp54
 70
     1
102
RTVSPost2010Prop55
280
     0
102
RTVSPost2010PropOp55
 70
     1
102
RTVSPost2010Prop56
140
1.0
102
RTVSPost2010PropOp56
 70
     1
102
RTVSPost2010Prop57
140
1.0
102
RTVSPost2010PropOp57
 70
     1
  0
XRECORD
  5
1B77
102
{ACAD_REACTORS
330
1B76
102
}
330
1B76
100
AcDbXrecord
280
     1
102
RTVSPost2010Prop28
280
     0
102
RTVSPost2010PropOp28
 70
     1
102
RTVSPost2010Prop29
280
     1
102
RTVSPost2010PropOp29
 70
     1
102
RTVSPost2010Prop30
280
     1
102
RTVSPost2010PropOp30
 70
     1
102
RTVSPost2010Prop31
280
     0
102
RTVSPost2010PropOp31
 70
     1
102
RTVSPost2010Prop32
280
     0
102
RTVSPost2010PropOp32
 70
     1
102
RTVSPost2010Prop33
280
     0
102
RTVSPost2010PropOp33
 70
     1
102
RTVSPost2010Prop34
280
     0
102
RTVSPost2010PropOp34
 70
     1
102
RTVSPost2010Prop35
280
     0
102
RTVSPost2010PropOp35
 70
     1
102
RTVSPost2010Prop36
280
     0
102
RTVSPost2010PropOp36
 70
     1
102
RTVSPost2010Prop37
 90
       50
102
RTVSPost2010PropOp37
 70
     0
102
RTVSPost2010Prop38
140
0.0
102
RTVSPost2010PropOp38
 70
     0
102
RTVSPost2010Prop39
140
1.0
102
RTVSPost2010PropOp39
 70
     0
102
RTVSPost2010Prop40
 90
        0
102
RTVSPost2010PropOp40
 70
     0
102
RTVSPost2010Prop41ColorIndex
 90
       18
102
RTVSPost2010Prop41ColorRGB
 90
        0
102
RTVSPost2010PropOp41
 70
     0
102
RTVSPost2010Prop42
 90
       50
102
RTVSPost2010PropOp42
 70
     0
102
RTVSPost2010Prop43
 90
        3
102
RTVSPost2010PropOp43
 70
     0
102
RTVSPost2010Prop44ColorIndex
 90
        5
102
RTVSPost2010Prop44ColorRGB
 90
      255
102
RTVSPost2010PropOp44
 70
     0
102
RTVSPost2010Prop45
280
     0
102
RTVSPost2010PropOp45
 70
     1
102
RTVSPost2010Prop46
 90
       50
102
RTVSPost2010PropOp46
 70
     0
102
RTVSPost2010Prop47
 90
       50
102
RTVSPost2010PropOp47
 70
     0
102
RTVSPost2010Prop48
 90
       50
102
RTVSPost2010PropOp48
 70
     0
102
RTVSPost2010Prop49
280
     0
102
RTVSPost2010PropOp49
 70
     1
102
RTVSPost2010Prop50
 90
       50
102
RTVSPost2010PropOp50
 70
     0
102
RTVSPost2010Prop51ColorIndex
 90
      256
102
RTVSPost2010Prop51ColorRGB
 90
-16777216
102
RTVSPost2010PropOp51
 70
     0
102
RTVSPost2010Prop52
140
1.0
102
RTVSPost2010PropOp52
 70
     0
102
RTVSPost2010Prop53
 90
        2
102
RTVSPost2010PropOp53
 70
     0
102
RTVSPost2010Prop54
  1
strokes_ogs.tif
102
RTVSPost2010PropOp54
 70
     0
102
RTVSPost2010Prop55
280
     0
102
RTVSPost2010PropOp55
 70
     1
102
RTVSPost2010Prop56
140
1.0
102
RTVSPost2010PropOp56
 70
     0
102
RTVSPost2010Prop57
140
1.0
102
RTVSPost2010PropOp57
 70
     0
  0
XRECORD
  5
1B67
102
{ACAD_REACTORS
330
1B66
102
}
330
1B66
100
AcDbXrecord
280
     1
102
RTVSPost2010Prop28
280
     0
102
RTVSPost2010PropOp28
 70
     1
102
RTVSPost2010Prop29
280
     1
102
RTVSPost2010PropOp29
 70
     1
102
RTVSPost2010Prop30
280
     1
102
RTVSPost2010PropOp30
 70
     1
102
RTVSPost2010Prop31
280
     0
102
RTVSPost2010PropOp31
 70
     1
102
RTVSPost2010Prop32
280
     0
102
RTVSPost2010PropOp32
 70
     1
102
RTVSPost2010Prop33
280
     0
102
RTVSPost2010PropOp33
 70
     1
102
RTVSPost2010Prop34
280
     0
102
RTVSPost2010PropOp34
 70
     1
102
RTVSPost2010Prop35
280
     0
102
RTVSPost2010PropOp35
 70
     1
102
RTVSPost2010Prop36
280
     0
102
RTVSPost2010PropOp36
 70
     1
102
RTVSPost2010Prop37
 90
       50
102
RTVSPost2010PropOp37
 70
     1
102
RTVSPost2010Prop38
140
0.0
102
RTVSPost2010PropOp38
 70
     1
102
RTVSPost2010Prop39
140
1.0
102
RTVSPost2010PropOp39
 70
     1
102
RTVSPost2010Prop40
 90
        0
102
RTVSPost2010PropOp40
 70
     1
102
RTVSPost2010Prop41ColorIndex
 90
       18
102
RTVSPost2010Prop41ColorRGB
 90
        0
102
RTVSPost2010PropOp41
 70
     1
102
RTVSPost2010Prop42
 90
       50
102
RTVSPost2010PropOp42
 70
     1
102
RTVSPost2010Prop43
 90
        3
102
RTVSPost2010PropOp43
 70
     1
102
RTVSPost2010Prop44ColorIndex
 90
        5
102
RTVSPost2010Prop44ColorRGB
 90
      255
102
RTVSPost2010PropOp44
 70
     1
102
RTVSPost2010Prop45
280
     0
102
RTVSPost2010PropOp45
 70
     1
102
RTVSPost2010Prop46
 90
       50
102
RTVSPost2010PropOp46
 70
     1
102
RTVSPost2010Prop47
 90
       50
102
RTVSPost2010PropOp47
 70
     1
102
RTVSPost2010Prop48
 90
       50
102
RTVSPost2010PropOp48
 70
     1
102
RTVSPost2010Prop49
280
     0
102
RTVSPost2010PropOp49
 70
     1
102
RTVSPost2010Prop50
 90
       50
102
RTVSPost2010PropOp50
 70
     1
102
RTVSPost2010Prop51ColorIndex
 90
      256
102
RTVSPost2010Prop51ColorRGB
 90
-16777216
102
RTVSPost2010PropOp51
 70
     0
102
RTVSPost2010Prop52
140
1.0
102
RTVSPost2010PropOp52
 70
     0
102
RTVSPost2010Prop53
 90
        2
102
RTVSPost2010PropOp53
 70
     1
102
RTVSPost2010Prop54
  1
strokes_ogs.tif
102
RTVSPost2010PropOp54
 70
     1
102
RTVSPost2010Prop55
280
     0
102
RTVSPost2010PropOp55
 70
     1
102
RTVSPost2010Prop56
140
1.0
102
RTVSPost2010PropOp56
 70
     1
102
RTVSPost2010Prop57
140
1.0
102
RTVSPost2010PropOp57
 70
     1
  0
XRECORD
  5
1B79
102
{ACAD_REACTORS
330
1B78
102
}
330
1B78
100
AcDbXrecord
280
     1
102
RTVSPost2010Prop28
280
     0
102
RTVSPost2010PropOp28
 70
     1
102
RTVSPost2010Prop29
280
     1
102
RTVSPost2010PropOp29
 70
     1
102
RTVSPost2010Prop30
280
     1
102
RTVSPost2010PropOp30
 70
     1
102
RTVSPost2010Prop31
280
     0
102
RTVSPost2010PropOp31
 70
     1
102
RTVSPost2010Prop32
280
     0
102
RTVSPost2010PropOp32
 70
     1
102
RTVSPost2010Prop33
280
     0
102
RTVSPost2010PropOp33
 70
     1
102
RTVSPost2010Prop34
280
     0
102
RTVSPost2010PropOp34
 70
     1
102
RTVSPost2010Prop35
280
     0
102
RTVSPost2010PropOp35
 70
     1
102
RTVSPost2010Prop36
280
     0
102
RTVSPost2010PropOp36
 70
     1
102
RTVSPost2010Prop37
 90
       50
102
RTVSPost2010PropOp37
 70
     0
102
RTVSPost2010Prop38
140
0.0
102
RTVSPost2010PropOp38
 70
     0
102
RTVSPost2010Prop39
140
1.0
102
RTVSPost2010PropOp39
 70
     0
102
RTVSPost2010Prop40
 90
        0
102
RTVSPost2010PropOp40
 70
     0
102
RTVSPost2010Prop41ColorIndex
 90
       18
102
RTVSPost2010Prop41ColorRGB
 90
        0
102
RTVSPost2010PropOp41
 70
     0
102
RTVSPost2010Prop42
 90
       50
102
RTVSPost2010PropOp42
 70
     0
102
RTVSPost2010Prop43
 90
        3
102
RTVSPost2010PropOp43
 70
     0
102
RTVSPost2010Prop44ColorIndex
 90
        5
102
RTVSPost2010Prop44ColorRGB
 90
      255
102
RTVSPost2010PropOp44
 70
     0
102
RTVSPost2010Prop45
280
     0
102
RTVSPost2010PropOp45
 70
     1
102
RTVSPost2010Prop46
 90
       50
102
RTVSPost2010PropOp46
 70
     0
102
RTVSPost2010Prop47
 90
       50
102
RTVSPost2010PropOp47
 70
     0
102
RTVSPost2010Prop48
 90
       50
102
RTVSPost2010PropOp48
 70
     0
102
RTVSPost2010Prop49
280
     0
102
RTVSPost2010PropOp49
 70
     1
102
RTVSPost2010Prop50
 90
       50
102
RTVSPost2010PropOp50
 70
     0
102
RTVSPost2010Prop51ColorIndex
 90
      256
102
RTVSPost2010Prop51ColorRGB
 90
-16777216
102
RTVSPost2010PropOp51
 70
     0
102
RTVSPost2010Prop52
140
1.0
102
RTVSPost2010PropOp52
 70
     0
102
RTVSPost2010Prop53
 90
        2
102
RTVSPost2010PropOp53
 70
     0
102
RTVSPost2010Prop54
  1
strokes_ogs.tif
102
RTVSPost2010PropOp54
 70
     0
102
RTVSPost2010Prop55
280
     0
102
RTVSPost2010PropOp55
 70
     1
102
RTVSPost2010Prop56
140
1.0
102
RTVSPost2010PropOp56
 70
     0
102
RTVSPost2010Prop57
140
1.0
102
RTVSPost2010PropOp57
 70
     0
  0
XRECORD
  5
1B5F
102
{ACAD_REACTORS
330
1B5E
102
}
330
1B5E
100
AcDbXrecord
280
     1
102
RTVSPost2010Prop28
280
     0
102
RTVSPost2010PropOp28
 70
     1
102
RTVSPost2010Prop29
280
     1
102
RTVSPost2010PropOp29
 70
     1
102
RTVSPost2010Prop30
280
     1
102
RTVSPost2010PropOp30
 70
     1
102
RTVSPost2010Prop31
280
     0
102
RTVSPost2010PropOp31
 70
     1
102
RTVSPost2010Prop32
280
     0
102
RTVSPost2010PropOp32
 70
     1
102
RTVSPost2010Prop33
280
     0
102
RTVSPost2010PropOp33
 70
     1
102
RTVSPost2010Prop34
280
     0
102
RTVSPost2010PropOp34
 70
     1
102
RTVSPost2010Prop35
280
     0
102
RTVSPost2010PropOp35
 70
     1
102
RTVSPost2010Prop36
280
     0
102
RTVSPost2010PropOp36
 70
     1
102
RTVSPost2010Prop37
 90
       50
102
RTVSPost2010PropOp37
 70
     1
102
RTVSPost2010Prop38
140
0.0
102
RTVSPost2010PropOp38
 70
     1
102
RTVSPost2010Prop39
140
1.0
102
RTVSPost2010PropOp39
 70
     1
102
RTVSPost2010Prop40
 90
        0
102
RTVSPost2010PropOp40
 70
     1
102
RTVSPost2010Prop41ColorIndex
 90
       18
102
RTVSPost2010Prop41ColorRGB
 90
        0
102
RTVSPost2010PropOp41
 70
     1
102
RTVSPost2010Prop42
 90
       50
102
RTVSPost2010PropOp42
 70
     1
102
RTVSPost2010Prop43
 90
        3
102
RTVSPost2010PropOp43
 70
     1
102
RTVSPost2010Prop44ColorIndex
 90
        5
102
RTVSPost2010Prop44ColorRGB
 90
      255
102
RTVSPost2010PropOp44
 70
     1
102
RTVSPost2010Prop45
280
     0
102
RTVSPost2010PropOp45
 70
     1
102
RTVSPost2010Prop46
 90
       50
102
RTVSPost2010PropOp46
 70
     1
102
RTVSPost2010Prop47
 90
       50
102
RTVSPost2010PropOp47
 70
     1
102
RTVSPost2010Prop48
 90
       50
102
RTVSPost2010PropOp48
 70
     1
102
RTVSPost2010Prop49
280
     0
102
RTVSPost2010PropOp49
 70
     1
102
RTVSPost2010Prop50
 90
       50
102
RTVSPost2010PropOp50
 70
     1
102
RTVSPost2010Prop51ColorIndex
 90
      256
102
RTVSPost2010Prop51ColorRGB
 90
-16777216
102
RTVSPost2010PropOp51
 70
     0
102
RTVSPost2010Prop52
140
1.0
102
RTVSPost2010PropOp52
 70
     0
102
RTVSPost2010Prop53
 90
        2
102
RTVSPost2010PropOp53
 70
     1
102
RTVSPost2010Prop54
  1
strokes_ogs.tif
102
RTVSPost2010PropOp54
 70
     1
102
RTVSPost2010Prop55
280
     0
102
RTVSPost2010PropOp55
 70
     1
102
RTVSPost2010Prop56
140
1.0
102
RTVSPost2010PropOp56
 70
     1
102
RTVSPost2010Prop57
140
1.0
102
RTVSPost2010PropOp57
 70
     1
  0
XRECORD
  5
1B75
102
{ACAD_REACTORS
330
1B74
102
}
330
1B74
100
AcDbXrecord
280
     1
102
RTVSPost2010Prop28
280
     0
102
RTVSPost2010PropOp28
 70
     1
102
RTVSPost2010Prop29
280
     1
102
RTVSPost2010PropOp29
 70
     1
102
RTVSPost2010Prop30
280
     1
102
RTVSPost2010PropOp30
 70
     1
102
RTVSPost2010Prop31
280
     0
102
RTVSPost2010PropOp31
 70
     1
102
RTVSPost2010Prop32
280
     0
102
RTVSPost2010PropOp32
 70
     1
102
RTVSPost2010Prop33
280
     0
102
RTVSPost2010PropOp33
 70
     1
102
RTVSPost2010Prop34
280
     0
102
RTVSPost2010PropOp34
 70
     1
102
RTVSPost2010Prop35
280
     0
102
RTVSPost2010PropOp35
 70
     1
102
RTVSPost2010Prop36
280
     0
102
RTVSPost2010PropOp36
 70
     1
102
RTVSPost2010Prop37
 90
       50
102
RTVSPost2010PropOp37
 70
     1
102
RTVSPost2010Prop38
140
0.0
102
RTVSPost2010PropOp38
 70
     1
102
RTVSPost2010Prop39
140
1.0
102
RTVSPost2010PropOp39
 70
     1
102
RTVSPost2010Prop40
 90
        0
102
RTVSPost2010PropOp40
 70
     1
102
RTVSPost2010Prop41ColorIndex
 90
       18
102
RTVSPost2010Prop41ColorRGB
 90
        0
102
RTVSPost2010PropOp41
 70
     1
102
RTVSPost2010Prop42
 90
       50
102
RTVSPost2010PropOp42
 70
     1
102
RTVSPost2010Prop43
 90
        3
102
RTVSPost2010PropOp43
 70
     1
102
RTVSPost2010Prop44ColorIndex
 90
        5
102
RTVSPost2010Prop44ColorRGB
 90
      255
102
RTVSPost2010PropOp44
 70
     1
102
RTVSPost2010Prop45
280
     0
102
RTVSPost2010PropOp45
 70
     1
102
RTVSPost2010Prop46
 90
       50
102
RTVSPost2010PropOp46
 70
     1
102
RTVSPost2010Prop47
 90
       50
102
RTVSPost2010PropOp47
 70
     1
102
RTVSPost2010Prop48
 90
       50
102
RTVSPost2010PropOp48
 70
     1
102
RTVSPost2010Prop49
280
     0
102
RTVSPost2010PropOp49
 70
     1
102
RTVSPost2010Prop50
 90
       50
102
RTVSPost2010PropOp50
 70
     1
102
RTVSPost2010Prop51ColorIndex
 90
      256
102
RTVSPost2010Prop51ColorRGB
 90
-16777216
102
RTVSPost2010PropOp51
 70
     0
102
RTVSPost2010Prop52
140
1.0
102
RTVSPost2010PropOp52
 70
     0
102
RTVSPost2010Prop53
 90
        2
102
RTVSPost2010PropOp53
 70
     1
102
RTVSPost2010Prop54
  1
strokes_ogs.tif
102
RTVSPost2010PropOp54
 70
     1
102
RTVSPost2010Prop55
280
     0
102
RTVSPost2010PropOp55
 70
     1
102
RTVSPost2010Prop56
140
1.0
102
RTVSPost2010PropOp56
 70
     1
102
RTVSPost2010Prop57
140
1.0
102
RTVSPost2010PropOp57
 70
     1
  0
XRECORD
  5
1B73
102
{ACAD_REACTORS
330
1B72
102
}
330
1B72
100
AcDbXrecord
280
     1
102
RTVSPost2010Prop28
280
     0
102
RTVSPost2010PropOp28
 70
     1
102
RTVSPost2010Prop29
280
     1
102
RTVSPost2010PropOp29
 70
     1
102
RTVSPost2010Prop30
280
     1
102
RTVSPost2010PropOp30
 70
     1
102
RTVSPost2010Prop31
280
     0
102
RTVSPost2010PropOp31
 70
     1
102
RTVSPost2010Prop32
280
     0
102
RTVSPost2010PropOp32
 70
     1
102
RTVSPost2010Prop33
280
     0
102
RTVSPost2010PropOp33
 70
     1
102
RTVSPost2010Prop34
280
     0
102
RTVSPost2010PropOp34
 70
     1
102
RTVSPost2010Prop35
280
     0
102
RTVSPost2010PropOp35
 70
     1
102
RTVSPost2010Prop36
280
     0
102
RTVSPost2010PropOp36
 70
     1
102
RTVSPost2010Prop37
 90
       50
102
RTVSPost2010PropOp37
 70
     1
102
RTVSPost2010Prop38
140
0.0
102
RTVSPost2010PropOp38
 70
     1
102
RTVSPost2010Prop39
140
1.0
102
RTVSPost2010PropOp39
 70
     1
102
RTVSPost2010Prop40
 90
        0
102
RTVSPost2010PropOp40
 70
     1
102
RTVSPost2010Prop41ColorIndex
 90
       18
102
RTVSPost2010Prop41ColorRGB
 90
        0
102
RTVSPost2010PropOp41
 70
     1
102
RTVSPost2010Prop42
 90
       50
102
RTVSPost2010PropOp42
 70
     1
102
RTVSPost2010Prop43
 90
        3
102
RTVSPost2010PropOp43
 70
     1
102
RTVSPost2010Prop44ColorIndex
 90
        5
102
RTVSPost2010Prop44ColorRGB
 90
      255
102
RTVSPost2010PropOp44
 70
     1
102
RTVSPost2010Prop45
280
     0
102
RTVSPost2010PropOp45
 70
     1
102
RTVSPost2010Prop46
 90
       50
102
RTVSPost2010PropOp46
 70
     1
102
RTVSPost2010Prop47
 90
       50
102
RTVSPost2010PropOp47
 70
     1
102
RTVSPost2010Prop48
 90
       50
102
RTVSPost2010PropOp48
 70
     1
102
RTVSPost2010Prop49
280
     0
102
RTVSPost2010PropOp49
 70
     1
102
RTVSPost2010Prop50
 90
       50
102
RTVSPost2010PropOp50
 70
     1
102
RTVSPost2010Prop51ColorIndex
 90
      256
102
RTVSPost2010Prop51ColorRGB
 90
-16777216
102
RTVSPost2010PropOp51
 70
     0
102
RTVSPost2010Prop52
140
1.0
102
RTVSPost2010PropOp52
 70
     0
102
RTVSPost2010Prop53
 90
        2
102
RTVSPost2010PropOp53
 70
     1
102
RTVSPost2010Prop54
  1
strokes_ogs.tif
102
RTVSPost2010PropOp54
 70
     1
102
RTVSPost2010Prop55
280
     0
102
RTVSPost2010PropOp55
 70
     1
102
RTVSPost2010Prop56
140
1.0
102
RTVSPost2010PropOp56
 70
     1
102
RTVSPost2010Prop57
140
1.0
102
RTVSPost2010PropOp57
 70
     1
  0
XRECORD
  5
1B6D
102
{ACAD_REACTORS
330
1B6C
102
}
330
1B6C
100
AcDbXrecord
280
     1
102
RTVSPost2010Prop28
280
     0
102
RTVSPost2010PropOp28
 70
     1
102
RTVSPost2010Prop29
280
     1
102
RTVSPost2010PropOp29
 70
     1
102
RTVSPost2010Prop30
280
     1
102
RTVSPost2010PropOp30
 70
     1
102
RTVSPost2010Prop31
280
     0
102
RTVSPost2010PropOp31
 70
     1
102
RTVSPost2010Prop32
280
     0
102
RTVSPost2010PropOp32
 70
     1
102
RTVSPost2010Prop33
280
     0
102
RTVSPost2010PropOp33
 70
     1
102
RTVSPost2010Prop34
280
     0
102
RTVSPost2010PropOp34
 70
     1
102
RTVSPost2010Prop35
280
     0
102
RTVSPost2010PropOp35
 70
     1
102
RTVSPost2010Prop36
280
     0
102
RTVSPost2010PropOp36
 70
     1
102
RTVSPost2010Prop37
 90
       50
102
RTVSPost2010PropOp37
 70
     1
102
RTVSPost2010Prop38
140
0.0
102
RTVSPost2010PropOp38
 70
     1
102
RTVSPost2010Prop39
140
1.0
102
RTVSPost2010PropOp39
 70
     1
102
RTVSPost2010Prop40
 90
        0
102
RTVSPost2010PropOp40
 70
     1
102
RTVSPost2010Prop41ColorIndex
 90
       18
102
RTVSPost2010Prop41ColorRGB
 90
        0
102
RTVSPost2010PropOp41
 70
     1
102
RTVSPost2010Prop42
 90
       50
102
RTVSPost2010PropOp42
 70
     1
102
RTVSPost2010Prop43
 90
        3
102
RTVSPost2010PropOp43
 70
     1
102
RTVSPost2010Prop44ColorIndex
 90
        5
102
RTVSPost2010Prop44ColorRGB
 90
      255
102
RTVSPost2010PropOp44
 70
     1
102
RTVSPost2010Prop45
280
     0
102
RTVSPost2010PropOp45
 70
     1
102
RTVSPost2010Prop46
 90
       50
102
RTVSPost2010PropOp46
 70
     1
102
RTVSPost2010Prop47
 90
       50
102
RTVSPost2010PropOp47
 70
     1
102
RTVSPost2010Prop48
 90
       50
102
RTVSPost2010PropOp48
 70
     1
102
RTVSPost2010Prop49
280
     0
102
RTVSPost2010PropOp49
 70
     1
102
RTVSPost2010Prop50
 90
       50
102
RTVSPost2010PropOp50
 70
     1
102
RTVSPost2010Prop51ColorIndex
 90
      256
102
RTVSPost2010Prop51ColorRGB
 90
-16777216
102
RTVSPost2010PropOp51
 70
     0
102
RTVSPost2010Prop52
140
1.0
102
RTVSPost2010PropOp52
 70
     0
102
RTVSPost2010Prop53
 90
        2
102
RTVSPost2010PropOp53
 70
     1
102
RTVSPost2010Prop54
  1
strokes_ogs.tif
102
RTVSPost2010PropOp54
 70
     1
102
RTVSPost2010Prop55
280
     0
102
RTVSPost2010PropOp55
 70
     1
102
RTVSPost2010Prop56
140
1.0
102
RTVSPost2010PropOp56
 70
     1
102
RTVSPost2010Prop57
140
1.0
102
RTVSPost2010PropOp57
 70
     1
  0
XRECORD
  5
1B6F
102
{ACAD_REACTORS
330
1B6E
102
}
330
1B6E
100
AcDbXrecord
280
     1
102
RTVSPost2010Prop28
280
     0
102
RTVSPost2010PropOp28
 70
     1
102
RTVSPost2010Prop29
280
     1
102
RTVSPost2010PropOp29
 70
     1
102
RTVSPost2010Prop30
280
     1
102
RTVSPost2010PropOp30
 70
     1
102
RTVSPost2010Prop31
280
     0
102
RTVSPost2010PropOp31
 70
     1
102
RTVSPost2010Prop32
280
     0
102
RTVSPost2010PropOp32
 70
     1
102
RTVSPost2010Prop33
280
     0
102
RTVSPost2010PropOp33
 70
     1
102
RTVSPost2010Prop34
280
     0
102
RTVSPost2010PropOp34
 70
     1
102
RTVSPost2010Prop35
280
     0
102
RTVSPost2010PropOp35
 70
     1
102
RTVSPost2010Prop36
280
     0
102
RTVSPost2010PropOp36
 70
     1
102
RTVSPost2010Prop37
 90
       50
102
RTVSPost2010PropOp37
 70
     1
102
RTVSPost2010Prop38
140
0.0
102
RTVSPost2010PropOp38
 70
     1
102
RTVSPost2010Prop39
140
1.0
102
RTVSPost2010PropOp39
 70
     1
102
RTVSPost2010Prop40
 90
        0
102
RTVSPost2010PropOp40
 70
     1
102
RTVSPost2010Prop41ColorIndex
 90
       18
102
RTVSPost2010Prop41ColorRGB
 90
        0
102
RTVSPost2010PropOp41
 70
     1
102
RTVSPost2010Prop42
 90
       50
102
RTVSPost2010PropOp42
 70
     1
102
RTVSPost2010Prop43
 90
        3
102
RTVSPost2010PropOp43
 70
     1
102
RTVSPost2010Prop44ColorIndex
 90
        5
102
RTVSPost2010Prop44ColorRGB
 90
      255
102
RTVSPost2010PropOp44
 70
     1
102
RTVSPost2010Prop45
280
     0
102
RTVSPost2010PropOp45
 70
     1
102
RTVSPost2010Prop46
 90
       50
102
RTVSPost2010PropOp46
 70
     1
102
RTVSPost2010Prop47
 90
       50
102
RTVSPost2010PropOp47
 70
     1
102
RTVSPost2010Prop48
 90
       50
102
RTVSPost2010PropOp48
 70
     1
102
RTVSPost2010Prop49
280
     0
102
RTVSPost2010PropOp49
 70
     1
102
RTVSPost2010Prop50
 90
       50
102
RTVSPost2010PropOp50
 70
     1
102
RTVSPost2010Prop51ColorIndex
 90
      256
102
RTVSPost2010Prop51ColorRGB
 90
-16777216
102
RTVSPost2010PropOp51
 70
     0
102
RTVSPost2010Prop52
140
1.0
102
RTVSPost2010PropOp52
 70
     0
102
RTVSPost2010Prop53
 90
        2
102
RTVSPost2010PropOp53
 70
     1
102
RTVSPost2010Prop54
  1
strokes_ogs.tif
102
RTVSPost2010PropOp54
 70
     1
102
RTVSPost2010Prop55
280
     0
102
RTVSPost2010PropOp55
 70
     1
102
RTVSPost2010Prop56
140
1.0
102
RTVSPost2010PropOp56
 70
     1
102
RTVSPost2010Prop57
140
1.0
102
RTVSPost2010PropOp57
 70
     1
  0
XRECORD
  5
1B65
102
{ACAD_REACTORS
330
1B64
102
}
330
1B64
100
AcDbXrecord
280
     1
102
RTVSPost2010Prop28
280
     0
102
RTVSPost2010PropOp28
 70
     1
102
RTVSPost2010Prop29
280
     1
102
RTVSPost2010PropOp29
 70
     1
102
RTVSPost2010Prop30
280
     1
102
RTVSPost2010PropOp30
 70
     1
102
RTVSPost2010Prop31
280
     0
102
RTVSPost2010PropOp31
 70
     1
102
RTVSPost2010Prop32
280
     0
102
RTVSPost2010PropOp32
 70
     1
102
RTVSPost2010Prop33
280
     0
102
RTVSPost2010PropOp33
 70
     1
102
RTVSPost2010Prop34
280
     0
102
RTVSPost2010PropOp34
 70
     1
102
RTVSPost2010Prop35
280
     0
102
RTVSPost2010PropOp35
 70
     1
102
RTVSPost2010Prop36
280
     0
102
RTVSPost2010PropOp36
 70
     1
102
RTVSPost2010Prop37
 90
       50
102
RTVSPost2010PropOp37
 70
     1
102
RTVSPost2010Prop38
140
0.0
102
RTVSPost2010PropOp38
 70
     1
102
RTVSPost2010Prop39
140
1.0
102
RTVSPost2010PropOp39
 70
     1
102
RTVSPost2010Prop40
 90
        0
102
RTVSPost2010PropOp40
 70
     1
102
RTVSPost2010Prop41ColorIndex
 90
       18
102
RTVSPost2010Prop41ColorRGB
 90
        0
102
RTVSPost2010PropOp41
 70
     1
102
RTVSPost2010Prop42
 90
       50
102
RTVSPost2010PropOp42
 70
     1
102
RTVSPost2010Prop43
 90
        3
102
RTVSPost2010PropOp43
 70
     1
102
RTVSPost2010Prop44ColorIndex
 90
        5
102
RTVSPost2010Prop44ColorRGB
 90
      255
102
RTVSPost2010PropOp44
 70
     1
102
RTVSPost2010Prop45
280
     0
102
RTVSPost2010PropOp45
 70
     1
102
RTVSPost2010Prop46
 90
       50
102
RTVSPost2010PropOp46
 70
     1
102
RTVSPost2010Prop47
 90
       50
102
RTVSPost2010PropOp47
 70
     1
102
RTVSPost2010Prop48
 90
       50
102
RTVSPost2010PropOp48
 70
     1
102
RTVSPost2010Prop49
280
     0
102
RTVSPost2010PropOp49
 70
     1
102
RTVSPost2010Prop50
 90
       50
102
RTVSPost2010PropOp50
 70
     1
102
RTVSPost2010Prop51ColorIndex
 90
      256
102
RTVSPost2010Prop51ColorRGB
 90
-16777216
102
RTVSPost2010PropOp51
 70
     0
102
RTVSPost2010Prop52
140
1.0
102
RTVSPost2010PropOp52
 70
     0
102
RTVSPost2010Prop53
 90
        2
102
RTVSPost2010PropOp53
 70
     1
102
RTVSPost2010Prop54
  1
strokes_ogs.tif
102
RTVSPost2010PropOp54
 70
     1
102
RTVSPost2010Prop55
280
     0
102
RTVSPost2010PropOp55
 70
     1
102
RTVSPost2010Prop56
140
1.0
102
RTVSPost2010PropOp56
 70
     1
102
RTVSPost2010Prop57
140
1.0
102
RTVSPost2010PropOp57
 70
     1
  0
XRECORD
  5
1B59
102
{ACAD_REACTORS
330
1B58
102
}
330
1B58
100
AcDbXrecord
280
     1
102
RTVSPost2010Prop28
280
     0
102
RTVSPost2010PropOp28
 70
     1
102
RTVSPost2010Prop29
280
     1
102
RTVSPost2010PropOp29
 70
     1
102
RTVSPost2010Prop30
280
     1
102
RTVSPost2010PropOp30
 70
     1
102
RTVSPost2010Prop31
280
     0
102
RTVSPost2010PropOp31
 70
     1
102
RTVSPost2010Prop32
280
     0
102
RTVSPost2010PropOp32
 70
     1
102
RTVSPost2010Prop33
280
     0
102
RTVSPost2010PropOp33
 70
     1
102
RTVSPost2010Prop34
280
     0
102
RTVSPost2010PropOp34
 70
     1
102
RTVSPost2010Prop35
280
     0
102
RTVSPost2010PropOp35
 70
     1
102
RTVSPost2010Prop36
280
     0
102
RTVSPost2010PropOp36
 70
     1
102
RTVSPost2010Prop37
 90
       50
102
RTVSPost2010PropOp37
 70
     1
102
RTVSPost2010Prop38
140
0.0
102
RTVSPost2010PropOp38
 70
     1
102
RTVSPost2010Prop39
140
1.0
102
RTVSPost2010PropOp39
 70
     1
102
RTVSPost2010Prop40
 90
        0
102
RTVSPost2010PropOp40
 70
     1
102
RTVSPost2010Prop41ColorIndex
 90
       18
102
RTVSPost2010Prop41ColorRGB
 90
        0
102
RTVSPost2010PropOp41
 70
     1
102
RTVSPost2010Prop42
 90
       50
102
RTVSPost2010PropOp42
 70
     1
102
RTVSPost2010Prop43
 90
        3
102
RTVSPost2010PropOp43
 70
     1
102
RTVSPost2010Prop44ColorIndex
 90
        5
102
RTVSPost2010Prop44ColorRGB
 90
      255
102
RTVSPost2010PropOp44
 70
     1
102
RTVSPost2010Prop45
280
     0
102
RTVSPost2010PropOp45
 70
     1
102
RTVSPost2010Prop46
 90
       50
102
RTVSPost2010PropOp46
 70
     1
102
RTVSPost2010Prop47
 90
       50
102
RTVSPost2010PropOp47
 70
     1
102
RTVSPost2010Prop48
 90
       50
102
RTVSPost2010PropOp48
 70
     1
102
RTVSPost2010Prop49
280
     0
102
RTVSPost2010PropOp49
 70
     1
102
RTVSPost2010Prop50
 90
       50
102
RTVSPost2010PropOp50
 70
     1
102
RTVSPost2010Prop51ColorIndex
 90
      256
102
RTVSPost2010Prop51ColorRGB
 90
-16777216
102
RTVSPost2010PropOp51
 70
     0
102
RTVSPost2010Prop52
140
1.0
102
RTVSPost2010PropOp52
 70
     0
102
RTVSPost2010Prop53
 90
        2
102
RTVSPost2010PropOp53
 70
     1
102
RTVSPost2010Prop54
  1
strokes_ogs.tif
102
RTVSPost2010PropOp54
 70
     1
102
RTVSPost2010Prop55
280
     0
102
RTVSPost2010PropOp55
 70
     1
102
RTVSPost2010Prop56
140
1.0
102
RTVSPost2010PropOp56
 70
     1
102
RTVSPost2010Prop57
140
1.0
102
RTVSPost2010PropOp57
 70
     1
  0
XRECORD
  5
1B71
102
{ACAD_REACTORS
330
1B70
102
}
330
1B70
100
AcDbXrecord
280
     1
102
RTVSPost2010Prop28
280
     0
102
RTVSPost2010PropOp28
 70
     1
102
RTVSPost2010Prop29
280
     1
102
RTVSPost2010PropOp29
 70
     1
102
RTVSPost2010Prop30
280
     1
102
RTVSPost2010PropOp30
 70
     1
102
RTVSPost2010Prop31
280
     0
102
RTVSPost2010PropOp31
 70
     1
102
RTVSPost2010Prop32
280
     0
102
RTVSPost2010PropOp32
 70
     1
102
RTVSPost2010Prop33
280
     0
102
RTVSPost2010PropOp33
 70
     1
102
RTVSPost2010Prop34
280
     0
102
RTVSPost2010PropOp34
 70
     1
102
RTVSPost2010Prop35
280
     0
102
RTVSPost2010PropOp35
 70
     1
102
RTVSPost2010Prop36
280
     0
102
RTVSPost2010PropOp36
 70
     1
102
RTVSPost2010Prop37
 90
       50
102
RTVSPost2010PropOp37
 70
     1
102
RTVSPost2010Prop38
140
0.0
102
RTVSPost2010PropOp38
 70
     1
102
RTVSPost2010Prop39
140
1.0
102
RTVSPost2010PropOp39
 70
     1
102
RTVSPost2010Prop40
 90
        0
102
RTVSPost2010PropOp40
 70
     1
102
RTVSPost2010Prop41ColorIndex
 90
       18
102
RTVSPost2010Prop41ColorRGB
 90
        0
102
RTVSPost2010PropOp41
 70
     1
102
RTVSPost2010Prop42
 90
       50
102
RTVSPost2010PropOp42
 70
     1
102
RTVSPost2010Prop43
 90
        3
102
RTVSPost2010PropOp43
 70
     1
102
RTVSPost2010Prop44ColorIndex
 90
        5
102
RTVSPost2010Prop44ColorRGB
 90
      255
102
RTVSPost2010PropOp44
 70
     1
102
RTVSPost2010Prop45
280
     0
102
RTVSPost2010PropOp45
 70
     1
102
RTVSPost2010Prop46
 90
       50
102
RTVSPost2010PropOp46
 70
     1
102
RTVSPost2010Prop47
 90
       50
102
RTVSPost2010PropOp47
 70
     1
102
RTVSPost2010Prop48
 90
       50
102
RTVSPost2010PropOp48
 70
     1
102
RTVSPost2010Prop49
280
     0
102
RTVSPost2010PropOp49
 70
     1
102
RTVSPost2010Prop50
 90
       50
102
RTVSPost2010PropOp50
 70
     1
102
RTVSPost2010Prop51ColorIndex
 90
      256
102
RTVSPost2010Prop51ColorRGB
 90
-16777216
102
RTVSPost2010PropOp51
 70
     0
102
RTVSPost2010Prop52
140
1.0
102
RTVSPost2010PropOp52
 70
     0
102
RTVSPost2010Prop53
 90
        2
102
RTVSPost2010PropOp53
 70
     1
102
RTVSPost2010Prop54
  1
strokes_ogs.tif
102
RTVSPost2010PropOp54
 70
     1
102
RTVSPost2010Prop55
280
     0
102
RTVSPost2010PropOp55
 70
     1
102
RTVSPost2010Prop56
140
1.0
102
RTVSPost2010PropOp56
 70
     1
102
RTVSPost2010Prop57
140
1.0
102
RTVSPost2010PropOp57
 70
     1
  0
ENDSEC
  0
EOF
