  0
SECTION
  2
HEADER
  9
$ACADVER
  1
AC1024
  9
$ACADMAINTVER
 70
   205
  9
$DWGCODEPAGE
  3
ANSI_1252
  9
$LASTSAVEDBY
  1
kaschu
  9
$INSBASE
 10
0.0
 20
0.0
 30
0.0
  9
$EXTMIN
 10
-1852.965265977655
 20
-3826.783816086858
 30
-0.0030516996083847
  9
$EXTMAX
 10
-671.8841930849996
 20
-1627.052351056048
 30
0.0030517927406564
  9
$LIMMIN
 10
0.0
 20
0.0
  9
$LIMMAX
 10
0.0
 20
0.0
  9
$ORTHOMODE
 70
     1
  9
$REGENMODE
 70
     1
  9
$FILLMODE
 70
     1
  9
$QTEXTMODE
 70
     0
  9
$MIRRTEXT
 70
     1
  9
$LTSCALE
 40
1.0
  9
$ATTMODE
 70
     1
  9
$TEXTSIZE
 40
0.0
  9
$TRACEWID
 40
0.05
  9
$TEXTSTYLE
  7
STANDARD
  9
$CLAYER
  8
0
  9
$CELTYPE
  6
CONTINUOUS
  9
$CECOLOR
 62
   256
  9
$CELTSCALE
 40
1.0
  9
$DISPSILH
 70
     0
  9
$DIMSCALE
 40
1.0
  9
$DIMASZ
 40
0.18
  9
$DIMEXO
 40
0.0625
  9
$DIMDLI
 40
0.38
  9
$DIMRND
 40
0.0
  9
$DIMDLE
 40
0.0
  9
$DIMEXE
 40
0.18
  9
$DIMTP
 40
0.0
  9
$DIMTM
 40
0.0
  9
$DIMTXT
 40
0.18
  9
$DIMCEN
 40
0.09
  9
$DIMTSZ
 40
0.0
  9
$DIMTOL
 70
     0
  9
$DIMLIM
 70
     0
  9
$DIMTIH
 70
     1
  9
$DIMTOH
 70
     1
  9
$DIMSE1
 70
     0
  9
$DIMSE2
 70
     0
  9
$DIMTAD
 70
     0
  9
$DIMZIN
 70
     0
  9
$DIMBLK
  1

  9
$DIMASO
 70
     1
  9
$DIMSHO
 70
     1
  9
$DIMPOST
  1

  9
$DIMAPOST
  1

  9
$DIMALT
 70
     0
  9
$DIMALTD
 70
     2
  9
$DIMALTF
 40
25.4
  9
$DIMLFAC
 40
1.0
  9
$DIMTOFL
 70
     0
  9
$DIMTVP
 40
0.0
  9
$DIMTIX
 70
     0
  9
$DIMSOXD
 70
     0
  9
$DIMSAH
 70
     0
  9
$DIMBLK1
  1

  9
$DIMBLK2
  1

  9
$DIMSTYLE
  2
STANDARD
  9
$DIMCLRD
 70
     0
  9
$DIMCLRE
 70
     0
  9
$DIMCLRT
 70
     0
  9
$DIMTFAC
 40
1.0
  9
$DIMGAP
 40
0.09
  9
$DIMJUST
 70
     0
  9
$DIMSD1
 70
     0
  9
$DIMSD2
 70
     0
  9
$DIMTOLJ
 70
     1
  9
$DIMTZIN
 70
     0
  9
$DIMALTZ
 70
     0
  9
$DIMALTTZ
 70
     0
  9
$DIMUPT
 70
     0
  9
$DIMDEC
 70
     4
  9
$DIMTDEC
 70
     4
  9
$DIMALTU
 70
     2
  9
$DIMALTTD
 70
     2
  9
$DIMTXSTY
  7
STANDARD
  9
$DIMAUNIT
 70
     0
  9
$DIMADEC
 70
     0
  9
$DIMALTRND
 40
0.0
  9
$DIMAZIN
 70
     0
  9
$DIMDSEP
 70
    46
  9
$DIMATFIT
 70
     3
  9
$DIMFRAC
 70
     0
  9
$DIMLDRBLK
  1

  9
$DIMLUNIT
 70
     2
  9
$DIMLWD
 70
    -2
  9
$DIMLWE
 70
    -2
  9
$DIMTMOVE
 70
     0
  9
$DIMFXL
 40
1.0
  9
$DIMFXLON
 70
     0
  9
$DIMJOGANG
 40
0.7853981633974483
  9
$DIMTFILL
 70
     0
  9
$DIMTFILLCLR
 70
     0
  9
$DIMARCSYM
 70
     0
  9
$DIMLTYPE
  6

  9
$DIMLTEX1
  6

  9
$DIMLTEX2
  6

  9
$DIMTXTDIRECTION
 70
     0
  9
$LUNITS
 70
     2
  9
$LUPREC
 70
     4
  9
$SKETCHINC
 40
0.1
  9
$FILLETRAD
 40
0.0
  9
$AUNITS
 70
     0
  9
$AUPREC
 70
     0
  9
$MENU
  1
acad
  9
$ELEVATION
 40
0.0
  9
$PELEVATION
 40
0.0
  9
$THICKNESS
 40
0.0
  9
$LIMCHECK
 70
     0
  9
$CHAMFERA
 40
0.0
  9
$CHAMFERB
 40
0.0
  9
$CHAMFERC
 40
0.0
  9
$CHAMFERD
 40
0.0
  9
$SKPOLY
 70
     0
  9
$TDCREATE
 40
2305824.174990220
  9
$TDUCREATE
 40
2305824.091656887
  9
$TDUPDATE
 40
2458418.716560347
  9
$TDUUPDATE
 40
2458418.633227014
  9
$TDINDWG
 40
0.0056353356
  9
$TDUSRTIMER
 40
0.0056353125
  9
$USRTIMER
 70
     1
  9
$ANGBASE
 50
0.0
  9
$ANGDIR
 70
     0
  9
$PDMODE
 70
     0
  9
$PDSIZE
 40
0.0
  9
$PLINEWID
 40
0.0
  9
$SPLFRAME
 70
     0
  9
$SPLINETYPE
 70
     6
  9
$SPLINESEGS
 70
     8
  9
$HANDSEED
  5
77D
  9
$SURFTAB1
 70
     6
  9
$SURFTAB2
 70
     6
  9
$SURFTYPE
 70
     6
  9
$SURFU
 70
     6
  9
$SURFV
 70
     6
  9
$UCSBASE
  2

  9
$UCSNAME
  2

  9
$UCSORG
 10
0.0
 20
0.0
 30
0.0
  9
$UCSXDIR
 10
1.0
 20
0.0
 30
0.0
  9
$UCSYDIR
 10
0.0
 20
1.0
 30
0.0
  9
$UCSORTHOREF
  2

  9
$UCSORTHOVIEW
 70
     0
  9
$UCSORGTOP
 10
0.0
 20
0.0
 30
0.0
  9
$UCSORGBOTTOM
 10
0.0
 20
0.0
 30
0.0
  9
$UCSORGLEFT
 10
0.0
 20
0.0
 30
0.0
  9
$UCSORGRIGHT
 10
0.0
 20
0.0
 30
0.0
  9
$UCSORGFRONT
 10
0.0
 20
0.0
 30
0.0
  9
$UCSORGBACK
 10
0.0
 20
0.0
 30
0.0
  9
$PUCSBASE
  2

  9
$PUCSNAME
  2

  9
$PUCSORG
 10
0.0
 20
0.0
 30
0.0
  9
$PUCSXDIR
 10
1.0
 20
0.0
 30
0.0
  9
$PUCSYDIR
 10
0.0
 20
1.0
 30
0.0
  9
$PUCSORTHOREF
  2

  9
$PUCSORTHOVIEW
 70
     0
  9
$PUCSORGTOP
 10
0.0
 20
0.0
 30
0.0
  9
$PUCSORGBOTTOM
 10
0.0
 20
0.0
 30
0.0
  9
$PUCSORGLEFT
 10
0.0
 20
0.0
 30
0.0
  9
$PUCSORGRIGHT
 10
0.0
 20
0.0
 30
0.0
  9
$PUCSORGFRONT
 10
0.0
 20
0.0
 30
0.0
  9
$PUCSORGBACK
 10
0.0
 20
0.0
 30
0.0
  9
$USERI1
 70
     0
  9
$USERI2
 70
     0
  9
$USERI3
 70
     0
  9
$USERI4
 70
     0
  9
$USERI5
 70
     0
  9
$USERR1
 40
0.0
  9
$USERR2
 40
0.0
  9
$USERR3
 40
0.0
  9
$USERR4
 40
0.0
  9
$USERR5
 40
0.0
  9
$WORLDVIEW
 70
     1
  9
$SHADEDGE
 70
     3
  9
$SHADEDIF
 70
    70
  9
$TILEMODE
 70
     1
  9
$MAXACTVP
 70
    16
  9
$PINSBASE
 10
0.0
 20
0.0
 30
0.0
  9
$PLIMCHECK
 70
     0
  9
$PEXTMIN
 10
1.000000000000000E+20
 20
1.000000000000000E+20
 30
1.000000000000000E+20
  9
$PEXTMAX
 10
-1.000000000000000E+20
 20
-1.000000000000000E+20
 30
-1.000000000000000E+20
  9
$PLIMMIN
 10
0.0
 20
0.0
  9
$PLIMMAX
 10
12.0
 20
9.0
  9
$UNITMODE
 70
     0
  9
$VISRETAIN
 70
     0
  9
$PLINEGEN
 70
     1
  9
$PSLTSCALE
 70
     0
  9
$TREEDEPTH
 70
  3020
  9
$CMLSTYLE
  2
STANDARD
  9
$CMLJUST
 70
     0
  9
$CMLSCALE
 40
1.0
  9
$PROXYGRAPHICS
 70
     1
  9
$MEASUREMENT
 70
     0
  9
$CELWEIGHT
370
    -1
  9
$ENDCAPS
280
     0
  9
$JOINSTYLE
280
     0
  9
$LWDISPLAY
290
     0
  9
$INSUNITS
 70
     0
  9
$HYPERLINKBASE
  1

  9
$STYLESHEET
  1

  9
$XEDIT
290
     1
  9
$CEPSNTYPE
380
     0
  9
$PSTYLEMODE
290
     1
  9
$FINGERPRINTGUID
  2
{5243222F-CC4B-4302-8C19-076DE45F7F99}
  9
$VERSIONGUID
  2
{BFF863A4-2ADA-4CCF-8CDF-BAF8EDB94DE9}
  9
$EXTNAMES
290
     1
  9
$PSVPSCALE
 40
0.0
  9
$OLESTARTUP
290
     0
  9
$SORTENTS
280
   127
  9
$INDEXCTL
280
     0
  9
$HIDETEXT
280
     0
  9
$XCLIPFRAME
280
     2
  9
$HALOGAP
280
     0
  9
$OBSCOLOR
 70
   257
  9
$OBSLTYPE
280
     0
  9
$INTERSECTIONDISPLAY
280
     0
  9
$INTERSECTIONCOLOR
 70
   257
  9
$DIMASSOC
280
     1
  9
$PROJECTNAME
  1

  9
$CAMERADISPLAY
290
     0
  9
$LENSLENGTH
 40
50.0
  9
$CAMERAHEIGHT
 40
0.0
  9
$STEPSPERSEC
 40
2.0
  9
$STEPSIZE
 40
6.0
  9
$3DDWFPREC
 40
2.0
  9
$PSOLWIDTH
 40
0.25
  9
$PSOLHEIGHT
 40
4.0
  9
$LOFTANG1
 40
1.570796326794896
  9
$LOFTANG2
 40
1.570796326794896
  9
$LOFTMAG1
 40
0.0
  9
$LOFTMAG2
 40
0.0
  9
$LOFTPARAM
 70
     7
  9
$LOFTNORMALS
280
     1
  9
$LATITUDE
 40
37.795
  9
$LONGITUDE
 40
-122.394
  9
$NORTHDIRECTION
 40
0.0
  9
$TIMEZONE
 70
 -8000
  9
$LIGHTGLYPHDISPLAY
280
     1
  9
$TILEMODELIGHTSYNCH
280
     1
  9
$CMATERIAL
347
31A
  9
$SOLIDHIST
280
     0
  9
$SHOWHIST
280
     1
  9
$DWFFRAME
280
     2
  9
$DGNFRAME
280
     0
  9
$REALWORLDSCALE
290
     1
  9
$INTERFERECOLOR
 62
     1
  9
$INTERFEREOBJVS
345
33C
  9
$INTERFEREVPVS
346
339
  9
$CSHADOW
280
     0
  9
$SHADOWPLANELOCATION
 40
0.0
  0
ENDSEC
  0
SECTION
  2
CLASSES
  0
CLASS
  1
IMAGE
  2
AcDbRasterImage
  3
ISM
 90
     2175
 91
        0
280
     0
281
     1
  0
CLASS
  1
DICTIONARYVAR
  2
AcDbDictionaryVar
  3
ObjectDBX Classes
 90
        0
 91
        9
280
     0
281
     0
  0
CLASS
  1
RASTERVARIABLES
  2
AcDbRasterVariables
  3
ISM
 90
        0
 91
        0
280
     0
281
     0
  0
CLASS
  1
IMAGEDEF
  2
AcDbRasterImageDef
  3
ISM
 90
        0
 91
        0
280
     0
281
     0
  0
CLASS
  1
IMAGEDEF_REACTOR
  2
AcDbRasterImageDefReactor
  3
ISM
 90
        1
 91
        0
280
     0
281
     0
  0
CLASS
  1
IDBUFFER
  2
AcDbIdBuffer
  3
ObjectDBX Classes
 90
        0
 91
        0
280
     0
281
     0
  0
CLASS
  1
SPATIAL_FILTER
  2
AcDbSpatialFilter
  3
ObjectDBX Classes
 90
        0
 91
        0
280
     0
281
     0
  0
CLASS
  1
SORTENTSTABLE
  2
AcDbSortentsTable
  3
ObjectDBX Classes
 90
        0
 91
        1
280
     0
281
     0
  0
CLASS
  1
LAYER_INDEX
  2
AcDbLayerIndex
  3
ObjectDBX Classes
 90
        0
 91
        0
280
     0
281
     0
  0
CLASS
  1
SPATIAL_INDEX
  2
AcDbSpatialIndex
  3
ObjectDBX Classes
 90
        0
 91
        0
280
     0
281
     0
  0
CLASS
  1
OBJECT_PTR
  2
CAseDLPNTableRecord
  3
"ASE-LPNTableRecord"
 90
        0
 91
        0
280
     0
281
     0
  0
CLASS
  1
PLOTSETTINGS
  2
AcDbPlotSettings
  3
ObjectDBX Classes
 90
        0
 91
        0
280
     0
281
     0
  0
CLASS
  1
ACDBDICTIONARYWDFLT
  2
AcDbDictionaryWithDefault
  3
ObjectDBX Classes
 90
        0
 91
        1
280
     0
281
     0
  0
CLASS
  1
WIPEOUT
  2
AcDbWipeout
  3
WipeOut|Product Desc: Object Enabler for WipeOut entity | Company: Autodesk, Inc. | WEB Address: www.autodesk.com
 90
     2175
 91
        0
280
     0
281
     1
  0
CLASS
  1
WIPEOUTVARIABLES
  2
AcDbWipeoutVariables
  3
"WipeOut|Product Desc:     WipeOut Dbx Application|Company:          Autodesk, Inc.|WEB Address:      www.autodesk.com"
 90
        0
 91
        0
280
     0
281
     0
  0
CLASS
  1
RTEXT
  2
RText
  3
RText|AutoCAD Express Tool|expresstools@autodesk.com
 90
        0
 91
        0
280
     0
281
     1
  0
CLASS
  1
ARCALIGNEDTEXT
  2
AcDbArcAlignedText
  3
ATEXT|AutoCAD Express Tool|expresstools@autodesk.com
 90
        0
 91
        0
280
     0
281
     1
  0
CLASS
  1
MATERIAL
  2
AcDbMaterial
  3
ObjectDBX Classes
 90
     1153
 91
        3
280
     0
281
     0
  0
CLASS
  1
VISUALSTYLE
  2
AcDbVisualStyle
  3
ObjectDBX Classes
 90
     4095
 91
       24
280
     0
281
     0
  0
CLASS
  1
TABLESTYLE
  2
AcDbTableStyle
  3
ObjectDBX Classes
 90
     4095
 91
        1
280
     0
281
     0
  0
CLASS
  1
SCALE
  2
AcDbScale
  3
ObjectDBX Classes
 90
     1153
 91
       17
280
     0
281
     0
  0
CLASS
  1
MLEADERSTYLE
  2
AcDbMLeaderStyle
  3
ACDB_MLEADERSTYLE_CLASS
 90
     4095
 91
        1
280
     0
281
     0
  0
CLASS
  1
ACDBSECTIONVIEWSTYLE
  2
AcDbSectionViewStyle
  3
ObjectDBX Classes
 90
     1025
 91
        1
280
     0
281
     0
  0
CLASS
  1
ACDBDETAILVIEWSTYLE
  2
AcDbDetailViewStyle
  3
ObjectDBX Classes
 90
     1025
 91
        1
280
     0
281
     0
  0
CLASS
  1
CELLSTYLEMAP
  2
AcDbCellStyleMap
  3
ObjectDBX Classes
 90
     1152
 91
        6
280
     0
281
     0
  0
ENDSEC
  0
SECTION
  2
TABLES
  0
TABLE
  2
VPORT
  5
7
330
0
100
AcDbSymbolTable
 70
     1
  0
VPORT
  5
15
330
7
100
AcDbSymbolTableRecord
100
AcDbViewportTableRecord
  2
*ACTIVE
 70
     0
 10
0.0
 20
0.0
 11
1.0
 21
1.0
 12
-748.1173089598178
 22
-2514.946028443019
 13
0.0
 23
0.0
 14
1.0
 24
1.0
 15
0.0
 25
0.0
 16
0.0
 26
0.0
 36
1.0
 17
0.0
 27
0.0
 37
0.0
 40
3004.968163015343
 41
2.288702928870292
 42
50.0
 43
0.0
 44
0.0
 50
0.0
 51
0.0
 71
     0
 72
   100
 73
     1
 74
     1
 75
     0
 76
     0
 77
     0
 78
     0
281
     0
 65
     1
110
0.0
120
0.0
130
0.0
111
1.0
121
0.0
131
0.0
112
0.0
122
1.0
132
0.0
 79
     0
146
0.0
348
338
 60
     3
 61
     5
292
     1
282
     1
141
0.0
142
0.0
 63
   250
421
  3355443
1001
ACAD_NAV_VCDISPLAY
1070
     3
  0
ENDTAB
  0
TABLE
  2
LTYPE
  5
4
330
0
100
AcDbSymbolTable
 70
     3
  0
LTYPE
  5
11
330
4
100
AcDbSymbolTableRecord
100
AcDbLinetypeTableRecord
  2
BYBLOCK
 70
     0
  3

 72
    65
 73
     0
 40
0.0
  0
LTYPE
  5
12
330
4
100
AcDbSymbolTableRecord
100
AcDbLinetypeTableRecord
  2
BYLAYER
 70
     0
  3

 72
    65
 73
     0
 40
0.0
  0
LTYPE
  5
13
330
4
100
AcDbSymbolTableRecord
100
AcDbLinetypeTableRecord
  2
CONTINUOUS
 70
     0
  3
Solid line
 72
    65
 73
     0
 40
0.0
  0
LTYPE
  5
1E
330
4
100
AcDbSymbolTableRecord
100
AcDbLinetypeTableRecord
  2
STANDARD
 70
     0
  3

 72
    65
 73
     0
 40
0.0
  0
ENDTAB
  0
TABLE
  2
LAYER
  5
2
102
{ACAD_XDICTIONARY
360
372
102
}
330
0
100
AcDbSymbolTable
 70
     4
  0
LAYER
  5
14
102
{ACAD_XDICTIONARY
360
65A
102
}
330
2
100
AcDbSymbolTableRecord
100
AcDbLayerTableRecord
  2
0
 70
     0
 62
     7
  6
CONTINUOUS
370
    -3
390
318
347
32A
  0
LAYER
  5
1D
102
{ACAD_XDICTIONARY
360
65C
102
}
330
2
100
AcDbSymbolTableRecord
100
AcDbLayerTableRecord
  2
BEMA_UNG
 70
     0
 62
   171
  6
CONTINUOUS
370
    -3
390
318
347
32A
  0
LAYER
  5
36D
102
{ACAD_XDICTIONARY
360
65E
102
}
330
2
100
AcDbSymbolTableRecord
100
AcDbLayerTableRecord
  2
HEWI
 70
     0
 62
     7
  6
CONTINUOUS
370
     9
390
318
347
32A
1001
AcAecLayerStandard
1000

1000

1001
AcCmTransparency
1071
        0
  0
LAYER
  5
554
330
2
100
AcDbSymbolTableRecord
100
AcDbLayerTableRecord
  2
Defpoints
 70
     0
 62
     7
  6
CONTINUOUS
290
     0
370
    -3
390
318
347
32A
  0
ENDTAB
  0
TABLE
  2
STYLE
  5
3
330
0
100
AcDbSymbolTable
 70
     1
  0
STYLE
  5
17
330
3
100
AcDbSymbolTableRecord
100
AcDbTextStyleTableRecord
  2
STANDARD
 70
     0
 40
0.0
 41
1.0
 50
0.0
 71
     0
 42
0.0
  3
txt
  4

  0
ENDTAB
  0
TABLE
  2
VIEW
  5
5
330
0
100
AcDbSymbolTable
 70
     0
  0
ENDTAB
  0
TABLE
  2
UCS
  5
6
330
0
100
AcDbSymbolTable
 70
     0
  0
ENDTAB
  0
TABLE
  2
APPID
  5
8
330
0
100
AcDbSymbolTable
 70
     6
  0
APPID
  5
16
330
8
100
AcDbSymbolTableRecord
100
AcDbRegAppTableRecord
  2
ACAD
 70
     0
  0
APPID
  5
36E
330
8
100
AcDbSymbolTableRecord
100
AcDbRegAppTableRecord
  2
ACAD_NAV_VCDISPLAY
 70
     0
  0
APPID
  5
36F
330
8
100
AcDbSymbolTableRecord
100
AcDbRegAppTableRecord
  2
AcAecLayerStandard
 70
     0
  0
APPID
  5
370
330
8
100
AcDbSymbolTableRecord
100
AcDbRegAppTableRecord
  2
AcCmTransparency
 70
     0
  0
APPID
  5
371
330
8
100
AcDbSymbolTableRecord
100
AcDbRegAppTableRecord
  2
ACAD_PSEXT
 70
     0
  0
APPID
  5
484
330
8
100
AcDbSymbolTableRecord
100
AcDbRegAppTableRecord
  2
ACAD_EXEMPT_FROM_CAD_STANDARDS
 70
     0
  0
ENDTAB
  0
TABLE
  2
DIMSTYLE
  5
9
330
0
100
AcDbSymbolTable
 70
     2
100
AcDbDimStyleTable
 71
     1
340
18
  0
DIMSTYLE
105
18
330
9
100
AcDbSymbolTableRecord
100
AcDbDimStyleTableRecord
  2
STANDARD
 70
     0
340
17
  0
ENDTAB
  0
TABLE
  2
BLOCK_RECORD
  5
1
330
0
100
AcDbSymbolTable
 70
     3
  0
BLOCK_RECORD
  5
A
330
1
100
AcDbSymbolTableRecord
100
AcDbBlockTableRecord
  2
*MODEL_SPACE
340
368
 70
     0
280
     1
281
     0
  0
BLOCK_RECORD
  5
B
330
1
100
AcDbSymbolTableRecord
100
AcDbBlockTableRecord
  2
*PAPER_SPACE
340
369
 70
     0
280
     1
281
     0
  0
BLOCK_RECORD
  5
555
330
1
100
AcDbSymbolTableRecord
100
AcDbBlockTableRecord
  2
*D0
340
0
 70
     0
280
     1
281
     0
  0
ENDTAB
  0
ENDSEC
  0
SECTION
  2
BLOCKS
  0
BLOCK
  5
D
330
A
100
AcDbEntity
  8
0
100
AcDbBlockBegin
  2
*MODEL_SPACE
 70
     0
 10
0.0
 20
0.0
 30
0.0
  3
*MODEL_SPACE
  1

  0
ENDBLK
  5
E
330
A
100
AcDbEntity
  8
0
100
AcDbBlockEnd
  0
BLOCK
  5
F
330
B
100
AcDbEntity
 67
     1
  8
0
100
AcDbBlockBegin
  2
*PAPER_SPACE
 70
     0
 10
0.0
 20
0.0
 30
0.0
  3
*PAPER_SPACE
  1

  0
ENDBLK
  5
10
330
B
100
AcDbEntity
 67
     1
  8
0
100
AcDbBlockEnd
  0
BLOCK
  5
556
330
555
100
AcDbEntity
  8
0
100
AcDbBlockBegin
  2
*D0
 70
     1
 10
0.0
 20
0.0
 30
0.0
  3
*D0
  1

  0
LINE
  5
558
330
555
100
AcDbEntity
  8
0
  6
Continuous
 62
     0
440
 16777216
370
    -2
100
AcDbLine
 10
-1571.884155084999
 20
-1674.538160844551
 30
0.0
 11
-1571.884155084999
 21
-1948.499022356918
 31
0.0
  0
LINE
  5
559
330
555
100
AcDbEntity
  8
0
  6
Continuous
 62
     0
440
 16777216
370
    -2
100
AcDbLine
 10
-871.8841930849997
 20
-1674.538160844551
 30
0.0
 11
-871.8841930849997
 21
-1948.499022356918
 31
0.0
  0
LINE
  5
55A
330
555
100
AcDbEntity
  8
0
  6
Continuous
 62
     0
440
 16777216
370
    -2
100
AcDbLine
 10
-1571.704155084999
 20
-1948.319022356918
 30
0.0
 11
-1222.514174084999
 21
-1948.319022356918
 31
0.0
  0
LINE
  5
55B
330
555
100
AcDbEntity
  8
0
  6
Continuous
 62
     0
440
 16777216
370
    -2
100
AcDbLine
 10
-872.0641930849996
 20
-1948.319022356918
 30
0.0
 11
-1221.254174084999
 21
-1948.319022356918
 31
0.0
  0
SOLID
  5
55C
330
555
100
AcDbEntity
  8
0
  6
Continuous
 62
     0
440
 16777216
100
AcDbTrace
 10
-1571.704155084999
 20
-1948.289022356918
 30
0.0
 11
-1571.704155084999
 21
-1948.349022356918
 31
0.0
 12
-1571.884155084999
 22
-1948.319022356918
 32
0.0
 13
-1571.884155084999
 23
-1948.319022356918
 33
0.0
  0
SOLID
  5
55D
330
555
100
AcDbEntity
  8
0
  6
Continuous
 62
     0
440
 16777216
100
AcDbTrace
 10
-872.0641930849996
 20
-1948.289022356918
 30
0.0
 11
-872.0641930849996
 21
-1948.349022356918
 31
0.0
 12
-871.8841930849997
 22
-1948.319022356918
 32
0.0
 13
-871.8841930849997
 23
-1948.319022356918
 33
0.0
  0
MTEXT
  5
55E
330
555
100
AcDbEntity
  8
0
  6
Continuous
 62
     0
440
 16777216
100
AcDbMText
 10
-1221.884174084999
 20
-1948.319022356918
 30
0.0
 40
0.18
 41
0.0
 46
0.0
 71
     5
 72
     1
  1
\A1;700.0000
 73
     1
 44
1.0
  0
POINT
  5
55F
330
555
100
AcDbEntity
  8
Defpoints
  6
Continuous
 62
     0
440
 16777216
100
AcDbPoint
 10
-1571.884155084999
 20
-1674.475660844551
 30
0.0
  0
POINT
  5
560
330
555
100
AcDbEntity
  8
Defpoints
  6
Continuous
 62
     0
440
 16777216
100
AcDbPoint
 10
-871.8841930849997
 20
-1674.475660844551
 30
0.0
  0
POINT
  5
561
330
555
100
AcDbEntity
  8
Defpoints
  6
Continuous
 62
     0
440
 16777216
100
AcDbPoint
 10
-871.8841930849997
 20
-1948.319022356918
 30
0.0
  0
ENDBLK
  5
557
330
555
100
AcDbEntity
  8
0
100
AcDbBlockEnd
  0
ENDSEC
  0
SECTION
  2
ENTITIES
  0
LINE
  5
1F
330
A
100
AcDbEntity
  8
HEWI
  6
STANDARD
 62
     7
100
AcDbLine
 10
-1797.273161499999
 20
-2215.448180157238
 30
0.0
 11
-1792.7871725
 21
-2215.448180157238
 31
0.0
  0
LINE
  5
20
330
A
100
AcDbEntity
  8
HEWI
  6
STANDARD
 62
     7
100
AcDbLine
 10
-1837.7871535
 20
-2215.448180157238
 30
0.0
 11
-1830.9741805
 21
-2215.448180157238
 31
0.0
  0
LINE
  5
21
330
A
100
AcDbEntity
  8
HEWI
  6
STANDARD
 62
     7
100
AcDbLine
 10
-1837.7871535
 20
-2170.448180157238
 30
0.0
 11
-1792.7871725
 21
-2170.448180157238
 31
0.0
  0
LINE
  5
22
330
A
100
AcDbEntity
  8
HEWI
  6
STANDARD
 62
     7
100
AcDbLine
 10
-1830.974180499999
 20
-3048.908139157238
 30
0.0
 11
-1797.2741725
 21
-3048.908139157238
 31
0.0
  0
LINE
  5
23
330
A
100
AcDbEntity
  8
HEWI
  6
STANDARD
 62
     7
100
AcDbLine
 10
-1830.661336352067
 20
-3048.908139157238
 30
0.0
 11
-1817.003346352067
 21
-3048.908139157238
 31
0.0
  0
LINE
  5
24
330
A
100
AcDbEntity
  8
HEWI
  6
STANDARD
 62
     7
100
AcDbLine
 10
-1852.8311755
 20
-2167.108183157238
 30
0.0
 11
-1777.8311755
 21
-2167.108183157238
 31
0.0
  0
LINE
  5
25
330
A
100
AcDbEntity
  8
HEWI
  6
STANDARD
 62
     7
100
AcDbLine
 10
-1830.675336352067
 20
-3051.908141157238
 30
0.0
 11
-1797.575341352067
 21
-3051.908141157238
 31
0.0
  0
LINE
  5
27
330
A
100
AcDbEntity
  8
HEWI
  6
STANDARD
 62
     7
100
AcDbLine
 10
-1852.8311755
 20
-2151.908141157238
 30
0.0
 11
-1777.8311755
 21
-2151.908141157238
 31
0.0
  0
LINE
  5
28
330
A
100
AcDbEntity
  8
HEWI
  6
STANDARD
 62
     7
100
AcDbLine
 10
-1837.7871535
 20
-2215.448180157238
 30
0.0
 11
-1837.7871535
 21
-2170.448180157238
 31
0.0
  0
LINE
  5
29
330
A
100
AcDbEntity
  8
HEWI
  6
STANDARD
 62
     7
100
AcDbLine
 10
-1792.7871725
 20
-2215.448180157238
 30
0.0
 11
-1792.7871725
 21
-2170.448180157238
 31
0.0
  0
LINE
  5
2A
330
A
100
AcDbEntity
  8
HEWI
  6
STANDARD
 62
     7
100
AcDbLine
 10
-1830.974180499999
 20
-3048.908139157238
 30
0.0
 11
-1830.9741805
 21
-2215.448180157238
 31
0.0
  0
LINE
  5
2B
330
A
100
AcDbEntity
  8
HEWI
  6
STANDARD
 62
     7
100
AcDbLine
 10
-1797.2741725
 20
-3048.908139157238
 30
0.0
 11
-1797.2741725
 21
-2215.447111157237
 31
0.0
  0
LINE
  5
2C
330
A
100
AcDbEntity
  8
HEWI
  6
STANDARD
 62
     7
100
AcDbLine
 10
-1852.8311755
 20
-2167.108183157238
 30
0.0
 11
-1852.8311755
 21
-2151.908141157238
 31
0.0
  0
LINE
  5
2D
330
A
100
AcDbEntity
  8
HEWI
  6
STANDARD
 62
     7
100
AcDbLine
 10
-1838.3311675
 20
-2215.408125157237
 30
0.0
 11
-1838.3311675
 21
-2167.108183157238
 31
0.0
  0
LINE
  5
2E
330
A
100
AcDbEntity
  8
HEWI
  6
STANDARD
 62
     7
100
AcDbLine
 10
-1777.8311755
 20
-2213.904143157238
 30
0.0
 11
-1777.8311755
 21
-2151.908141157238
 31
0.0
  0
LINE
  5
2F
330
A
100
AcDbEntity
  8
HEWI
  6
STANDARD
 62
     7
100
AcDbLine
 10
-1792.3311645
 20
-2215.408125157237
 30
0.0
 11
-1792.3311645
 21
-2167.108183157238
 31
0.0
  0
LINE
  5
30
330
A
100
AcDbEntity
  8
HEWI
  6
STANDARD
 62
     7
100
AcDbLine
 10
-1827.2731615
 20
-2170.448180157238
 30
0.0
 11
-1827.2731615
 21
-2168.108168157238
 31
0.0
  0
LINE
  5
31
330
A
100
AcDbEntity
  8
HEWI
  6
STANDARD
 62
     7
100
AcDbLine
 10
-1802.7731535
 20
-2170.448180157238
 30
0.0
 11
-1802.7731535
 21
-2168.108168157238
 31
0.0
  0
LINE
  5
32
330
A
100
AcDbEntity
  8
HEWI
  6
STANDARD
 62
     7
100
AcDbLine
 10
-1829.0561515
 20
-2214.091139157238
 30
0.0
 11
-1828.7161855
 21
-2213.751173157238
 31
0.0
  0
LINE
  5
33
330
A
100
AcDbEntity
  8
HEWI
  6
STANDARD
 62
     7
100
AcDbLine
 10
-1830.4541615
 20
-2215.106154157238
 30
0.0
 11
-1829.9571825
 21
-2214.609175157238
 31
0.0
  0
LINE
  5
34
330
A
100
AcDbEntity
  8
HEWI
  6
STANDARD
 62
     7
100
AcDbLine
 10
-1778.4091595
 20
-2215.079146157238
 30
0.0
 11
-1778.1481575
 21
-2214.818144157238
 31
0.0
  0
LINE
  5
35
330
A
100
AcDbEntity
  8
HEWI
  6
STANDARD
 62
     7
100
AcDbLine
 10
-1830.861340352067
 20
-3049.108143157238
 30
0.0
 11
-1830.661336352067
 21
-3048.908139157238
 31
0.0
  0
LINE
  5
36
330
A
100
AcDbEntity
  8
HEWI
  6
STANDARD
 62
     7
100
AcDbLine
 10
-1797.575341352067
 20
-3051.908141157238
 30
0.0
 11
-1797.375337352067
 21
-3051.708136157238
 31
0.0
  0
LINE
  5
37
330
A
100
AcDbEntity
  8
HEWI
  6
STANDARD
 62
     7
100
AcDbLine
 10
-1797.588330352067
 20
-3048.908139157238
 30
0.0
 11
-1797.388345352067
 21
-3049.108143157238
 31
0.0
  0
LINE
  5
38
330
A
100
AcDbEntity
  8
HEWI
  6
STANDARD
 62
     7
100
AcDbLine
 10
-1797.5291655
 20
-2215.192137157238
 30
0.0
 11
-1797.273161499999
 21
-2215.448180157238
 31
0.0
  0
LINE
  5
39
330
A
100
AcDbEntity
  8
HEWI
  6
STANDARD
 62
     7
100
AcDbLine
 10
-1852.6201845
 20
-2166.722136157238
 30
0.0
 11
-1852.5331715
 21
-2166.809187157238
 31
0.0
  0
LINE
  5
3A
330
A
100
AcDbEntity
  8
HEWI
  6
STANDARD
 62
     7
100
AcDbLine
 10
-1778.2161735
 20
-2166.896162157238
 30
0.0
 11
-1778.1291605
 21
-2166.809187157238
 31
0.0
  0
LINE
  5
3B
330
A
100
AcDbEntity
  8
HEWI
  6
STANDARD
 62
     7
100
AcDbLine
 10
-1852.6201845
 20
-2166.722136157238
 30
0.0
 11
-1852.5381685
 21
-2166.815138157238
 31
0.0
  0
LINE
  5
3C
330
A
100
AcDbEntity
  8
HEWI
  6
STANDARD
 62
     7
100
AcDbLine
 10
-1778.2161735
 20
-2166.896162157238
 30
0.0
 11
-1778.1241635
 21
-2166.815138157238
 31
0.0
  0
LINE
  5
3D
330
A
100
AcDbEntity
  8
HEWI
  6
STANDARD
 62
     7
100
AcDbLine
 10
-1778.1715995
 20
-2166.851607157238
 30
0.0
 11
-1778.1241635
 21
-2166.815138157238
 31
0.0
  0
LINE
  5
3E
330
A
100
AcDbEntity
  8
HEWI
  6
STANDARD
 62
     7
100
AcDbLine
 10
-1852.5745985
 20
-2166.767683157238
 30
0.0
 11
-1852.5381685
 21
-2166.815138157238
 31
0.0
  0
LINE
  5
3F
330
A
100
AcDbEntity
  8
HEWI
  6
STANDARD
 62
     7
100
AcDbLine
 10
-1826.6121505
 20
-2212.434187157238
 30
0.0
 11
-1824.9541685
 21
-2211.273146157238
 31
0.0
  0
LINE
  5
40
330
A
100
AcDbEntity
  8
HEWI
  6
STANDARD
 62
     7
100
AcDbLine
 10
-1822.7341675
 20
-2210.184126157238
 30
0.0
 11
-1822.5481635
 21
-2210.054121157238
 31
0.0
  0
LINE
  5
41
330
A
100
AcDbEntity
  8
HEWI
  6
STANDARD
 62
     7
100
AcDbLine
 10
-1778.3311675
 20
-2166.974135157238
 30
0.0
 11
-1778.2161735
 21
-2166.896162157238
 31
0.0
  0
LINE
  5
42
330
A
100
AcDbEntity
  8
HEWI
  6
STANDARD
 62
     7
100
AcDbLine
 10
-1852.6971655
 20
-2166.608153157238
 30
0.0
 11
-1852.6201845
 21
-2166.722136157238
 31
0.0
  0
LINE
  5
43
330
A
100
AcDbEntity
  8
HEWI
  6
STANDARD
 62
     7
100
AcDbLine
 10
-1828.7161855
 20
-2213.751173157238
 30
0.0
 11
-1827.0311575
 21
-2212.629195157238
 31
0.0
  0
LINE
  5
44
330
A
100
AcDbEntity
  8
HEWI
  6
STANDARD
 62
     7
100
AcDbLine
 10
-1778.4271645
 20
-2167.023192157238
 30
0.0
 11
-1778.3351735
 21
-2166.967192157238
 31
0.0
  0
LINE
  5
45
330
A
100
AcDbEntity
  8
HEWI
  6
STANDARD
 62
     7
100
AcDbLine
 10
-1852.7461835
 20
-2166.511183157238
 30
0.0
 11
-1852.6901845
 21
-2166.604185157238
 31
0.0
  0
LINE
  5
46
330
A
100
AcDbEntity
  8
HEWI
  6
STANDARD
 62
     7
100
AcDbLine
 10
-1778.7261605
 20
-2215.268126157238
 30
0.0
 11
-1778.4091595
 21
-2215.079146157238
 31
0.0
  0
LINE
  5
47
330
A
100
AcDbEntity
  8
HEWI
  6
STANDARD
 62
     7
100
AcDbLine
 10
-1829.9571825
 20
-2214.609175157238
 30
0.0
 11
-1829.0561515
 21
-2214.091139157238
 31
0.0
  0
LINE
  5
48
330
A
100
AcDbEntity
  8
HEWI
  6
STANDARD
 62
     7
100
AcDbLine
 10
-1778.4271645
 20
-2167.023192157238
 30
0.0
 11
-1778.3311675
 21
-2166.974135157238
 31
0.0
  0
LINE
  5
49
330
A
100
AcDbEntity
  8
HEWI
  6
STANDARD
 62
     7
100
AcDbLine
 10
-1852.7461835
 20
-2166.511183157238
 30
0.0
 11
-1852.6971655
 21
-2166.608153157238
 31
0.0
  0
LINE
  5
4A
330
A
100
AcDbEntity
  8
HEWI
  6
STANDARD
 62
     7
100
AcDbLine
 10
-1824.9541685
 20
-2211.273146157238
 30
0.0
 11
-1822.7341675
 21
-2210.184126157238
 31
0.0
  0
LINE
  5
4B
330
A
100
AcDbEntity
  8
HEWI
  6
STANDARD
 62
     7
100
AcDbLine
 10
-1827.0311575
 20
-2212.629195157238
 30
0.0
 11
-1826.6121505
 21
-2212.434187157238
 31
0.0
  0
LINE
  5
4C
330
A
100
AcDbEntity
  8
HEWI
  6
STANDARD
 62
     7
100
AcDbLine
 10
-1778.3798625
 20
-2166.994353157237
 30
0.0
 11
-1778.3311675
 21
-2166.974135157238
 31
0.0
  0
LINE
  5
4D
330
A
100
AcDbEntity
  8
HEWI
  6
STANDARD
 62
     7
100
AcDbLine
 10
-1852.7177645
 20
-2166.558333157238
 30
0.0
 11
-1852.6971655
 21
-2166.608153157238
 31
0.0
  0
LINE
  5
4E
330
A
100
AcDbEntity
  8
HEWI
  6
STANDARD
 62
     7
100
AcDbLine
 10
-1778.572161499999
 20
-2167.074156157238
 30
0.0
 11
-1778.4271645
 21
-2167.023192157238
 31
0.0
  0
LINE
  5
4F
330
A
100
AcDbEntity
  8
HEWI
  6
STANDARD
 62
     7
100
AcDbLine
 10
-1852.7971485
 20
-2166.366148157238
 30
0.0
 11
-1852.7461835
 21
-2166.511183157238
 31
0.0
  0
LINE
  5
50
330
A
100
AcDbEntity
  8
HEWI
  6
STANDARD
 62
     7
100
AcDbLine
 10
-1830.7171845
 20
-2215.192137157238
 30
0.0
 11
-1830.4541615
 21
-2215.106154157238
 31
0.0
  0
LINE
  5
51
330
A
100
AcDbEntity
  8
HEWI
  6
STANDARD
 62
     7
100
AcDbLine
 10
-1778.6631605
 20
-2167.094145157237
 30
0.0
 11
-1778.5741645
 21
-2167.067137157237
 31
0.0
  0
LINE
  5
52
330
A
100
AcDbEntity
  8
HEWI
  6
STANDARD
 62
     7
100
AcDbLine
 10
-1852.8171755
 20
-2166.275130157238
 30
0.0
 11
-1852.7901675
 21
-2166.364165157238
 31
0.0
  0
LINE
  5
53
330
A
100
AcDbEntity
  8
HEWI
  6
STANDARD
 62
     7
100
AcDbLine
 10
-1779.0801645
 20
-2215.375166157238
 30
0.0
 11
-1778.7261605
 21
-2215.268126157238
 31
0.0
  0
LINE
  5
54
330
A
100
AcDbEntity
  8
HEWI
  6
STANDARD
 62
     7
100
AcDbLine
 10
-1852.8171755
 20
-2166.275130157238
 30
0.0
 11
-1852.7971485
 21
-2166.366148157238
 31
0.0
  0
LINE
  5
55
330
A
100
AcDbEntity
  8
HEWI
  6
STANDARD
 62
     7
100
AcDbLine
 10
-1778.6631605
 20
-2167.094145157237
 30
0.0
 11
-1778.572161499999
 21
-2167.074156157238
 31
0.0
  0
LINE
  5
56
330
A
100
AcDbEntity
  8
HEWI
  6
STANDARD
 62
     7
100
AcDbLine
 10
-1826.5961675
 20
-2167.157164157238
 30
0.0
 11
-1826.2931655
 21
-2167.108183157238
 31
0.0
  0
LINE
  5
57
330
A
100
AcDbEntity
  8
HEWI
  6
STANDARD
 62
     7
100
AcDbLine
 10
-1802.8211805
 20
-2167.799178157238
 30
0.0
 11
-1802.7731535
 21
-2168.108168157238
 31
0.0
  0
LINE
  5
58
330
A
100
AcDbEntity
  8
HEWI
  6
STANDARD
 62
     7
100
AcDbLine
 10
-1852.8030225
 20
-2166.321822157238
 30
0.0
 11
-1852.7971485
 21
-2166.366148157238
 31
0.0
  0
LINE
  5
59
330
A
100
AcDbEntity
  8
HEWI
  6
STANDARD
 62
     7
100
AcDbLine
 10
-1778.6163735
 20
-2167.079954157238
 30
0.0
 11
-1778.572161499999
 21
-2167.074156157238
 31
0.0
  0
LINE
  5
5A
330
A
100
AcDbEntity
  8
HEWI
  6
STANDARD
 62
     7
100
AcDbLine
 10
-1852.8311755
 20
-2213.904143157238
 30
0.0
 11
-1852.8101565
 21
-2214.148131157237
 31
0.0
  0
LINE
  5
5B
330
A
100
AcDbEntity
  8
HEWI
  6
STANDARD
 62
     7
100
AcDbLine
 10
-1852.8311755
 20
-2166.108122157238
 30
0.0
 11
-1852.8171755
 21
-2166.275130157238
 31
0.0
  0
LINE
  5
5C
330
A
100
AcDbEntity
  8
HEWI
  6
STANDARD
 62
     7
100
AcDbLine
 10
-1779.3311715
 20
-2215.396147157238
 30
0.0
 11
-1779.0801645
 21
-2215.375166157238
 31
0.0
  0
LINE
  5
5D
330
A
100
AcDbEntity
  8
HEWI
  6
STANDARD
 62
     7
100
AcDbLine
 10
-1778.8311605
 20
-2167.108183157238
 30
0.0
 11
-1778.6631605
 21
-2167.094145157237
 31
0.0
  0
LINE
  5
5E
330
A
100
AcDbEntity
  8
HEWI
  6
STANDARD
 62
     7
100
AcDbLine
 10
-1797.388345352067
 20
-3049.108143157238
 30
0.0
 11
-1797.375337352067
 21
-3051.708136157238
 31
0.0
  0
LINE
  5
5F
330
A
100
AcDbEntity
  8
HEWI
  6
STANDARD
 62
     7
100
AcDbLine
 10
-1792.3311645
 20
-2215.408125157237
 30
0.0
 11
-1779.3311715
 21
-2215.396147157238
 31
0.0
  0
LINE
  5
60
330
A
100
AcDbEntity
  8
HEWI
  6
STANDARD
 62
     7
100
AcDbLine
 10
-1830.875340352067
 20
-3051.708136157238
 30
0.0
 11
-1830.861340352067
 21
-3049.108143157238
 31
0.0
  0
LINE
  5
61
330
A
100
AcDbEntity
  8
HEWI
  6
STANDARD
 62
     7
100
AcDbLine
 10
-1777.8451755
 20
-2166.275130157238
 30
0.0
 11
-1777.8311755
 21
-2166.108122157238
 31
0.0
  0
LINE
  5
62
330
A
100
AcDbEntity
  8
HEWI
  6
STANDARD
 62
     7
100
AcDbLine
 10
-1851.9981605
 20
-2167.094145157237
 30
0.0
 11
-1851.8311525
 21
-2167.108183157238
 31
0.0
  0
LINE
  5
63
330
A
100
AcDbEntity
  8
HEWI
  6
STANDARD
 62
     7
100
AcDbLine
 10
-1777.8521755
 20
-2214.148131157237
 30
0.0
 11
-1777.8311755
 21
-2213.904143157238
 31
0.0
  0
LINE
  5
64
330
A
100
AcDbEntity
  8
HEWI
  6
STANDARD
 62
     7
100
AcDbLine
 10
-1827.2731615
 20
-2168.108168157238
 30
0.0
 11
-1827.2251725
 21
-2167.799178157238
 31
0.0
  0
LINE
  5
65
330
A
100
AcDbEntity
  8
HEWI
  6
STANDARD
 62
     7
100
AcDbLine
 10
-1803.7531495
 20
-2167.108183157238
 30
0.0
 11
-1803.4501485
 21
-2167.157164157238
 31
0.0
  0
LINE
  5
66
330
A
100
AcDbEntity
  8
HEWI
  6
STANDARD
 62
     7
100
AcDbLine
 10
-1852.0901705
 20
-2167.074156157238
 30
0.0
 11
-1851.9981605
 21
-2167.094145157237
 31
0.0
  0
LINE
  5
67
330
A
100
AcDbEntity
  8
HEWI
  6
STANDARD
 62
     7
100
AcDbLine
 10
-1777.8651645
 20
-2166.366148157238
 30
0.0
 11
-1777.8451755
 21
-2166.275130157238
 31
0.0
  0
LINE
  5
68
330
A
100
AcDbEntity
  8
HEWI
  6
STANDARD
 62
     7
100
AcDbLine
 10
-1777.9581665
 20
-2214.501143157237
 30
0.0
 11
-1777.8521755
 21
-2214.148131157237
 31
0.0
  0
LINE
  5
69
330
A
100
AcDbEntity
  8
HEWI
  6
STANDARD
 62
     7
100
AcDbLine
 10
-1851.9361715
 20
-2215.268126157238
 30
0.0
 11
-1851.5821675
 21
-2215.375166157238
 31
0.0
  0
LINE
  5
6A
330
A
100
AcDbEntity
  8
HEWI
  6
STANDARD
 62
     7
100
AcDbLine
 10
-1797.7921705
 20
-2215.106154157238
 30
0.0
 11
-1797.5291655
 21
-2215.192137157238
 31
0.0
  0
LINE
  5
6B
330
A
100
AcDbEntity
  8
HEWI
  6
STANDARD
 62
     7
100
AcDbLine
 10
-1777.9161665
 20
-2166.511183157238
 30
0.0
 11
-1777.8651645
 21
-2166.366148157238
 31
0.0
  0
LINE
  5
6C
330
A
100
AcDbEntity
  8
HEWI
  6
STANDARD
 62
     7
100
AcDbLine
 10
-1852.2341755
 20
-2167.023192157238
 30
0.0
 11
-1852.0901705
 21
-2167.074156157238
 31
0.0
  0
LINE
  5
6D
330
A
100
AcDbEntity
  8
HEWI
  6
STANDARD
 62
     7
100
AcDbLine
 10
-1801.6341615
 20
-2212.434187157238
 30
0.0
 11
-1801.2151555
 21
-2212.629195157238
 31
0.0
  0
LINE
  5
6E
330
A
100
AcDbEntity
  8
HEWI
  6
STANDARD
 62
     7
100
AcDbLine
 10
-1805.5131745
 20
-2210.184126157238
 30
0.0
 11
-1803.2921815
 21
-2211.273146157238
 31
0.0
  0
LINE
  5
6F
330
A
100
AcDbEntity
  8
HEWI
  6
STANDARD
 62
     7
100
AcDbLine
 10
-1777.9651665
 20
-2166.608153157238
 30
0.0
 11
-1777.9161665
 21
-2166.511183157238
 31
0.0
  0
LINE
  5
70
330
A
100
AcDbEntity
  8
HEWI
  6
STANDARD
 62
     7
100
AcDbLine
 10
-1852.3311835
 20
-2166.974135157238
 30
0.0
 11
-1852.2341755
 21
-2167.023192157238
 31
0.0
  0
LINE
  5
71
330
A
100
AcDbEntity
  8
HEWI
  6
STANDARD
 62
     7
100
AcDbLine
 10
-1799.1911725
 20
-2214.091139157238
 30
0.0
 11
-1798.2891685
 21
-2214.609175157238
 31
0.0
  0
LINE
  5
72
330
A
100
AcDbEntity
  8
HEWI
  6
STANDARD
 62
     7
100
AcDbLine
 10
-1778.1481575
 20
-2214.818144157238
 30
0.0
 11
-1777.9581665
 21
-2214.501143157237
 31
0.0
  0
LINE
  5
73
330
A
100
AcDbEntity
  8
HEWI
  6
STANDARD
 62
     7
100
AcDbLine
 10
-1801.2151555
 20
-2212.629195157238
 30
0.0
 11
-1799.5311765
 21
-2213.751173157238
 31
0.0
  0
LINE
  5
74
330
A
100
AcDbEntity
  8
HEWI
  6
STANDARD
 62
     7
100
AcDbLine
 10
-1778.0421665
 20
-2166.722136157238
 30
0.0
 11
-1777.9651665
 21
-2166.608153157238
 31
0.0
  0
LINE
  5
75
330
A
100
AcDbEntity
  8
HEWI
  6
STANDARD
 62
     7
100
AcDbLine
 10
-1852.4451665
 20
-2166.896162157238
 30
0.0
 11
-1852.3311835
 21
-2166.974135157238
 31
0.0
  0
LINE
  5
76
330
A
100
AcDbEntity
  8
HEWI
  6
STANDARD
 62
     7
100
AcDbLine
 10
-1803.2921815
 20
-2211.273146157238
 30
0.0
 11
-1801.6341615
 21
-2212.434187157238
 31
0.0
  0
LINE
  5
77
330
A
100
AcDbEntity
  8
HEWI
  6
STANDARD
 62
     7
100
AcDbLine
 10
-1805.6981495
 20
-2210.054121157238
 30
0.0
 11
-1805.5131745
 21
-2210.184126157238
 31
0.0
  0
LINE
  5
78
330
A
100
AcDbEntity
  8
HEWI
  6
STANDARD
 62
     7
100
AcDbLine
 10
-1852.5381685
 20
-2166.815138157238
 30
0.0
 11
-1852.4451665
 21
-2166.896162157238
 31
0.0
  0
LINE
  5
79
330
A
100
AcDbEntity
  8
HEWI
  6
STANDARD
 62
     7
100
AcDbLine
 10
-1778.1241635
 20
-2166.815138157238
 30
0.0
 11
-1778.0421665
 21
-2166.722136157238
 31
0.0
  0
LINE
  5
7A
330
A
100
AcDbEntity
  8
HEWI
  6
STANDARD
 62
     7
100
AcDbLine
 10
-1799.5311765
 20
-2213.751173157238
 30
0.0
 11
-1799.1911725
 21
-2214.091139157238
 31
0.0
  0
LINE
  5
7B
330
A
100
AcDbEntity
  8
HEWI
  6
STANDARD
 62
     7
100
AcDbLine
 10
-1798.2891685
 20
-2214.609175157238
 30
0.0
 11
-1797.7921705
 21
-2215.106154157238
 31
0.0
  0
LINE
  5
7C
330
A
100
AcDbEntity
  8
HEWI
  6
STANDARD
 62
     7
100
AcDbLine
 10
-1830.875340352067
 20
-3051.708136157238
 30
0.0
 11
-1830.675336352067
 21
-3051.908141157238
 31
0.0
  0
ARC
  5
7D
330
A
100
AcDbEntity
  8
HEWI
  6
STANDARD
 62
     7
100
AcDbCircle
 10
-1803.7610475
 20
-2168.096119157238
 30
0.0
 40
0.987967
100
AcDbArc
 50
359.301222999997
 51
89.54194999999996
  0
ARC
  5
7E
330
A
100
AcDbEntity
  8
HEWI
  6
STANDARD
 62
     7
100
AcDbCircle
 10
-1814.1231565
 20
-2224.650740157238
 30
0.0
 40
16.853546
100
AcDbArc
 50
60.00693300000265
 51
119.9930669999972
  0
ARC
  5
7F
330
A
100
AcDbEntity
  8
HEWI
  6
STANDARD
 62
     7
100
AcDbCircle
 10
-1826.2853245
 20
-2168.096063157237
 30
0.0
 40
0.987911
100
AcDbArc
 50
90.45475399999999
 51
180.7020729999987
  0
LINE
  5
80
330
A
100
AcDbEntity
  8
HEWI
100
AcDbLine
 10
-1792.331173
 20
-1662.785302
 30
0.0
 11
-1779.331181
 21
-1662.785302
 31
0.0
  0
LINE
  5
81
330
A
100
AcDbEntity
  8
HEWI
100
AcDbLine
 10
-1837.787182
 20
-1662.785302
 30
0.0
 11
-1792.787182
 21
-1662.785302
 31
0.0
  0
LINE
  5
82
330
A
100
AcDbEntity
  8
HEWI
100
AcDbLine
 10
-1792.331173
 20
-1707.785302
 30
0.0
 11
-1779.331181
 21
-1707.785302
 31
0.0
  0
LINE
  5
83
330
A
100
AcDbEntity
  8
HEWI
100
AcDbLine
 10
-1807.831166
 20
-1707.785302
 30
0.0
 11
-1792.787182
 21
-1707.785302
 31
0.0
  0
LINE
  5
84
330
A
100
AcDbEntity
  8
HEWI
100
AcDbLine
 10
-1837.787182
 20
-1707.785302
 30
0.0
 11
-1822.831166
 21
-1707.785302
 31
0.0
  0
LINE
  5
85
330
A
100
AcDbEntity
  8
HEWI
100
AcDbLine
 10
-1842.881176
 20
-1707.785302
 30
0.0
 11
-1838.331158
 21
-1707.785302
 31
0.0
  0
LINE
  5
86
330
A
100
AcDbEntity
  8
HEWI
100
AcDbLine
 10
-1851.331189
 20
-1707.785302
 30
0.0
 11
-1848.281186
 21
-1707.785302
 31
0.0
  0
LINE
  5
87
330
A
100
AcDbEntity
  8
HEWI
100
AcDbLine
 10
-1851.831180999999
 20
-1627.185288
 30
0.0
 11
-1778.83117
 21
-1627.185288
 31
0.0
  0
LINE
  5
88
330
A
100
AcDbEntity
  8
HEWI
100
AcDbLine
 10
-1851.831180999999
 20
-1883.185311
 30
0.0
 11
-1778.83117
 21
-1883.185311
 31
0.0
  0
LINE
  5
89
330
A
100
AcDbEntity
  8
HEWI
100
AcDbLine
 10
-1792.787182
 20
-1685.18528
 30
0.0
 11
-1792.331173
 21
-1685.18528
 31
0.0
  0
LINE
  5
8A
330
A
100
AcDbEntity
  8
HEWI
100
AcDbLine
 10
-1838.331158
 20
-1685.18528
 30
0.0
 11
-1837.787182
 21
-1685.18528
 31
0.0
  0
LINE
  5
8B
330
A
100
AcDbEntity
  8
HEWI
100
AcDbLine
 10
-1837.787182
 20
-1707.785302
 30
0.0
 11
-1837.787182
 21
-1662.785302
 31
0.0
  0
LINE
  5
8C
330
A
100
AcDbEntity
  8
HEWI
100
AcDbLine
 10
-1792.787182
 20
-1707.785302
 30
0.0
 11
-1792.787182
 21
-1662.785302
 31
0.0
  0
LINE
  5
8D
330
A
100
AcDbEntity
  8
HEWI
100
AcDbLine
 10
-1852.831166
 20
-1664.285317
 30
0.0
 11
-1852.831166
 21
-1628.185311
 31
0.0
  0
LINE
  5
8E
330
A
100
AcDbEntity
  8
HEWI
100
AcDbLine
 10
-1852.831166
 20
-1704.702263
 30
0.0
 11
-1852.831166
 21
-1685.18528
 31
0.0
  0
LINE
  5
8F
330
A
100
AcDbEntity
  8
HEWI
100
AcDbLine
 10
-1852.831166
 20
-1704.935265
 30
0.0
 11
-1852.831166
 21
-1704.831276
 31
0.0
  0
LINE
  5
90
330
A
100
AcDbEntity
  8
HEWI
100
AcDbLine
 10
-1852.831166
 20
-1882.185326
 30
0.0
 11
-1852.831166
 21
-1664.285317
 31
0.0
  0
LINE
  5
91
330
A
100
AcDbEntity
  8
HEWI
100
AcDbLine
 10
-1838.331158
 20
-1707.785302
 30
0.0
 11
-1838.331158
 21
-1662.785302
 31
0.0
  0
LINE
  5
92
330
A
100
AcDbEntity
  8
HEWI
100
AcDbLine
 10
-1777.831185
 20
-1882.185326
 30
0.0
 11
-1777.831185
 21
-1628.185311
 31
0.0
  0
LINE
  5
93
330
A
100
AcDbEntity
  8
HEWI
100
AcDbLine
 10
-1792.331173
 20
-1707.785302
 30
0.0
 11
-1792.331173
 21
-1662.785302
 31
0.0
  0
LINE
  5
94
330
A
100
AcDbEntity
  8
HEWI
100
AcDbLine
 10
-1822.831166
 20
-1773.050700324865
 30
0.0
 11
-1822.831166
 21
-1700.374337
 31
0.0
  0
LINE
  5
95
330
A
100
AcDbEntity
  8
HEWI
100
AcDbLine
 10
-1807.831166
 20
-1773.050575878368
 30
0.0
 11
-1807.831166
 21
-1700.872231
 31
0.0
  0
LINE
  5
96
330
A
100
AcDbEntity
  8
HEWI
100
AcDbLine
 10
-1801.634189999999
 20
-1696.535302
 30
0.0
 11
-1801.215184
 21
-1696.116295
 31
0.0
  0
LINE
  5
9A
330
A
100
AcDbEntity
  8
HEWI
100
AcDbLine
 10
-1803.837178
 20
-1673.377266
 30
0.0
 11
-1802.816174
 21
-1674.4553
 31
0.0
  0
LINE
  5
9B
330
A
100
AcDbEntity
  8
HEWI
100
AcDbLine
 10
-1852.620175
 20
-1882.800331
 30
0.0
 11
-1852.538159
 21
-1882.892266
 31
0.0
  0
LINE
  5
9C
330
A
100
AcDbEntity
  8
HEWI
100
AcDbLine
 10
-1778.216183
 20
-1882.974282
 30
0.0
 11
-1778.124173
 21
-1882.892266
 31
0.0
  0
LINE
  5
9D
330
A
100
AcDbEntity
  8
HEWI
100
AcDbLine
 10
-1778.124173
 20
-1627.478295
 30
0.0
 11
-1778.042176
 21
-1627.570305
 31
0.0
  0
LINE
  5
9E
330
A
100
AcDbEntity
  8
HEWI
100
AcDbLine
 10
-1852.538159
 20
-1627.478295
 30
0.0
 11
-1852.445157
 21
-1627.396317
 31
0.0
  0
LINE
  5
9F
330
A
100
AcDbEntity
  8
HEWI
100
AcDbLine
 10
-1778.27018
 20
-1663.224297
 30
0.0
 11
-1778.148167
 21
-1663.363304
 31
0.0
  0
LINE
  5
A0
330
A
100
AcDbEntity
  8
HEWI
100
AcDbLine
 10
-1778.409169
 20
-1707.4683
 30
0.0
 11
-1778.27018
 21
-1707.346305999999
 31
0.0
  0
LINE
  5
A1
330
A
100
AcDbEntity
  8
HEWI
100
AcDbLine
 10
-1852.514164
 20
-1707.207299
 30
0.0
 11
-1852.39217
 21
-1707.346305999999
 31
0.0
  0
LINE
  5
A2
330
A
100
AcDbEntity
  8
HEWI
100
AcDbLine
 10
-1852.39217
 20
-1663.224297
 30
0.0
 11
-1852.253163
 21
-1663.102303
 31
0.0
  0
LINE
  5
A8
330
A
100
AcDbEntity
  8
HEWI
100
AcDbLine
 10
-1805.698178
 20
-1699.878273
 30
0.0
 11
-1805.513165
 21
-1699.748268
 31
0.0
  0
LINE
  5
A9
330
A
100
AcDbEntity
  8
HEWI
100
AcDbLine
 10
-1801.159184
 20
-1674.535332
 30
0.0
 11
-1799.531167
 21
-1676.860314
 31
0.0
  0
LINE
  5
AA
330
A
100
AcDbEntity
  8
HEWI
100
AcDbLine
 10
-1805.513165
 20
-1699.748268
 30
0.0
 11
-1803.292172
 21
-1698.193322
 31
0.0
  0
LINE
  5
AB
330
A
100
AcDbEntity
  8
HEWI
100
AcDbLine
 10
-1801.215184
 20
-1674.454308
 30
0.0
 11
-1799.531167
 21
-1676.860314
 31
0.0
  0
LINE
  5
AC
330
A
100
AcDbEntity
  8
HEWI
100
AcDbLine
 10
-1804.595158
 20
-1699.105263
 30
0.0
 11
-1803.292172
 21
-1698.193322
 31
0.0
  0
LINE
  5
B2
330
A
100
AcDbEntity
  8
HEWI
100
AcDbLine
 10
-1801.215184
 20
-1674.454308
 30
0.0
 11
-1801.159184
 21
-1674.535332
 31
0.0
  0
LINE
  5
B3
330
A
100
AcDbEntity
  8
HEWI
100
AcDbLine
 10
-1806.169178
 20
-1699.308280999999
 30
0.0
 11
-1805.550168
 21
-1698.882332
 31
0.0
  0
LINE
  5
B4
330
A
100
AcDbEntity
  8
HEWI
100
AcDbLine
 10
-1852.445157
 20
-1627.396317
 30
0.0
 11
-1852.331173
 21
-1627.319298
 31
0.0
  0
LINE
  5
B5
330
A
100
AcDbEntity
  8
HEWI
100
AcDbLine
 10
-1852.630169
 20
-1707.035332
 30
0.0
 11
-1852.514164
 21
-1707.207299
 31
0.0
  0
LINE
  5
B6
330
A
100
AcDbEntity
  8
HEWI
100
AcDbLine
 10
-1852.253163
 20
-1663.102303
 30
0.0
 11
-1852.081158
 21
-1662.986298
 31
0.0
  0
LINE
  5
B7
330
A
100
AcDbEntity
  8
HEWI
100
AcDbLine
 10
-1778.148167
 20
-1663.363304
 30
0.0
 11
-1778.032181
 21
-1663.535309
 31
0.0
  0
LINE
  5
B8
330
A
100
AcDbEntity
  8
HEWI
100
AcDbLine
 10
-1778.581173
 20
-1707.584267
 30
0.0
 11
-1778.409169
 21
-1707.4683
 31
0.0
  0
LINE
  5
B9
330
A
100
AcDbEntity
  8
HEWI
100
AcDbLine
 10
-1778.331177
 20
-1883.051339
 30
0.0
 11
-1778.216183
 21
-1882.974282
 31
0.0
  0
LINE
  5
BA
330
A
100
AcDbEntity
  8
HEWI
100
AcDbLine
 10
-1778.042176
 20
-1627.570305
 30
0.0
 11
-1777.965176
 21
-1627.685318
 31
0.0
  0
LINE
  5
BB
330
A
100
AcDbEntity
  8
HEWI
100
AcDbLine
 10
-1852.697194
 20
-1882.68528
 30
0.0
 11
-1852.620175
 21
-1882.800331
 31
0.0
  0
LINE
  5
BF
330
A
100
AcDbEntity
  8
HEWI
100
AcDbLine
 10
-1806.808178
 20
-1699.704323
 30
0.0
 11
-1806.169178
 21
-1699.308280999999
 31
0.0
  0
LINE
  5
C4
330
A
100
AcDbEntity
  8
HEWI
100
AcDbLine
 10
-1807.463162
 20
-1700.072289
 30
0.0
 11
-1806.808178
 21
-1699.704323
 31
0.0
  0
LINE
  5
C6
330
A
100
AcDbEntity
  8
HEWI
100
AcDbLine
 10
-1778.032181
 20
-1663.535309
 30
0.0
 11
-1777.958176
 21
-1663.680306
 31
0.0
  0
LINE
  5
C7
330
A
100
AcDbEntity
  8
HEWI
100
AcDbLine
 10
-1852.081158
 20
-1662.986298
 30
0.0
 11
-1851.936162
 21
-1662.912292999999
 31
0.0
  0
LINE
  5
C8
330
A
100
AcDbEntity
  8
HEWI
100
AcDbLine
 10
-1778.72617
 20
-1707.658272
 30
0.0
 11
-1778.581173
 21
-1707.584267
 31
0.0
  0
LINE
  5
C9
330
A
100
AcDbEntity
  8
HEWI
100
AcDbLine
 10
-1852.704175
 20
-1706.890297
 30
0.0
 11
-1852.630169
 21
-1707.035332
 31
0.0
  0
LINE
  5
CA
330
A
100
AcDbEntity
  8
HEWI
100
AcDbLine
 10
-1778.427174
 20
-1883.100319
 30
0.0
 11
-1778.331177
 21
-1883.051339
 31
0.0
  0
LINE
  5
CC
330
A
100
AcDbEntity
  8
HEWI
100
AcDbLine
 10
-1777.965176
 20
-1627.685318
 30
0.0
 11
-1777.916176
 21
-1627.782288
 31
0.0
  0
LINE
  5
CD
330
A
100
AcDbEntity
  8
HEWI
100
AcDbLine
 10
-1823.198178
 20
-1670.498314
 30
0.0
 11
-1822.527173
 21
-1670.159302
 31
0.0
  0
LINE
  5
CE
330
A
100
AcDbEntity
  8
HEWI
100
AcDbLine
 10
-1852.746174
 20
-1882.588311
 30
0.0
 11
-1852.697194
 21
-1882.68528
 31
0.0
  0
LINE
  5
CF
330
A
100
AcDbEntity
  8
HEWI
100
AcDbLine
 10
-1852.331173
 20
-1627.319298
 30
0.0
 11
-1852.234166
 21
-1627.270317
 31
0.0
  0
LINE
  5
D1
330
A
100
AcDbEntity
  8
HEWI
100
AcDbLine
 10
-1798.972867
 20
-1678.0579
 30
0.0
 11
-1798.289177
 21
-1679.522286
 31
0.0
  0
LINE
  5
D6
330
A
100
AcDbEntity
  8
HEWI
100
AcDbLine
 10
-1807.831166
 20
-1700.872689
 30
0.0
 11
-1805.698178
 21
-1699.878273
 31
0.0
  0
LINE
  5
D7
330
A
100
AcDbEntity
  8
HEWI
100
AcDbLine
 10
-1822.527173
 20
-1670.159302
 30
0.0
 11
-1821.841176
 21
-1669.852295
 31
0.0
  0
LINE
  5
DC
330
A
100
AcDbEntity
  8
HEWI
100
AcDbLine
 10
-1777.916176
 20
-1627.782288
 30
0.0
 11
-1777.865173999999
 21
-1627.926293
 31
0.0
  0
LINE
  5
DD
330
A
100
AcDbEntity
  8
HEWI
100
AcDbLine
 10
-1852.234166
 20
-1627.270317
 30
0.0
 11
-1852.090161
 21
-1627.219315
 31
0.0
  0
LINE
  5
DE
330
A
100
AcDbEntity
  8
HEWI
100
AcDbLine
 10
-1852.797177
 20
-1882.444268
 30
0.0
 11
-1852.746174
 21
-1882.588311
 31
0.0
  0
LINE
  5
DF
330
A
100
AcDbEntity
  8
HEWI
100
AcDbLine
 10
-1778.572171
 20
-1883.151284
 30
0.0
 11
-1778.427174
 21
-1883.100319
 31
0.0
  0
LINE
  5
E0
330
A
100
AcDbEntity
  8
HEWI
100
AcDbLine
 10
-1778.943169
 20
-1707.734337
 30
0.0
 11
-1778.72617
 21
-1707.658272
 31
0.0
  0
LINE
  5
E1
330
A
100
AcDbEntity
  8
HEWI
100
AcDbLine
 10
-1777.958176
 20
-1663.680306
 30
0.0
 11
-1777.882168
 21
-1663.897286
 31
0.0
  0
LINE
  5
E2
330
A
100
AcDbEntity
  8
HEWI
100
AcDbLine
 10
-1852.780163
 20
-1706.673317
 30
0.0
 11
-1852.704175
 21
-1706.890297
 31
0.0
  0
LINE
  5
E3
330
A
100
AcDbEntity
  8
HEWI
100
AcDbLine
 10
-1851.936162
 20
-1662.912292999999
 30
0.0
 11
-1851.719182
 21
-1662.836304
 31
0.0
  0
LINE
  5
E6
330
A
100
AcDbEntity
  8
HEWI
100
AcDbLine
 10
-1852.790158
 20
-1882.442284
 30
0.0
 11
-1852.746174
 21
-1882.588311
 31
0.0
  0
LINE
  5
E7
330
A
100
AcDbEntity
  8
HEWI
100
AcDbLine
 10
-1852.817166
 20
-1882.352333
 30
0.0
 11
-1852.746174
 21
-1882.588311
 31
0.0
  0
LINE
  5
E8
330
A
100
AcDbEntity
  8
HEWI
100
AcDbLine
 10
-1852.817166
 20
-1882.352333
 30
0.0
 11
-1852.790158
 21
-1882.442284
 31
0.0
  0
LINE
  5
E9
330
A
100
AcDbEntity
  8
HEWI
100
AcDbLine
 10
-1810.951169
 20
-1701.452294
 30
0.0
 11
-1810.230191
 21
-1701.239281
 31
0.0
  0
LINE
  5
EA
330
A
100
AcDbEntity
  8
HEWI
100
AcDbLine
 10
-1797.746174
 20
-1681.552315
 30
0.0
 11
-1797.529175
 21
-1682.359276
 31
0.0
  0
LINE
  5
EB
330
A
100
AcDbEntity
  8
HEWI
100
AcDbLine
 10
-1797.79218
 20
-1681.378289
 30
0.0
 11
-1797.529175
 21
-1682.359276
 31
0.0
  0
LINE
  5
F0
330
A
100
AcDbEntity
  8
HEWI
100
AcDbLine
 10
-1798.289177
 20
-1679.522286
 30
0.0
 11
-1797.79218
 21
-1681.378289
 31
0.0
  0
LINE
  5
F1
330
A
100
AcDbEntity
  8
HEWI
100
AcDbLine
 10
-1798.289177
 20
-1679.522286
 30
0.0
 11
-1797.746174
 21
-1681.552315
 31
0.0
  0
LINE
  5
F2
330
A
100
AcDbEntity
  8
HEWI
100
AcDbLine
 10
-1811.681187
 20
-1701.632271
 30
0.0
 11
-1810.951169
 21
-1701.452294
 31
0.0
  0
LINE
  5
F3
330
A
100
AcDbEntity
  8
HEWI
100
AcDbLine
 10
-1799.357178
 20
-1680.95829
 30
0.0
 11
-1799.033177
 21
-1682.407265
 31
0.0
  0
LINE
  5
F4
330
A
100
AcDbEntity
  8
HEWI
100
AcDbLine
 10
-1778.66317
 20
-1883.171273
 30
0.0
 11
-1778.572171
 21
-1883.151284
 31
0.0
  0
LINE
  5
F5
330
A
100
AcDbEntity
  8
HEWI
100
AcDbLine
 10
-1777.865173999999
 20
-1627.926293
 30
0.0
 11
-1777.845185
 21
-1628.017311
 31
0.0
  0
LINE
  5
F6
330
A
100
AcDbEntity
  8
HEWI
100
AcDbLine
 10
-1852.810185
 20
-1706.536293
 30
0.0
 11
-1852.780163
 21
-1706.673317
 31
0.0
  0
LINE
  5
F7
330
A
100
AcDbEntity
  8
HEWI
100
AcDbLine
 10
-1851.719182
 20
-1662.836304
 30
0.0
 11
-1851.582158
 21
-1662.806282
 31
0.0
  0
LINE
  5
F8
330
A
100
AcDbEntity
  8
HEWI
100
AcDbLine
 10
-1779.080174
 20
-1707.764321
 30
0.0
 11
-1778.943169
 21
-1707.734337
 31
0.0
  0
LINE
  5
F9
330
A
100
AcDbEntity
  8
HEWI
100
AcDbLine
 10
-1777.882168
 20
-1663.897286
 30
0.0
 11
-1777.852185
 21
-1664.03431
 31
0.0
  0
LINE
  5
FA
330
A
100
AcDbEntity
  8
HEWI
100
AcDbLine
 10
-1852.090161
 20
-1627.219315
 30
0.0
 11
-1851.998189
 21
-1627.199288
 31
0.0
  0
LINE
  5
FB
330
A
100
AcDbEntity
  8
HEWI
100
AcDbLine
 10
-1852.817166
 20
-1882.352333
 30
0.0
 11
-1852.797177
 21
-1882.444268
 31
0.0
  0
LINE
  5
103
330
A
100
AcDbEntity
  8
HEWI
100
AcDbLine
 10
-1815.270817
 20
-1668.535614
 30
0.0
 11
-1814.124157
 21
-1668.435288
 31
0.0
  0
LINE
  5
104
330
A
100
AcDbEntity
  8
HEWI
100
AcDbLine
 10
-1797.529175
 20
-1682.359276
 30
0.0
 11
-1797.273171
 21
-1685.285302
 31
0.0
  0
LINE
  5
106
330
A
100
AcDbEntity
  8
HEWI
100
AcDbLine
 10
-1852.831166
 20
-1882.185326
 30
0.0
 11
-1852.817166
 21
-1882.352333
 31
0.0
  0
LINE
  5
107
330
A
100
AcDbEntity
  8
HEWI
100
AcDbLine
 10
-1851.998189
 20
-1627.199288
 30
0.0
 11
-1851.831180999999
 21
-1627.185288
 31
0.0
  0
LINE
  5
108
330
A
100
AcDbEntity
  8
HEWI
100
AcDbLine
 10
-1777.852185
 20
-1664.03431
 30
0.0
 11
-1777.831185
 21
-1664.285317
 31
0.0
  0
LINE
  5
109
330
A
100
AcDbEntity
  8
HEWI
100
AcDbLine
 10
-1779.331181
 20
-1707.785302
 30
0.0
 11
-1779.080174
 21
-1707.764321
 31
0.0
  0
LINE
  5
10A
330
A
100
AcDbEntity
  8
HEWI
100
AcDbLine
 10
-1778.83117
 20
-1883.185311
 30
0.0
 11
-1778.66317
 21
-1883.171273
 31
0.0
  0
LINE
  5
10B
330
A
100
AcDbEntity
  8
HEWI
100
AcDbLine
 10
-1777.845185
 20
-1628.017311
 30
0.0
 11
-1777.831185
 21
-1628.185311
 31
0.0
  0
LINE
  5
10D
330
A
100
AcDbEntity
  8
HEWI
100
AcDbLine
 10
-1815.331166
 20
-1702.135277
 30
0.0
 11
-1814.604161
 21
-1702.093315
 31
0.0
  0
LINE
  5
10E
330
A
100
AcDbEntity
  8
HEWI
100
AcDbLine
 10
-1816.152165
 20
-1701.8153
 30
0.0
 11
-1814.666188
 21
-1701.822319
 31
0.0
  0
LINE
  5
10F
330
A
100
AcDbEntity
  8
HEWI
100
AcDbLine
 10
-1817.270176
 20
-1702.023278
 30
0.0
 11
-1815.331166
 21
-1702.135277
 31
0.0
  0
LINE
  5
111
330
A
100
AcDbEntity
  8
HEWI
100
AcDbLine
 10
-1852.831166
 20
-1628.185311
 30
0.0
 11
-1852.817166
 21
-1628.017311
 31
0.0
  0
LINE
  5
112
330
A
100
AcDbEntity
  8
HEWI
100
AcDbLine
 10
-1778.83117
 20
-1627.185288
 30
0.0
 11
-1778.66317
 21
-1627.199288
 31
0.0
  0
LINE
  5
113
330
A
100
AcDbEntity
  8
HEWI
100
AcDbLine
 10
-1779.331181
 20
-1662.785302
 30
0.0
 11
-1779.080174
 21
-1662.806282
 31
0.0
  0
LINE
  5
114
330
A
100
AcDbEntity
  8
HEWI
100
AcDbLine
 10
-1851.582158
 20
-1707.764321
 30
0.0
 11
-1851.331189
 21
-1707.785302
 31
0.0
  0
LINE
  5
115
330
A
100
AcDbEntity
  8
HEWI
100
AcDbLine
 10
-1777.852185
 20
-1706.536293
 30
0.0
 11
-1777.831185
 21
-1706.285286
 31
0.0
  0
LINE
  5
116
330
A
100
AcDbEntity
  8
HEWI
100
AcDbLine
 10
-1777.845185
 20
-1882.352333
 30
0.0
 11
-1777.831185
 21
-1882.185326
 31
0.0
  0
LINE
  5
117
330
A
100
AcDbEntity
  8
HEWI
100
AcDbLine
 10
-1851.998189
 20
-1883.171273
 30
0.0
 11
-1851.831180999999
 21
-1883.185311
 31
0.0
  0
LINE
  5
118
330
A
100
AcDbEntity
  8
HEWI
100
AcDbLine
 10
-1815.292218
 20
-1702.03312
 30
0.0
 11
-1814.124157
 21
-1702.135277
 31
0.0
  0
LINE
  5
119
330
A
100
AcDbEntity
  8
HEWI
100
AcDbLine
 10
-1797.529175
 20
-1688.211327
 30
0.0
 11
-1797.273171
 21
-1685.285302
 31
0.0
  0
LINE
  5
11E
330
A
100
AcDbEntity
  8
HEWI
100
AcDbLine
 10
-1817.630169
 20
-1701.674309
 30
0.0
 11
-1816.152165
 21
-1701.8153
 31
0.0
  0
LINE
  5
11F
330
A
100
AcDbEntity
  8
HEWI
100
AcDbLine
 10
-1819.183171
 20
-1701.689263
 30
0.0
 11
-1817.270176
 21
-1702.023278
 31
0.0
  0
LINE
  5
122
330
A
100
AcDbEntity
  8
HEWI
100
AcDbLine
 10
-1852.090161
 20
-1883.151284
 30
0.0
 11
-1851.998189
 21
-1883.171273
 31
0.0
  0
LINE
  5
123
330
A
100
AcDbEntity
  8
HEWI
100
AcDbLine
 10
-1777.865173999999
 20
-1882.444268
 30
0.0
 11
-1777.845185
 21
-1882.352333
 31
0.0
  0
LINE
  5
124
330
A
100
AcDbEntity
  8
HEWI
100
AcDbLine
 10
-1777.882168
 20
-1706.673317
 30
0.0
 11
-1777.852185
 21
-1706.536293
 31
0.0
  0
LINE
  5
125
330
A
100
AcDbEntity
  8
HEWI
100
AcDbLine
 10
-1851.719182
 20
-1707.734337
 30
0.0
 11
-1851.582158
 21
-1707.764321
 31
0.0
  0
LINE
  5
126
330
A
100
AcDbEntity
  8
HEWI
100
AcDbLine
 10
-1852.810185
 20
-1664.03431
 30
0.0
 11
-1852.780163
 21
-1663.897286
 31
0.0
  0
LINE
  5
127
330
A
100
AcDbEntity
  8
HEWI
100
AcDbLine
 10
-1779.080174
 20
-1662.806282
 30
0.0
 11
-1778.943169
 21
-1662.836304
 31
0.0
  0
LINE
  5
128
330
A
100
AcDbEntity
  8
HEWI
100
AcDbLine
 10
-1852.817166
 20
-1628.017311
 30
0.0
 11
-1852.797177
 21
-1627.926293
 31
0.0
  0
LINE
  5
129
330
A
100
AcDbEntity
  8
HEWI
100
AcDbLine
 10
-1778.66317
 20
-1627.199288
 30
0.0
 11
-1778.572171
 21
-1627.219315
 31
0.0
  0
LINE
  5
12A
330
A
100
AcDbEntity
  8
HEWI
100
AcDbLine
 10
-1819.831173
 20
-1701.523323
 30
0.0
 11
-1819.183171
 21
-1701.689263
 31
0.0
  0
LINE
  5
12B
330
A
100
AcDbEntity
  8
HEWI
100
AcDbLine
 10
-1798.289177
 20
-1691.048317
 30
0.0
 11
-1797.746174
 21
-1689.018288
 31
0.0
  0
LINE
  5
12C
330
A
100
AcDbEntity
  8
HEWI
100
AcDbLine
 10
-1798.289177
 20
-1691.048317
 30
0.0
 11
-1797.79218
 21
-1689.192314
 31
0.0
  0
LINE
  5
131
330
A
100
AcDbEntity
  8
HEWI
100
AcDbLine
 10
-1797.79218
 20
-1689.192314
 30
0.0
 11
-1797.529175
 21
-1688.211327
 31
0.0
  0
LINE
  5
132
330
A
100
AcDbEntity
  8
HEWI
100
AcDbLine
 10
-1820.519192
 20
-1701.00132
 30
0.0
 11
-1819.090168
 21
-1701.402321
 31
0.0
  0
LINE
  5
133
330
A
100
AcDbEntity
  8
HEWI
100
AcDbLine
 10
-1820.169194
 20
-1701.425286
 30
0.0
 11
-1819.831173
 21
-1701.523323
 31
0.0
  0
LINE
  5
134
330
A
100
AcDbEntity
  8
HEWI
100
AcDbLine
 10
-1820.498173
 20
-1701.323281
 30
0.0
 11
-1820.169194
 21
-1701.425286
 31
0.0
  0
LINE
  5
137
330
A
100
AcDbEntity
  8
HEWI
100
AcDbLine
 10
-1821.045163
 20
-1701.137276
 30
0.0
 11
-1820.498173
 21
-1701.323281
 31
0.0
  0
LINE
  5
138
330
A
100
AcDbEntity
  8
HEWI
100
AcDbLine
 10
-1778.943169
 20
-1662.836304
 30
0.0
 11
-1778.72617
 21
-1662.912292999999
 31
0.0
  0
LINE
  5
139
330
A
100
AcDbEntity
  8
HEWI
100
AcDbLine
 10
-1852.780163
 20
-1663.897286
 30
0.0
 11
-1852.704175
 21
-1663.680306
 31
0.0
  0
LINE
  5
13A
330
A
100
AcDbEntity
  8
HEWI
100
AcDbLine
 10
-1777.958176
 20
-1706.890297
 30
0.0
 11
-1777.882168
 21
-1706.673317
 31
0.0
  0
LINE
  5
13B
330
A
100
AcDbEntity
  8
HEWI
100
AcDbLine
 10
-1851.936162
 20
-1707.658272
 30
0.0
 11
-1851.719182
 21
-1707.734337
 31
0.0
  0
LINE
  5
13C
330
A
100
AcDbEntity
  8
HEWI
100
AcDbLine
 10
-1778.572171
 20
-1627.219315
 30
0.0
 11
-1778.427174
 21
-1627.270317
 31
0.0
  0
LINE
  5
13D
330
A
100
AcDbEntity
  8
HEWI
100
AcDbLine
 10
-1852.234166
 20
-1883.100319
 30
0.0
 11
-1852.090161
 21
-1883.151284
 31
0.0
  0
LINE
  5
13E
330
A
100
AcDbEntity
  8
HEWI
100
AcDbLine
 10
-1777.916176
 20
-1882.588311
 30
0.0
 11
-1777.865173999999
 21
-1882.444268
 31
0.0
  0
LINE
  5
13F
330
A
100
AcDbEntity
  8
HEWI
100
AcDbLine
 10
-1852.797177
 20
-1627.926293
 30
0.0
 11
-1852.746174
 21
-1627.782288
 31
0.0
  0
LINE
  5
140
330
A
100
AcDbEntity
  8
HEWI
100
AcDbLine
 10
-1821.132176
 20
-1701.105309
 30
0.0
 11
-1821.045163
 21
-1701.137276
 31
0.0
  0
LINE
  5
141
330
A
100
AcDbEntity
  8
HEWI
100
AcDbLine
 10
-1821.426175
 20
-1700.994301
 30
0.0
 11
-1821.130192
 21
-1701.105309
 31
0.0
  0
LINE
  5
142
330
A
100
AcDbEntity
  8
HEWI
100
AcDbLine
 10
-1821.130192
 20
-1701.105309
 30
0.0
 11
-1821.045163
 21
-1701.137276
 31
0.0
  0
LINE
  5
143
330
A
100
AcDbEntity
  8
HEWI
100
AcDbLine
 10
-1821.426175
 20
-1700.994301
 30
0.0
 11
-1821.132176
 21
-1701.105309
 31
0.0
  0
LINE
  5
145
330
A
100
AcDbEntity
  8
HEWI
100
AcDbLine
 10
-1821.701176
 20
-1700.884285
 30
0.0
 11
-1821.426175
 21
-1700.994301
 31
0.0
  0
LINE
  5
146
330
A
100
AcDbEntity
  8
HEWI
100
AcDbLine
 10
-1821.953175
 20
-1700.779305
 30
0.0
 11
-1821.701176
 21
-1700.884285
 31
0.0
  0
LINE
  5
148
330
A
100
AcDbEntity
  8
HEWI
100
AcDbLine
 10
-1822.176182
 20
-1700.682335
 30
0.0
 11
-1821.953175
 21
-1700.779305
 31
0.0
  0
LINE
  5
149
330
A
100
AcDbEntity
  8
HEWI
100
AcDbLine
 10
-1822.369167999999
 20
-1700.594292
 30
0.0
 11
-1822.176182
 21
-1700.682335
 31
0.0
  0
LINE
  5
14A
330
A
100
AcDbEntity
  8
HEWI
100
AcDbLine
 10
-1822.534192
 20
-1700.518303
 30
0.0
 11
-1822.369167999999
 21
-1700.594292
 31
0.0
  0
LINE
  5
14F
330
A
100
AcDbEntity
  8
HEWI
100
AcDbLine
 10
-1798.972867
 20
-1692.512703
 30
0.0
 11
-1798.289177
 21
-1691.048317
 31
0.0
  0
LINE
  5
150
330
A
100
AcDbEntity
  8
HEWI
100
AcDbLine
 10
-1822.831166
 20
-1700.374337
 30
0.0
 11
-1822.812169
 21
-1700.383263
 31
0.0
  0
LINE
  5
152
330
A
100
AcDbEntity
  8
HEWI
100
AcDbLine
 10
-1822.756169
 20
-1700.411263
 30
0.0
 11
-1822.662175
 21
-1700.456276
 31
0.0
  0
LINE
  5
153
330
A
100
AcDbEntity
  8
HEWI
100
AcDbLine
 10
-1822.662175
 20
-1700.456276
 30
0.0
 11
-1822.534192
 21
-1700.518303
 31
0.0
  0
LINE
  5
154
330
A
100
AcDbEntity
  8
HEWI
100
AcDbLine
 10
-1822.812169
 20
-1700.383263
 30
0.0
 11
-1822.756169
 21
-1700.411263
 31
0.0
  0
LINE
  5
156
330
A
100
AcDbEntity
  8
HEWI
100
AcDbLine
 10
-1852.331173
 20
-1883.051339
 30
0.0
 11
-1852.234166
 21
-1883.100319
 31
0.0
  0
LINE
  5
157
330
A
100
AcDbEntity
  8
HEWI
100
AcDbLine
 10
-1852.746174
 20
-1627.782288
 30
0.0
 11
-1852.697194
 21
-1627.685318
 31
0.0
  0
LINE
  5
158
330
A
100
AcDbEntity
  8
HEWI
100
AcDbLine
 10
-1777.965176
 20
-1882.68528
 30
0.0
 11
-1777.916176
 21
-1882.588311
 31
0.0
  0
LINE
  5
159
330
A
100
AcDbEntity
  8
HEWI
100
AcDbLine
 10
-1778.427174
 20
-1627.270317
 30
0.0
 11
-1778.331177
 21
-1627.319298
 31
0.0
  0
LINE
  5
15A
330
A
100
AcDbEntity
  8
HEWI
100
AcDbLine
 10
-1778.032181
 20
-1707.035332
 30
0.0
 11
-1777.958176
 21
-1706.890297
 31
0.0
  0
LINE
  5
15B
330
A
100
AcDbEntity
  8
HEWI
100
AcDbLine
 10
-1852.704175
 20
-1663.680306
 30
0.0
 11
-1852.630169
 21
-1663.535309
 31
0.0
  0
LINE
  5
15C
330
A
100
AcDbEntity
  8
HEWI
100
AcDbLine
 10
-1852.081158
 20
-1707.584267
 30
0.0
 11
-1851.936162
 21
-1707.658272
 31
0.0
  0
LINE
  5
15D
330
A
100
AcDbEntity
  8
HEWI
100
AcDbLine
 10
-1778.72617
 20
-1662.912292999999
 30
0.0
 11
-1778.581173
 21
-1662.986298
 31
0.0
  0
LINE
  5
167
330
A
100
AcDbEntity
  8
HEWI
100
AcDbLine
 10
-1778.042176
 20
-1882.800331
 30
0.0
 11
-1777.965176
 21
-1882.68528
 31
0.0
  0
LINE
  5
168
330
A
100
AcDbEntity
  8
HEWI
100
AcDbLine
 10
-1852.697194
 20
-1627.685318
 30
0.0
 11
-1852.620175
 21
-1627.570305
 31
0.0
  0
LINE
  5
169
330
A
100
AcDbEntity
  8
HEWI
100
AcDbLine
 10
-1778.331177
 20
-1627.319298
 30
0.0
 11
-1778.216183
 21
-1627.396317
 31
0.0
  0
LINE
  5
16A
330
A
100
AcDbEntity
  8
HEWI
100
AcDbLine
 10
-1852.253163
 20
-1707.4683
 30
0.0
 11
-1852.081158
 21
-1707.584267
 31
0.0
  0
LINE
  5
16B
330
A
100
AcDbEntity
  8
HEWI
100
AcDbLine
 10
-1852.630169
 20
-1663.535309
 30
0.0
 11
-1852.514164
 21
-1663.363304
 31
0.0
  0
LINE
  5
16C
330
A
100
AcDbEntity
  8
HEWI
100
AcDbLine
 10
-1778.581173
 20
-1662.986298
 30
0.0
 11
-1778.409169
 21
-1663.102303
 31
0.0
  0
LINE
  5
16D
330
A
100
AcDbEntity
  8
HEWI
100
AcDbLine
 10
-1778.148167
 20
-1707.207299
 30
0.0
 11
-1778.032181
 21
-1707.035332
 31
0.0
  0
LINE
  5
16E
330
A
100
AcDbEntity
  8
HEWI
100
AcDbLine
 10
-1852.445157
 20
-1882.974282
 30
0.0
 11
-1852.331173
 21
-1883.051339
 31
0.0
  0
LINE
  5
16F
330
A
100
AcDbEntity
  8
HEWI
100
AcDbLine
 10
-1801.215184
 20
-1696.116295
 30
0.0
 11
-1801.159184
 21
-1696.035271
 31
0.0
  0
LINE
  5
176
330
A
100
AcDbEntity
  8
HEWI
100
AcDbLine
 10
-1801.215184
 20
-1696.116295
 30
0.0
 11
-1799.531167
 21
-1693.710289
 31
0.0
  0
LINE
  5
177
330
A
100
AcDbEntity
  8
HEWI
100
AcDbLine
 10
-1804.595158
 20
-1671.465302
 30
0.0
 11
-1803.292172
 21
-1672.37732
 31
0.0
  0
LINE
  5
178
330
A
100
AcDbEntity
  8
HEWI
100
AcDbLine
 10
-1805.513165
 20
-1670.822296
 30
0.0
 11
-1803.292172
 21
-1672.37732
 31
0.0
  0
LINE
  5
179
330
A
100
AcDbEntity
  8
HEWI
100
AcDbLine
 10
-1805.000546
 20
-1671.181221
 30
0.0
 11
-1804.595158
 21
-1671.465302
 31
0.0
  0
LINE
  5
17A
330
A
100
AcDbEntity
  8
HEWI
100
AcDbLine
 10
-1805.698178
 20
-1670.692292
 30
0.0
 11
-1805.513165
 21
-1670.822296
 31
0.0
  0
LINE
  5
17F
330
A
100
AcDbEntity
  8
HEWI
100
AcDbLine
 10
-1802.285168
 20
-1695.790291
 30
0.0
 11
-1801.826184
 21
-1695.194283
 31
0.0
  0
LINE
  5
181
330
A
100
AcDbEntity
  8
HEWI
100
AcDbLine
 10
-1802.769177
 20
-1696.365319
 30
0.0
 11
-1802.285168
 21
-1695.790291
 31
0.0
  0
LINE
  5
182
330
A
100
AcDbEntity
  8
HEWI
100
AcDbLine
 10
-1852.514164
 20
-1663.363304
 30
0.0
 11
-1852.39217
 21
-1663.224297
 31
0.0
  0
LINE
  5
183
330
A
100
AcDbEntity
  8
HEWI
100
AcDbLine
 10
-1852.39217
 20
-1707.346305999999
 30
0.0
 11
-1852.253163
 21
-1707.4683
 31
0.0
  0
LINE
  5
184
330
A
100
AcDbEntity
  8
HEWI
100
AcDbLine
 10
-1778.409169
 20
-1663.102303
 30
0.0
 11
-1778.27018
 21
-1663.224297
 31
0.0
  0
LINE
  5
185
330
A
100
AcDbEntity
  8
HEWI
100
AcDbLine
 10
-1778.27018
 20
-1707.346305999999
 30
0.0
 11
-1778.148167
 21
-1707.207299
 31
0.0
  0
LINE
  5
186
330
A
100
AcDbEntity
  8
HEWI
100
AcDbLine
 10
-1804.951184
 20
-1672.395287
 30
0.0
 11
-1803.837178
 21
-1673.377266
 31
0.0
  0
LINE
  5
187
330
A
100
AcDbEntity
  8
HEWI
100
AcDbLine
 10
-1852.538159
 20
-1882.892266
 30
0.0
 11
-1852.445157
 21
-1882.974282
 31
0.0
  0
LINE
  5
188
330
A
100
AcDbEntity
  8
HEWI
100
AcDbLine
 10
-1778.216183
 20
-1627.396317
 30
0.0
 11
-1778.124173
 21
-1627.478295
 31
0.0
  0
LINE
  5
189
330
A
100
AcDbEntity
  8
HEWI
100
AcDbLine
 10
-1852.620175
 20
-1627.570305
 30
0.0
 11
-1852.538159
 21
-1627.478295
 31
0.0
  0
LINE
  5
18A
330
A
100
AcDbEntity
  8
HEWI
100
AcDbLine
 10
-1778.124173
 20
-1882.892266
 30
0.0
 11
-1778.042176
 21
-1882.800331
 31
0.0
  0
LINE
  5
18C
330
A
100
AcDbEntity
  8
HEWI
100
AcDbLine
 10
-1803.292172
 20
-1698.193322
 30
0.0
 11
-1801.634189999999
 21
-1696.535302
 31
0.0
  0
LINE
  5
18D
330
A
100
AcDbEntity
  8
HEWI
100
AcDbLine
 10
-1803.292172
 20
-1698.193322
 30
0.0
 11
-1801.215184
 21
-1696.116295
 31
0.0
  0
LINE
  5
18E
330
A
100
AcDbEntity
  8
HEWI
100
AcDbLine
 10
-1803.292172
 20
-1672.37732
 30
0.0
 11
-1801.215184
 21
-1674.454308
 31
0.0
  0
ARC
  5
191
330
A
100
AcDbEntity
  8
HEWI
100
AcDbCircle
 10
-1815.32859
 20
-1685.282283
 30
0.0
 40
16.753732
100
AcDbArc
 50
218.301824
 51
231.157638
  0
ARC
  5
192
330
A
100
AcDbEntity
  8
HEWI
100
AcDbCircle
 10
-1815.320603
 20
-1685.295535
 30
0.0
 40
16.735067
100
AcDbArc
 50
305.720382
 51
321.162651
  0
ARC
  5
193
330
A
100
AcDbEntity
  8
HEWI
100
AcDbCircle
 10
-1815.332032
 20
-1685.287092
 30
0.0
 40
16.751741
100
AcDbArc
 50
12.591202
 51
107.7218
  0
ARC
  5
196
330
A
100
AcDbEntity
  8
HEWI
100
AcDbCircle
 10
-1815.331901
 20
-1685.281771
 30
0.0
 40
16.546509
100
AcDbArc
 50
107.731243
 51
133.449439
  0
ARC
  5
197
330
A
100
AcDbEntity
  8
HEWI
100
AcDbCircle
 10
-1815.338857
 20
-1685.280172
 30
0.0
 40
16.559136
100
AcDbArc
 50
308.311793
 51
334.011321
  0
ARC
  5
199
330
A
100
AcDbEntity
  8
HEWI
100
AcDbCircle
 10
-1815.343666
 20
-1685.295755999999
 30
0.0
 40
16.733551
100
AcDbArc
 50
210.578124
 51
226.021879
  0
ARC
  5
19A
330
A
100
AcDbEntity
  8
HEWI
100
AcDbCircle
 10
-1815.329545
 20
-1685.284225
 30
0.0
 40
16.551526
100
AcDbArc
 50
169.448435
 51
220.873068
  0
ARC
  5
19C
330
A
100
AcDbEntity
  8
HEWI
100
AcDbCircle
 10
-1815.319616
 20
-1685.30157
 30
0.0
 40
16.770126
100
AcDbArc
 50
115.453946
 51
130.865937
  0
ARC
  5
19D
330
A
100
AcDbEntity
  8
HEWI
100
AcDbCircle
 10
-1815.320259
 20
-1685.305116
 30
0.0
 40
16.728147
100
AcDbArc
 50
303.16465
 51
316.038832
  0
ARC
  5
1A0
330
A
100
AcDbEntity
  8
HEWI
100
AcDbCircle
 10
-1814.123055
 20
-1685.284154
 30
0.0
 40
16.848866
100
AcDbArc
 50
29.997672
 51
90.003749
  0
ARC
  5
1A1
330
A
100
AcDbEntity
  8
HEWI
100
AcDbCircle
 10
-1814.123074
 20
-1685.28634
 30
0.0
 40
16.848937
100
AcDbArc
 50
269.996316
 51
330.002038
  0
ARC
  5
1A3
330
A
100
AcDbEntity
  8
HEWI
100
AcDbCircle
 10
-1815.326778
 20
-1685.28388
 30
0.0
 40
16.75395
100
AcDbArc
 50
177.161838
 51
223.437725
  0
ARC
  5
1A4
330
A
100
AcDbEntity
  8
HEWI
100
AcDbCircle
 10
-1815.317387
 20
-1685.317435
 30
0.0
 40
16.515448
100
AcDbArc
 50
282.566142
 51
303.179027
  0
ARC
  5
1A5
330
A
100
AcDbEntity
  8
HEWI
100
AcDbCircle
 10
-1814.127571
 20
-1685.285302
 30
0.0
 40
16.853351
100
AcDbArc
 50
330.006626
 51
29.993374
  0
ARC
  5
1A6
330
A
100
AcDbEntity
  8
HEWI
100
AcDbCircle
 10
-1815.317431
 20
-1685.315892
 30
0.0
 40
16.716289
100
AcDbArc
 50
287.717759
 51
300.599877
  0
ARC
  5
1A7
330
A
100
AcDbEntity
  8
HEWI
100
AcDbCircle
 10
-1815.320287
 20
-1685.316322
 30
0.0
 40
16.78316
100
AcDbArc
 50
102.599171
 51
115.430233
  0
ARC
  5
1A8
330
A
100
AcDbEntity
  8
HEWI
100
AcDbCircle
 10
-1815.335082
 20
-1685.273785
 30
0.0
 40
16.761946
100
AcDbArc
 50
285.161439
 51
298.01031
  0
ARC
  5
1A9
330
A
100
AcDbEntity
  8
HEWI
100
AcDbCircle
 10
-1815.383771
 20
-1685.29563
 30
0.0
 40
16.803836
100
AcDbArc
 50
4.893262
 51
17.708661
  0
ARC
  5
1AA
330
A
100
AcDbEntity
  8
HEWI
100
AcDbCircle
 10
-1815.329095
 20
-1685.278921
 30
0.0
 40
16.543856
100
AcDbArc
 50
56.293054
 51
102.596934
  0
ARC
  5
1AB
330
A
100
AcDbEntity
  8
HEWI
100
AcDbCircle
 10
-1815.317722
 20
-1685.364403
 30
0.0
 40
16.669944
100
AcDbArc
 50
272.267495
 51
285.185307
  0
ARC
  5
1AD
330
A
100
AcDbEntity
  8
HEWI
100
AcDbCircle
 10
-1815.413317
 20
-1685.291889
 30
0.0
 40
16.83085
100
AcDbArc
 50
352.075704
 51
17.665936
  0
ARC
  5
1AE
330
A
100
AcDbEntity
  8
HEWI
100
AcDbCircle
 10
-1815.325015
 20
-1685.359649
 30
0.0
 40
16.675602
100
AcDbArc
 50
267.125855
 51
282.6216819999999
  0
ARC
  5
1AF
330
A
100
AcDbEntity
  8
HEWI
100
AcDbCircle
 10
-1815.33941
 20
-1685.285922
 30
0.0
 40
16.558083
100
AcDbArc
 50
344.3116740000002
 51
4.873261
  0
ARC
  5
1B0
330
A
100
AcDbEntity
  8
HEWI
100
AcDbCircle
 10
-1815.332562
 20
-1685.285356
 30
0.0
 40
16.748081
100
AcDbArc
 50
161.727779
 51
182.299358
  0
ARC
  5
1B1
330
A
100
AcDbEntity
  8
HEWI
100
AcDbCircle
 10
-1815.333493
 20
-1685.315379
 30
0.0
 40
16.719559
100
AcDbArc
 50
259.431069
 51
272.31485
  0
ARC
  5
1B2
330
A
100
AcDbEntity
  8
HEWI
100
AcDbCircle
 10
-1814.123495
 20
-1685.289497
 30
0.0
 40
16.854209
100
AcDbArc
 50
60.00701799999998
 51
89.99888199999999
  0
ARC
  5
1B5
330
A
100
AcDbEntity
  8
HEWI
100
AcDbCircle
 10
-1815.257897
 20
-1685.293441
 30
0.0
 40
16.677028
100
AcDbArc
 50
344.260518
 51
357.171845
  0
ARC
  5
1B6
330
A
100
AcDbEntity
  8
HEWI
100
AcDbCircle
 10
-1815.336057
 20
-1685.315835
 30
0.0
 40
16.718863
100
AcDbArc
 50
251.712564
 51
264.59403
  0
ARC
  5
1B7
330
A
100
AcDbEntity
  8
HEWI
100
AcDbCircle
 10
-1815.414344
 20
-1685.262984
 30
0.0
 40
16.835876
100
AcDbArc
 50
339.186212
 51
351.9787560000001
  0
ARC
  5
1B8
330
A
100
AcDbEntity
  8
HEWI
100
AcDbCircle
 10
-1815.309149
 20
-1685.209739
 30
0.0
 40
16.828298
100
AcDbArc
 50
249.18111
 51
261.976021
  0
ARC
  5
1B9
330
A
100
AcDbEntity
  8
HEWI
100
AcDbCircle
 10
-1815.337377
 20
-1685.279167
 30
0.0
 40
16.54172
100
AcDbArc
 50
138.587724
 51
164.315595
  0
ARC
  5
1BA
330
A
100
AcDbEntity
  8
HEWI
100
AcDbCircle
 10
-1815.365255999999
 20
-1685.271432
 30
0.0
 40
16.713459
100
AcDbArc
 50
148.851734
 51
164.312587
  0
ARC
  5
1BB
330
A
100
AcDbEntity
  8
HEWI
100
AcDbCircle
 10
-1815.335476
 20
-1685.295958
 30
0.0
 40
16.738353
100
AcDbArc
 50
241.438247
 51
256.879135
  0
ARC
  5
1BC
330
A
100
AcDbEntity
  8
HEWI
100
AcDbCircle
 10
-1815.329281
 20
-1685.283811
 30
0.0
 40
16.748967
100
AcDbArc
 50
328.863748
 51
349.436555
  0
ARC
  5
1BE
330
A
100
AcDbEntity
  8
HEWI
100
AcDbCircle
 10
-1815.332467
 20
-1685.285583
 30
0.0
 40
16.548807
100
AcDbArc
 50
231.159236
 51
246.591025
  0
ARC
  5
1BF
330
A
100
AcDbEntity
  8
HEWI
100
AcDbCircle
 10
-1815.349853
 20
-1685.328168
 30
0.0
 40
16.703476
100
AcDbArc
 50
238.850193
 51
254.323666
  0
ARC
  5
1C0
330
A
100
AcDbEntity
  8
HEWI
100
AcDbCircle
 10
-1815.345723
 20
-1685.274228
 30
0.0
 40
16.767996
100
AcDbArc
 50
321.15977
 51
336.5711950000001
  0
ARC
  5
1C1
330
A
100
AcDbEntity
  8
HEWI
100
AcDbCircle
 10
-1815.311928
 20
-1685.258904
 30
0.0
 40
16.782109
100
AcDbArc
 50
226.031272
 51
246.5618379999999
  0
ARC
  5
1C2
330
A
100
AcDbEntity
  8
HEWI
100
AcDbCircle
 10
-1815.332936
 20
-1685.284291
 30
0.0
 40
16.74775
100
AcDbArc
 50
118.010265
 51
182.30305
  0
LINE
  5
1C3
330
A
100
AcDbEntity
  8
HEWI
  6
STANDARD
 62
     7
100
AcDbLine
 10
-863.3841890849989
 20
-1702.135277
 30
0.0
 11
-674.8841850849997
 21
-1702.135277
 31
0.0
  0
LINE
  5
1C4
330
A
100
AcDbEntity
  8
HEWI
  6
STANDARD
 62
     7
100
AcDbLine
 10
-1382.384166085
 20
-1702.135277
 30
0.0
 11
-903.3841800849989
 21
-1702.135277000001
 31
0.0
  0
LINE
  5
1C5
330
A
100
AcDbEntity
  8
HEWI
  6
STANDARD
 62
     7
100
AcDbLine
 10
-1515.982227085
 20
-1702.135277
 30
0.0
 11
-1422.384185085
 21
-1702.135277
 31
0.0
  0
LINE
  5
1C6
330
A
100
AcDbEntity
  8
HEWI
  6
STANDARD
 62
     7
100
AcDbLine
 10
-1515.982227085
 20
-1668.435288
 30
0.0
 11
-674.8841850849997
 21
-1668.435288
 31
0.0
  0
LINE
  5
1C7
330
A
100
AcDbEntity
  8
HEWI
  6
STANDARD
 62
     7
100
AcDbLine
 10
-900.384187084999
 20
-1777.635308
 30
0.0
 11
-866.3841810849989
 21
-1777.635308
 31
0.0
  0
LINE
  5
1C8
330
A
100
AcDbEntity
  8
HEWI
  6
STANDARD
 62
     7
100
AcDbLine
 10
-1419.384174085
 20
-1777.635308
 30
0.0
 11
-1385.384178084999
 21
-1777.635308
 31
0.0
  0
LINE
  5
1C9
330
A
100
AcDbEntity
  8
HEWI
  6
STANDARD
 62
     7
100
AcDbLine
 10
-900.384187084999
 20
-1700.374336
 30
0.0
 11
-866.3841810849989
 21
-1700.374336
 31
0.0
  0
LINE
  5
1CA
330
A
100
AcDbEntity
  8
HEWI
  6
STANDARD
 62
     7
100
AcDbLine
 10
-1419.384174085
 20
-1700.374336
 30
0.0
 11
-1385.384178084999
 21
-1700.374336
 31
0.0
  0
LINE
  5
1CB
330
A
100
AcDbEntity
  8
HEWI
  6
STANDARD
 62
     7
100
AcDbLine
 10
-1559.684181085
 20
-1704.685326
 30
0.0
 11
-1557.184162084999
 21
-1704.685326
 31
0.0
  0
LINE
  5
1CC
330
A
100
AcDbEntity
  8
HEWI
  6
STANDARD
 62
     7
100
AcDbLine
 10
-1559.684181085
 20
-1665.885315
 30
0.0
 11
-1557.184162084999
 21
-1665.885315
 31
0.0
  0
LINE
  5
1CD
330
A
100
AcDbEntity
  8
HEWI
  6
STANDARD
 62
     7
100
AcDbLine
 10
-1556.684169085
 20
-1707.785301
 30
0.0
 11
-1530.884170084999
 21
-1707.785301
 31
0.0
  0
LINE
  5
1CE
330
A
100
AcDbEntity
  8
HEWI
  6
STANDARD
 62
     7
100
AcDbLine
 10
-1552.384166085
 20
-1800.135307999999
 30
0.0
 11
-733.3841890849989
 21
-1800.135307999999
 31
0.0
  0
LINE
  5
1CF
330
A
100
AcDbEntity
  8
HEWI
  6
STANDARD
 62
     7
100
AcDbLine
 10
-863.384170085
 20
-1775.135308
 30
0.0
 11
-733.3841890849996
 21
-1775.135308
 31
0.0
  0
LINE
  5
1D0
330
A
100
AcDbEntity
  8
HEWI
  6
STANDARD
 62
     7
100
AcDbLine
 10
-1382.384176085
 20
-1775.135308
 30
0.0
 11
-903.3841800849989
 21
-1775.135308
 31
0.0
  0
LINE
  5
1D1
330
A
100
AcDbEntity
  8
HEWI
  6
STANDARD
 62
     7
100
AcDbLine
 10
-1552.384166085
 20
-1775.135308
 30
0.0
 11
-1422.384166085
 21
-1775.135308
 31
0.0
  0
LINE
  5
1D2
330
A
100
AcDbEntity
  8
HEWI
  6
STANDARD
 62
     7
100
AcDbLine
 10
-1555.684165085
 20
-1799.885292
 30
0.0
 11
-1552.384166085
 21
-1799.885292
 31
0.0
  0
LINE
  5
1D3
330
A
100
AcDbEntity
  8
HEWI
  6
STANDARD
 62
     7
100
AcDbLine
 10
-1555.684165085
 20
-1775.385323
 30
0.0
 11
-1552.384166085
 21
-1775.385323
 31
0.0
  0
LINE
  5
1D6
330
A
100
AcDbEntity
  8
HEWI
  6
STANDARD
 62
     7
100
AcDbLine
 10
-1559.684181085
 20
-1665.685311
 30
0.0
 11
-1556.789989085
 21
-1665.685311
 31
0.0
  0
LINE
  5
1D7
330
A
100
AcDbEntity
  8
HEWI
  6
STANDARD
 62
     7
100
AcDbLine
 10
-1571.884155084999
 20
-1627.185288
 30
0.0
 11
-1562.684173084999
 21
-1627.185288
 31
0.0
  0
LINE
  5
1D8
330
A
100
AcDbEntity
  8
HEWI
  6
STANDARD
 62
     7
100
AcDbLine
 10
-1571.884155084999
 20
-1883.185311
 30
0.0
 11
-1562.684173084999
 21
-1883.185311
 31
0.0
  0
LINE
  5
1DA
330
A
100
AcDbEntity
  8
HEWI
  6
STANDARD
 62
     7
100
AcDbLine
 10
-674.8841850849997
 20
-1668.691292
 30
0.0
 11
-674.8841850849997
 21
-1668.435288
 31
0.0
  0
LINE
  5
1DB
330
A
100
AcDbEntity
  8
HEWI
  6
STANDARD
 62
     7
100
AcDbLine
 10
-674.8841850849997
 20
-1702.135277
 30
0.0
 11
-674.8841850849997
 21
-1668.987313
 31
0.0
  0
LINE
  5
1DC
330
A
100
AcDbEntity
  8
HEWI
  6
STANDARD
 62
     7
100
AcDbLine
 10
-1382.384176085
 20
-1775.97332
 30
0.0
 11
-1382.384176085
 21
-1701.523323
 31
0.0
  0
LINE
  5
1DD
330
A
100
AcDbEntity
  8
HEWI
  6
STANDARD
 62
     7
100
AcDbLine
 10
-1422.384166085
 20
-1775.97332
 30
0.0
 11
-1422.384166085
 21
-1701.523323
 31
0.0
  0
LINE
  5
1DE
330
A
100
AcDbEntity
  8
HEWI
  6
STANDARD
 62
     7
100
AcDbLine
 10
-1556.684169085
 20
-1665.685311
 30
0.0
 11
-1556.684169085
 21
-1633.185311
 31
0.0
  0
LINE
  5
1DF
330
A
100
AcDbEntity
  8
HEWI
  6
STANDARD
 62
     7
100
AcDbLine
 10
-1556.684169085
 20
-1877.185326
 30
0.0
 11
-1556.684169085
 21
-1704.685326
 31
0.0
  0
LINE
  5
1E0
330
A
100
AcDbEntity
  8
HEWI
  6
STANDARD
 62
     7
100
AcDbLine
 10
-1559.684181085
 20
-1704.685326
 30
0.0
 11
-1559.684181085
 21
-1665.685311
 31
0.0
  0
LINE
  5
1E1
330
A
100
AcDbEntity
  8
HEWI
  6
STANDARD
 62
     7
100
AcDbLine
 10
-1552.384166085
 20
-1800.135307999999
 30
0.0
 11
-1552.384166085
 21
-1775.135308
 31
0.0
  0
LINE
  5
1E3
330
A
100
AcDbEntity
  8
HEWI
  6
STANDARD
 62
     7
100
AcDbLine
 10
-863.3841890849989
 20
-1775.97332
 30
0.0
 11
-863.3841890849989
 21
-1701.523323
 31
0.0
  0
LINE
  5
1E4
330
A
100
AcDbEntity
  8
HEWI
  6
STANDARD
 62
     7
100
AcDbLine
 10
-903.3841800849989
 20
-1775.97332
 30
0.0
 11
-903.3841800849989
 21
-1701.523323
 31
0.0
  0
LINE
  5
1E5
330
A
100
AcDbEntity
  8
HEWI
  6
STANDARD
 62
     7
100
AcDbLine
 10
-671.8841930849996
 20
-1701.822319
 30
0.0
 11
-671.8841930849996
 21
-1668.748284
 31
0.0
  0
LINE
  5
1ED
330
A
100
AcDbEntity
  8
HEWI
  6
STANDARD
 62
     7
100
AcDbLine
 10
-1571.884155084999
 20
-1883.185311
 30
0.0
 11
-1571.884155084999
 21
-1627.185288
 31
0.0
  0
LINE
  5
1EE
330
A
100
AcDbEntity
  8
HEWI
  6
STANDARD
 62
     7
100
AcDbLine
 10
-1557.684173084999
 20
-1665.885315
 30
0.0
 11
-1557.684173084999
 21
-1665.685311
 31
0.0
  0
LINE
  5
1EF
330
A
100
AcDbEntity
  8
HEWI
  6
STANDARD
 62
     7
100
AcDbLine
 10
-1562.684173084999
 20
-1882.58831
 30
0.0
 11
-1562.684173084999
 21
-1882.352333
 31
0.0
  0
LINE
  5
1F0
330
A
100
AcDbEntity
  8
HEWI
  6
STANDARD
 62
     7
100
AcDbLine
 10
-1513.966674085
 20
-1700.106774
 30
0.0
 11
-1513.608169085
 21
-1699.748268
 31
0.0
  0
LINE
  5
1F1
330
A
100
AcDbEntity
  8
HEWI
  6
STANDARD
 62
     7
100
AcDbLine
 10
-674.8841850849997
 20
-1668.735314
 30
0.0
 11
-674.6841810849997
 21
-1668.535309
 31
0.0
  0
LINE
  5
1F2
330
A
100
AcDbEntity
  8
HEWI
  6
STANDARD
 62
     7
100
AcDbLine
 10
-1513.966674085
 20
-1700.106774
 30
0.0
 11
-1513.738155084999
 21
-1699.878273
 31
0.0
  0
LINE
  5
1F3
330
A
100
AcDbEntity
  8
HEWI
  6
STANDARD
 62
     7
100
AcDbLine
 10
-674.8841850849997
 20
-1701.835289
 30
0.0
 11
-674.6841810849997
 21
-1702.035332
 31
0.0
  0
LINE
  5
1F5
330
A
100
AcDbEntity
  8
HEWI
  6
STANDARD
 62
     7
100
AcDbLine
 10
-672.0841980849996
 20
-1702.021294
 30
0.0
 11
-671.8841930849996
 21
-1701.822319
 31
0.0
  0
LINE
  5
1F6
330
A
100
AcDbEntity
  8
HEWI
  6
STANDARD
 62
     7
100
AcDbLine
 10
-1515.453166085
 20
-1668.911286
 30
0.0
 11
-1514.419174085
 21
-1669.951287
 31
0.0
  0
LINE
  5
1F7
330
A
100
AcDbEntity
  8
HEWI
  6
STANDARD
 62
     7
100
AcDbLine
 10
-863.6411850849999
 20
-1701.137276
 30
0.0
 11
-863.4601780849989
 21
-1701.323281
 31
0.0
  0
LINE
  5
1F8
330
A
100
AcDbEntity
  8
HEWI
  6
STANDARD
 62
     7
100
AcDbLine
 10
-1382.641172085
 20
-1701.137276
 30
0.0
 11
-1382.460174085
 21
-1701.323281
 31
0.0
  0
LINE
  5
1F9
330
A
100
AcDbEntity
  8
HEWI
  6
STANDARD
 62
     7
100
AcDbLine
 10
-1382.882175085
 20
-1776.755333
 30
0.0
 11
-1382.681179085
 21
-1776.563301
 31
0.0
  0
LINE
  5
1FA
330
A
100
AcDbEntity
  8
HEWI
  6
STANDARD
 62
     7
100
AcDbLine
 10
-863.8821790849988
 20
-1776.755333
 30
0.0
 11
-863.6811820850001
 21
-1776.563301
 31
0.0
  0
LINE
  5
1FB
330
A
100
AcDbEntity
  8
HEWI
  6
STANDARD
 62
     7
100
AcDbLine
 10
-1515.726165084999
 20
-1701.913338
 30
0.0
 11
-1515.453166085
 21
-1701.659279
 31
0.0
  0
LINE
  5
1FC
330
A
100
AcDbEntity
  8
HEWI
  6
STANDARD
 62
     7
100
AcDbLine
 10
-1514.419174085
 20
-1669.951287
 30
0.0
 11
-1514.257164085
 21
-1670.127297
 31
0.0
  0
LINE
  5
1FD
330
A
100
AcDbEntity
  8
HEWI
  6
STANDARD
 62
     7
100
AcDbLine
 10
-1516.553173085
 20
-1702.630272
 30
0.0
 11
-1515.726165084999
 21
-1701.913338
 31
0.0
  0
LINE
  5
1FE
330
A
100
AcDbEntity
  8
HEWI
  6
STANDARD
 62
     7
100
AcDbLine
 10
-1558.442153085
 20
-1628.942299
 30
0.0
 11
-1557.877159084999
 21
-1629.595299
 31
0.0
  0
LINE
  5
1FF
330
A
100
AcDbEntity
  8
HEWI
  6
STANDARD
 62
     7
100
AcDbLine
 10
-1514.257164085
 20
-1670.127297
 30
0.0
 11
-1513.455162084999
 21
-1671.05629
 31
0.0
  0
LINE
  5
200
330
A
100
AcDbEntity
  8
HEWI
  6
STANDARD
 62
     7
100
AcDbLine
 10
-1422.216167084999
 20
-1776.406288
 30
0.0
 11
-1422.087173084999
 21
-1776.563301
 31
0.0
  0
LINE
  5
201
330
A
100
AcDbEntity
  8
HEWI
  6
STANDARD
 62
     7
100
AcDbLine
 10
-903.2161800849989
 20
-1776.406288
 30
0.0
 11
-903.087186085
 21
-1776.563301
 31
0.0
  0
LINE
  5
202
330
A
100
AcDbEntity
  8
HEWI
  6
STANDARD
 62
     7
100
AcDbLine
 10
-1559.449157085
 20
-1882.238274
 30
0.0
 11
-1558.442153085
 21
-1881.428337
 31
0.0
  0
LINE
  5
203
330
A
100
AcDbEntity
  8
HEWI
  6
STANDARD
 62
     7
100
AcDbLine
 10
-1517.325172085
 20
-1703.240319
 30
0.0
 11
-1516.553173085
 21
-1702.630272
 31
0.0
  0
LINE
  5
204
330
A
100
AcDbEntity
  8
HEWI
  6
STANDARD
 62
     7
100
AcDbLine
 10
-1513.455162084999
 20
-1671.05629
 30
0.0
 11
-1512.929172085
 21
-1671.726302999999
 31
0.0
  0
LINE
  5
205
330
A
100
AcDbEntity
  8
HEWI
  6
STANDARD
 62
     7
100
AcDbLine
 10
-1556.934165085
 20
-1665.818291
 30
0.0
 11
-1556.831169085
 21
-1665.738297
 31
0.0
  0
LINE
  5
206
330
A
100
AcDbEntity
  8
HEWI
  6
STANDARD
 62
     7
100
AcDbLine
 10
-1517.713165084999
 20
-1703.527336
 30
0.0
 11
-1517.325172085
 21
-1703.240319
 31
0.0
  0
LINE
  5
207
330
A
100
AcDbEntity
  8
HEWI
  6
STANDARD
 62
     7
100
AcDbLine
 10
-1512.929172085
 20
-1671.726302999999
 30
0.0
 11
-1512.565174085
 21
-1672.22229
 31
0.0
  0
LINE
  5
208
330
A
100
AcDbEntity
  8
HEWI
  6
STANDARD
 62
     7
100
AcDbLine
 10
-1383.050174085
 20
-1776.878319
 30
0.0
 11
-1382.882175085
 21
-1776.755333
 31
0.0
  0
LINE
  5
209
330
A
100
AcDbEntity
  8
HEWI
  6
STANDARD
 62
     7
100
AcDbLine
 10
-864.0501780849987
 20
-1776.878319
 30
0.0
 11
-863.8821790849988
 21
-1776.755333
 31
0.0
  0
LINE
  5
20A
330
A
100
AcDbEntity
  8
HEWI
  6
STANDARD
 62
     7
100
AcDbLine
 10
-1383.262176085
 20
-1777.03228
 30
0.0
 11
-1383.050174085
 21
-1776.878319
 31
0.0
  0
LINE
  5
20B
330
A
100
AcDbEntity
  8
HEWI
  6
STANDARD
 62
     7
100
AcDbLine
 10
-864.2621800849999
 20
-1777.03228
 30
0.0
 11
-864.0501780849987
 21
-1776.878319
 31
0.0
  0
LINE
  5
20C
330
A
100
AcDbEntity
  8
HEWI
  6
STANDARD
 62
     7
100
AcDbLine
 10
-1422.082176084999
 20
-1701.105309
 30
0.0
 11
-1421.925182085
 21
-1700.994301
 31
0.0
  0
LINE
  5
20D
330
A
100
AcDbEntity
  8
HEWI
  6
STANDARD
 62
     7
100
AcDbLine
 10
-903.0821890849988
 20
-1701.105309
 30
0.0
 11
-902.925186084999
 21
-1700.994301
 31
0.0
  0
LINE
  5
20E
330
A
100
AcDbEntity
  8
HEWI
  6
STANDARD
 62
     7
100
AcDbLine
 10
-1516.680545085
 20
-1702.73098
 30
0.0
 11
-1516.381168085
 21
-1702.521324
 31
0.0
  0
LINE
  5
20F
330
A
100
AcDbEntity
  8
HEWI
  6
STANDARD
 62
     7
100
AcDbLine
 10
-1513.608169085
 20
-1670.822296
 30
0.0
 11
-1513.354568085
 21
-1671.184426
 31
0.0
  0
LINE
  5
210
330
A
100
AcDbEntity
  8
HEWI
  6
STANDARD
 62
     7
100
AcDbLine
 10
-1519.594173085
 20
-1704.771309
 30
0.0
 11
-1519.303836085
 21
-1704.567986
 31
0.0
  0
LINE
  5
211
330
A
100
AcDbEntity
  8
HEWI
  6
STANDARD
 62
     7
100
AcDbLine
 10
-1511.664295084999
 20
-1673.598137
 30
0.0
 11
-1511.358165084999
 21
-1674.035301
 31
0.0
  0
LINE
  5
212
330
A
100
AcDbEntity
  8
HEWI
  6
STANDARD
 62
     7
100
AcDbLine
 10
-1511.664371084999
 20
-1673.597985
 30
0.0
 11
-1511.358165084999
 21
-1674.035301
 31
0.0
  0
LINE
  5
213
330
A
100
AcDbEntity
  8
HEWI
  6
STANDARD
 62
     7
100
AcDbLine
 10
-903.1281850849989
 20
-1701.137276
 30
0.0
 11
-903.0821890849988
 21
-1701.105309
 31
0.0
  0
LINE
  5
214
330
A
100
AcDbEntity
  8
HEWI
  6
STANDARD
 62
     7
100
AcDbLine
 10
-1422.128181085
 20
-1701.137276
 30
0.0
 11
-1422.082176084999
 21
-1701.105309
 31
0.0
  0
LINE
  5
215
330
A
100
AcDbEntity
  8
HEWI
  6
STANDARD
 62
     7
100
AcDbLine
 10
-1518.930168085
 20
-1704.346276
 30
0.0
 11
-1517.713165084999
 21
-1703.527336
 31
0.0
  0
LINE
  5
216
330
A
100
AcDbEntity
  8
HEWI
  6
STANDARD
 62
     7
100
AcDbLine
 10
-1512.565174085
 20
-1672.22229
 30
0.0
 11
-1511.754169085
 21
-1673.440285
 31
0.0
  0
LINE
  5
217
330
A
100
AcDbEntity
  8
HEWI
  6
STANDARD
 62
     7
100
AcDbLine
 10
-1557.708168085
 20
-1629.859314
 30
0.0
 11
-1557.411155084999
 21
-1630.322304
 31
0.0
  0
LINE
  5
218
330
A
100
AcDbEntity
  8
HEWI
  6
STANDARD
 62
     7
100
AcDbLine
 10
-1557.877159084999
 20
-1629.595299
 30
0.0
 11
-1557.708168085
 21
-1629.859314
 31
0.0
  0
LINE
  5
219
330
A
100
AcDbEntity
  8
HEWI
  6
STANDARD
 62
     7
100
AcDbLine
 10
-1519.040164085
 20
-1704.415322
 30
0.0
 11
-1518.930168085
 21
-1704.346276
 31
0.0
  0
LINE
  5
21A
330
A
100
AcDbEntity
  8
HEWI
  6
STANDARD
 62
     7
100
AcDbLine
 10
-1422.309169085
 20
-1776.253319
 30
0.0
 11
-1422.216167084999
 21
-1776.406288
 31
0.0
  0
LINE
  5
21B
330
A
100
AcDbEntity
  8
HEWI
  6
STANDARD
 62
     7
100
AcDbLine
 10
-903.3091830850001
 20
-1776.253319
 30
0.0
 11
-903.2161800849989
 21
-1776.406288
 31
0.0
  0
LINE
  5
21C
330
A
100
AcDbEntity
  8
HEWI
  6
STANDARD
 62
     7
100
AcDbLine
 10
-1520.197162085
 20
-1705.085335
 30
0.0
 11
-1519.040164085
 21
-1704.415322
 31
0.0
  0
LINE
  5
21D
330
A
100
AcDbEntity
  8
HEWI
  6
STANDARD
 62
     7
100
AcDbLine
 10
-1511.755161084999
 20
-1673.440285
 30
0.0
 11
-1511.021156085
 21
-1674.715309
 31
0.0
  0
LINE
  5
21E
330
A
100
AcDbEntity
  8
HEWI
  6
STANDARD
 62
     7
100
AcDbLine
 10
-1383.514175085
 20
-1777.176323
 30
0.0
 11
-1383.262176085
 21
-1777.03228
 31
0.0
  0
LINE
  5
21F
330
A
100
AcDbEntity
  8
HEWI
  6
STANDARD
 62
     7
100
AcDbLine
 10
-864.5141790850001
 20
-1777.176323
 30
0.0
 11
-864.2621800849999
 21
-1777.03228
 31
0.0
  0
LINE
  5
220
330
A
100
AcDbEntity
  8
HEWI
  6
STANDARD
 62
     7
100
AcDbLine
 10
-902.925186084999
 20
-1700.994301
 30
0.0
 11
-902.7301880849988
 21
-1700.884285
 31
0.0
  0
LINE
  5
221
330
A
100
AcDbEntity
  8
HEWI
  6
STANDARD
 62
     7
100
AcDbLine
 10
-1421.925182085
 20
-1700.994301
 30
0.0
 11
-1421.730175085
 21
-1700.884285
 31
0.0
  0
LINE
  5
222
330
A
100
AcDbEntity
  8
HEWI
  6
STANDARD
 62
     7
100
AcDbLine
 10
-1382.460174085
 20
-1701.323281
 30
0.0
 11
-1382.403173084999
 21
-1701.425286
 31
0.0
  0
LINE
  5
223
330
A
100
AcDbEntity
  8
HEWI
  6
STANDARD
 62
     7
100
AcDbLine
 10
-863.4601780849989
 20
-1701.323281
 30
0.0
 11
-863.4031860849988
 21
-1701.425286
 31
0.0
  0
LINE
  5
224
330
A
100
AcDbEntity
  8
HEWI
  6
STANDARD
 62
     7
100
AcDbLine
 10
-1511.754169085
 20
-1673.440285
 30
0.0
 11
-1511.724815085
 21
-1673.493004
 31
0.0
  0
LINE
  5
225
330
A
100
AcDbEntity
  8
HEWI
  6
STANDARD
 62
     7
100
AcDbLine
 10
-1520.855159085
 20
-1705.426293
 30
0.0
 11
-1520.197162085
 21
-1705.085335
 31
0.0
  0
LINE
  5
226
330
A
100
AcDbEntity
  8
HEWI
  6
STANDARD
 62
     7
100
AcDbLine
 10
-1511.021156085
 20
-1674.715309
 30
0.0
 11
-1510.743160085
 21
-1675.25631
 31
0.0
  0
LINE
  5
227
330
A
100
AcDbEntity
  8
HEWI
  6
STANDARD
 62
     7
100
AcDbLine
 10
-1560.608177085
 20
-1882.814293
 30
0.0
 11
-1559.695167084999
 21
-1882.360268
 31
0.0
  0
LINE
  5
228
330
A
100
AcDbEntity
  8
HEWI
  6
STANDARD
 62
     7
100
AcDbLine
 10
-1559.695167084999
 20
-1882.360268
 30
0.0
 11
-1559.449157085
 21
-1882.238274
 31
0.0
  0
LINE
  5
229
330
A
100
AcDbEntity
  8
HEWI
  6
STANDARD
 62
     7
100
AcDbLine
 10
-1521.510162084999
 20
-1705.739327
 30
0.0
 11
-1520.855159085
 21
-1705.426293
 31
0.0
  0
LINE
  5
22A
330
A
100
AcDbEntity
  8
HEWI
  6
STANDARD
 62
     7
100
AcDbLine
 10
-1383.786172085
 20
-1777.305336
 30
0.0
 11
-1383.514175085
 21
-1777.176323
 31
0.0
  0
LINE
  5
22B
330
A
100
AcDbEntity
  8
HEWI
  6
STANDARD
 62
     7
100
AcDbLine
 10
-864.7861860849999
 20
-1777.305336
 30
0.0
 11
-864.5141790850001
 21
-1777.176323
 31
0.0
  0
LINE
  5
22C
330
A
100
AcDbEntity
  8
HEWI
  6
STANDARD
 62
     7
100
AcDbLine
 10
-1510.743160085
 20
-1675.25631
 30
0.0
 11
-1510.375156085
 21
-1676.032295
 31
0.0
  0
LINE
  5
22D
330
A
100
AcDbEntity
  8
HEWI
  6
STANDARD
 62
     7
100
AcDbLine
 10
-1523.149166085
 20
-1706.428337
 30
0.0
 11
-1522.956428085
 21
-1706.338462999999
 31
0.0
  0
LINE
  5
22E
330
A
100
AcDbEntity
  8
HEWI
  6
STANDARD
 62
     7
100
AcDbLine
 10
-1519.905605084999
 20
-1704.916497
 30
0.0
 11
-1519.594173085
 21
-1704.771309
 31
0.0
  0
LINE
  5
22F
330
A
100
AcDbEntity
  8
HEWI
  6
STANDARD
 62
     7
100
AcDbLine
 10
-1509.914550085
 20
-1677.132454
 30
0.0
 11
-1509.701156085
 21
-1677.590293999999
 31
0.0
  0
LINE
  5
230
330
A
100
AcDbEntity
  8
HEWI
  6
STANDARD
 62
     7
100
AcDbLine
 10
-1511.358165084999
 20
-1674.035301
 30
0.0
 11
-1511.126499085
 21
-1674.532357
 31
0.0
  0
LINE
  5
231
330
A
100
AcDbEntity
  8
HEWI
  6
STANDARD
 62
     7
100
AcDbLine
 10
-1509.915981085
 20
-1677.129097
 30
0.0
 11
-1509.701156085
 21
-1677.590293999999
 31
0.0
  0
LINE
  5
232
330
A
100
AcDbEntity
  8
HEWI
  6
STANDARD
 62
     7
100
AcDbLine
 10
-1421.730175085
 20
-1700.884285
 30
0.0
 11
-1421.506176085
 21
-1700.780296999999
 31
0.0
  0
LINE
  5
233
330
A
100
AcDbEntity
  8
HEWI
  6
STANDARD
 62
     7
100
AcDbLine
 10
-902.7301880849988
 20
-1700.884285
 30
0.0
 11
-902.5061890849999
 21
-1700.780296999999
 31
0.0
  0
LINE
  5
234
330
A
100
AcDbEntity
  8
HEWI
  6
STANDARD
 62
     7
100
AcDbLine
 10
-1557.152156084999
 20
-1630.894318
 30
0.0
 11
-1557.055168085
 21
-1631.108284
 31
0.0
  0
LINE
  5
235
330
A
100
AcDbEntity
  8
HEWI
  6
STANDARD
 62
     7
100
AcDbLine
 10
-1557.411155084999
 20
-1630.322304
 30
0.0
 11
-1557.152156084999
 21
-1630.894318
 31
0.0
  0
LINE
  5
236
330
A
100
AcDbEntity
  8
HEWI
  6
STANDARD
 62
     7
100
AcDbLine
 10
-1522.756156085
 20
-1706.266289
 30
0.0
 11
-1521.510162084999
 21
-1705.739327
 31
0.0
  0
LINE
  5
237
330
A
100
AcDbEntity
  8
HEWI
  6
STANDARD
 62
     7
100
AcDbLine
 10
-1510.375156085
 20
-1676.032295
 30
0.0
 11
-1509.904155084999
 21
-1677.157326
 31
0.0
  0
LINE
  5
238
330
A
100
AcDbEntity
  8
HEWI
  6
STANDARD
 62
     7
100
AcDbLine
 10
-1557.055168085
 20
-1665.868301999999
 30
0.0
 11
-1556.934165085
 21
-1665.818291
 31
0.0
  0
LINE
  5
239
330
A
100
AcDbEntity
  8
HEWI
  6
STANDARD
 62
     7
100
AcDbLine
 10
-1556.751155085
 20
-1704.935265
 30
0.0
 11
-1556.701164085
 21
-1705.056266999999
 31
0.0
  0
LINE
  5
23A
330
A
100
AcDbEntity
  8
HEWI
  6
STANDARD
 62
     7
100
AcDbLine
 10
-1421.506176085
 20
-1700.780296999999
 30
0.0
 11
-1421.255168085
 21
-1700.682335
 31
0.0
  0
LINE
  5
23B
330
A
100
AcDbEntity
  8
HEWI
  6
STANDARD
 62
     7
100
AcDbLine
 10
-902.5061890849999
 20
-1700.780296999999
 30
0.0
 11
-902.255182084999
 21
-1700.682335
 31
0.0
  0
LINE
  5
23C
330
A
100
AcDbEntity
  8
HEWI
  6
STANDARD
 62
     7
100
AcDbLine
 10
-865.0831790849988
 20
-1777.419319
 30
0.0
 11
-864.7861860849999
 21
-1777.305336
 31
0.0
  0
LINE
  5
23D
330
A
100
AcDbEntity
  8
HEWI
  6
STANDARD
 62
     7
100
AcDbLine
 10
-1384.083175085
 20
-1777.419319
 30
0.0
 11
-1383.786172085
 21
-1777.305336
 31
0.0
  0
LINE
  5
23E
330
A
100
AcDbEntity
  8
HEWI
  6
STANDARD
 62
     7
100
AcDbLine
 10
-1509.904155084999
 20
-1677.157326
 30
0.0
 11
-1509.816169085
 21
-1677.388268
 31
0.0
  0
LINE
  5
23F
330
A
100
AcDbEntity
  8
HEWI
  6
STANDARD
 62
     7
100
AcDbLine
 10
-1522.863159085
 20
-1706.306267
 30
0.0
 11
-1522.756156085
 21
-1706.266289
 31
0.0
  0
LINE
  5
240
330
A
100
AcDbEntity
  8
HEWI
  6
STANDARD
 62
     7
100
AcDbLine
 10
-1524.249172084999
 20
-1706.784325
 30
0.0
 11
-1522.863159085
 21
-1706.306267
 31
0.0
  0
LINE
  5
241
330
A
100
AcDbEntity
  8
HEWI
  6
STANDARD
 62
     7
100
AcDbLine
 10
-1422.377166085
 20
-1776.055336
 30
0.0
 11
-1422.309169085
 21
-1776.253319
 31
0.0
  0
LINE
  5
242
330
A
100
AcDbEntity
  8
HEWI
  6
STANDARD
 62
     7
100
AcDbLine
 10
-903.3771800849999
 20
-1776.055336
 30
0.0
 11
-903.3091830850001
 21
-1776.253319
 31
0.0
  0
LINE
  5
243
330
A
100
AcDbEntity
  8
HEWI
  6
STANDARD
 62
     7
100
AcDbLine
 10
-1509.816169085
 20
-1677.388268
 30
0.0
 11
-1509.346160085
 21
-1678.777275
 31
0.0
  0
LINE
  5
244
330
A
100
AcDbEntity
  8
HEWI
  6
STANDARD
 62
     7
100
AcDbLine
 10
-1421.255168085
 20
-1700.682335
 30
0.0
 11
-1420.981178084999
 21
-1700.594292
 31
0.0
  0
LINE
  5
245
330
A
100
AcDbEntity
  8
HEWI
  6
STANDARD
 62
     7
100
AcDbLine
 10
-902.255182084999
 20
-1700.682335
 30
0.0
 11
-901.9811820849989
 21
-1700.594292
 31
0.0
  0
LINE
  5
246
330
A
100
AcDbEntity
  8
HEWI
  6
STANDARD
 62
     7
100
AcDbLine
 10
-1524.727172085
 20
-1706.926308
 30
0.0
 11
-1524.249172084999
 21
-1706.784325
 31
0.0
  0
LINE
  5
247
330
A
100
AcDbEntity
  8
HEWI
  6
STANDARD
 62
     7
100
AcDbLine
 10
-1384.390172085
 20
-1777.510338
 30
0.0
 11
-1384.083175085
 21
-1777.419319
 31
0.0
  0
LINE
  5
248
330
A
100
AcDbEntity
  8
HEWI
  6
STANDARD
 62
     7
100
AcDbLine
 10
-865.3901860849989
 20
-1777.510338
 30
0.0
 11
-865.0831790849988
 21
-1777.419319
 31
0.0
  0
LINE
  5
249
330
A
100
AcDbEntity
  8
HEWI
  6
STANDARD
 62
     7
100
AcDbLine
 10
-1509.346160085
 20
-1678.777275
 30
0.0
 11
-1509.243164085
 21
-1679.128304
 31
0.0
  0
LINE
  5
24A
330
A
100
AcDbEntity
  8
HEWI
  6
STANDARD
 62
     7
100
AcDbLine
 10
-1557.055168085
 20
-1631.108284
 30
0.0
 11
-1556.815166085
 21
-1631.937294
 31
0.0
  0
LINE
  5
24B
330
A
100
AcDbEntity
  8
HEWI
  6
STANDARD
 62
     7
100
AcDbLine
 10
-1508.840675085
 20
-1680.801659
 30
0.0
 11
-1508.686161084999
 21
-1681.378289
 31
0.0
  0
LINE
  5
24C
330
A
100
AcDbEntity
  8
HEWI
  6
STANDARD
 62
     7
100
AcDbLine
 10
-1509.701156085
 20
-1677.590293999999
 30
0.0
 11
-1509.523677085
 21
-1678.252754
 31
0.0
  0
LINE
  5
24D
330
A
100
AcDbEntity
  8
HEWI
  6
STANDARD
 62
     7
100
AcDbLine
 10
-1526.937160084999
 20
-1707.443276
 30
0.0
 11
-1526.853122085
 21
-1707.420769
 31
0.0
  0
LINE
  5
24E
330
A
100
AcDbEntity
  8
HEWI
  6
STANDARD
 62
     7
100
AcDbLine
 10
-1508.841037085
 20
-1680.799904
 30
0.0
 11
-1508.686161084999
 21
-1681.378289
 31
0.0
  0
LINE
  5
24F
330
A
100
AcDbEntity
  8
HEWI
  6
STANDARD
 62
     7
100
AcDbLine
 10
-1523.452911084999
 20
-1706.509667
 30
0.0
 11
-1523.149166085
 21
-1706.428337
 31
0.0
  0
LINE
  5
250
330
A
100
AcDbEntity
  8
HEWI
  6
STANDARD
 62
     7
100
AcDbLine
 10
-1525.664157085
 20
-1707.171288
 30
0.0
 11
-1524.727172085
 21
-1706.926308
 31
0.0
  0
LINE
  5
251
330
A
100
AcDbEntity
  8
HEWI
  6
STANDARD
 62
     7
100
AcDbLine
 10
-1509.243164085
 20
-1679.128304
 30
0.0
 11
-1508.968162085
 21
-1680.195275
 31
0.0
  0
LINE
  5
252
330
A
100
AcDbEntity
  8
HEWI
  6
STANDARD
 62
     7
100
AcDbLine
 10
-901.9811820849989
 20
-1700.594292
 30
0.0
 11
-901.6861820849991
 21
-1700.518303
 31
0.0
  0
LINE
  5
253
330
A
100
AcDbEntity
  8
HEWI
  6
STANDARD
 62
     7
100
AcDbLine
 10
-1420.981178084999
 20
-1700.594292
 30
0.0
 11
-1420.686168085
 21
-1700.518303
 31
0.0
  0
LINE
  5
254
330
A
100
AcDbEntity
  8
HEWI
  6
STANDARD
 62
     7
100
AcDbLine
 10
-1561.862182085
 20
-1883.128319
 30
0.0
 11
-1561.140174084999
 21
-1882.947273
 31
0.0
  0
LINE
  5
255
330
A
100
AcDbEntity
  8
HEWI
  6
STANDARD
 62
     7
100
AcDbLine
 10
-1561.140174084999
 20
-1882.947273
 30
0.0
 11
-1560.608177085
 21
-1882.814293
 31
0.0
  0
LINE
  5
256
330
A
100
AcDbEntity
  8
HEWI
  6
STANDARD
 62
     7
100
AcDbLine
 10
-1526.750164085
 20
-1707.402306
 30
0.0
 11
-1525.664157085
 21
-1707.171288
 31
0.0
  0
LINE
  5
257
330
A
100
AcDbEntity
  8
HEWI
  6
STANDARD
 62
     7
100
AcDbLine
 10
-865.717182084999
 20
-1777.579308
 30
0.0
 11
-865.3901860849989
 21
-1777.510338
 31
0.0
  0
LINE
  5
258
330
A
100
AcDbEntity
  8
HEWI
  6
STANDARD
 62
     7
100
AcDbLine
 10
-1384.717178085
 20
-1777.579308
 30
0.0
 11
-1384.390172085
 21
-1777.510338
 31
0.0
  0
LINE
  5
259
330
A
100
AcDbEntity
  8
HEWI
  6
STANDARD
 62
     7
100
AcDbLine
 10
-1508.968162085
 20
-1680.195275
 30
0.0
 11
-1508.767166084999
 21
-1681.151314
 31
0.0
  0
LINE
  5
25A
330
A
100
AcDbEntity
  8
HEWI
  6
STANDARD
 62
     7
100
AcDbLine
 10
-1420.686168085
 20
-1700.518303
 30
0.0
 11
-1420.377178085
 21
-1700.457268
 31
0.0
  0
LINE
  5
25B
330
A
100
AcDbEntity
  8
HEWI
  6
STANDARD
 62
     7
100
AcDbLine
 10
-901.6861820849991
 20
-1700.518303
 30
0.0
 11
-901.3771820849999
 21
-1700.457268
 31
0.0
  0
LINE
  5
25C
330
A
100
AcDbEntity
  8
HEWI
  6
STANDARD
 62
     7
100
AcDbLine
 10
-1382.403173084999
 20
-1701.425286
 30
0.0
 11
-1382.384176085
 21
-1701.523323
 31
0.0
  0
LINE
  5
25D
330
A
100
AcDbEntity
  8
HEWI
  6
STANDARD
 62
     7
100
AcDbLine
 10
-863.4031860849988
 20
-1701.425286
 30
0.0
 11
-863.3841890849989
 21
-1701.523323
 31
0.0
  0
LINE
  5
25E
330
A
100
AcDbEntity
  8
HEWI
  6
STANDARD
 62
     7
100
AcDbLine
 10
-1527.101173085
 20
-1707.465325
 30
0.0
 11
-1526.750164085
 21
-1707.402306
 31
0.0
  0
LINE
  5
25F
330
A
100
AcDbEntity
  8
HEWI
  6
STANDARD
 62
     7
100
AcDbLine
 10
-1508.767166084999
 20
-1681.151314
 30
0.0
 11
-1508.683166085
 21
-1681.633263
 31
0.0
  0
LINE
  5
260
330
A
100
AcDbEntity
  8
HEWI
  6
STANDARD
 62
     7
100
AcDbLine
 10
-1556.684169085
 20
-1798.905297
 30
0.0
 11
-1556.635169085
 21
-1799.208336
 31
0.0
  0
LINE
  5
261
330
A
100
AcDbEntity
  8
HEWI
  6
STANDARD
 62
     7
100
AcDbLine
 10
-1555.993156085
 20
-1775.433312
 30
0.0
 11
-1555.684165085
 21
-1775.385323
 31
0.0
  0
LINE
  5
262
330
A
100
AcDbEntity
  8
HEWI
  6
STANDARD
 62
     7
100
AcDbLine
 10
-901.3771820849999
 20
-1700.457268
 30
0.0
 11
-901.052188084999
 21
-1700.411263
 31
0.0
  0
LINE
  5
263
330
A
100
AcDbEntity
  8
HEWI
  6
STANDARD
 62
     7
100
AcDbLine
 10
-1420.377178085
 20
-1700.457268
 30
0.0
 11
-1420.052166085
 21
-1700.411263
 31
0.0
  0
LINE
  5
264
330
A
100
AcDbEntity
  8
HEWI
  6
STANDARD
 62
     7
100
AcDbLine
 10
-1556.805171084999
 20
-1632.015305
 30
0.0
 11
-1556.697158085
 21
-1632.793312
 31
0.0
  0
LINE
  5
265
330
A
100
AcDbEntity
  8
HEWI
  6
STANDARD
 62
     7
100
AcDbLine
 10
-1528.555164085
 20
-1707.664299
 30
0.0
 11
-1527.101173085
 21
-1707.465325
 31
0.0
  0
LINE
  5
266
330
A
100
AcDbEntity
  8
HEWI
  6
STANDARD
 62
     7
100
AcDbLine
 10
-1557.184162084999
 20
-1665.885315
 30
0.0
 11
-1557.055168085
 21
-1665.868301999999
 31
0.0
  0
LINE
  5
267
330
A
100
AcDbEntity
  8
HEWI
  6
STANDARD
 62
     7
100
AcDbLine
 10
-1556.701164085
 20
-1705.056266999999
 30
0.0
 11
-1556.684169085
 21
-1705.18528
 31
0.0
  0
LINE
  5
268
330
A
100
AcDbEntity
  8
HEWI
  6
STANDARD
 62
     7
100
AcDbLine
 10
-1508.683166085
 20
-1681.633263
 30
0.0
 11
-1508.492164085
 21
-1683.088265
 31
0.0
  0
LINE
  5
269
330
A
100
AcDbEntity
  8
HEWI
  6
STANDARD
 62
     7
100
AcDbLine
 10
-1556.815166085
 20
-1631.937294
 30
0.0
 11
-1556.805171084999
 21
-1632.015305
 31
0.0
  0
LINE
  5
26A
330
A
100
AcDbEntity
  8
HEWI
  6
STANDARD
 62
     7
100
AcDbLine
 10
-1385.046176084999
 20
-1777.621269
 30
0.0
 11
-1384.717178085
 21
-1777.579308
 31
0.0
  0
LINE
  5
26B
330
A
100
AcDbEntity
  8
HEWI
  6
STANDARD
 62
     7
100
AcDbLine
 10
-866.0461800850001
 20
-1777.621269
 30
0.0
 11
-865.717182084999
 21
-1777.579308
 31
0.0
  0
LINE
  5
26C
330
A
100
AcDbEntity
  8
HEWI
  6
STANDARD
 62
     7
100
AcDbLine
 10
-1508.492164085
 20
-1683.088265
 30
0.0
 11
-1508.480167085
 21
-1683.209267
 31
0.0
  0
LINE
  5
26D
330
A
100
AcDbEntity
  8
HEWI
  6
STANDARD
 62
     7
100
AcDbLine
 10
-1528.808174085
 20
-1707.689324
 30
0.0
 11
-1528.555164085
 21
-1707.664299
 31
0.0
  0
LINE
  5
26E
330
A
100
AcDbEntity
  8
HEWI
  6
STANDARD
 62
     7
100
AcDbLine
 10
-1530.851497085
 20
-1662.78595
 30
0.0
 11
-1530.844173084999
 21
-1662.785301
 31
0.0
  0
LINE
  5
26F
330
A
100
AcDbEntity
  8
HEWI
  6
STANDARD
 62
     7
100
AcDbLine
 10
-1527.018032084999
 20
-1707.450371
 30
0.0
 11
-1526.937160084999
 21
-1707.443276
 31
0.0
  0
LINE
  5
270
330
A
100
AcDbEntity
  8
HEWI
  6
STANDARD
 62
     7
100
AcDbLine
 10
-1508.686161084999
 20
-1681.378289
 30
0.0
 11
-1508.624897085
 21
-1682.077141
 31
0.0
  0
LINE
  5
271
330
A
100
AcDbEntity
  8
HEWI
  6
STANDARD
 62
     7
100
AcDbLine
 10
-1508.393363085
 20
-1684.723244
 30
0.0
 11
-1508.344173084999
 21
-1685.285301
 31
0.0
  0
LINE
  5
272
330
A
100
AcDbEntity
  8
HEWI
  6
STANDARD
 62
     7
100
AcDbLine
 10
-1508.686161084999
 20
-1681.378289
 30
0.0
 11
-1508.625183085
 21
-1682.075081
 31
0.0
  0
LINE
  5
273
330
A
100
AcDbEntity
  8
HEWI
  6
STANDARD
 62
     7
100
AcDbLine
 10
-1508.393383085
 20
-1684.722862
 30
0.0
 11
-1508.344173084999
 21
-1685.285301
 31
0.0
  0
LINE
  5
274
330
A
100
AcDbEntity
  8
HEWI
  6
STANDARD
 62
     7
100
AcDbLine
 10
-1530.844173084999
 20
-1707.785301
 30
0.0
 11
-1530.832595084999
 21
-1707.78431
 31
0.0
  0
LINE
  5
275
330
A
100
AcDbEntity
  8
HEWI
  6
STANDARD
 62
     7
100
AcDbLine
 10
-1422.384166085
 20
-1775.97332
 30
0.0
 11
-1422.377166085
 21
-1776.055336
 31
0.0
  0
LINE
  5
276
330
A
100
AcDbEntity
  8
HEWI
  6
STANDARD
 62
     7
100
AcDbLine
 10
-903.3841800849989
 20
-1775.97332
 30
0.0
 11
-903.3771800849999
 21
-1776.055336
 31
0.0
  0
LINE
  5
277
330
A
100
AcDbEntity
  8
HEWI
  6
STANDARD
 62
     7
100
AcDbLine
 10
-1420.052166085
 20
-1700.411263
 30
0.0
 11
-1419.722175084999
 21
-1700.383263
 31
0.0
  0
LINE
  5
278
330
A
100
AcDbEntity
  8
HEWI
  6
STANDARD
 62
     7
100
AcDbLine
 10
-901.052188084999
 20
-1700.411263
 30
0.0
 11
-900.7221880849987
 21
-1700.383263
 31
0.0
  0
LINE
  5
279
330
A
100
AcDbEntity
  8
HEWI
  6
STANDARD
 62
     7
100
AcDbLine
 10
-1562.684173084999
 20
-1883.185311
 30
0.0
 11
-1561.862182085
 21
-1883.128319
 31
0.0
  0
LINE
  5
27A
330
A
100
AcDbEntity
  8
HEWI
  6
STANDARD
 62
     7
100
AcDbLine
 10
-1530.018157085
 20
-1707.768288
 30
0.0
 11
-1528.808174085
 21
-1707.689324
 31
0.0
  0
LINE
  5
27B
330
A
100
AcDbEntity
  8
HEWI
  6
STANDARD
 62
     7
100
AcDbLine
 10
-1508.480167085
 20
-1683.209267
 30
0.0
 11
-1508.396167084999
 21
-1684.552269
 31
0.0
  0
LINE
  5
27C
330
A
100
AcDbEntity
  8
HEWI
  6
STANDARD
 62
     7
100
AcDbLine
 10
-1385.384178084999
 20
-1777.635308
 30
0.0
 11
-1385.046176084999
 21
-1777.621269
 31
0.0
  0
LINE
  5
27D
330
A
100
AcDbEntity
  8
HEWI
  6
STANDARD
 62
     7
100
AcDbLine
 10
-866.3841810849989
 20
-1777.635308
 30
0.0
 11
-866.0461800850001
 21
-1777.621269
 31
0.0
  0
LINE
  5
27E
330
A
100
AcDbEntity
  8
HEWI
  6
STANDARD
 62
     7
100
AcDbLine
 10
-1556.697158085
 20
-1632.793312
 30
0.0
 11
-1556.684169085
 21
-1633.185311
 31
0.0
  0
LINE
  5
27F
330
A
100
AcDbEntity
  8
HEWI
  6
STANDARD
 62
     7
100
AcDbLine
 10
-1419.722175084999
 20
-1700.383263
 30
0.0
 11
-1419.384174085
 21
-1700.374336
 31
0.0
  0
LINE
  5
280
330
A
100
AcDbEntity
  8
HEWI
  6
STANDARD
 62
     7
100
AcDbLine
 10
-900.7221880849987
 20
-1700.383263
 30
0.0
 11
-900.384187084999
 21
-1700.374336
 31
0.0
  0
LINE
  5
281
330
A
100
AcDbEntity
  8
HEWI
  6
STANDARD
 62
     7
100
AcDbLine
 10
-1530.884170084999
 20
-1707.785301
 30
0.0
 11
-1530.018157085
 21
-1707.768288
 31
0.0
  0
LINE
  5
282
330
A
100
AcDbEntity
  8
HEWI
  6
STANDARD
 62
     7
100
AcDbLine
 10
-1508.396167084999
 20
-1684.552269
 30
0.0
 11
-1508.384170084999
 21
-1685.285301
 31
0.0
  0
LINE
  5
283
330
A
100
AcDbEntity
  8
HEWI
  6
STANDARD
 62
     7
100
AcDbLine
 10
-674.6841810849997
 20
-1702.035332
 30
0.0
 11
-672.0841980849996
 21
-1702.021294
 31
0.0
  0
LINE
  5
284
330
A
100
AcDbEntity
  8
HEWI
  6
STANDARD
 62
     7
100
AcDbLine
 10
-674.6841810849997
 20
-1668.535309
 30
0.0
 11
-672.0841980849996
 21
-1668.548317
 31
0.0
  0
LINE
  5
285
330
A
100
AcDbEntity
  8
HEWI
  6
STANDARD
 62
     7
100
AcDbLine
 10
-1508.396167084999
 20
-1686.018334
 30
0.0
 11
-1508.384170084999
 21
-1685.285301
 31
0.0
  0
LINE
  5
286
330
A
100
AcDbEntity
  8
HEWI
  6
STANDARD
 62
     7
100
AcDbLine
 10
-1385.384178084999
 20
-1700.374336
 30
0.0
 11
-1385.048170084999
 21
-1700.383263
 31
0.0
  0
LINE
  5
287
330
A
100
AcDbEntity
  8
HEWI
  6
STANDARD
 62
     7
100
AcDbLine
 10
-866.3841810849989
 20
-1700.374336
 30
0.0
 11
-866.0481830849999
 21
-1700.383263
 31
0.0
  0
LINE
  5
288
330
A
100
AcDbEntity
  8
HEWI
  6
STANDARD
 62
     7
100
AcDbLine
 10
-1562.684173084999
 20
-1627.185288
 30
0.0
 11
-1562.292175085
 21
-1627.198296
 31
0.0
  0
LINE
  5
289
330
A
100
AcDbEntity
  8
HEWI
  6
STANDARD
 62
     7
100
AcDbLine
 10
-1508.480167085
 20
-1687.361336
 30
0.0
 11
-1508.396167084999
 21
-1686.018334
 31
0.0
  0
LINE
  5
28A
330
A
100
AcDbEntity
  8
HEWI
  6
STANDARD
 62
     7
100
AcDbLine
 10
-1530.018157085
 20
-1662.802315
 30
0.0
 11
-1528.808174085
 21
-1662.881317
 31
0.0
  0
LINE
  5
28B
330
A
100
AcDbEntity
  8
HEWI
  6
STANDARD
 62
     7
100
AcDbLine
 10
-1556.741161085
 20
-1878.007317
 30
0.0
 11
-1556.684169085
 21
-1877.185326
 31
0.0
  0
LINE
  5
28C
330
A
100
AcDbEntity
  8
HEWI
  6
STANDARD
 62
     7
100
AcDbLine
 10
-1530.851497085
 20
-1707.784691
 30
0.0
 11
-1530.844173084999
 21
-1707.785301
 31
0.0
  0
LINE
  5
28D
330
A
100
AcDbEntity
  8
HEWI
  6
STANDARD
 62
     7
100
AcDbLine
 10
-866.0481830849999
 20
-1700.383263
 30
0.0
 11
-865.717182084999
 21
-1700.411263
 31
0.0
  0
LINE
  5
28E
330
A
100
AcDbEntity
  8
HEWI
  6
STANDARD
 62
     7
100
AcDbLine
 10
-1385.048170084999
 20
-1700.383263
 30
0.0
 11
-1384.717178085
 21
-1700.411263
 31
0.0
  0
LINE
  5
28F
330
A
100
AcDbEntity
  8
HEWI
  6
STANDARD
 62
     7
100
AcDbLine
 10
-1382.391176085
 20
-1776.055336
 30
0.0
 11
-1382.384176085
 21
-1775.97332
 31
0.0
  0
LINE
  5
290
330
A
100
AcDbEntity
  8
HEWI
  6
STANDARD
 62
     7
100
AcDbLine
 10
-863.3911890849999
 20
-1776.055336
 30
0.0
 11
-863.3841890849989
 21
-1775.97332
 31
0.0
  0
LINE
  5
291
330
A
100
AcDbEntity
  8
HEWI
  6
STANDARD
 62
     7
100
AcDbLine
 10
-1530.844173084999
 20
-1662.785301
 30
0.0
 11
-1530.832595084999
 21
-1662.786293
 31
0.0
  0
LINE
  5
292
330
A
100
AcDbEntity
  8
HEWI
  6
STANDARD
 62
     7
100
AcDbLine
 10
-1527.018032084999
 20
-1663.120232
 30
0.0
 11
-1526.937160084999
 21
-1663.127289
 31
0.0
  0
LINE
  5
293
330
A
100
AcDbEntity
  8
HEWI
  6
STANDARD
 62
     7
100
AcDbLine
 10
-1508.393383085
 20
-1685.847739999999
 30
0.0
 11
-1508.344173084999
 21
-1685.285301
 31
0.0
  0
LINE
  5
294
330
A
100
AcDbEntity
  8
HEWI
  6
STANDARD
 62
     7
100
AcDbLine
 10
-1508.393363085
 20
-1685.847359
 30
0.0
 11
-1508.344173084999
 21
-1685.285301
 31
0.0
  0
LINE
  5
295
330
A
100
AcDbEntity
  8
HEWI
  6
STANDARD
 62
     7
100
AcDbLine
 10
-1508.686161084999
 20
-1689.192314
 30
0.0
 11
-1508.624992085
 21
-1688.493462
 31
0.0
  0
LINE
  5
296
330
A
100
AcDbEntity
  8
HEWI
  6
STANDARD
 62
     7
100
AcDbLine
 10
-1508.686161084999
 20
-1689.192314
 30
0.0
 11
-1508.624706085
 21
-1688.491326
 31
0.0
  0
LINE
  5
297
330
A
100
AcDbEntity
  8
HEWI
  6
STANDARD
 62
     7
100
AcDbLine
 10
-1528.808174085
 20
-1662.881317
 30
0.0
 11
-1528.555164085
 21
-1662.906304
 31
0.0
  0
LINE
  5
298
330
A
100
AcDbEntity
  8
HEWI
  6
STANDARD
 62
     7
100
AcDbLine
 10
-1508.492164085
 20
-1687.482338
 30
0.0
 11
-1508.480167085
 21
-1687.361336
 31
0.0
  0
LINE
  5
299
330
A
100
AcDbEntity
  8
HEWI
  6
STANDARD
 62
     7
100
AcDbLine
 10
-1508.683166085
 20
-1688.936272
 30
0.0
 11
-1508.492164085
 21
-1687.482338
 31
0.0
  0
LINE
  5
29A
330
A
100
AcDbEntity
  8
HEWI
  6
STANDARD
 62
     7
100
AcDbLine
 10
-1556.701164085
 20
-1665.514298
 30
0.0
 11
-1556.684169085
 21
-1665.385285
 31
0.0
  0
LINE
  5
29B
330
A
100
AcDbEntity
  8
HEWI
  6
STANDARD
 62
     7
100
AcDbLine
 10
-1528.555164085
 20
-1662.906304
 30
0.0
 11
-1527.101173085
 21
-1663.105316
 31
0.0
  0
LINE
  5
29C
330
A
100
AcDbEntity
  8
HEWI
  6
STANDARD
 62
     7
100
AcDbLine
 10
-1562.292175085
 20
-1627.198296
 30
0.0
 11
-1561.514167084999
 21
-1627.305298
 31
0.0
  0
LINE
  5
29D
330
A
100
AcDbEntity
  8
HEWI
  6
STANDARD
 62
     7
100
AcDbLine
 10
-1384.717178085
 20
-1700.411263
 30
0.0
 11
-1384.392175085
 21
-1700.456276
 31
0.0
  0
LINE
  5
29E
330
A
100
AcDbEntity
  8
HEWI
  6
STANDARD
 62
     7
100
AcDbLine
 10
-865.717182084999
 20
-1700.411263
 30
0.0
 11
-865.3921890849989
 21
-1700.456276
 31
0.0
  0
LINE
  5
29F
330
A
100
AcDbEntity
  8
HEWI
  6
STANDARD
 62
     7
100
AcDbLine
 10
-1561.514167084999
 20
-1627.305298
 30
0.0
 11
-1561.437149085
 21
-1627.316284
 31
0.0
  0
LINE
  5
2A0
330
A
100
AcDbEntity
  8
HEWI
  6
STANDARD
 62
     7
100
AcDbLine
 10
-1555.993156085
 20
-1799.837303
 30
0.0
 11
-1555.684165085
 21
-1799.885292
 31
0.0
  0
LINE
  5
2A1
330
A
100
AcDbEntity
  8
HEWI
  6
STANDARD
 62
     7
100
AcDbLine
 10
-1556.684169085
 20
-1776.365319
 30
0.0
 11
-1556.635169085
 21
-1776.062279
 31
0.0
  0
LINE
  5
2A2
330
A
100
AcDbEntity
  8
HEWI
  6
STANDARD
 62
     7
100
AcDbLine
 10
-1508.767166084999
 20
-1689.419289
 30
0.0
 11
-1508.683166085
 21
-1688.936272
 31
0.0
  0
LINE
  5
2A3
330
A
100
AcDbEntity
  8
HEWI
  6
STANDARD
 62
     7
100
AcDbLine
 10
-1527.101173085
 20
-1663.105316
 30
0.0
 11
-1526.750164085
 21
-1663.168297
 31
0.0
  0
LINE
  5
2A4
330
A
100
AcDbEntity
  8
HEWI
  6
STANDARD
 62
     7
100
AcDbLine
 10
-1422.384166085
 20
-1701.523323
 30
0.0
 11
-1422.365169085
 21
-1701.426277
 31
0.0
  0
LINE
  5
2A5
330
A
100
AcDbEntity
  8
HEWI
  6
STANDARD
 62
     7
100
AcDbLine
 10
-903.3841800849989
 20
-1701.523323
 30
0.0
 11
-903.3651820849989
 21
-1701.426277
 31
0.0
  0
LINE
  5
2A6
330
A
100
AcDbEntity
  8
HEWI
  6
STANDARD
 62
     7
100
AcDbLine
 10
-865.3921890849989
 20
-1700.456276
 30
0.0
 11
-865.0831790849988
 21
-1700.518303
 31
0.0
  0
LINE
  5
2A7
330
A
100
AcDbEntity
  8
HEWI
  6
STANDARD
 62
     7
100
AcDbLine
 10
-1384.392175085
 20
-1700.456276
 30
0.0
 11
-1384.083175085
 21
-1700.518303
 31
0.0
  0
LINE
  5
2A8
330
A
100
AcDbEntity
  8
HEWI
  6
STANDARD
 62
     7
100
AcDbLine
 10
-1508.968162085
 20
-1690.375328
 30
0.0
 11
-1508.767166084999
 21
-1689.419289
 31
0.0
  0
LINE
  5
2A9
330
A
100
AcDbEntity
  8
HEWI
  6
STANDARD
 62
     7
100
AcDbLine
 10
-1526.750164085
 20
-1663.168297
 30
0.0
 11
-1525.664157085
 21
-1663.399315
 31
0.0
  0
LINE
  5
2AA
330
A
100
AcDbEntity
  8
HEWI
  6
STANDARD
 62
     7
100
AcDbLine
 10
-1557.055168085
 20
-1879.262276
 30
0.0
 11
-1556.922168084999
 21
-1878.730278
 31
0.0
  0
LINE
  5
2AB
330
A
100
AcDbEntity
  8
HEWI
  6
STANDARD
 62
     7
100
AcDbLine
 10
-1556.922168084999
 20
-1878.730278
 30
0.0
 11
-1556.741161085
 21
-1878.007317
 31
0.0
  0
LINE
  5
2AC
330
A
100
AcDbEntity
  8
HEWI
  6
STANDARD
 62
     7
100
AcDbLine
 10
-1384.083175085
 20
-1700.518303
 30
0.0
 11
-1383.786172085
 21
-1700.594292
 31
0.0
  0
LINE
  5
2AD
330
A
100
AcDbEntity
  8
HEWI
  6
STANDARD
 62
     7
100
AcDbLine
 10
-865.0831790849988
 20
-1700.518303
 30
0.0
 11
-864.7861860849999
 21
-1700.594292
 31
0.0
  0
LINE
  5
2AE
330
A
100
AcDbEntity
  8
HEWI
  6
STANDARD
 62
     7
100
AcDbLine
 10
-1509.243164085
 20
-1691.442299
 30
0.0
 11
-1508.968162085
 21
-1690.375328
 31
0.0
  0
LINE
  5
2AF
330
A
100
AcDbEntity
  8
HEWI
  6
STANDARD
 62
     7
100
AcDbLine
 10
-1525.664157085
 20
-1663.399315
 30
0.0
 11
-1524.727172085
 21
-1663.644295
 31
0.0
  0
LINE
  5
2B0
330
A
100
AcDbEntity
  8
HEWI
  6
STANDARD
 62
     7
100
AcDbLine
 10
-1523.439903085
 20
-1664.064408
 30
0.0
 11
-1523.149166085
 21
-1664.142304
 31
0.0
  0
LINE
  5
2B1
330
A
100
AcDbEntity
  8
HEWI
  6
STANDARD
 62
     7
100
AcDbLine
 10
-1509.701156085
 20
-1692.980309
 30
0.0
 11
-1509.522857085
 21
-1692.314873
 31
0.0
  0
LINE
  5
2B2
330
A
100
AcDbEntity
  8
HEWI
  6
STANDARD
 62
     7
100
AcDbLine
 10
-1508.840675085
 20
-1689.768944
 30
0.0
 11
-1508.686161084999
 21
-1689.192314
 31
0.0
  0
LINE
  5
2B3
330
A
100
AcDbEntity
  8
HEWI
  6
STANDARD
 62
     7
100
AcDbLine
 10
-1509.701156085
 20
-1692.980309
 30
0.0
 11
-1509.522342085
 21
-1692.313347
 31
0.0
  0
LINE
  5
2B4
330
A
100
AcDbEntity
  8
HEWI
  6
STANDARD
 62
     7
100
AcDbLine
 10
-1526.937160084999
 20
-1663.127289
 30
0.0
 11
-1526.853122085
 21
-1663.149834
 31
0.0
  0
LINE
  5
2B5
330
A
100
AcDbEntity
  8
HEWI
  6
STANDARD
 62
     7
100
AcDbLine
 10
-1561.437149085
 20
-1627.316284
 30
0.0
 11
-1560.608177085
 21
-1627.556305
 31
0.0
  0
LINE
  5
2B6
330
A
100
AcDbEntity
  8
HEWI
  6
STANDARD
 62
     7
100
AcDbLine
 10
-1509.346160085
 20
-1691.792336
 30
0.0
 11
-1509.243164085
 21
-1691.442299
 31
0.0
  0
LINE
  5
2B7
330
A
100
AcDbEntity
  8
HEWI
  6
STANDARD
 62
     7
100
AcDbLine
 10
-901.6861820849991
 20
-1777.419319
 30
0.0
 11
-901.3771820849999
 21
-1777.510338
 31
0.0
  0
LINE
  5
2B8
330
A
100
AcDbEntity
  8
HEWI
  6
STANDARD
 62
     7
100
AcDbLine
 10
-1420.686168085
 20
-1777.419319
 30
0.0
 11
-1420.377178085
 21
-1777.510338
 31
0.0
  0
LINE
  5
2B9
330
A
100
AcDbEntity
  8
HEWI
  6
STANDARD
 62
     7
100
AcDbLine
 10
-1524.727172085
 20
-1663.644295
 30
0.0
 11
-1524.249172084999
 21
-1663.785286
 31
0.0
  0
LINE
  5
2BA
330
A
100
AcDbEntity
  8
HEWI
  6
STANDARD
 62
     7
100
AcDbLine
 10
-864.7861860849999
 20
-1700.594292
 30
0.0
 11
-864.5141790850001
 21
-1700.682335
 31
0.0
  0
LINE
  5
2BB
330
A
100
AcDbEntity
  8
HEWI
  6
STANDARD
 62
     7
100
AcDbLine
 10
-1383.786172085
 20
-1700.594292
 30
0.0
 11
-1383.514175085
 21
-1700.682335
 31
0.0
  0
LINE
  5
2BC
330
A
100
AcDbEntity
  8
HEWI
  6
STANDARD
 62
     7
100
AcDbLine
 10
-1509.816169085
 20
-1693.182335
 30
0.0
 11
-1509.346160085
 21
-1691.792336
 31
0.0
  0
LINE
  5
2BD
330
A
100
AcDbEntity
  8
HEWI
  6
STANDARD
 62
     7
100
AcDbLine
 10
-1524.249172084999
 20
-1663.785286
 30
0.0
 11
-1522.863159085
 21
-1664.263306
 31
0.0
  0
LINE
  5
2BE
330
A
100
AcDbEntity
  8
HEWI
  6
STANDARD
 62
     7
100
AcDbLine
 10
-863.4601780849989
 20
-1776.253319
 30
0.0
 11
-863.3911890849999
 21
-1776.055336
 31
0.0
  0
LINE
  5
2BF
330
A
100
AcDbEntity
  8
HEWI
  6
STANDARD
 62
     7
100
AcDbLine
 10
-1382.460174085
 20
-1776.253319
 30
0.0
 11
-1382.391176085
 21
-1776.055336
 31
0.0
  0
LINE
  5
2C0
330
A
100
AcDbEntity
  8
HEWI
  6
STANDARD
 62
     7
100
AcDbLine
 10
-1509.904155084999
 20
-1693.413277
 30
0.0
 11
-1509.816169085
 21
-1693.182335
 31
0.0
  0
LINE
  5
2C1
330
A
100
AcDbEntity
  8
HEWI
  6
STANDARD
 62
     7
100
AcDbLine
 10
-1522.863159085
 20
-1664.263306
 30
0.0
 11
-1522.756156085
 21
-1664.304314
 31
0.0
  0
LINE
  5
2C2
330
A
100
AcDbEntity
  8
HEWI
  6
STANDARD
 62
     7
100
AcDbLine
 10
-1420.984172085
 20
-1777.304268
 30
0.0
 11
-1420.686168085
 21
-1777.419319
 31
0.0
  0
LINE
  5
2C3
330
A
100
AcDbEntity
  8
HEWI
  6
STANDARD
 62
     7
100
AcDbLine
 10
-901.9841860849989
 20
-1777.304268
 30
0.0
 11
-901.6861820849991
 21
-1777.419319
 31
0.0
  0
LINE
  5
2C4
330
A
100
AcDbEntity
  8
HEWI
  6
STANDARD
 62
     7
100
AcDbLine
 10
-1383.514175085
 20
-1700.682335
 30
0.0
 11
-1383.263177084999
 21
-1700.779305
 31
0.0
  0
LINE
  5
2C5
330
A
100
AcDbEntity
  8
HEWI
  6
STANDARD
 62
     7
100
AcDbLine
 10
-864.5141790850001
 20
-1700.682335
 30
0.0
 11
-864.2631910849988
 21
-1700.779305
 31
0.0
  0
LINE
  5
2C6
330
A
100
AcDbEntity
  8
HEWI
  6
STANDARD
 62
     7
100
AcDbLine
 10
-1556.751155085
 20
-1665.6353
 30
0.0
 11
-1556.701164085
 21
-1665.514298
 31
0.0
  0
LINE
  5
2C7
330
A
100
AcDbEntity
  8
HEWI
  6
STANDARD
 62
     7
100
AcDbLine
 10
-1510.375156085
 20
-1694.538307
 30
0.0
 11
-1509.904155084999
 21
-1693.413277
 31
0.0
  0
LINE
  5
2C8
330
A
100
AcDbEntity
  8
HEWI
  6
STANDARD
 62
     7
100
AcDbLine
 10
-1522.756156085
 20
-1664.304314
 30
0.0
 11
-1521.510162084999
 21
-1664.831314
 31
0.0
  0
LINE
  5
2C9
330
A
100
AcDbEntity
  8
HEWI
  6
STANDARD
 62
     7
100
AcDbLine
 10
-1560.608177085
 20
-1627.556305
 30
0.0
 11
-1560.393180084999
 21
-1627.653313
 31
0.0
  0
LINE
  5
2CA
330
A
100
AcDbEntity
  8
HEWI
  6
STANDARD
 62
     7
100
AcDbLine
 10
-1560.393180084999
 20
-1627.653313
 30
0.0
 11
-1559.821167084999
 21
-1627.912293
 31
0.0
  0
LINE
  5
2CB
330
A
100
AcDbEntity
  8
HEWI
  6
STANDARD
 62
     7
100
AcDbLine
 10
-1523.149166085
 20
-1664.142304
 30
0.0
 11
-1522.964668084999
 21
-1664.228287
 31
0.0
  0
LINE
  5
2CC
330
A
100
AcDbEntity
  8
HEWI
  6
STANDARD
 62
     7
100
AcDbLine
 10
-1519.905605084999
 20
-1665.654145
 30
0.0
 11
-1519.594173085
 21
-1665.799294
 31
0.0
  0
LINE
  5
2CD
330
A
100
AcDbEntity
  8
HEWI
  6
STANDARD
 62
     7
100
AcDbLine
 10
-1509.914550085
 20
-1693.438149
 30
0.0
 11
-1509.701156085
 21
-1692.980309
 31
0.0
  0
LINE
  5
2CE
330
A
100
AcDbEntity
  8
HEWI
  6
STANDARD
 62
     7
100
AcDbLine
 10
-1511.358165084999
 20
-1696.535301
 30
0.0
 11
-1511.126918085
 21
-1696.039162
 31
0.0
  0
LINE
  5
2CF
330
A
100
AcDbEntity
  8
HEWI
  6
STANDARD
 62
     7
100
AcDbLine
 10
-1383.263177084999
 20
-1700.779305
 30
0.0
 11
-1383.039178084999
 21
-1700.884285
 31
0.0
  0
LINE
  5
2D0
330
A
100
AcDbEntity
  8
HEWI
  6
STANDARD
 62
     7
100
AcDbLine
 10
-864.2631910849988
 20
-1700.779305
 30
0.0
 11
-864.0391920849999
 21
-1700.884285
 31
0.0
  0
LINE
  5
2D1
330
A
100
AcDbEntity
  8
HEWI
  6
STANDARD
 62
     7
100
AcDbLine
 10
-1421.255168085
 20
-1777.176323
 30
0.0
 11
-1420.984172085
 21
-1777.304268
 31
0.0
  0
LINE
  5
2D2
330
A
100
AcDbEntity
  8
HEWI
  6
STANDARD
 62
     7
100
AcDbLine
 10
-902.255182084999
 20
-1777.176323
 30
0.0
 11
-901.9841860849989
 21
-1777.304268
 31
0.0
  0
LINE
  5
2D3
330
A
100
AcDbEntity
  8
HEWI
  6
STANDARD
 62
     7
100
AcDbLine
 10
-1510.743160085
 20
-1695.314293
 30
0.0
 11
-1510.375156085
 21
-1694.538307
 31
0.0
  0
LINE
  5
2D4
330
A
100
AcDbEntity
  8
HEWI
  6
STANDARD
 62
     7
100
AcDbLine
 10
-1521.510162084999
 20
-1664.831314
 30
0.0
 11
-1520.855159085
 21
-1665.14431
 31
0.0
  0
LINE
  5
2D5
330
A
100
AcDbEntity
  8
HEWI
  6
STANDARD
 62
     7
100
AcDbLine
 10
-1557.509155084999
 20
-1880.175286
 30
0.0
 11
-1557.055168085
 21
-1879.262276
 31
0.0
  0
LINE
  5
2D6
330
A
100
AcDbEntity
  8
HEWI
  6
STANDARD
 62
     7
100
AcDbLine
 10
-1557.631149085
 20
-1880.420264999999
 30
0.0
 11
-1557.509155084999
 21
-1880.175286
 31
0.0
  0
LINE
  5
2D7
330
A
100
AcDbEntity
  8
HEWI
  6
STANDARD
 62
     7
100
AcDbLine
 10
-1511.021156085
 20
-1695.855294
 30
0.0
 11
-1510.743160085
 21
-1695.314293
 31
0.0
  0
LINE
  5
2D8
330
A
100
AcDbEntity
  8
HEWI
  6
STANDARD
 62
     7
100
AcDbLine
 10
-1520.855159085
 20
-1665.14431
 30
0.0
 11
-1520.197162085
 21
-1665.485306
 31
0.0
  0
LINE
  5
2D9
330
A
100
AcDbEntity
  8
HEWI
  6
STANDARD
 62
     7
100
AcDbLine
 10
-1422.365169085
 20
-1701.426277
 30
0.0
 11
-1422.309169085
 21
-1701.323281
 31
0.0
  0
LINE
  5
2DA
330
A
100
AcDbEntity
  8
HEWI
  6
STANDARD
 62
     7
100
AcDbLine
 10
-903.3651820849989
 20
-1701.426277
 30
0.0
 11
-903.3091830850001
 21
-1701.323281
 31
0.0
  0
LINE
  5
2DB
330
A
100
AcDbEntity
  8
HEWI
  6
STANDARD
 62
     7
100
AcDbLine
 10
-1511.754169085
 20
-1697.130318
 30
0.0
 11
-1511.745090085
 21
-1697.113991
 31
0.0
  0
LINE
  5
2DC
330
A
100
AcDbEntity
  8
HEWI
  6
STANDARD
 62
     7
100
AcDbLine
 10
-1383.039178084999
 20
-1700.884285
 30
0.0
 11
-1382.844171084999
 21
-1700.994301
 31
0.0
  0
LINE
  5
2DD
330
A
100
AcDbEntity
  8
HEWI
  6
STANDARD
 62
     7
100
AcDbLine
 10
-864.0391920849999
 20
-1700.884285
 30
0.0
 11
-863.8441840849989
 21
-1700.994301
 31
0.0
  0
LINE
  5
2DE
330
A
100
AcDbEntity
  8
HEWI
  6
STANDARD
 62
     7
100
AcDbLine
 10
-1421.506176085
 20
-1777.033272
 30
0.0
 11
-1421.255168085
 21
-1777.176323
 31
0.0
  0
LINE
  5
2DF
330
A
100
AcDbEntity
  8
HEWI
  6
STANDARD
 62
     7
100
AcDbLine
 10
-902.5061890849999
 20
-1777.033272
 30
0.0
 11
-902.255182084999
 21
-1777.176323
 31
0.0
  0
LINE
  5
2E0
330
A
100
AcDbEntity
  8
HEWI
  6
STANDARD
 62
     7
100
AcDbLine
 10
-1511.752166085
 20
-1697.126273999999
 30
0.0
 11
-1511.021156085
 21
-1695.855294
 31
0.0
  0
LINE
  5
2E1
330
A
100
AcDbEntity
  8
HEWI
  6
STANDARD
 62
     7
100
AcDbLine
 10
-1520.197162085
 20
-1665.485306
 30
0.0
 11
-1519.040164085
 21
-1666.155319
 31
0.0
  0
LINE
  5
2E2
330
A
100
AcDbEntity
  8
HEWI
  6
STANDARD
 62
     7
100
AcDbLine
 10
-1382.553176085
 20
-1776.406288
 30
0.0
 11
-1382.460174085
 21
-1776.253319
 31
0.0
  0
LINE
  5
2E3
330
A
100
AcDbEntity
  8
HEWI
  6
STANDARD
 62
     7
100
AcDbLine
 10
-863.5531800849989
 20
-1776.406288
 30
0.0
 11
-863.4601780849989
 21
-1776.253319
 31
0.0
  0
LINE
  5
2E4
330
A
100
AcDbEntity
  8
HEWI
  6
STANDARD
 62
     7
100
AcDbLine
 10
-1519.040164085
 20
-1666.155319
 30
0.0
 11
-1518.930168085
 21
-1666.224289
 31
0.0
  0
LINE
  5
2E5
330
A
100
AcDbEntity
  8
HEWI
  6
STANDARD
 62
     7
100
AcDbLine
 10
-1559.359169084999
 20
-1628.208313
 30
0.0
 11
-1559.094162084999
 21
-1628.377304
 31
0.0
  0
LINE
  5
2E6
330
A
100
AcDbEntity
  8
HEWI
  6
STANDARD
 62
     7
100
AcDbLine
 10
-1559.821167084999
 20
-1627.912293
 30
0.0
 11
-1559.359169084999
 21
-1628.208313
 31
0.0
  0
LINE
  5
2E7
330
A
100
AcDbEntity
  8
HEWI
  6
STANDARD
 62
     7
100
AcDbLine
 10
-1512.565174085
 20
-1698.348274
 30
0.0
 11
-1511.754169085
 21
-1697.130318
 31
0.0
  0
LINE
  5
2E8
330
A
100
AcDbEntity
  8
HEWI
  6
STANDARD
 62
     7
100
AcDbLine
 10
-1518.930168085
 20
-1666.224289
 30
0.0
 11
-1517.713165084999
 21
-1667.043305
 31
0.0
  0
LINE
  5
2E9
330
A
100
AcDbEntity
  8
HEWI
  6
STANDARD
 62
     7
100
AcDbLine
 10
-863.8441840849989
 20
-1700.994301
 30
0.0
 11
-863.6811820850001
 21
-1701.105309
 31
0.0
  0
LINE
  5
2EA
330
A
100
AcDbEntity
  8
HEWI
  6
STANDARD
 62
     7
100
AcDbLine
 10
-1382.844171084999
 20
-1700.994301
 30
0.0
 11
-1382.681179085
 21
-1701.105309
 31
0.0
  0
LINE
  5
2EB
330
A
100
AcDbEntity
  8
HEWI
  6
STANDARD
 62
     7
100
AcDbLine
 10
-1421.730175085
 20
-1776.880303
 30
0.0
 11
-1421.506176085
 21
-1777.033272
 31
0.0
  0
LINE
  5
2EC
330
A
100
AcDbEntity
  8
HEWI
  6
STANDARD
 62
     7
100
AcDbLine
 10
-902.7301880849988
 20
-1776.880303
 30
0.0
 11
-902.5061890849999
 21
-1777.033272
 31
0.0
  0
LINE
  5
2ED
330
A
100
AcDbEntity
  8
HEWI
  6
STANDARD
 62
     7
100
AcDbLine
 10
-1511.660861084999
 20
-1696.967583
 30
0.0
 11
-1511.358165084999
 21
-1696.535301
 31
0.0
  0
LINE
  5
2EE
330
A
100
AcDbEntity
  8
HEWI
  6
STANDARD
 62
     7
100
AcDbLine
 10
-1519.594173085
 20
-1665.799294
 30
0.0
 11
-1519.303836085
 21
-1666.002617
 31
0.0
  0
LINE
  5
2EF
330
A
100
AcDbEntity
  8
HEWI
  6
STANDARD
 62
     7
100
AcDbLine
 10
-1516.680545085
 20
-1667.839661
 30
0.0
 11
-1516.381168085
 21
-1668.049317
 31
0.0
  0
LINE
  5
2F0
330
A
100
AcDbEntity
  8
HEWI
  6
STANDARD
 62
     7
100
AcDbLine
 10
-1513.608169085
 20
-1699.748268
 30
0.0
 11
-1513.354415084999
 21
-1699.385948
 31
0.0
  0
LINE
  5
2F1
330
A
100
AcDbEntity
  8
HEWI
  6
STANDARD
 62
     7
100
AcDbLine
 10
-1513.608169085
 20
-1699.748268
 30
0.0
 11
-1513.354568085
 21
-1699.386177
 31
0.0
  0
LINE
  5
2F2
330
A
100
AcDbEntity
  8
HEWI
  6
STANDARD
 62
     7
100
AcDbLine
 10
-1512.929172085
 20
-1698.844338
 30
0.0
 11
-1512.565174085
 21
-1698.348274
 31
0.0
  0
LINE
  5
2F3
330
A
100
AcDbEntity
  8
HEWI
  6
STANDARD
 62
     7
100
AcDbLine
 10
-1517.713165084999
 20
-1667.043305
 30
0.0
 11
-1517.325172085
 21
-1667.330284
 31
0.0
  0
LINE
  5
2F4
330
A
100
AcDbEntity
  8
HEWI
  6
STANDARD
 62
     7
100
AcDbLine
 10
-1556.831169085
 20
-1665.738297
 30
0.0
 11
-1556.751155085
 21
-1665.6353
 31
0.0
  0
LINE
  5
2F5
330
A
100
AcDbEntity
  8
HEWI
  6
STANDARD
 62
     7
100
AcDbLine
 10
-1513.455162084999
 20
-1699.514275
 30
0.0
 11
-1512.929172085
 21
-1698.844338
 31
0.0
  0
LINE
  5
2F6
330
A
100
AcDbEntity
  8
HEWI
  6
STANDARD
 62
     7
100
AcDbLine
 10
-1517.325172085
 20
-1667.330284
 30
0.0
 11
-1516.553173085
 21
-1667.940293
 31
0.0
  0
LINE
  5
2F7
330
A
100
AcDbEntity
  8
HEWI
  6
STANDARD
 62
     7
100
AcDbLine
 10
-1421.887168085
 20
-1776.755333
 30
0.0
 11
-1421.730175085
 21
-1776.880303
 31
0.0
  0
LINE
  5
2F8
330
A
100
AcDbEntity
  8
HEWI
  6
STANDARD
 62
     7
100
AcDbLine
 10
-902.8871820849991
 20
-1776.755333
 30
0.0
 11
-902.7301880849988
 21
-1776.880303
 31
0.0
  0
LINE
  5
2F9
330
A
100
AcDbEntity
  8
HEWI
  6
STANDARD
 62
     7
100
AcDbLine
 10
-1382.681179085
 20
-1701.105309
 30
0.0
 11
-1382.641172085
 21
-1701.137276
 31
0.0
  0
LINE
  5
2FA
330
A
100
AcDbEntity
  8
HEWI
  6
STANDARD
 62
     7
100
AcDbLine
 10
-863.6811820850001
 20
-1701.105309
 30
0.0
 11
-863.6411850849999
 21
-1701.137276
 31
0.0
  0
LINE
  5
2FB
330
A
100
AcDbEntity
  8
HEWI
  6
STANDARD
 62
     7
100
AcDbLine
 10
-1558.442153085
 20
-1881.428337
 30
0.0
 11
-1557.631149085
 21
-1880.420264999999
 31
0.0
  0
LINE
  5
2FC
330
A
100
AcDbEntity
  8
HEWI
  6
STANDARD
 62
     7
100
AcDbLine
 10
-1382.681179085
 20
-1776.563301
 30
0.0
 11
-1382.553176085
 21
-1776.406288
 31
0.0
  0
LINE
  5
2FD
330
A
100
AcDbEntity
  8
HEWI
  6
STANDARD
 62
     7
100
AcDbLine
 10
-863.6811820850001
 20
-1776.563301
 30
0.0
 11
-863.5531800849989
 21
-1776.406288
 31
0.0
  0
LINE
  5
2FE
330
A
100
AcDbEntity
  8
HEWI
  6
STANDARD
 62
     7
100
AcDbLine
 10
-1514.257164085
 20
-1700.443306
 30
0.0
 11
-1513.455162084999
 21
-1699.514275
 31
0.0
  0
LINE
  5
2FF
330
A
100
AcDbEntity
  8
HEWI
  6
STANDARD
 62
     7
100
AcDbLine
 10
-1559.094162084999
 20
-1628.377304
 30
0.0
 11
-1558.442153085
 21
-1628.942299
 31
0.0
  0
LINE
  5
300
330
A
100
AcDbEntity
  8
HEWI
  6
STANDARD
 62
     7
100
AcDbLine
 10
-1516.553173085
 20
-1667.940293
 30
0.0
 11
-1515.726165084999
 21
-1668.657302999999
 31
0.0
  0
LINE
  5
301
330
A
100
AcDbEntity
  8
HEWI
  6
STANDARD
 62
     7
100
AcDbLine
 10
-1514.419174085
 20
-1700.619316
 30
0.0
 11
-1514.257164085
 21
-1700.443306
 31
0.0
  0
LINE
  5
302
330
A
100
AcDbEntity
  8
HEWI
  6
STANDARD
 62
     7
100
AcDbLine
 10
-1515.726165084999
 20
-1668.657302999999
 30
0.0
 11
-1515.453166085
 21
-1668.911286
 31
0.0
  0
LINE
  5
303
330
A
100
AcDbEntity
  8
HEWI
  6
STANDARD
 62
     7
100
AcDbLine
 10
-1422.087173084999
 20
-1776.563301
 30
0.0
 11
-1421.887168085
 21
-1776.755333
 31
0.0
  0
LINE
  5
304
330
A
100
AcDbEntity
  8
HEWI
  6
STANDARD
 62
     7
100
AcDbLine
 10
-903.087186085
 20
-1776.563301
 30
0.0
 11
-902.8871820849991
 21
-1776.755333
 31
0.0
  0
LINE
  5
305
330
A
100
AcDbEntity
  8
HEWI
  6
STANDARD
 62
     7
100
AcDbLine
 10
-1422.309169085
 20
-1701.323281
 30
0.0
 11
-1422.128181085
 21
-1701.137276
 31
0.0
  0
LINE
  5
306
330
A
100
AcDbEntity
  8
HEWI
  6
STANDARD
 62
     7
100
AcDbLine
 10
-903.3091830850001
 20
-1701.323281
 30
0.0
 11
-903.1281850849989
 21
-1701.137276
 31
0.0
  0
LINE
  5
307
330
A
100
AcDbEntity
  8
HEWI
  6
STANDARD
 62
     7
100
AcDbLine
 10
-1515.453166085
 20
-1701.659279
 30
0.0
 11
-1514.419174085
 21
-1700.619316
 31
0.0
  0
LINE
  5
308
330
A
100
AcDbEntity
  8
HEWI
  6
STANDARD
 62
     7
100
AcDbLine
 10
-672.0841980849996
 20
-1668.548317
 30
0.0
 11
-671.8841930849996
 21
-1668.748284
 31
0.0
  0
LINE
  5
30A
330
A
100
AcDbEntity
  8
HEWI
  6
STANDARD
 62
     7
100
AcDbLine
 10
-1513.966674085
 20
-1670.463791
 30
0.0
 11
-1513.738155084999
 21
-1670.692292
 31
0.0
  0
LINE
  5
30B
330
A
100
AcDbEntity
  8
HEWI
  6
STANDARD
 62
     7
100
AcDbLine
 10
-1516.381168085
 20
-1702.521324
 30
0.0
 11
-1516.079521084999
 21
-1702.219658
 31
0.0
  0
LINE
  5
30C
330
A
100
AcDbEntity
  8
HEWI
  6
STANDARD
 62
     7
100
AcDbLine
 10
-1516.381168085
 20
-1668.049317
 30
0.0
 11
-1516.079521084999
 21
-1668.350945
 31
0.0
  0
LINE
  5
30D
330
A
100
AcDbEntity
  8
HEWI
  6
STANDARD
 62
     7
100
AcDbLine
 10
-1513.966674085
 20
-1670.463791
 30
0.0
 11
-1513.608169085
 21
-1670.822296
 31
0.0
  0
ARC
  5
30E
330
A
100
AcDbEntity
  8
HEWI
  6
STANDARD
 62
     7
100
AcDbCircle
 10
-1555.696213085
 20
-1776.373238
 30
0.0
 40
0.9879879999999998
100
AcDbArc
 50
89.30133900000141
 51
179.540740999996
  0
ARC
  5
30F
330
A
100
AcDbEntity
  8
HEWI
  6
STANDARD
 62
     7
100
AcDbCircle
 10
-1555.692522085
 20
-1798.893611
 30
0.0
 40
0.991716
100
AcDbArc
 50
180.6751360000007
 51
270.4827829999989
  0
ARC
  5
310
330
A
100
AcDbEntity
  8
HEWI
  6
STANDARD
 62
     7
100
AcDbCircle
 10
-1419.385275085
 20
-1773.636384
 30
0.0
 40
3.998923999999998
100
AcDbArc
 50
255.6382999999992
 51
270.0157790000014
  0
ARC
  5
311
330
A
100
AcDbEntity
  8
HEWI
  6
STANDARD
 62
     7
100
AcDbCircle
 10
-900.3853360849989
 20
-1773.636837
 30
0.0
 40
3.998470999999998
100
AcDbArc
 50
255.6374809999984
 51
270.0164620000002
  0
ARC
  5
312
330
A
100
AcDbEntity
  8
HEWI
  6
STANDARD
 62
     7
100
AcDbCircle
 10
-1557.184133085
 20
-1705.185212
 30
0.0
 40
0.499886
100
AcDbArc
 50
14.94834400000109
 51
90.00331300000047
  0
LINE
  5
48B
330
A
100
AcDbEntity
  8
HEWI
100
AcDbLine
 10
-1838.243031594354
 20
-1662.699753128151
 30
0.0
 11
-1851.242933322909
 21
-1662.651306786731
 31
0.0
  0
LINE
  5
48C
330
A
100
AcDbEntity
  8
HEWI
100
AcDbLine
 10
-1838.410730571698
 20
-1707.699440649877
 30
0.0
 11
-1851.410632300253
 21
-1707.650994308457
 31
0.0
  0
LINE
  5
48D
330
A
100
AcDbEntity
  8
HEWI
100
AcDbLine
 10
-1837.870502503156
 20
-1685.10127496674
 30
0.0
 11
-1838.326508336647
 21
-1685.099575583563
 31
0.0
  0
LINE
  5
48E
330
A
100
AcDbEntity
  8
HEWI
100
AcDbLine
 10
-1837.954724738208
 20
-1707.701140033054
 30
0.0
 11
-1837.787025760863
 21
-1662.701452511328
 31
0.0
  0
LINE
  5
48F
330
A
100
AcDbEntity
  8
HEWI
100
AcDbLine
 10
-1838.410730571698
 20
-1707.699440649877
 30
0.0
 11
-1838.243031594354
 21
-1662.699753128151
 31
0.0
  0
LINE
  5
490
330
A
100
AcDbEntity
  8
HEWI
100
AcDbLine
 10
-1852.305562933415
 20
-1663.086344765419
 30
0.0
 11
-1852.428093115756
 21
-1663.224896101152
 31
0.0
  0
LINE
  5
491
330
A
100
AcDbEntity
  8
HEWI
100
AcDbLine
 10
-1852.331456544254
 20
-1707.330558499274
 30
0.0
 11
-1852.46998995092
 21
-1707.20804738388
 31
0.0
  0
LINE
  5
492
330
A
100
AcDbEntity
  8
HEWI
100
AcDbLine
 10
-1852.428093115756
 20
-1663.224896101152
 30
0.0
 11
-1852.544719311745
 21
-1663.396467668232
 31
0.0
  0
LINE
  5
493
330
A
100
AcDbEntity
  8
HEWI
100
AcDbLine
 10
-1852.159885906362
 20
-1707.447165691668
 30
0.0
 11
-1852.331456544254
 21
-1707.330558499274
 31
0.0
  0
LINE
  5
494
330
A
100
AcDbEntity
  8
HEWI
100
AcDbLine
 10
-1852.544719311745
 20
-1663.396467668232
 30
0.0
 11
-1852.619264150048
 21
-1663.541187871093
 31
0.0
  0
LINE
  5
495
330
A
100
AcDbEntity
  8
HEWI
100
AcDbLine
 10
-1852.0151657035
 20
-1707.521710529971
 30
0.0
 11
-1852.159885906362
 21
-1707.447165691668
 31
0.0
  0
LINE
  5
496
330
A
100
AcDbEntity
  8
HEWI
100
AcDbLine
 10
-1851.798451677504
 20
-1707.598583679788
 30
0.0
 11
-1852.0151657035
 21
-1707.521710529971
 31
0.0
  0
LINE
  5
497
330
A
100
AcDbEntity
  8
HEWI
100
AcDbLine
 10
-1852.619264150048
 20
-1663.541187871093
 30
0.0
 11
-1852.696080229454
 21
-1663.75788310964
 31
0.0
  0
LINE
  5
498
330
A
100
AcDbEntity
  8
HEWI
100
AcDbLine
 10
-1851.661559368554
 20
-1707.629078040433
 30
0.0
 11
-1851.798451677504
 21
-1707.598583679788
 31
0.0
  0
LINE
  5
499
330
A
100
AcDbEntity
  8
HEWI
100
AcDbLine
 10
-1852.696080229454
 20
-1663.75788310964
 30
0.0
 11
-1852.726573660912
 21
-1663.894794422185
 31
0.0
  0
LINE
  5
49A
330
A
100
AcDbEntity
  8
HEWI
100
AcDbLine
 10
-1852.726573660912
 20
-1663.894794422185
 30
0.0
 11
-1852.748508928805
 21
-1664.14572141968
 31
0.0
  0
LINE
  5
49B
330
A
100
AcDbEntity
  8
HEWI
100
AcDbLine
 10
-1851.410632300253
 20
-1707.650994308457
 30
0.0
 11
-1851.661559368554
 21
-1707.629078040433
 31
0.0
  0
LINE
  5
49C
330
A
100
AcDbEntity
  8
HEWI
100
AcDbLine
 10
-1851.242933322909
 20
-1662.651306786731
 30
0.0
 11
-1851.494016764916
 21
-1662.671351227331
 31
0.0
  0
LINE
  5
49D
330
A
100
AcDbEntity
  8
HEWI
100
AcDbLine
 10
-1852.884963418339
 20
-1706.396482290045
 30
0.0
 11
-1852.9050278588
 21
-1706.145398773506
 31
0.0
  0
LINE
  5
49E
330
A
100
AcDbEntity
  8
HEWI
100
AcDbLine
 10
-1852.8554912662
 20
-1706.533617074522
 30
0.0
 11
-1852.884963418339
 21
-1706.396482290045
 31
0.0
  0
LINE
  5
49F
330
A
100
AcDbEntity
  8
HEWI
100
AcDbLine
 10
-1851.494016764916
 20
-1662.671351227331
 30
0.0
 11
-1851.631132694862
 21
-1662.700862450006
 31
0.0
  0
LINE
  5
4A0
330
A
100
AcDbEntity
  8
HEWI
100
AcDbLine
 10
-1851.631132694862
 20
-1662.700862450006
 30
0.0
 11
-1851.848413371976
 21
-1662.776042244333
 31
0.0
  0
LINE
  5
4A1
330
A
100
AcDbEntity
  8
HEWI
100
AcDbLine
 10
-1852.780292401198
 20
-1706.750878822573
 30
0.0
 11
-1852.8554912662
 21
-1706.533617074522
 31
0.0
  0
LINE
  5
4A2
330
A
100
AcDbEntity
  8
HEWI
100
AcDbLine
 10
-1852.706828408891
 20
-1706.896188605741
 30
0.0
 11
-1852.780292401198
 21
-1706.750878822573
 31
0.0
  0
LINE
  5
4A3
330
A
100
AcDbEntity
  8
HEWI
100
AcDbLine
 10
-1851.848413371976
 20
-1662.776042244333
 30
0.0
 11
-1851.993685155407
 21
-1662.849506378254
 31
0.0
  0
LINE
  5
4A4
330
A
100
AcDbEntity
  8
HEWI
100
AcDbLine
 10
-1851.993685155407
 20
-1662.849506378254
 30
0.0
 11
-1852.166120270348
 21
-1662.964869575055
 31
0.0
  0
LINE
  5
4A5
330
A
100
AcDbEntity
  8
HEWI
100
AcDbLine
 10
-1852.591484074071
 20
-1707.068586650133
 30
0.0
 11
-1852.706828408891
 21
-1706.896188605741
 31
0.0
  0
LINE
  5
4A6
330
A
100
AcDbEntity
  8
HEWI
100
AcDbLine
 10
-1852.166120270348
 20
-1662.964869575055
 30
0.0
 11
-1852.305562933415
 21
-1663.086344765419
 31
0.0
  0
LINE
  5
4A7
330
A
100
AcDbEntity
  8
HEWI
100
AcDbLine
 10
-1852.46998995092
 20
-1707.20804738388
 30
0.0
 11
-1852.591484074071
 21
-1707.068586650133
 31
0.0
  0
LINE
  5
4AA
330
A
100
AcDbEntity
  8
HEWI
  6
STANDARD
 62
     7
100
AcDbLine
 10
-1559.684181085
 20
-1665.685234
 30
0.0
 11
-1557.184162084999
 21
-1665.685234
 31
0.0
  0
LINE
  5
4AB
330
A
100
AcDbEntity
  8
HEWI
  6
STANDARD
 62
     7
100
AcDbLine
 10
-1556.684169085
 20
-1662.585259
 30
0.0
 11
-1530.884170084999
 21
-1662.585259
 31
0.0
  0
LINE
  5
4AC
330
A
100
AcDbEntity
  8
HEWI
  6
STANDARD
 62
     7
100
AcDbLine
 10
-1513.966674085
 20
-1670.263786
 30
0.0
 11
-1513.608169085
 21
-1670.622292
 31
0.0
  0
LINE
  5
4AD
330
A
100
AcDbEntity
  8
HEWI
  6
STANDARD
 62
     7
100
AcDbLine
 10
-1513.966674085
 20
-1670.263786
 30
0.0
 11
-1513.738155084999
 21
-1670.492287
 31
0.0
  0
LINE
  5
4AE
330
A
100
AcDbEntity
  8
HEWI
  6
STANDARD
 62
     7
100
AcDbLine
 10
-1515.726165084999
 20
-1668.457222
 30
0.0
 11
-1515.453166085
 21
-1668.711281
 31
0.0
  0
LINE
  5
4AF
330
A
100
AcDbEntity
  8
HEWI
  6
STANDARD
 62
     7
100
AcDbLine
 10
-1516.553173085
 20
-1667.740288
 30
0.0
 11
-1515.726165084999
 21
-1668.457222
 31
0.0
  0
LINE
  5
4B0
330
A
100
AcDbEntity
  8
HEWI
  6
STANDARD
 62
     7
100
AcDbLine
 10
-1517.325172085
 20
-1667.130241
 30
0.0
 11
-1516.553173085
 21
-1667.740288
 31
0.0
  0
LINE
  5
4B1
330
A
100
AcDbEntity
  8
HEWI
  6
STANDARD
 62
     7
100
AcDbLine
 10
-1517.713165084999
 20
-1666.843224
 30
0.0
 11
-1517.325172085
 21
-1667.130241
 31
0.0
  0
LINE
  5
4B2
330
A
100
AcDbEntity
  8
HEWI
  6
STANDARD
 62
     7
100
AcDbLine
 10
-1516.680545085
 20
-1667.63958
 30
0.0
 11
-1516.381168085
 21
-1667.849236
 31
0.0
  0
LINE
  5
4B3
330
A
100
AcDbEntity
  8
HEWI
  6
STANDARD
 62
     7
100
AcDbLine
 10
-1519.594173085
 20
-1665.599250999999
 30
0.0
 11
-1519.303836085
 21
-1665.802574
 31
0.0
  0
LINE
  5
4B4
330
A
100
AcDbEntity
  8
HEWI
  6
STANDARD
 62
     7
100
AcDbLine
 10
-1518.930168085
 20
-1666.024284
 30
0.0
 11
-1517.713165084999
 21
-1666.843224
 31
0.0
  0
LINE
  5
4B5
330
A
100
AcDbEntity
  8
HEWI
  6
STANDARD
 62
     7
100
AcDbLine
 10
-1519.040164085
 20
-1665.955238
 30
0.0
 11
-1518.930168085
 21
-1666.024284
 31
0.0
  0
LINE
  5
4B6
330
A
100
AcDbEntity
  8
HEWI
  6
STANDARD
 62
     7
100
AcDbLine
 10
-1520.197162085
 20
-1665.285225
 30
0.0
 11
-1519.040164085
 21
-1665.955238
 31
0.0
  0
LINE
  5
4B7
330
A
100
AcDbEntity
  8
HEWI
  6
STANDARD
 62
     7
100
AcDbLine
 10
-1520.855159085
 20
-1664.944267
 30
0.0
 11
-1520.197162085
 21
-1665.285225
 31
0.0
  0
LINE
  5
4B8
330
A
100
AcDbEntity
  8
HEWI
  6
STANDARD
 62
     7
100
AcDbLine
 10
-1521.510162084999
 20
-1664.631233
 30
0.0
 11
-1520.855159085
 21
-1664.944267
 31
0.0
  0
LINE
  5
4B9
330
A
100
AcDbEntity
  8
HEWI
  6
STANDARD
 62
     7
100
AcDbLine
 10
-1523.149166085
 20
-1663.942223
 30
0.0
 11
-1522.956428085
 21
-1664.032097
 31
0.0
  0
LINE
  5
4BA
330
A
100
AcDbEntity
  8
HEWI
  6
STANDARD
 62
     7
100
AcDbLine
 10
-1519.905605084999
 20
-1665.454063
 30
0.0
 11
-1519.594173085
 21
-1665.599250999999
 31
0.0
  0
LINE
  5
4BB
330
A
100
AcDbEntity
  8
HEWI
  6
STANDARD
 62
     7
100
AcDbLine
 10
-1522.756156085
 20
-1664.104271
 30
0.0
 11
-1521.510162084999
 21
-1664.631233
 31
0.0
  0
LINE
  5
4BC
330
A
100
AcDbEntity
  8
HEWI
  6
STANDARD
 62
     7
100
AcDbLine
 10
-1556.751155085
 20
-1665.435295
 30
0.0
 11
-1556.701164085
 21
-1665.314292999999
 31
0.0
  0
LINE
  5
4BD
330
A
100
AcDbEntity
  8
HEWI
  6
STANDARD
 62
     7
100
AcDbLine
 10
-1522.863159085
 20
-1664.064293
 30
0.0
 11
-1522.756156085
 21
-1664.104271
 31
0.0
  0
LINE
  5
4BE
330
A
100
AcDbEntity
  8
HEWI
  6
STANDARD
 62
     7
100
AcDbLine
 10
-1524.249172084999
 20
-1663.586235
 30
0.0
 11
-1522.863159085
 21
-1664.064293
 31
0.0
  0
LINE
  5
4BF
330
A
100
AcDbEntity
  8
HEWI
  6
STANDARD
 62
     7
100
AcDbLine
 10
-1524.727172085
 20
-1663.444252
 30
0.0
 11
-1524.249172084999
 21
-1663.586235
 31
0.0
  0
LINE
  5
4C0
330
A
100
AcDbEntity
  8
HEWI
  6
STANDARD
 62
     7
100
AcDbLine
 10
-1526.937160084999
 20
-1662.927284
 30
0.0
 11
-1526.853122085
 21
-1662.949791
 31
0.0
  0
LINE
  5
4C1
330
A
100
AcDbEntity
  8
HEWI
  6
STANDARD
 62
     7
100
AcDbLine
 10
-1523.452911084999
 20
-1663.860893
 30
0.0
 11
-1523.149166085
 21
-1663.942223
 31
0.0
  0
LINE
  5
4C2
330
A
100
AcDbEntity
  8
HEWI
  6
STANDARD
 62
     7
100
AcDbLine
 10
-1525.664157085
 20
-1663.199272
 30
0.0
 11
-1524.727172085
 21
-1663.444252
 31
0.0
  0
LINE
  5
4C3
330
A
100
AcDbEntity
  8
HEWI
  6
STANDARD
 62
     7
100
AcDbLine
 10
-1526.750164085
 20
-1662.968254
 30
0.0
 11
-1525.664157085
 21
-1663.199272
 31
0.0
  0
LINE
  5
4C4
330
A
100
AcDbEntity
  8
HEWI
  6
STANDARD
 62
     7
100
AcDbLine
 10
-1527.101173085
 20
-1662.905235
 30
0.0
 11
-1526.750164085
 21
-1662.968254
 31
0.0
  0
LINE
  5
4C5
330
A
100
AcDbEntity
  8
HEWI
  6
STANDARD
 62
     7
100
AcDbLine
 10
-1528.555164085
 20
-1662.706261
 30
0.0
 11
-1527.101173085
 21
-1662.905235
 31
0.0
  0
LINE
  5
4C6
330
A
100
AcDbEntity
  8
HEWI
  6
STANDARD
 62
     7
100
AcDbLine
 10
-1556.701164085
 20
-1665.314292999999
 30
0.0
 11
-1556.684169085
 21
-1665.18528
 31
0.0
  0
LINE
  5
4C7
330
A
100
AcDbEntity
  8
HEWI
  6
STANDARD
 62
     7
100
AcDbLine
 10
-1528.808174085
 20
-1662.681236
 30
0.0
 11
-1528.555164085
 21
-1662.706261
 31
0.0
  0
LINE
  5
4C8
330
A
100
AcDbEntity
  8
HEWI
  6
STANDARD
 62
     7
100
AcDbLine
 10
-1527.018032084999
 20
-1662.920189
 30
0.0
 11
-1526.937160084999
 21
-1662.927284
 31
0.0
  0
LINE
  5
4C9
330
A
100
AcDbEntity
  8
HEWI
  6
STANDARD
 62
     7
100
AcDbLine
 10
-1530.844173084999
 20
-1662.585259
 30
0.0
 11
-1530.832595084999
 21
-1662.58625
 31
0.0
  0
LINE
  5
4CA
330
A
100
AcDbEntity
  8
HEWI
  6
STANDARD
 62
     7
100
AcDbLine
 10
-1530.018157085
 20
-1662.602272
 30
0.0
 11
-1528.808174085
 21
-1662.681236
 31
0.0
  0
LINE
  5
4CB
330
A
100
AcDbEntity
  8
HEWI
  6
STANDARD
 62
     7
100
AcDbLine
 10
-1530.884170084999
 20
-1662.585259
 30
0.0
 11
-1530.018157085
 21
-1662.602272
 31
0.0
  0
LINE
  5
4CC
330
A
100
AcDbEntity
  8
HEWI
  6
STANDARD
 62
     7
100
AcDbLine
 10
-1530.851497085
 20
-1662.585869
 30
0.0
 11
-1530.844173084999
 21
-1662.585259
 31
0.0
  0
LINE
  5
4CD
330
A
100
AcDbEntity
  8
HEWI
  6
STANDARD
 62
     7
100
AcDbLine
 10
-1511.358165084999
 20
-1673.835259
 30
0.0
 11
-1511.126918085
 21
-1674.331398
 31
0.0
  0
LINE
  5
4CE
330
A
100
AcDbEntity
  8
HEWI
  6
STANDARD
 62
     7
100
AcDbLine
 10
-1510.743160085
 20
-1675.056267
 30
0.0
 11
-1510.375156085
 21
-1675.832253
 31
0.0
  0
LINE
  5
4CF
330
A
100
AcDbEntity
  8
HEWI
  6
STANDARD
 62
     7
100
AcDbLine
 10
-1511.021156085
 20
-1674.515266
 30
0.0
 11
-1510.743160085
 21
-1675.056267
 31
0.0
  0
LINE
  5
4D0
330
A
100
AcDbEntity
  8
HEWI
  6
STANDARD
 62
     7
100
AcDbLine
 10
-1511.754169085
 20
-1673.240242
 30
0.0
 11
-1511.745090085
 21
-1673.256569
 31
0.0
  0
LINE
  5
4D1
330
A
100
AcDbEntity
  8
HEWI
  6
STANDARD
 62
     7
100
AcDbLine
 10
-1511.752166085
 20
-1673.244286
 30
0.0
 11
-1511.021156085
 21
-1674.515266
 31
0.0
  0
LINE
  5
4D2
330
A
100
AcDbEntity
  8
HEWI
  6
STANDARD
 62
     7
100
AcDbLine
 10
-1512.565174085
 20
-1672.022286
 30
0.0
 11
-1511.754169085
 21
-1673.240242
 31
0.0
  0
LINE
  5
4D3
330
A
100
AcDbEntity
  8
HEWI
  6
STANDARD
 62
     7
100
AcDbLine
 10
-1511.660861084999
 20
-1673.402977
 30
0.0
 11
-1511.358165084999
 21
-1673.835259
 31
0.0
  0
LINE
  5
4D4
330
A
100
AcDbEntity
  8
HEWI
  6
STANDARD
 62
     7
100
AcDbLine
 10
-1513.608169085
 20
-1670.622292
 30
0.0
 11
-1513.354415084999
 21
-1670.984612
 31
0.0
  0
LINE
  5
4D5
330
A
100
AcDbEntity
  8
HEWI
  6
STANDARD
 62
     7
100
AcDbLine
 10
-1513.608169085
 20
-1670.622292
 30
0.0
 11
-1513.354568085
 21
-1670.984383
 31
0.0
  0
LINE
  5
4D6
330
A
100
AcDbEntity
  8
HEWI
  6
STANDARD
 62
     7
100
AcDbLine
 10
-1512.929172085
 20
-1671.526222
 30
0.0
 11
-1512.565174085
 21
-1672.022286
 31
0.0
  0
LINE
  5
4D7
330
A
100
AcDbEntity
  8
HEWI
  6
STANDARD
 62
     7
100
AcDbLine
 10
-1513.455162084999
 20
-1670.856285
 30
0.0
 11
-1512.929172085
 21
-1671.526222
 31
0.0
  0
LINE
  5
4D8
330
A
100
AcDbEntity
  8
HEWI
  6
STANDARD
 62
     7
100
AcDbLine
 10
-1514.257164085
 20
-1669.927254
 30
0.0
 11
-1513.455162084999
 21
-1670.856285
 31
0.0
  0
LINE
  5
4D9
330
A
100
AcDbEntity
  8
HEWI
  6
STANDARD
 62
     7
100
AcDbLine
 10
-1514.419174085
 20
-1669.751244
 30
0.0
 11
-1514.257164085
 21
-1669.927254
 31
0.0
  0
LINE
  5
4DA
330
A
100
AcDbEntity
  8
HEWI
  6
STANDARD
 62
     7
100
AcDbLine
 10
-1515.453166085
 20
-1668.711281
 30
0.0
 11
-1514.419174085
 21
-1669.751244
 31
0.0
  0
LINE
  5
4DB
330
A
100
AcDbEntity
  8
HEWI
  6
STANDARD
 62
     7
100
AcDbLine
 10
-1516.381168085
 20
-1667.849236
 30
0.0
 11
-1516.079521084999
 21
-1668.150902
 31
0.0
  0
ARC
  5
4DC
330
A
100
AcDbEntity
  8
HEWI
  6
STANDARD
 62
     7
100
AcDbCircle
 10
-1557.184133085
 20
-1665.185348
 30
0.0
 40
0.499886
100
AcDbArc
 50
269.9966869999995
 51
345.0516559999863
  0
LINE
  5
4DD
330
A
100
AcDbEntity
  8
HEWI
  6
STANDARD
 62
     7
100
AcDbLine
 10
-1833.3891895
 20
-2215.448180157238
 30
0.0
 11
-1837.8751785
 21
-2215.448180157238
 31
0.0
  0
LINE
  5
4DE
330
A
100
AcDbEntity
  8
HEWI
  6
STANDARD
 62
     7
100
AcDbLine
 10
-1837.8751785
 20
-2215.448180157238
 30
0.0
 11
-1837.8751785
 21
-2170.448180157238
 31
0.0
  0
LINE
  5
4DF
330
A
100
AcDbEntity
  8
HEWI
  6
STANDARD
 62
     7
100
AcDbLine
 10
-1852.8311755
 20
-2213.904143157238
 30
0.0
 11
-1852.8311755
 21
-2151.908141157238
 31
0.0
  0
LINE
  5
4E0
330
A
100
AcDbEntity
  8
HEWI
  6
STANDARD
 62
     7
100
AcDbLine
 10
-1838.3311865
 20
-2215.408125157237
 30
0.0
 11
-1838.3311865
 21
-2167.108183157238
 31
0.0
  0
LINE
  5
4E1
330
A
100
AcDbEntity
  8
HEWI
  6
STANDARD
 62
     7
100
AcDbLine
 10
-1827.8891975
 20
-2170.448180157238
 30
0.0
 11
-1827.8891975
 21
-2168.108168157238
 31
0.0
  0
LINE
  5
4E2
330
A
100
AcDbEntity
  8
HEWI
  6
STANDARD
 62
     7
100
AcDbLine
 10
-1852.2531915
 20
-2215.079146157238
 30
0.0
 11
-1852.5141935
 21
-2214.818144157238
 31
0.0
  0
LINE
  5
4E3
330
A
100
AcDbEntity
  8
HEWI
  6
STANDARD
 62
     7
100
AcDbLine
 10
-1833.1331855
 20
-2215.192137157238
 30
0.0
 11
-1833.3891895
 21
-2215.448180157238
 31
0.0
  0
LINE
  5
4E4
330
A
100
AcDbEntity
  8
HEWI
  6
STANDARD
 62
     7
100
AcDbLine
 10
-1852.4461775
 20
-2166.896162157238
 30
0.0
 11
-1852.5331905
 21
-2166.809187157238
 31
0.0
  0
LINE
  5
4E5
330
A
100
AcDbEntity
  8
HEWI
  6
STANDARD
 62
     7
100
AcDbLine
 10
-1852.4461775
 20
-2166.896162157238
 30
0.0
 11
-1852.5381875
 21
-2166.815138157238
 31
0.0
  0
LINE
  5
4E6
330
A
100
AcDbEntity
  8
HEWI
  6
STANDARD
 62
     7
100
AcDbLine
 10
-1852.4907515
 20
-2166.851607157238
 30
0.0
 11
-1852.5381875
 21
-2166.815138157238
 31
0.0
  0
LINE
  5
4E7
330
A
100
AcDbEntity
  8
HEWI
  6
STANDARD
 62
     7
100
AcDbLine
 10
-1852.3311835
 20
-2166.974135157238
 30
0.0
 11
-1852.4461775
 21
-2166.896162157238
 31
0.0
  0
LINE
  5
4E8
330
A
100
AcDbEntity
  8
HEWI
  6
STANDARD
 62
     7
100
AcDbLine
 10
-1852.235186499999
 20
-2167.023192157238
 30
0.0
 11
-1852.3271775
 21
-2166.967192157238
 31
0.0
  0
LINE
  5
4E9
330
A
100
AcDbEntity
  8
HEWI
  6
STANDARD
 62
     7
100
AcDbLine
 10
-1851.9361905
 20
-2215.268126157238
 30
0.0
 11
-1852.2531915
 21
-2215.079146157238
 31
0.0
  0
LINE
  5
4EA
330
A
100
AcDbEntity
  8
HEWI
  6
STANDARD
 62
     7
100
AcDbLine
 10
-1852.235186499999
 20
-2167.023192157238
 30
0.0
 11
-1852.3311835
 21
-2166.974135157238
 31
0.0
  0
LINE
  5
4EB
330
A
100
AcDbEntity
  8
HEWI
  6
STANDARD
 62
     7
100
AcDbLine
 10
-1852.2824885
 20
-2166.994353157237
 30
0.0
 11
-1852.3311835
 21
-2166.974135157238
 31
0.0
  0
LINE
  5
4EC
330
A
100
AcDbEntity
  8
HEWI
  6
STANDARD
 62
     7
100
AcDbLine
 10
-1852.0901895
 20
-2167.074156157238
 30
0.0
 11
-1852.235186499999
 21
-2167.023192157238
 31
0.0
  0
LINE
  5
4ED
330
A
100
AcDbEntity
  8
HEWI
  6
STANDARD
 62
     7
100
AcDbLine
 10
-1851.9991905
 20
-2167.094145157237
 30
0.0
 11
-1852.0881865
 21
-2167.067137157237
 31
0.0
  0
LINE
  5
4EE
330
A
100
AcDbEntity
  8
HEWI
  6
STANDARD
 62
     7
100
AcDbLine
 10
-1851.5821865
 20
-2215.375166157238
 30
0.0
 11
-1851.9361905
 21
-2215.268126157238
 31
0.0
  0
LINE
  5
4EF
330
A
100
AcDbEntity
  8
HEWI
  6
STANDARD
 62
     7
100
AcDbLine
 10
-1851.9991905
 20
-2167.094145157237
 30
0.0
 11
-1852.0901895
 21
-2167.074156157238
 31
0.0
  0
LINE
  5
4F0
330
A
100
AcDbEntity
  8
HEWI
  6
STANDARD
 62
     7
100
AcDbLine
 10
-1827.8411705
 20
-2167.799178157238
 30
0.0
 11
-1827.8891975
 21
-2168.108168157238
 31
0.0
  0
LINE
  5
4F1
330
A
100
AcDbEntity
  8
HEWI
  6
STANDARD
 62
     7
100
AcDbLine
 10
-1852.0459775
 20
-2167.079954157238
 30
0.0
 11
-1852.0901895
 21
-2167.074156157238
 31
0.0
  0
LINE
  5
4F2
330
A
100
AcDbEntity
  8
HEWI
  6
STANDARD
 62
     7
100
AcDbLine
 10
-1851.331179499999
 20
-2215.396147157238
 30
0.0
 11
-1851.5821865
 21
-2215.375166157238
 31
0.0
  0
LINE
  5
4F3
330
A
100
AcDbEntity
  8
HEWI
  6
STANDARD
 62
     7
100
AcDbLine
 10
-1851.8311905
 20
-2167.108183157238
 30
0.0
 11
-1851.9991905
 21
-2167.094145157237
 31
0.0
  0
LINE
  5
4F4
330
A
100
AcDbEntity
  8
HEWI
  6
STANDARD
 62
     7
100
AcDbLine
 10
-1838.3311865
 20
-2215.408125157237
 30
0.0
 11
-1851.331179499999
 21
-2215.396147157238
 31
0.0
  0
LINE
  5
4F5
330
A
100
AcDbEntity
  8
HEWI
  6
STANDARD
 62
     7
100
AcDbLine
 10
-1852.8171755
 20
-2166.275130157238
 30
0.0
 11
-1852.8311755
 21
-2166.108122157238
 31
0.0
  0
LINE
  5
4F6
330
A
100
AcDbEntity
  8
HEWI
  6
STANDARD
 62
     7
100
AcDbLine
 10
-1852.8101755
 20
-2214.148131157237
 30
0.0
 11
-1852.8311755
 21
-2213.904143157238
 31
0.0
  0
LINE
  5
4F7
330
A
100
AcDbEntity
  8
HEWI
  6
STANDARD
 62
     7
100
AcDbLine
 10
-1826.9092015
 20
-2167.108183157238
 30
0.0
 11
-1827.2122025
 21
-2167.157164157238
 31
0.0
  0
LINE
  5
4F8
330
A
100
AcDbEntity
  8
HEWI
  6
STANDARD
 62
     7
100
AcDbLine
 10
-1852.7971865
 20
-2166.366148157238
 30
0.0
 11
-1852.8171755
 21
-2166.275130157238
 31
0.0
  0
LINE
  5
4F9
330
A
100
AcDbEntity
  8
HEWI
  6
STANDARD
 62
     7
100
AcDbLine
 10
-1852.7041845
 20
-2214.501143157237
 30
0.0
 11
-1852.8101755
 21
-2214.148131157237
 31
0.0
  0
LINE
  5
4FA
330
A
100
AcDbEntity
  8
HEWI
  6
STANDARD
 62
     7
100
AcDbLine
 10
-1832.8701805
 20
-2215.106154157238
 30
0.0
 11
-1833.1331855
 21
-2215.192137157238
 31
0.0
  0
LINE
  5
4FB
330
A
100
AcDbEntity
  8
HEWI
  6
STANDARD
 62
     7
100
AcDbLine
 10
-1852.7461845
 20
-2166.511183157238
 30
0.0
 11
-1852.7971865
 21
-2166.366148157238
 31
0.0
  0
LINE
  5
4FC
330
A
100
AcDbEntity
  8
HEWI
  6
STANDARD
 62
     7
100
AcDbLine
 10
-1829.0281895
 20
-2212.434187157238
 30
0.0
 11
-1829.4471955
 21
-2212.629195157238
 31
0.0
  0
LINE
  5
4FD
330
A
100
AcDbEntity
  8
HEWI
  6
STANDARD
 62
     7
100
AcDbLine
 10
-1825.1491765
 20
-2210.184126157238
 30
0.0
 11
-1827.370169499999
 21
-2211.273146157238
 31
0.0
  0
LINE
  5
4FE
330
A
100
AcDbEntity
  8
HEWI
  6
STANDARD
 62
     7
100
AcDbLine
 10
-1852.6971845
 20
-2166.608153157238
 30
0.0
 11
-1852.7461845
 21
-2166.511183157238
 31
0.0
  0
LINE
  5
4FF
330
A
100
AcDbEntity
  8
HEWI
  6
STANDARD
 62
     7
100
AcDbLine
 10
-1831.4711785
 20
-2214.091139157238
 30
0.0
 11
-1832.3731825
 21
-2214.609175157238
 31
0.0
  0
LINE
  5
500
330
A
100
AcDbEntity
  8
HEWI
  6
STANDARD
 62
     7
100
AcDbLine
 10
-1852.5141935
 20
-2214.818144157238
 30
0.0
 11
-1852.7041845
 21
-2214.501143157237
 31
0.0
  0
LINE
  5
501
330
A
100
AcDbEntity
  8
HEWI
  6
STANDARD
 62
     7
100
AcDbLine
 10
-1829.4471955
 20
-2212.629195157238
 30
0.0
 11
-1831.1311745
 21
-2213.751173157238
 31
0.0
  0
LINE
  5
502
330
A
100
AcDbEntity
  8
HEWI
  6
STANDARD
 62
     7
100
AcDbLine
 10
-1852.6201845
 20
-2166.722136157238
 30
0.0
 11
-1852.6971845
 21
-2166.608153157238
 31
0.0
  0
LINE
  5
503
330
A
100
AcDbEntity
  8
HEWI
  6
STANDARD
 62
     7
100
AcDbLine
 10
-1827.370169499999
 20
-2211.273146157238
 30
0.0
 11
-1829.0281895
 21
-2212.434187157238
 31
0.0
  0
LINE
  5
504
330
A
100
AcDbEntity
  8
HEWI
  6
STANDARD
 62
     7
100
AcDbLine
 10
-1824.9642015
 20
-2210.054121157238
 30
0.0
 11
-1825.1491765
 21
-2210.184126157238
 31
0.0
  0
LINE
  5
505
330
A
100
AcDbEntity
  8
HEWI
  6
STANDARD
 62
     7
100
AcDbLine
 10
-1852.5381875
 20
-2166.815138157238
 30
0.0
 11
-1852.6201845
 21
-2166.722136157238
 31
0.0
  0
LINE
  5
506
330
A
100
AcDbEntity
  8
HEWI
  6
STANDARD
 62
     7
100
AcDbLine
 10
-1831.1311745
 20
-2213.751173157238
 30
0.0
 11
-1831.4711785
 21
-2214.091139157238
 31
0.0
  0
LINE
  5
507
330
A
100
AcDbEntity
  8
HEWI
  6
STANDARD
 62
     7
100
AcDbLine
 10
-1832.3731825
 20
-2214.609175157238
 30
0.0
 11
-1832.8701805
 21
-2215.106154157238
 31
0.0
  0
ARC
  5
508
330
A
100
AcDbEntity
  8
HEWI
  6
STANDARD
 62
     7
100
AcDbCircle
 10
-1826.901303499999
 20
-2168.096119157238
 30
0.0
 40
0.987967
100
AcDbArc
 50
90.45804999998878
 51
180.6987770000031
  0
CIRCLE
  5
60A
330
A
100
AcDbEntity
  8
HEWI
100
AcDbCircle
 10
-1815.331045
 20
-1787.635219
 30
0.0
 40
16.2
  0
CIRCLE
  5
60B
330
A
100
AcDbEntity
  8
HEWI
100
AcDbCircle
 10
1815.331045
 20
-1787.635219
 30
0.0
 40
16.4
210
0.0
220
0.0
230
-1.0
  0
ARC
  5
633
330
A
100
AcDbEntity
  8
HEWI
100
AcDbCircle
 10
1815.331045
 20
-1818.408319461147
 30
-0.0590547588866504
 40
1.0
210
0.0
220
0.0000341017414125
230
-0.9999999994185355
100
AcDbArc
 50
269.7294510000034
 51
358.4591849999821
  0
ARC
  5
634
330
A
100
AcDbEntity
  8
HEWI
100
AcDbCircle
 10
1815.331045
 20
-1818.462117461147
 30
0.0590547588797357
 40
1.0
210
0.0
220
-0.0000341017414099
230
-0.9999999994185355
100
AcDbArc
 50
180.0000169999913
 51
269.7162699999944
  0
SPLINE
  5
636
330
A
100
AcDbEntity
  8
HEWI
100
AcDbSpline
210
0.0
220
0.0
230
1.0
 70
    24
 71
     3
 72
    16
 73
    12
 74
     0
 42
0.000000001
 43
0.0000000001
 40
0.0
 40
0.0
 40
0.0
 40
0.0
 40
0.000152944034077
 40
0.000152944034077
 40
0.5190822591166056
 40
0.5190822591166056
 40
0.7785469166578701
 40
0.7785469166578701
 40
0.9082792454285019
 40
0.9082792454285019
 40
1.0
 40
1.0
 40
1.0
 40
1.0
 10
-1816.331045983294
 20
-1818.435216928797
 30
0.0
 10
-1816.331045983294
 20
-1818.435214928597
 30
0.0
 10
-1816.331045983294
 20
-1818.435212928397
 30
0.0
 10
-1816.331045983294
 20
-1818.432556538952
 30
0.0
 10
-1816.331045983294
 20
-1817.580398414751
 30
0.0
 10
-1816.331045983294
 20
-1814.295258393076
 30
0.0
 10
-1816.331045983294
 20
-1812.86595497858
 30
0.0
 10
-1816.331045983294
 20
-1809.839508560097
 30
0.0
 10
-1816.331045983294
 20
-1808.665914129859
 30
0.0
 10
-1816.331045983294
 20
-1806.260805322885
 30
0.0
 10
-1816.331045983294
 20
-1805.137487652111
 30
0.0
 10
-1816.331045983294
 20
-1803.88365958849
 30
0.0
  0
SPLINE
  5
637
330
A
100
AcDbEntity
  8
HEWI
100
AcDbSpline
210
0.0
220
0.0
230
1.0
 70
    24
 71
     3
 72
    16
 73
    12
 74
     0
 42
0.000000001
 43
0.0000000001
 40
0.0
 40
0.0
 40
0.0
 40
0.0
 40
0.0885422502503431
 40
0.0885422502503431
 40
0.2187514650788223
 40
0.2187514650788223
 40
0.4791698947357806
 40
0.4791698947357806
 40
0.7395883243927389
 40
0.7395883243927389
 40
1.0
 40
1.0
 40
1.0
 40
1.0
 10
-1814.331045983294
 20
-1804.030560581115
 30
0.0
 10
-1814.331045983294
 20
-1805.229108385052
 30
0.0
 10
-1814.331045983294
 20
-1806.305624640666
 30
0.0
 10
-1814.331045983294
 20
-1808.666219768586
 30
0.0
 10
-1814.331045983294
 20
-1809.846022149431
 30
0.0
 10
-1814.331045983294
 20
-1812.872216884186
 30
0.0
 10
-1814.331045983294
 20
-1814.299425900782
 30
0.0
 10
-1814.331045983294
 20
-1816.471038063178
 30
0.0
 10
-1814.331045983294
 20
-1817.214292682576
 30
0.0
 10
-1814.331045983294
 20
-1818.201479804927
 30
0.0
 10
-1814.331045983294
 20
-1818.436529766616
 30
0.0
 10
-1814.331045983294
 20
-1818.435213588521
 30
0.0
  0
LINE
  5
638
330
A
100
AcDbEntity
  8
HEWI
  6
STANDARD
 62
     7
100
AcDbLine
 10
-733.1841890849998
 20
-1771.1776865
 30
0.0
 11
-733.3841890849989
 21
-1771.3776865
 31
0.0
  0
LINE
  5
639
330
A
100
AcDbEntity
  8
HEWI
  6
STANDARD
 62
     7
100
AcDbLine
 10
-733.3841890849989
 20
-1803.7776865
 30
0.0
 11
-733.1841890849998
 21
-1803.9776865
 31
0.0
  0
LINE
  5
63A
330
A
100
AcDbEntity
  8
HEWI
  6
STANDARD
 62
     7
100
AcDbLine
 10
-730.5841890849999
 20
-1803.9776865
 30
0.0
 11
-730.3841890849989
 21
-1803.7776865
 31
0.0
  0
LINE
  5
63B
330
A
100
AcDbEntity
  8
HEWI
  6
STANDARD
 62
     7
100
AcDbLine
 10
-730.3841890849989
 20
-1771.3776865
 30
0.0
 11
-730.5841890849999
 21
-1771.1776865
 31
0.0
  0
LINE
  5
63C
330
A
100
AcDbEntity
  8
HEWI
  6
STANDARD
 62
     7
100
AcDbLine
 10
-733.1841890849998
 20
-1803.9776865
 30
0.0
 11
-730.5841890849999
 21
-1803.9776865
 31
0.0
  0
LINE
  5
63D
330
A
100
AcDbEntity
  8
HEWI
  6
STANDARD
 62
     7
100
AcDbLine
 10
-730.5841890849999
 20
-1771.1776865
 30
0.0
 11
-733.1841890849998
 21
-1771.1776865
 31
0.0
  0
LINE
  5
63E
330
A
100
AcDbEntity
  8
HEWI
  6
STANDARD
 62
     7
100
AcDbLine
 10
-733.1841890849998
 20
-1803.9776865
 30
0.0
 11
-733.1841890849998
 21
-1771.1776865
 31
0.0
  0
LINE
  5
63F
330
A
100
AcDbEntity
  8
HEWI
  6
STANDARD
 62
     7
100
AcDbLine
 10
-733.3841890849989
 20
-1771.3776865
 30
0.0
 11
-733.3841890849989
 21
-1787.5776865
 31
0.0
  0
LINE
  5
640
330
A
100
AcDbEntity
  8
HEWI
  6
STANDARD
 62
     7
100
AcDbLine
 10
-733.3841890849989
 20
-1787.5776865
 30
0.0
 11
-733.3841890849989
 21
-1803.7776865
 31
0.0
  0
LINE
  5
641
330
A
100
AcDbEntity
  8
HEWI
  6
STANDARD
 62
     7
100
AcDbLine
 10
-730.3841890849989
 20
-1771.3776865
 30
0.0
 11
-730.3841890849989
 21
-1787.5776865
 31
0.0
  0
LINE
  5
642
330
A
100
AcDbEntity
  8
HEWI
  6
STANDARD
 62
     7
100
AcDbLine
 10
-730.3841890849989
 20
-1787.5776865
 30
0.0
 11
-730.3841890849989
 21
-1803.7776865
 31
0.0
  0
LINE
  5
643
330
A
100
AcDbEntity
  8
HEWI
  6
STANDARD
 62
     7
100
AcDbLine
 10
-730.5841890849999
 20
-1787.5776865
 30
0.0
 11
-730.5841890849999
 21
-1771.1776865
 31
0.0
  0
LINE
  5
644
330
A
100
AcDbEntity
  8
HEWI
  6
STANDARD
 62
     7
100
AcDbLine
 10
-730.5841890849999
 20
-1803.9776865
 30
0.0
 11
-730.5841890849999
 21
-1787.5776865
 31
0.0
  0
LINE
  5
645
330
A
100
AcDbEntity
  8
HEWI
  6
STANDARD
 62
     7
100
AcDbLine
 10
-753.6344790849989
 20
-1802.4366805
 30
0.0
 11
-754.6060130849999
 21
-1802.1997825
 31
0.0
  0
LINE
  5
646
330
A
100
AcDbEntity
  8
HEWI
  6
STANDARD
 62
     7
100
AcDbLine
 10
-753.384189084999
 20
-1799.7714225
 30
0.0
 11
-753.384189084999
 21
-1800.3776865
 31
0.0
  0
LINE
  5
647
330
A
100
AcDbEntity
  8
HEWI
  6
STANDARD
 62
     7
100
AcDbLine
 10
-754.3841890849989
 20
-1800.9527765
 30
0.0
 11
-754.3841890849989
 21
-1800.0826045
 31
0.0
  0
LINE
  5
648
330
A
100
AcDbEntity
  8
HEWI
  6
STANDARD
 62
     7
100
AcDbLine
 10
-838.133899084999
 20
-1802.4366805
 30
0.0
 11
-837.162365084999
 21
-1802.1997825
 31
0.0
  0
LINE
  5
649
330
A
100
AcDbEntity
  8
HEWI
  6
STANDARD
 62
     7
100
AcDbLine
 10
-754.3841890849989
 20
-1800.0826045
 30
0.0
 11
-837.3841890849989
 21
-1800.0826045
 31
0.0
  0
LINE
  5
64A
330
A
100
AcDbEntity
  8
HEWI
  6
STANDARD
 62
     7
100
AcDbLine
 10
-753.384189084999
 20
-1802.1997825
 30
0.0
 11
-837.162365084999
 21
-1802.1997825
 31
0.0
  0
LINE
  5
64B
330
A
100
AcDbEntity
  8
HEWI
  6
STANDARD
 62
     7
100
AcDbLine
 10
-838.3841890849998
 20
-1800.3776865
 30
0.0
 11
-838.3841890849998
 21
-1799.7714225
 31
0.0
  0
LINE
  5
64C
330
A
100
AcDbEntity
  8
HEWI
  6
STANDARD
 62
     7
100
AcDbLine
 10
-837.3841890849989
 20
-1800.0826045
 30
0.0
 11
-837.3841890849989
 21
-1800.9527765
 31
0.0
  0
LINE
  5
64D
330
A
100
AcDbEntity
  8
HEWI
  6
STANDARD
 62
     7
100
AcDbLine
 10
-753.384189084999
 20
-1799.7714345
 30
0.0
 11
-838.3841890849998
 21
-1799.7714345
 31
0.0
  0
LINE
  5
64E
330
A
100
AcDbEntity
  8
HEWI
  6
STANDARD
 62
     7
100
AcDbLine
 10
-753.384189084999
 20
-1799.7714345
 30
0.0
 11
-753.384189084999
 21
-1800.0776865
 31
0.0
  0
LINE
  5
64F
330
A
100
AcDbEntity
  8
HEWI
  6
STANDARD
 62
     7
100
AcDbLine
 10
-838.3841890849998
 20
-1800.0776865
 30
0.0
 11
-838.3841890849998
 21
-1799.7714345
 31
0.0
  0
ELLIPSE
  5
650
330
A
100
AcDbEntity
  8
HEWI
  6
STANDARD
 62
     7
100
AcDbEllipse
 10
-754.3841890849989
 20
-1800.3776865
 30
0.0
 11
1.0
 21
0.0
 31
0.0
210
0.0
220
0.0
230
1.0
 40
0.57509
 41
4.71238898038469
 42
6.283185307179563
  0
ELLIPSE
  5
651
330
A
100
AcDbEntity
  8
HEWI
  6
STANDARD
 62
     7
100
AcDbEllipse
 10
-837.3841890849989
 20
-1800.3776865
 30
0.0
 11
-1.0
 21
0.0000000000000001
 31
0.0
210
0.0
220
0.0
230
1.0
 40
0.57509
 41
0.0
 42
1.570796326794897
  0
SPLINE
  5
652
330
A
100
AcDbEntity
  8
HEWI
  6
STANDARD
 62
     7
100
AcDbSpline
210
0.0
220
0.0
230
1.0
 70
     8
 71
     3
 72
    10
 73
     6
 74
     0
 42
0.000000001
 43
0.0000000001
 40
0.0
 40
0.0
 40
0.0
 40
0.0
 40
0.5631963510114814
 40
0.5631963510114814
 40
1.0
 40
1.0
 40
1.0
 40
1.0
 10
-753.3841892663838
 20
-1800.377686559663
 30
0.0
 10
-753.3841892663838
 20
-1800.724001166796
 30
0.0
 10
-753.4068167392758
 20
-1801.112091855278
 30
0.0
 10
-753.4998792434919
 20
-1801.811963969113
 30
0.0
 10
-753.559128894361
 20
-1802.12766494817
 30
0.0
 10
-753.6344787290979
 20
-1802.436680486741
 30
0.0
  0
SPLINE
  5
653
330
A
100
AcDbEntity
  8
HEWI
  6
STANDARD
 62
     7
100
AcDbSpline
210
0.0
220
0.0
230
1.0
 70
     8
 71
     3
 72
    10
 73
     6
 74
     0
 42
0.000000001
 43
0.0000000001
 40
0.0
 40
0.0
 40
0.0
 40
0.0
 40
0.4861134168230314
 40
0.4861134168230314
 40
1.0
 40
1.0
 40
1.0
 40
1.0
 10
-754.6060134030429
 20
-1802.199783088437
 30
0.0
 10
-754.5326678395329
 20
-1801.993924403821
 30
0.0
 10
-754.4753901185658
 20
-1801.778899530469
 30
0.0
 10
-754.4004891974569
 20
-1801.355050887087
 30
0.0
 10
-754.3841892663849
 20
-1801.141369530952
 30
0.0
 10
-754.3841892663838
 20
-1800.952776607391
 30
0.0
  0
SPLINE
  5
654
330
A
100
AcDbEntity
  8
HEWI
  6
STANDARD
 62
     7
100
AcDbSpline
210
0.0000000000000013
220
-0.0000000000000017
230
1.0
 70
     8
 71
     3
 72
    12
 73
     8
 74
     0
 42
0.000000001
 43
0.0000000001
 40
0.0
 40
0.0
 40
0.0
 40
0.0
 40
0.4202079642026861
 40
0.4202079642026861
 40
0.8401692150779277
 40
0.8401692150779277
 40
1.0
 40
1.0
 40
1.0
 40
1.0
 10
-754.3841892663849
 20
-1800.082603601575
 30
0.0000000000000002
 10
-754.2734882320839
 20
-1800.082603601575
 30
0.0000000000000002
 10
-754.1612630859788
 20
-1800.063366762531
 30
-0.0000000000000002
 10
-753.9524566310128
 20
-1799.989909606488
 30
-0.0000000000000002
 10
-753.8530067921399
 20
-1799.93473437389
 30
-0.0000000000000002
 10
-753.733502525791
 20
-1799.839602954169
 30
-0.0000000000000002
 10
-753.702086240618
 20
-1799.811123334241
 30
-0.0000000000000002
 10
-753.672521090456
 20
-1799.780764903229
 30
-0.0000000000000002
  0
SPLINE
  5
655
330
A
100
AcDbEntity
  8
HEWI
  6
STANDARD
 62
     7
100
AcDbSpline
210
0.0
220
0.0
230
1.0
 70
     8
 71
     3
 72
    10
 73
     6
 74
     0
 42
0.000000001
 43
0.0000000001
 40
0.0
 40
0.0
 40
0.0
 40
0.0
 40
0.5635302216462811
 40
0.5635302216462811
 40
1.0
 40
1.0
 40
1.0
 40
1.0
 10
-838.1338998036687
 20
-1802.436680486741
 30
0.0
 10
-838.2305600385059
 20
-1802.040269338258
 30
0.0
 10
-838.3004431217718
 20
-1801.631410307264
 30
0.0
 10
-838.3708016432128
 20
-1800.942139613807
 30
0.0
 10
-838.3841892663838
 20
-1800.647606266363
 30
0.0
 10
-838.3841892663838
 20
-1800.37768655966
 30
0.0
  0
SPLINE
  5
656
330
A
100
AcDbEntity
  8
HEWI
  6
STANDARD
 62
     7
100
AcDbSpline
210
0.0
220
0.0
230
1.0
 70
     8
 71
     3
 72
    10
 73
     6
 74
     0
 42
0.000000001
 43
0.0000000001
 40
0.0
 40
0.0
 40
0.0
 40
0.0
 40
0.4830490318618912
 40
0.4830490318618912
 40
1.0
 40
1.0
 40
1.0
 40
1.0
 10
-837.3841892663838
 20
-1800.952776607391
 30
0.0
 10
-837.3841892663838
 20
-1801.130395227204
 30
0.0
 10
-837.3698570936049
 20
-1801.330023425874
 30
0.0
 10
-837.299894006278
 20
-1801.752187185227
 30
0.0
 10
-837.2402138682499
 20
-1801.981285361447
 30
0.0
 10
-837.162365129725
 20
-1802.199783088437
 30
0.0
  0
SPLINE
  5
657
330
A
100
AcDbEntity
  8
HEWI
  6
STANDARD
 62
     7
100
AcDbSpline
210
0.0
220
0.0
230
1.0
 70
     8
 71
     3
 72
    12
 73
     8
 74
     0
 42
0.000000001
 43
0.0000000001
 40
0.0
 40
0.0
 40
0.0
 40
0.0
 40
0.3099027414590628
 40
0.3099027414590628
 40
0.7381692089327201
 40
0.7381692089327201
 40
1.0
 40
1.0
 40
1.0
 40
1.0
 10
-838.0969791410619
 20
-1799.779633883967
 30
0.0
 10
-838.039709945866
 20
-1799.838464695599
 30
0.0
 10
-837.975050046047
 20
-1799.890628539122
 30
0.0
 10
-837.809777258899
 20
-1799.993069204495
 30
0.0
 10
-837.7021480884119
 20
-1800.036662240574
 30
0.0
 10
-837.52380842113
 20
-1800.075128244174
 30
0.0
 10
-837.4538052810121
 20
-1800.082603601575
 30
0.0
 10
-837.3841892663849
 20
-1800.082603601575
 30
0.0
  0
SPLINE
  5
658
330
A
100
AcDbEntity
  8
HEWI
  6
STANDARD
 62
     7
100
AcDbSpline
210
0.0
220
0.0
230
1.0
 70
     8
 71
     3
 72
    26
 73
    22
 74
     0
 42
0.000000001
 43
0.0000000001
 40
0.0
 40
0.0
 40
0.0
 40
0.0
 40
0.0625
 40
0.0625
 40
0.1249999999999999
 40
0.1249999999999999
 40
0.25
 40
0.25
 40
0.3750000000000001
 40
0.3750000000000001
 40
0.5000000000000001
 40
0.5000000000000001
 40
0.6250000000000001
 40
0.6250000000000001
 40
0.7500000000000002
 40
0.7500000000000002
 40
0.8750000000000001
 40
0.8750000000000001
 40
0.9375
 40
0.9375
 40
1.0
 40
1.0
 40
1.0
 40
1.0
 10
-838.1338998036687
 20
-1802.436680486741
 30
0.0
 10
-837.6509060215509
 20
-1804.417475590394
 30
0.0
 10
-836.5309968356871
 20
-1806.156544066936
 30
0.0
 10
-833.771921635512
 20
-1809.135639728312
 30
0.0
 10
-832.179401772853
 20
-1810.349410795538
 30
0.0
 10
-827.0637445209338
 20
-1813.552943506144
 30
0.0
 10
-823.3230445479929
 20
-1815.032597964128
 30
0.0
 10
-815.6628761599289
 20
-1817.320390935324
 30
0.0
 10
-811.709084731172
 20
-1818.10646153462
 30
0.0
 10
-803.8357298517169
 20
-1819.131982488655
 30
0.0
 10
-799.8809210853099
 20
-1819.376619928655
 30
0.0
 10
-791.938361036764
 20
-1819.378746376505
 30
0.0
 10
-787.926256831257
 20
-1819.132577732013
 30
0.0
 10
-780.0048162174121
 20
-1818.097926907587
 30
0.0
 10
-776.0971767652408
 20
-1817.318717024414
 30
0.0
 10
-768.4304594550949
 20
-1815.027340438075
 30
0.0
 10
-764.6445192618878
 20
-1813.521954558305
 30
0.0
 10
-759.5639391162069
 20
-1810.33034923025
 30
0.0
 10
-757.980370853754
 20
-1809.121016663794
 30
0.0
 10
-755.2321664754299
 20
-1806.148145864247
 30
0.0
 10
-754.1161952630409
 20
-1804.412237496184
 30
0.0
 10
-753.6344787290979
 20
-1802.436680486741
 30
0.0
  0
SPLINE
  5
659
330
A
100
AcDbEntity
  8
HEWI
  6
STANDARD
 62
     7
100
AcDbSpline
210
0.0
220
0.0
230
1.0
 70
     8
 71
     3
 72
    24
 73
    20
 74
     0
 42
0.000000001
 43
0.0000000001
 40
0.0
 40
0.0
 40
0.0
 40
0.0
 40
0.0625000000000001
 40
0.0625000000000001
 40
0.1250000000000001
 40
0.1250000000000001
 40
0.2500000000000001
 40
0.2500000000000001
 40
0.3749999999999999
 40
0.3749999999999999
 40
0.5
 40
0.5
 40
0.75
 40
0.75
 40
0.8749999999999998
 40
0.8749999999999998
 40
0.9375
 40
0.9375
 40
1.0
 40
1.0
 40
1.0
 40
1.0
 10
-837.162365129725
 20
-1802.199783088437
 30
0.0
 10
-836.6913191330191
 20
-1804.131579393922
 30
0.0
 10
-835.5484031335791
 20
-1805.79845477004
 30
0.0
 10
-832.839256315882
 20
-1808.608687268586
 30
0.0
 10
-831.2377076728459
 20
-1809.788489649431
 30
0.0
 10
-826.2473261022329
 20
-1812.814684384185
 30
0.0
 10
-822.5567936830501
 20
-1814.241893400783
 30
0.0
 10
-815.1158058417559
 20
-1816.413505563176
 30
0.0
 10
-811.319178172503
 20
-1817.156760182576
 30
0.0
 10
-803.614948880924
 20
-1818.143960106628
 30
0.0
 10
-799.7107557916879
 20
-1818.379009458977
 30
0.0
 10
-788.1339076060251
 20
-1818.375024038953
 30
0.0
 10
-780.461930211397
 20
-1817.522865914751
 30
0.0
 10
-769.1932414403249
 20
-1814.237725893076
 30
0.0
 10
-765.5077085043319
 20
-1812.80842247858
 30
0.0
 10
-760.5214456038379
 20
-1809.781976060097
 30
0.0
 10
-758.9278850894859
 20
-1808.608381629858
 30
0.0
 10
-756.2131991107118
 20
-1805.790445101123
 30
0.0000000000000002
 10
-755.0759539191339
 20
-1804.127045731857
 30
0.0
 10
-754.6060134030429
 20
-1802.199783088437
 30
0.0
  0
ENDSEC
  0
SECTION
  2
OBJECTS
  0
DICTIONARY
  5
19
330
0
100
AcDbDictionary
281
     1
  3
ACAD_CIP_PREVIOUS_PRODUCT_INFO
350
36C
  3
ACAD_COLOR
350
34B
  3
ACAD_DETAILVIEWSTYLE
350
364
  3
ACAD_GROUP
350
1A
  3
ACAD_LAYOUT
350
366
  3
ACAD_MATERIAL
350
319
  3
ACAD_MLEADERSTYLE
350
360
  3
ACAD_MLINESTYLE
350
1B
  3
ACAD_PLOTSETTINGS
350
367
  3
ACAD_PLOTSTYLENAME
350
317
  3
ACAD_SCALELIST
350
34E
  3
ACAD_SECTIONVIEWSTYLE
350
362
  3
ACAD_TABLESTYLE
350
34C
  3
ACAD_VISUALSTYLE
350
332
  3
ACDB_RECOMPOSE_DATA
350
748
  3
AcDbVariableDictionary
350
509
  0
DICTIONARY
  5
372
330
2
100
AcDbDictionary
280
     1
281
     1
  3
ACAD_LAYERSTATES
360
373
  0
DICTIONARY
  5
65A
330
14
100
AcDbDictionary
280
     1
281
     1
  3
ADSK_XREC_LAYER_RECONCILED
360
65B
  0
DICTIONARY
  5
65C
330
1D
100
AcDbDictionary
280
     1
281
     1
  3
ADSK_XREC_LAYER_RECONCILED
360
65D
  0
DICTIONARY
  5
65E
330
36D
100
AcDbDictionary
280
     1
281
     1
  3
ADSK_XREC_LAYER_RECONCILED
360
65F
  0
XRECORD
  5
36C
102
{ACAD_REACTORS
330
19
102
}
330
19
100
AcDbXrecord
280
     1
300
ACDLT
300
2016
300
ACDLT_F_S
  0
DICTIONARY
  5
34B
102
{ACAD_REACTORS
330
19
102
}
330
19
100
AcDbDictionary
281
     1
  0
DICTIONARY
  5
364
102
{ACAD_REACTORS
330
19
102
}
330
19
100
AcDbDictionary
281
     1
  3
Imperial24
350
365
  0
DICTIONARY
  5
1A
102
{ACAD_REACTORS
330
19
102
}
330
19
100
AcDbDictionary
281
     1
  0
DICTIONARY
  5
366
102
{ACAD_REACTORS
330
19
102
}
330
19
100
AcDbDictionary
281
     1
  3
Layout1
350
369
  3
Model
350
368
  0
DICTIONARY
  5
319
102
{ACAD_REACTORS
330
19
102
}
330
19
100
AcDbDictionary
281
     1
  3
ByBlock
350
322
  3
ByLayer
350
31A
  3
Global
350
32A
  0
DICTIONARY
  5
360
102
{ACAD_REACTORS
330
19
102
}
330
19
100
AcDbDictionary
281
     1
  3
Standard
350
361
  0
DICTIONARY
  5
1B
102
{ACAD_REACTORS
330
19
102
}
330
19
100
AcDbDictionary
281
     1
  3
STANDARD
350
1C
  0
DICTIONARY
  5
367
102
{ACAD_REACTORS
330
19
102
}
330
19
100
AcDbDictionary
281
     1
  0
ACDBDICTIONARYWDFLT
  5
317
102
{ACAD_REACTORS
330
19
102
}
330
19
100
AcDbDictionary
281
     1
  3
Normal
350
318
100
AcDbDictionaryWithDefault
340
318
  0
DICTIONARY
  5
34E
102
{ACAD_REACTORS
330
19
102
}
330
19
100
AcDbDictionary
281
     1
  3
A0
350
34F
  3
A1
350
350
  3
A2
350
351
  3
A3
350
352
  3
A4
350
353
  3
A5
350
354
  3
A6
350
355
  3
A7
350
356
  3
A8
350
357
  3
A9
350
358
  3
B0
350
359
  3
B1
350
35A
  3
B2
350
35B
  3
B3
350
35C
  3
B4
350
35D
  3
B5
350
35E
  3
B6
350
35F
  0
DICTIONARY
  5
362
102
{ACAD_REACTORS
330
19
102
}
330
19
100
AcDbDictionary
281
     1
  3
Imperial24
350
363
  0
DICTIONARY
  5
34C
102
{ACAD_REACTORS
330
19
102
}
330
19
100
AcDbDictionary
281
     1
  3
Standard
350
34D
  0
DICTIONARY
  5
332
102
{ACAD_REACTORS
330
19
102
}
330
19
100
AcDbDictionary
281
     1
  3
2dWireframe
350
338
  3
Basic
350
337
  3
Brighten
350
33E
  3
ColorChange
350
342
  3
Conceptual
350
33B
  3
Dim
350
33D
  3
EdgeColorOff
350
34A
  3
Facepattern
350
341
  3
Flat
350
333
  3
FlatWithEdges
350
334
  3
Gouraud
350
335
  3
GouraudWithEdges
350
336
  3
Hidden
350
33A
  3
JitterOff
350
348
  3
Linepattern
350
340
  3
OverhangOff
350
349
  3
Realistic
350
33C
  3
Shaded
350
347
  3
Shaded with edges
350
346
  3
Shades of Gray
350
343
  3
Sketchy
350
344
  3
Thicken
350
33F
  3
Wireframe
350
339
  3
X-Ray
350
345
  0
XRECORD
  5
748
102
{ACAD_REACTORS
330
19
102
}
330
19
100
AcDbXrecord
280
     1
 90
        1
330
34D
  0
DICTIONARY
  5
509
102
{ACAD_REACTORS
330
19
102
}
330
19
100
AcDbDictionary
281
     1
  3
CANNOSCALE
350
50F
  3
CMLEADERSTYLE
350
50B
  3
CTABLESTYLE
350
50A
  3
CVIEWDETAILSTYLE
350
50C
  3
CVIEWSECTIONSTYLE
350
50D
  3
LAYEREVAL
350
511
  3
LAYERNOTIFY
350
512
  3
LIGHTINGUNITS
350
510
  3
MSLTSCALE
350
50E
  0
DICTIONARY
  5
373
102
{ACAD_REACTORS
330
372
102
}
330
372
100
AcDbDictionary
281
     1
  0
XRECORD
  5
65B
102
{ACAD_REACTORS
330
65A
102
}
330
65A
100
AcDbXrecord
280
     1
290
     1
  0
XRECORD
  5
65D
102
{ACAD_REACTORS
330
65C
102
}
330
65C
100
AcDbXrecord
280
     1
290
     1
  0
XRECORD
  5
65F
102
{ACAD_REACTORS
330
65E
102
}
330
65E
100
AcDbXrecord
280
     1
290
     1
  0
ACDBDETAILVIEWSTYLE
  5
365
102
{ACAD_XDICTIONARY
360
77B
102
}
102
{ACAD_REACTORS
330
364
102
}
330
364
100
AcDbModelDocViewStyle
 70
     0
  3
Imperial24
290
     0
100
AcDbDetailViewStyle
 70
     0
 71
     0
 90
        3
 71
     1
340
17
 62
   256
 40
0.24
340
0
 62
   256
 40
0.24
300

 40
0.36
280
     3
 71
     2
340
13
 90
       25
 62
   256
 71
     3
340
17
 62
   256
 40
0.24
 90
        1
 40
0.75
 90
        1
300
%<\AcVar ViewType \f "%tc1">% %<\AcVar ViewDetailId>%\PVARIA %<\AcVar ViewScale \f "%sn">%
 71
     4
340
13
 90
       25
 62
   256
340
13
 90
       25
 62
   256
280
     0
  0
LAYOUT
  5
369
102
{ACAD_REACTORS
330
366
102
}
330
366
100
AcDbPlotSettings
  1

  2
\\srvadruck01\MFSA15
  4

  6

 40
0.0
 41
0.0
 42
0.0
 43
0.0
 44
0.0
 45
0.0
 46
0.0
 47
0.0
 48
0.0
 49
0.0
140
0.0
141
0.0
142
1.0
143
1.0
 70
   688
 72
     0
 73
     0
 74
     5
  7

 75
    16
147
1.0
 76
     0
 77
     2
 78
   300
148
0.0
149
0.0
100
AcDbLayout
  1
Layout1
 70
     0
 71
     1
 10
0.0
 20
0.0
 11
12.0
 21
9.0
 12
0.0
 22
0.0
 32
0.0
 14
1.000000000000000E+20
 24
1.000000000000000E+20
 34
1.000000000000000E+20
 15
-1.000000000000000E+20
 25
-1.000000000000000E+20
 35
-1.000000000000000E+20
146
0.0
 13
0.0
 23
0.0
 33
0.0
 16
1.0
 26
0.0
 36
0.0
 17
0.0
 27
1.0
 37
0.0
 76
     0
330
B
  0
LAYOUT
  5
368
102
{ACAD_REACTORS
330
366
102
}
330
366
100
AcDbPlotSettings
  1

  2
\\srvadruck01\MFSA15
  4

  6

 40
0.0
 41
0.0
 42
0.0
 43
0.0
 44
0.0
 45
0.0
 46
0.0
 47
0.0
 48
0.0
 49
0.0
140
0.0
141
0.0
142
1.0
143
1.0
 70
  1712
 72
     0
 73
     0
 74
     0
  7

 75
     0
147
1.0
 76
     0
 77
     2
 78
   300
148
0.0
149
0.0
100
AcDbLayout
  1
Model
 70
     1
 71
     0
 10
0.0
 20
0.0
 11
12.0
 21
9.0
 12
0.0
 22
0.0
 32
0.0
 14
0.0
 24
0.0
 34
0.0
 15
0.0
 25
0.0
 35
0.0
146
0.0
 13
0.0
 23
0.0
 33
0.0
 16
1.0
 26
0.0
 36
0.0
 17
0.0
 27
1.0
 37
0.0
 76
     0
330
A
331
15
  0
MATERIAL
  5
322
102
{ACAD_XDICTIONARY
360
323
102
}
102
{ACAD_REACTORS
330
319
102
}
330
319
100
AcDbMaterial
  1
ByBlock
 72
     0
 43
0.0208333333333333
 43
0.0
 43
0.0
 43
0.0
 43
0.0
 43
0.0208333333333333
 43
0.0
 43
0.0
 43
0.0
 43
0.0
 43
1.0
 43
0.0
 43
0.0
 43
0.0
 43
0.0
 43
1.0
 77
     0
 47
0.0208333333333333
 47
0.0
 47
0.0
 47
0.0
 47
0.0
 47
0.0208333333333333
 47
0.0
 47
0.0
 47
0.0
 47
0.0
 47
1.0
 47
0.0
 47
0.0
 47
0.0
 47
0.0
 47
1.0
171
     0
 49
0.0208333333333333
 49
0.0
 49
0.0
 49
0.0
 49
0.0
 49
0.0208333333333333
 49
0.0
 49
0.0
 49
0.0
 49
0.0
 49
1.0
 49
0.0
 49
0.0
 49
0.0
 49
0.0
 49
1.0
175
     0
142
0.0208333333333333
142
0.0
142
0.0
142
0.0
142
0.0
142
0.0208333333333333
142
0.0
142
0.0
142
0.0
142
0.0
142
1.0
142
0.0
142
0.0
142
0.0
142
0.0
142
1.0
179
     0
144
0.0208333333333333
144
0.0
144
0.0
144
0.0
144
0.0
144
0.0208333333333333
144
0.0
144
0.0
144
0.0
144
0.0
144
1.0
144
0.0
144
0.0
144
0.0
144
0.0
144
1.0
147
0.0208333333333333
147
0.0
147
0.0
147
0.0
147
0.0
147
0.0208333333333333
147
0.0
147
0.0
147
0.0
147
0.0
147
1.0
147
0.0
147
0.0
147
0.0
147
0.0
147
1.0
  0
MATERIAL
  5
31A
102
{ACAD_XDICTIONARY
360
31B
102
}
102
{ACAD_REACTORS
330
319
102
}
330
319
100
AcDbMaterial
  1
ByLayer
 72
     0
 43
0.0208333333333333
 43
0.0
 43
0.0
 43
0.0
 43
0.0
 43
0.0208333333333333
 43
0.0
 43
0.0
 43
0.0
 43
0.0
 43
1.0
 43
0.0
 43
0.0
 43
0.0
 43
0.0
 43
1.0
 77
     0
 47
0.0208333333333333
 47
0.0
 47
0.0
 47
0.0
 47
0.0
 47
0.0208333333333333
 47
0.0
 47
0.0
 47
0.0
 47
0.0
 47
1.0
 47
0.0
 47
0.0
 47
0.0
 47
0.0
 47
1.0
171
     0
 49
0.0208333333333333
 49
0.0
 49
0.0
 49
0.0
 49
0.0
 49
0.0208333333333333
 49
0.0
 49
0.0
 49
0.0
 49
0.0
 49
1.0
 49
0.0
 49
0.0
 49
0.0
 49
0.0
 49
1.0
175
     0
142
0.0208333333333333
142
0.0
142
0.0
142
0.0
142
0.0
142
0.0208333333333333
142
0.0
142
0.0
142
0.0
142
0.0
142
1.0
142
0.0
142
0.0
142
0.0
142
0.0
142
1.0
179
     0
144
0.0208333333333333
144
0.0
144
0.0
144
0.0
144
0.0
144
0.0208333333333333
144
0.0
144
0.0
144
0.0
144
0.0
144
1.0
144
0.0
144
0.0
144
0.0
144
0.0
144
1.0
147
0.0208333333333333
147
0.0
147
0.0
147
0.0
147
0.0
147
0.0208333333333333
147
0.0
147
0.0
147
0.0
147
0.0
147
1.0
147
0.0
147
0.0
147
0.0
147
0.0
147
1.0
  0
MATERIAL
  5
32A
102
{ACAD_XDICTIONARY
360
32B
102
}
102
{ACAD_REACTORS
330
319
102
}
330
319
100
AcDbMaterial
  1
Global
 72
     0
 43
0.0208333333333333
 43
0.0
 43
0.0
 43
0.0
 43
0.0
 43
0.0208333333333333
 43
0.0
 43
0.0
 43
0.0
 43
0.0
 43
1.0
 43
0.0
 43
0.0
 43
0.0
 43
0.0
 43
1.0
 77
     0
 47
0.0208333333333333
 47
0.0
 47
0.0
 47
0.0
 47
0.0
 47
0.0208333333333333
 47
0.0
 47
0.0
 47
0.0
 47
0.0
 47
1.0
 47
0.0
 47
0.0
 47
0.0
 47
0.0
 47
1.0
171
     0
 49
0.0208333333333333
 49
0.0
 49
0.0
 49
0.0
 49
0.0
 49
0.0208333333333333
 49
0.0
 49
0.0
 49
0.0
 49
0.0
 49
1.0
 49
0.0
 49
0.0
 49
0.0
 49
0.0
 49
1.0
175
     0
142
0.0208333333333333
142
0.0
142
0.0
142
0.0
142
0.0
142
0.0208333333333333
142
0.0
142
0.0
142
0.0
142
0.0
142
1.0
142
0.0
142
0.0
142
0.0
142
0.0
142
1.0
179
     0
144
0.0208333333333333
144
0.0
144
0.0
144
0.0
144
0.0
144
0.0208333333333333
144
0.0
144
0.0
144
0.0
144
0.0
144
1.0
144
0.0
144
0.0
144
0.0
144
0.0
144
1.0
147
0.0208333333333333
147
0.0
147
0.0
147
0.0
147
0.0
147
0.0208333333333333
147
0.0
147
0.0
147
0.0
147
0.0
147
1.0
147
0.0
147
0.0
147
0.0
147
0.0
147
1.0
  0
MLEADERSTYLE
  5
361
102
{ACAD_REACTORS
330
360
102
}
330
360
100
AcDbMLeaderStyle
179
     2
170
     2
171
     1
172
     0
 90
        2
 40
0.0
 41
0.0
173
     1
 91
-1056964608
340
11
 92
       -2
290
     1
 42
0.09
291
     1
 43
0.36
  3
Standard
 44
0.18
300

342
17
174
     1
178
     6
175
     1
176
     0
 93
-1056964608
 45
0.18
292
     0
297
     0
 46
0.18
 94
-1056964608
 47
1.0
 49
1.0
140
1.0
293
     1
141
0.0
294
     1
177
     0
142
1.0
295
     0
296
     0
143
0.125
271
     0
272
     9
273
     9
  0
MLINESTYLE
  5
1C
102
{ACAD_REACTORS
330
1B
102
}
330
1B
100
AcDbMlineStyle
  2
STANDARD
 70
     0
  3

 62
     0
 51
90.0
 52
90.0
 71
     2
 49
0.5
 62
   256
  6
BYLAYER
 49
-0.5
 62
   256
  6
BYLAYER
  0
ACDBPLACEHOLDER
  5
318
102
{ACAD_REACTORS
330
317
102
}
330
317
  0
SCALE
  5
34F
102
{ACAD_REACTORS
330
34E
102
}
330
34E
100
AcDbScale
 70
     0
300
1:1
140
1.0
141
1.0
290
     1
  0
SCALE
  5
350
102
{ACAD_REACTORS
330
34E
102
}
330
34E
100
AcDbScale
 70
     0
300
1/128" = 1'-0"
140
0.0078125
141
12.0
290
     0
  0
SCALE
  5
351
102
{ACAD_REACTORS
330
34E
102
}
330
34E
100
AcDbScale
 70
     0
300
1/64" = 1'-0"
140
0.015625
141
12.0
290
     0
  0
SCALE
  5
352
102
{ACAD_REACTORS
330
34E
102
}
330
34E
100
AcDbScale
 70
     0
300
1/32" = 1'-0"
140
0.03125
141
12.0
290
     0
  0
SCALE
  5
353
102
{ACAD_REACTORS
330
34E
102
}
330
34E
100
AcDbScale
 70
     0
300
1/16" = 1'-0"
140
0.0625
141
12.0
290
     0
  0
SCALE
  5
354
102
{ACAD_REACTORS
330
34E
102
}
330
34E
100
AcDbScale
 70
     0
300
3/32" = 1'-0"
140
0.09375
141
12.0
290
     0
  0
SCALE
  5
355
102
{ACAD_REACTORS
330
34E
102
}
330
34E
100
AcDbScale
 70
     0
300
1/8" = 1'-0"
140
0.125
141
12.0
290
     0
  0
SCALE
  5
356
102
{ACAD_REACTORS
330
34E
102
}
330
34E
100
AcDbScale
 70
     0
300
3/16" = 1'-0"
140
0.1875
141
12.0
290
     0
  0
SCALE
  5
357
102
{ACAD_REACTORS
330
34E
102
}
330
34E
100
AcDbScale
 70
     0
300
1/4" = 1'-0"
140
0.25
141
12.0
290
     0
  0
SCALE
  5
358
102
{ACAD_REACTORS
330
34E
102
}
330
34E
100
AcDbScale
 70
     0
300
3/8" = 1'-0"
140
0.375
141
12.0
290
     0
  0
SCALE
  5
359
102
{ACAD_REACTORS
330
34E
102
}
330
34E
100
AcDbScale
 70
     0
300
1/2" = 1'-0"
140
0.5
141
12.0
290
     0
  0
SCALE
  5
35A
102
{ACAD_REACTORS
330
34E
102
}
330
34E
100
AcDbScale
 70
     0
300
3/4" = 1'-0"
140
0.75
141
12.0
290
     0
  0
SCALE
  5
35B
102
{ACAD_REACTORS
330
34E
102
}
330
34E
100
AcDbScale
 70
     0
300
1" = 1'-0"
140
1.0
141
12.0
290
     0
  0
SCALE
  5
35C
102
{ACAD_REACTORS
330
34E
102
}
330
34E
100
AcDbScale
 70
     0
300
1-1/2" = 1'-0"
140
1.5
141
12.0
290
     0
  0
SCALE
  5
35D
102
{ACAD_REACTORS
330
34E
102
}
330
34E
100
AcDbScale
 70
     0
300
3" = 1'-0"
140
3.0
141
12.0
290
     0
  0
SCALE
  5
35E
102
{ACAD_REACTORS
330
34E
102
}
330
34E
100
AcDbScale
 70
     0
300
6" = 1'-0"
140
6.0
141
12.0
290
     0
  0
SCALE
  5
35F
102
{ACAD_REACTORS
330
34E
102
}
330
34E
100
AcDbScale
 70
     0
300
1'-0" = 1'-0"
140
12.0
141
12.0
290
     0
  0
ACDBSECTIONVIEWSTYLE
  5
363
102
{ACAD_XDICTIONARY
360
779
102
}
102
{ACAD_REACTORS
330
362
102
}
330
362
100
AcDbModelDocViewStyle
 70
     0
  3
Imperial24
290
     0
100
AcDbSectionViewStyle
 70
     0
 71
     0
 90
       78
 71
     1
340
17
 62
   256
 40
0.24
340
0
340
0
 62
   256
 40
0.24
300
I, O, Q, S, X, Z
 40
0.48
 90
        3
 40
0.18
 90
        1
 71
     2
340
13
 90
       25
 62
   256
340
13
 90
       50
 62
   256
 40
0.24
 40
0.0
 40
0.24
 71
     3
340
17
 62
   256
 40
0.24
 90
        1
 40
0.75
 90
        1
300
%<\AcVar ViewType \f "%tc1">% %<\AcVar ViewSectionStartId>%-%<\AcVar ViewSectionEndId>%\PVARIA %<\AcVar ViewScale \f "%sn">%
 71
     4
 62
   256
 62
   257
300
ANSI31
 40
1.0
 90
        0
290
     0
290
     0
 90
        6
 40
0.0
 40
1.570796326794896
 40
0.2617993877991494
 40
1.308996938995747
 40
-0.2617993877991494
 40
1.832595714594045
  0
TABLESTYLE
  5
34D
102
{ACAD_XDICTIONARY
360
513
102
}
102
{ACAD_REACTORS
330
34C
102
}
330
34C
100
AcDbTableStyle
280
     0
  3
Standard
 70
     0
 71
     0
 40
0.06
 41
0.06
280
     0
281
     0
  7
STANDARD
140
0.18
170
     2
 62
     0
 63
     7
283
     0
 90
      512
 91
        0
  1

274
    -2
284
     1
 64
     0
275
    -2
285
     1
 65
     0
276
    -2
286
     1
 66
     0
277
    -2
287
     1
 67
     0
278
    -2
288
     1
 68
     0
279
    -2
289
     1
 69
     0
  7
STANDARD
140
0.25
170
     5
 62
     0
 63
     7
283
     0
 90
      512
 91
        0
  1

274
    -2
284
     1
 64
     0
275
    -2
285
     1
 65
     0
276
    -2
286
     1
 66
     0
277
    -2
287
     1
 67
     0
278
    -2
288
     1
 68
     0
279
    -2
289
     1
 69
     0
  7
STANDARD
140
0.18
170
     5
 62
     0
 63
     7
283
     0
 90
      512
 91
        0
  1

274
    -2
284
     1
 64
     0
275
    -2
285
     1
 65
     0
276
    -2
286
     1
 66
     0
277
    -2
287
     1
 67
     0
278
    -2
288
     1
 68
     0
279
    -2
289
     1
 69
     0
  0
VISUALSTYLE
  5
338
102
{ACAD_XDICTIONARY
360
753
102
}
102
{ACAD_REACTORS
330
332
102
}
330
332
100
AcDbVisualStyle
  2
2dWireframe
 70
     4
177
     2
291
     0
 71
     0
176
     1
 72
     2
176
     1
 73
     0
176
     1
 90
        0
176
     1
 40
0.6
176
     1
 41
30.0
176
     1
 63
     7
421
 16777215
176
     1
 74
     1
176
     1
 91
        4
176
     1
 64
     7
176
     1
 65
   257
176
     1
 75
     1
176
     1
175
     1
176
     1
 42
1.0
176
     1
 92
        0
176
     1
 66
   257
176
     1
 43
1.0
176
     1
 76
     1
176
     1
 77
     6
176
     1
 78
     2
176
     1
 67
     7
176
     1
 79
     5
176
     1
170
     0
176
     1
171
     0
176
     1
290
     0
176
     1
 93
        1
176
     1
 44
0.0
176
     1
173
     0
176
     1
1001
ACAD
1000
AcDbSavedByObjectVersion
1070
     0
  0
VISUALSTYLE
  5
337
102
{ACAD_XDICTIONARY
360
751
102
}
102
{ACAD_REACTORS
330
332
102
}
330
332
100
AcDbVisualStyle
  2
Basic
 70
     7
177
     2
291
     1
 71
     1
176
     1
 72
     0
176
     1
 73
     1
176
     1
 90
        0
176
     1
 40
0.6
176
     1
 41
30.0
176
     1
 63
     7
421
 16777215
176
     1
 74
     0
176
     1
 91
        4
176
     1
 64
     7
176
     1
 65
   257
176
     1
 75
     1
176
     1
175
     1
176
     1
 42
1.0
176
     1
 92
        8
176
     1
 66
     7
176
     1
 43
1.0
176
     1
 76
     1
176
     1
 77
     6
176
     1
 78
     2
176
     1
 67
     7
176
     1
 79
     5
176
     1
170
     0
176
     1
171
     0
176
     1
290
     0
176
     1
 93
        1
176
     1
 44
0.0
176
     1
173
     0
176
     1
1001
ACAD
1000
AcDbSavedByObjectVersion
1070
     0
  0
VISUALSTYLE
  5
33E
102
{ACAD_XDICTIONARY
360
75F
102
}
102
{ACAD_REACTORS
330
332
102
}
330
332
100
AcDbVisualStyle
  2
Brighten
 70
    12
177
     2
291
     1
 71
     2
176
     1
 72
     2
176
     1
 73
     0
176
     1
 90
        0
176
     1
 40
0.6
176
     1
 41
30.0
176
     1
 63
     7
421
 16777215
176
     1
 74
     1
176
     1
 91
        4
176
     1
 64
     7
176
     1
 65
   257
176
     1
 75
     1
176
     1
175
     1
176
     1
 42
1.0
176
     1
 92
        8
176
     1
 66
     7
176
     1
 43
1.0
176
     1
 76
     1
176
     1
 77
     6
176
     1
 78
     2
176
     1
 67
     7
176
     1
 79
     5
176
     1
170
     0
176
     1
171
     0
176
     1
290
     0
176
     1
 93
        1
176
     1
 44
50.0
176
     1
173
     0
176
     1
1001
ACAD
1000
AcDbSavedByObjectVersion
1070
     0
  0
VISUALSTYLE
  5
342
102
{ACAD_XDICTIONARY
360
767
102
}
102
{ACAD_REACTORS
330
332
102
}
330
332
100
AcDbVisualStyle
  2
ColorChange
 70
    16
177
     2
291
     1
 71
     2
176
     1
 72
     2
176
     1
 73
     3
176
     1
 90
        0
176
     1
 40
0.6
176
     1
 41
30.0
176
     1
 63
     8
421
  8421504
176
     1
 74
     1
176
     1
 91
        4
176
     1
 64
     7
176
     1
 65
   257
176
     1
 75
     1
176
     1
175
     1
176
     1
 42
1.0
176
     1
 92
        8
176
     1
 66
     8
424
  8421504
176
     1
 43
1.0
176
     1
 76
     1
176
     1
 77
     6
176
     1
 78
     2
176
     1
 67
     7
176
     1
 79
     5
176
     1
170
     0
176
     1
171
     0
176
     1
290
     0
176
     1
 93
        1
176
     1
 44
0.0
176
     1
173
     0
176
     1
1001
ACAD
1000
AcDbSavedByObjectVersion
1070
     0
  0
VISUALSTYLE
  5
33B
102
{ACAD_XDICTIONARY
360
759
102
}
102
{ACAD_REACTORS
330
332
102
}
330
332
100
AcDbVisualStyle
  2
Conceptual
 70
     9
177
     2
291
     0
 71
     3
176
     1
 72
     2
176
     1
 73
     0
176
     1
 90
        0
176
     1
 40
0.6
176
     1
 41
30.0
176
     1
 63
     7
421
 16777215
176
     1
 74
     2
176
     1
 91
        2
176
     1
 64
     7
176
     1
 65
   257
176
     1
 75
     1
176
     1
175
     1
176
     1
 42
179.0
176
     1
 92
        8
176
     1
 66
     7
176
     1
 43
1.0
176
     1
 76
     1
176
     1
 77
     6
176
     1
 78
     2
176
     1
 67
     7
176
     1
 79
     3
176
     1
170
     0
176
     1
171
     0
176
     1
290
     0
176
     1
 93
        1
176
     1
 44
0.0
176
     1
173
     0
176
     1
1001
ACAD
1000
AcDbSavedByObjectVersion
1070
     0
  0
VISUALSTYLE
  5
33D
102
{ACAD_XDICTIONARY
360
75D
102
}
102
{ACAD_REACTORS
330
332
102
}
330
332
100
AcDbVisualStyle
  2
Dim
 70
    11
177
     2
291
     1
 71
     2
176
     1
 72
     2
176
     1
 73
     0
176
     1
 90
        0
176
     1
 40
0.6
176
     1
 41
30.0
176
     1
 63
     7
421
 16777215
176
     1
 74
     1
176
     1
 91
        4
176
     1
 64
     7
176
     1
 65
   257
176
     1
 75
     1
176
     1
175
     1
176
     1
 42
1.0
176
     1
 92
        8
176
     1
 66
     7
176
     1
 43
1.0
176
     1
 76
     1
176
     1
 77
     6
176
     1
 78
     2
176
     1
 67
     7
176
     1
 79
     5
176
     1
170
     0
176
     1
171
     0
176
     1
290
     0
176
     1
 93
        1
176
     1
 44
-50.0
176
     1
173
     0
176
     1
1001
ACAD
1000
AcDbSavedByObjectVersion
1070
     0
  0
VISUALSTYLE
  5
34A
102
{ACAD_XDICTIONARY
360
777
102
}
102
{ACAD_REACTORS
330
332
102
}
330
332
100
AcDbVisualStyle
  2
EdgeColorOff
 70
    22
177
     2
291
     1
 71
     2
176
     0
 72
     2
176
     0
 73
     0
176
     0
 90
        0
176
     0
 40
0.6
176
     0
 41
30.0
176
     0
 63
     7
421
 16777215
176
     0
 74
     1
176
     0
 91
        4
176
     0
 64
     7
176
     0
 65
   257
176
     0
 75
     1
176
     0
175
     1
176
     0
 42
1.0
176
     0
 92
        8
176
     2
 66
     7
176
     0
 43
1.0
176
     0
 76
     1
176
     0
 77
     6
176
     0
 78
     2
176
     0
 67
     7
176
     0
 79
     5
176
     0
170
     0
176
     0
171
     0
176
     0
290
     0
176
     0
 93
        1
176
     0
 44
0.0
176
     0
173
     0
176
     0
1001
ACAD
1000
AcDbSavedByObjectVersion
1070
     0
  0
VISUALSTYLE
  5
341
102
{ACAD_XDICTIONARY
360
765
102
}
102
{ACAD_REACTORS
330
332
102
}
330
332
100
AcDbVisualStyle
  2
Facepattern
 70
    15
177
     2
291
     1
 71
     2
176
     1
 72
     2
176
     1
 73
     0
176
     1
 90
        0
176
     1
 40
0.6
176
     1
 41
30.0
176
     1
 63
     7
421
 16777215
176
     1
 74
     1
176
     1
 91
        4
176
     1
 64
     7
176
     1
 65
   257
176
     1
 75
     1
176
     1
175
     1
176
     1
 42
1.0
176
     1
 92
        8
176
     1
 66
     7
176
     1
 43
1.0
176
     1
 76
     1
176
     1
 77
     6
176
     1
 78
     2
176
     1
 67
     7
176
     1
 79
     5
176
     1
170
     0
176
     1
171
     0
176
     1
290
     0
176
     1
 93
        1
176
     1
 44
0.0
176
     1
173
     0
176
     1
1001
ACAD
1000
AcDbSavedByObjectVersion
1070
     0
  0
VISUALSTYLE
  5
333
102
{ACAD_XDICTIONARY
360
749
102
}
102
{ACAD_REACTORS
330
332
102
}
330
332
100
AcDbVisualStyle
  2
Flat
 70
     0
177
     2
291
     1
 71
     2
176
     1
 72
     1
176
     1
 73
     1
176
     1
 90
        2
176
     1
 40
0.6
176
     1
 41
30.0
176
     1
 63
     7
421
 16777215
176
     1
 74
     0
176
     1
 91
        0
176
     1
 64
     7
176
     1
 65
   257
176
     1
 75
     1
176
     1
175
     1
176
     1
 42
1.0
176
     1
 92
        8
176
     1
 66
     7
176
     1
 43
1.0
176
     1
 76
     1
176
     1
 77
     6
176
     1
 78
     2
176
     1
 67
     7
176
     1
 79
     5
176
     1
170
     0
176
     1
171
     0
176
     1
290
     0
176
     1
 93
       13
176
     1
 44
0.0
176
     1
173
     0
176
     1
1001
ACAD
1000
AcDbSavedByObjectVersion
1070
     0
  0
VISUALSTYLE
  5
334
102
{ACAD_XDICTIONARY
360
74B
102
}
102
{ACAD_REACTORS
330
332
102
}
330
332
100
AcDbVisualStyle
  2
FlatWithEdges
 70
     1
177
     2
291
     1
 71
     2
176
     1
 72
     1
176
     1
 73
     1
176
     1
 90
        2
176
     1
 40
0.6
176
     1
 41
30.0
176
     1
 63
     7
421
 16777215
176
     1
 74
     1
176
     1
 91
        0
176
     1
 64
     7
176
     1
 65
   257
176
     1
 75
     1
176
     1
175
     1
176
     1
 42
1.0
176
     1
 92
        0
176
     1
 66
   257
176
     1
 43
1.0
176
     1
 76
     1
176
     1
 77
     6
176
     1
 78
     2
176
     1
 67
     7
176
     1
 79
     5
176
     1
170
     0
176
     1
171
     0
176
     1
290
     0
176
     1
 93
       13
176
     1
 44
0.0
176
     1
173
     0
176
     1
1001
ACAD
1000
AcDbSavedByObjectVersion
1070
     0
  0
VISUALSTYLE
  5
335
102
{ACAD_XDICTIONARY
360
74D
102
}
102
{ACAD_REACTORS
330
332
102
}
330
332
100
AcDbVisualStyle
  2
Gouraud
 70
     2
177
     2
291
     1
 71
     2
176
     1
 72
     2
176
     1
 73
     1
176
     1
 90
        2
176
     1
 40
0.6
176
     1
 41
30.0
176
     1
 63
     7
421
 16777215
176
     1
 74
     0
176
     1
 91
        0
176
     1
 64
     7
176
     1
 65
   257
176
     1
 75
     1
176
     1
175
     1
176
     1
 42
1.0
176
     1
 92
        0
176
     1
 66
     7
176
     1
 43
1.0
176
     1
 76
     1
176
     1
 77
     6
176
     1
 78
     2
176
     1
 67
     7
176
     1
 79
     5
176
     1
170
     0
176
     1
171
     0
176
     1
290
     0
176
     1
 93
       13
176
     1
 44
0.0
176
     1
173
     0
176
     1
1001
ACAD
1000
AcDbSavedByObjectVersion
1070
     0
  0
VISUALSTYLE
  5
336
102
{ACAD_XDICTIONARY
360
74F
102
}
102
{ACAD_REACTORS
330
332
102
}
330
332
100
AcDbVisualStyle
  2
GouraudWithEdges
 70
     3
177
     2
291
     1
 71
     2
176
     1
 72
     2
176
     1
 73
     1
176
     1
 90
        2
176
     1
 40
0.6
176
     1
 41
30.0
176
     1
 63
     7
421
 16777215
176
     1
 74
     1
176
     1
 91
        0
176
     1
 64
     7
176
     1
 65
   257
176
     1
 75
     1
176
     1
175
     1
176
     1
 42
1.0
176
     1
 92
        0
176
     1
 66
   257
176
     1
 43
1.0
176
     1
 76
     1
176
     1
 77
     6
176
     1
 78
     2
176
     1
 67
     7
176
     1
 79
     5
176
     1
170
     0
176
     1
171
     0
176
     1
290
     0
176
     1
 93
       13
176
     1
 44
0.0
176
     1
173
     0
176
     1
1001
ACAD
1000
AcDbSavedByObjectVersion
1070
     0
  0
VISUALSTYLE
  5
33A
102
{ACAD_XDICTIONARY
360
757
102
}
102
{ACAD_REACTORS
330
332
102
}
330
332
100
AcDbVisualStyle
  2
Hidden
 70
     6
177
     2
291
     0
 71
     1
176
     1
 72
     2
176
     1
 73
     2
176
     1
 90
        0
176
     1
 40
0.6
176
     1
 41
30.0
176
     1
 63
     7
421
 16777215
176
     1
 74
     2
176
     1
 91
        2
176
     1
 64
     7
176
     1
 65
   257
176
     1
 75
     2
176
     1
175
     1
176
     1
 42
40.0
176
     1
 92
        0
176
     1
 66
   257
176
     1
 43
1.0
176
     1
 76
     1
176
     1
 77
     6
176
     1
 78
     2
176
     1
 67
     7
176
     1
 79
     3
176
     1
170
     0
176
     1
171
     0
176
     1
290
     0
176
     1
 93
        1
176
     1
 44
0.0
176
     1
173
     0
176
     1
1001
ACAD
1000
AcDbSavedByObjectVersion
1070
     0
  0
VISUALSTYLE
  5
348
102
{ACAD_XDICTIONARY
360
773
102
}
102
{ACAD_REACTORS
330
332
102
}
330
332
100
AcDbVisualStyle
  2
JitterOff
 70
    20
177
     2
291
     1
 71
     2
176
     0
 72
     2
176
     0
 73
     0
176
     0
 90
        0
176
     0
 40
0.6
176
     0
 41
30.0
176
     0
 63
     7
421
 16777215
176
     0
 74
     1
176
     0
 91
        4
176
     0
 64
     7
176
     0
 65
   257
176
     0
 75
     1
176
     0
175
     1
176
     0
 42
1.0
176
     0
 92
       10
176
     2
 66
     7
176
     0
 43
1.0
176
     0
 76
     1
176
     0
 77
     6
176
     0
 78
     2
176
     0
 67
     7
176
     0
 79
     5
176
     0
170
     0
176
     0
171
     0
176
     0
290
     0
176
     0
 93
        1
176
     0
 44
0.0
176
     0
173
     0
176
     0
1001
ACAD
1000
AcDbSavedByObjectVersion
1070
     0
  0
VISUALSTYLE
  5
340
102
{ACAD_XDICTIONARY
360
763
102
}
102
{ACAD_REACTORS
330
332
102
}
330
332
100
AcDbVisualStyle
  2
Linepattern
 70
    14
177
     2
291
     1
 71
     2
176
     1
 72
     2
176
     1
 73
     0
176
     1
 90
        0
176
     1
 40
0.6
176
     1
 41
30.0
176
     1
 63
     7
421
 16777215
176
     1
 74
     1
176
     1
 91
        4
176
     1
 64
     7
176
     1
 65
   257
176
     1
 75
     7
176
     1
175
     7
176
     1
 42
1.0
176
     1
 92
        8
176
     1
 66
     7
176
     1
 43
1.0
176
     1
 76
     1
176
     1
 77
     6
176
     1
 78
     2
176
     1
 67
     7
176
     1
 79
     5
176
     1
170
     0
176
     1
171
     0
176
     1
290
     0
176
     1
 93
        1
176
     1
 44
0.0
176
     1
173
     0
176
     1
1001
ACAD
1000
AcDbSavedByObjectVersion
1070
     0
  0
VISUALSTYLE
  5
349
102
{ACAD_XDICTIONARY
360
775
102
}
102
{ACAD_REACTORS
330
332
102
}
330
332
100
AcDbVisualStyle
  2
OverhangOff
 70
    21
177
     2
291
     1
 71
     2
176
     0
 72
     2
176
     0
 73
     0
176
     0
 90
        0
176
     0
 40
0.6
176
     0
 41
30.0
176
     0
 63
     7
421
 16777215
176
     0
 74
     1
176
     0
 91
        4
176
     0
 64
     7
176
     0
 65
   257
176
     0
 75
     1
176
     0
175
     1
176
     0
 42
1.0
176
     0
 92
        9
176
     2
 66
     7
176
     0
 43
1.0
176
     0
 76
     1
176
     0
 77
     6
176
     0
 78
     2
176
     0
 67
     7
176
     0
 79
     5
176
     0
170
     0
176
     0
171
     0
176
     0
290
     0
176
     0
 93
        1
176
     0
 44
0.0
176
     0
173
     0
176
     0
1001
ACAD
1000
AcDbSavedByObjectVersion
1070
     0
  0
VISUALSTYLE
  5
33C
102
{ACAD_XDICTIONARY
360
75B
102
}
102
{ACAD_REACTORS
330
332
102
}
330
332
100
AcDbVisualStyle
  2
Realistic
 70
     8
177
     2
291
     0
 71
     2
176
     1
 72
     3
176
     1
 73
     0
176
     1
 90
        2
176
     1
 40
0.6
176
     1
 41
30.0
176
     1
 63
     7
421
 16777215
176
     1
 74
     0
176
     1
 91
        0
176
     1
 64
     7
176
     1
 65
   257
176
     1
 75
     1
176
     1
175
     1
176
     1
 42
1.0
176
     1
 92
        8
176
     1
 66
   257
176
     1
 43
1.0
176
     1
 76
     1
176
     1
 77
     6
176
     1
 78
     2
176
     1
 67
     7
176
     1
 79
     3
176
     1
170
     0
176
     1
171
     0
176
     1
290
     0
176
     1
 93
       13
176
     1
 44
0.0
176
     1
173
     0
176
     1
1001
ACAD
1000
AcDbSavedByObjectVersion
1070
     0
  0
VISUALSTYLE
  5
347
102
{ACAD_XDICTIONARY
360
771
102
}
102
{ACAD_REACTORS
330
332
102
}
330
332
100
AcDbVisualStyle
  2
Shaded
 70
    27
177
     2
291
     0
 71
     2
176
     1
 72
     2
176
     1
 73
     1
176
     1
 90
        2
176
     1
 40
0.6
176
     1
 41
30.0
176
     1
 63
     7
421
 16777215
176
     1
 74
     0
176
     1
 91
        4
176
     1
 64
     7
176
     1
 65
   257
176
     1
 75
     1
176
     1
175
     1
176
     1
 42
1.0
176
     1
 92
        8
176
     1
 66
   257
176
     1
 43
1.0
176
     1
 76
     1
176
     1
 77
     6
176
     1
 78
     2
176
     1
 67
     8
425
  7895160
176
     1
 79
     3
176
     1
170
     0
176
     1
171
     0
176
     1
290
     0
176
     1
 93
        5
176
     1
 44
0.0
176
     1
173
     0
176
     1
1001
ACAD
1000
AcDbSavedByObjectVersion
1070
     0
  0
VISUALSTYLE
  5
346
102
{ACAD_XDICTIONARY
360
76F
102
}
102
{ACAD_REACTORS
330
332
102
}
330
332
100
AcDbVisualStyle
  2
Shaded with edges
 70
    26
177
     2
291
     0
 71
     2
176
     1
 72
     2
176
     1
 73
     1
176
     1
 90
        2
176
     1
 40
0.6
176
     1
 41
30.0
176
     1
 63
     7
421
 16777215
176
     1
 74
     1
176
     1
 91
       10
176
     1
 64
     7
176
     1
 65
   257
176
     1
 75
     2
176
     1
175
     1
176
     1
 42
1.0
176
     1
 92
        8
176
     1
 66
   257
176
     1
 43
1.0
176
     1
 76
     1
176
     1
 77
     6
176
     1
 78
     2
176
     1
 67
     7
176
     1
 79
     3
176
     1
170
     0
176
     1
171
     0
176
     1
290
     0
176
     1
 93
        5
176
     1
 44
0.0
176
     1
173
     0
176
     1
1001
ACAD
1000
AcDbSavedByObjectVersion
1070
     0
  0
VISUALSTYLE
  5
343
102
{ACAD_XDICTIONARY
360
769
102
}
102
{ACAD_REACTORS
330
332
102
}
330
332
100
AcDbVisualStyle
  2
Shades of Gray
 70
    23
177
     2
291
     0
 71
     2
176
     1
 72
     2
176
     1
 73
     3
176
     1
 90
        0
176
     1
 40
0.6
176
     1
 41
30.0
176
     1
 63
     7
421
 16777215
176
     1
 74
     2
176
     1
 91
        2
176
     1
 64
     7
176
     1
 65
     7
176
     1
 75
     1
176
     1
175
     1
176
     1
 42
40.0
176
     1
 92
        8
176
     1
 66
     7
176
     1
 43
1.0
176
     1
 76
     1
176
     1
 77
     6
176
     1
 78
     2
176
     1
 67
     7
176
     1
 79
     3
176
     1
170
     0
176
     1
171
     0
176
     1
290
     0
176
     1
 93
        1
176
     1
 44
0.0
176
     1
173
     0
176
     1
1001
ACAD
1000
AcDbSavedByObjectVersion
1070
     0
  0
VISUALSTYLE
  5
344
102
{ACAD_XDICTIONARY
360
76B
102
}
102
{ACAD_REACTORS
330
332
102
}
330
332
100
AcDbVisualStyle
  2
Sketchy
 70
    24
177
     2
291
     0
 71
     1
176
     1
 72
     2
176
     1
 73
     2
176
     1
 90
        0
176
     1
 40
0.6
176
     1
 41
30.0
176
     1
 63
     7
421
 16777215
176
     1
 74
     2
176
     1
 91
        2
176
     1
 64
     7
176
     1
 65
     7
176
     1
 75
     1
176
     1
175
     1
176
     1
 42
40.0
176
     1
 92
       11
176
     1
 66
     7
176
     1
 43
1.0
176
     1
 76
     1
176
     1
 77
     6
176
     1
 78
     2
176
     1
 67
     7
176
     1
 79
     6
176
     1
170
     0
176
     1
171
     0
176
     1
290
     0
176
     1
 93
        1
176
     1
 44
0.0
176
     1
173
     0
176
     1
1001
ACAD
1000
AcDbSavedByObjectVersion
1070
     0
  0
VISUALSTYLE
  5
33F
102
{ACAD_XDICTIONARY
360
761
102
}
102
{ACAD_REACTORS
330
332
102
}
330
332
100
AcDbVisualStyle
  2
Thicken
 70
    13
177
     2
291
     1
 71
     2
176
     1
 72
     2
176
     1
 73
     0
176
     1
 90
        0
176
     1
 40
0.6
176
     1
 41
30.0
176
     1
 63
     7
421
 16777215
176
     1
 74
     1
176
     1
 91
        4
176
     1
 64
     7
176
     1
 65
   257
176
     1
 75
     1
176
     1
175
     1
176
     1
 42
1.0
176
     1
 92
       12
176
     1
 66
     7
176
     1
 43
1.0
176
     1
 76
     1
176
     1
 77
     6
176
     1
 78
     2
176
     1
 67
     7
176
     1
 79
     5
176
     1
170
     0
176
     1
171
     0
176
     1
290
     0
176
     1
 93
        1
176
     1
 44
0.0
176
     1
173
     0
176
     1
1001
ACAD
1000
AcDbSavedByObjectVersion
1070
     0
  0
VISUALSTYLE
  5
339
102
{ACAD_XDICTIONARY
360
755
102
}
102
{ACAD_REACTORS
330
332
102
}
330
332
100
AcDbVisualStyle
  2
Wireframe
 70
     5
177
     2
291
     0
 71
     0
176
     1
 72
     2
176
     1
 73
     0
176
     1
 90
        0
176
     1
 40
0.6
176
     1
 41
30.0
176
     1
 63
     7
421
 16777215
176
     1
 74
     1
176
     1
 91
        4
176
     1
 64
     7
176
     1
 65
   257
176
     1
 75
     1
176
     1
175
     1
176
     1
 42
1.0
176
     1
 92
        0
176
     1
 66
   257
176
     1
 43
1.0
176
     1
 76
     1
176
     1
 77
     6
176
     1
 78
     2
176
     1
 67
     7
176
     1
 79
     3
176
     1
170
     0
176
     1
171
     0
176
     1
290
     0
176
     1
 93
        1
176
     1
 44
0.0
176
     1
173
     0
176
     1
1001
ACAD
1000
AcDbSavedByObjectVersion
1070
     0
  0
VISUALSTYLE
  5
345
102
{ACAD_XDICTIONARY
360
76D
102
}
102
{ACAD_REACTORS
330
332
102
}
330
332
100
AcDbVisualStyle
  2
X-Ray
 70
    25
177
     2
291
     0
 71
     2
176
     1
 72
     2
176
     1
 73
     1
176
     1
 90
        1
176
     1
 40
0.5
176
     1
 41
30.0
176
     1
 63
     7
421
 16777215
176
     1
 74
     1
176
     1
 91
        0
176
     1
 64
     7
176
     1
 65
   257
176
     1
 75
     1
176
     1
175
     1
176
     1
 42
1.0
176
     1
 92
        8
176
     1
 66
     7
176
     1
 43
1.0
176
     1
 76
     1
176
     1
 77
     6
176
     1
 78
     2
176
     1
 67
     7
176
     1
 79
     3
176
     1
170
     0
176
     1
171
     0
176
     1
290
     0
176
     1
 93
       13
176
     1
 44
0.0
176
     1
173
     0
176
     1
1001
ACAD
1000
AcDbSavedByObjectVersion
1070
     0
  0
DICTIONARYVAR
  5
50F
102
{ACAD_REACTORS
330
509
102
}
330
509
100
DictionaryVariables
280
     0
  1
1:1
  0
DICTIONARYVAR
  5
50B
102
{ACAD_REACTORS
330
509
102
}
330
509
100
DictionaryVariables
280
     0
  1
STANDARD
  0
DICTIONARYVAR
  5
50A
102
{ACAD_REACTORS
330
509
102
}
330
509
100
DictionaryVariables
280
     0
  1
STANDARD
  0
DICTIONARYVAR
  5
50C
102
{ACAD_REACTORS
330
509
102
}
330
509
100
DictionaryVariables
280
     0
  1
Imperial24
  0
DICTIONARYVAR
  5
50D
102
{ACAD_REACTORS
330
509
102
}
330
509
100
DictionaryVariables
280
     0
  1
Imperial24
  0
DICTIONARYVAR
  5
511
102
{ACAD_REACTORS
330
509
102
}
330
509
100
DictionaryVariables
280
     0
  1
1
  0
DICTIONARYVAR
  5
512
102
{ACAD_REACTORS
330
509
102
}
330
509
100
DictionaryVariables
280
     0
  1
15
  0
DICTIONARYVAR
  5
510
102
{ACAD_REACTORS
330
509
102
}
330
509
100
DictionaryVariables
280
     0
  1
0
  0
DICTIONARYVAR
  5
50E
102
{ACAD_REACTORS
330
509
102
}
330
509
100
DictionaryVariables
280
     0
  1
0
  0
DICTIONARY
  5
77B
330
365
100
AcDbDictionary
280
     1
281
     1
  3
ACAD_XREC_ROUNDTRIP
360
77C
  0
DICTIONARY
  5
323
330
322
100
AcDbDictionary
280
     1
281
     1
  3
BUMPTILE
360
325
  3
DIFFUSETILE
360
324
  3
OPACITYTILE
360
328
  3
REFLECTIONTILE
360
327
  3
REFRACTIONTILE
360
329
  3
SPECULARTILE
360
326
  0
DICTIONARY
  5
31B
330
31A
100
AcDbDictionary
280
     1
281
     1
  3
BUMPTILE
360
31D
  3
DIFFUSETILE
360
31C
  3
OPACITYTILE
360
320
  3
REFLECTIONTILE
360
31F
  3
REFRACTIONTILE
360
321
  3
SPECULARTILE
360
31E
  0
DICTIONARY
  5
32B
330
32A
100
AcDbDictionary
280
     1
281
     1
  3
BUMPTILE
360
32D
  3
DIFFUSETILE
360
32C
  3
OPACITYTILE
360
330
  3
REFLECTIONTILE
360
32F
  3
REFRACTIONTILE
360
331
  3
SPECULARTILE
360
32E
  0
DICTIONARY
  5
779
330
363
100
AcDbDictionary
280
     1
281
     1
  3
ACAD_XREC_ROUNDTRIP
360
77A
  0
DICTIONARY
  5
513
330
34D
100
AcDbDictionary
280
     1
281
     1
  3
ACAD_ROUNDTRIP_2008_TABLESTYLE_CELLSTYLEMAP
360
747
  0
DICTIONARY
  5
753
330
338
100
AcDbDictionary
280
     1
281
     1
  3
ACAD_XREC_ROUNDTRIP
360
754
  0
DICTIONARY
  5
751
330
337
100
AcDbDictionary
280
     1
281
     1
  3
ACAD_XREC_ROUNDTRIP
360
752
  0
DICTIONARY
  5
75F
330
33E
100
AcDbDictionary
280
     1
281
     1
  3
ACAD_XREC_ROUNDTRIP
360
760
  0
DICTIONARY
  5
767
330
342
100
AcDbDictionary
280
     1
281
     1
  3
ACAD_XREC_ROUNDTRIP
360
768
  0
DICTIONARY
  5
759
330
33B
100
AcDbDictionary
280
     1
281
     1
  3
ACAD_XREC_ROUNDTRIP
360
75A
  0
DICTIONARY
  5
75D
330
33D
100
AcDbDictionary
280
     1
281
     1
  3
ACAD_XREC_ROUNDTRIP
360
75E
  0
DICTIONARY
  5
777
330
34A
100
AcDbDictionary
280
     1
281
     1
  3
ACAD_XREC_ROUNDTRIP
360
778
  0
DICTIONARY
  5
765
330
341
100
AcDbDictionary
280
     1
281
     1
  3
ACAD_XREC_ROUNDTRIP
360
766
  0
DICTIONARY
  5
749
330
333
100
AcDbDictionary
280
     1
281
     1
  3
ACAD_XREC_ROUNDTRIP
360
74A
  0
DICTIONARY
  5
74B
330
334
100
AcDbDictionary
280
     1
281
     1
  3
ACAD_XREC_ROUNDTRIP
360
74C
  0
DICTIONARY
  5
74D
330
335
100
AcDbDictionary
280
     1
281
     1
  3
ACAD_XREC_ROUNDTRIP
360
74E
  0
DICTIONARY
  5
74F
330
336
100
AcDbDictionary
280
     1
281
     1
  3
ACAD_XREC_ROUNDTRIP
360
750
  0
DICTIONARY
  5
757
330
33A
100
AcDbDictionary
280
     1
281
     1
  3
ACAD_XREC_ROUNDTRIP
360
758
  0
DICTIONARY
  5
773
330
348
100
AcDbDictionary
280
     1
281
     1
  3
ACAD_XREC_ROUNDTRIP
360
774
  0
DICTIONARY
  5
763
330
340
100
AcDbDictionary
280
     1
281
     1
  3
ACAD_XREC_ROUNDTRIP
360
764
  0
DICTIONARY
  5
775
330
349
100
AcDbDictionary
280
     1
281
     1
  3
ACAD_XREC_ROUNDTRIP
360
776
  0
DICTIONARY
  5
75B
330
33C
100
AcDbDictionary
280
     1
281
     1
  3
ACAD_XREC_ROUNDTRIP
360
75C
  0
DICTIONARY
  5
771
330
347
100
AcDbDictionary
280
     1
281
     1
  3
ACAD_XREC_ROUNDTRIP
360
772
  0
DICTIONARY
  5
76F
330
346
100
AcDbDictionary
280
     1
281
     1
  3
ACAD_XREC_ROUNDTRIP
360
770
  0
DICTIONARY
  5
769
330
343
100
AcDbDictionary
280
     1
281
     1
  3
ACAD_XREC_ROUNDTRIP
360
76A
  0
DICTIONARY
  5
76B
330
344
100
AcDbDictionary
280
     1
281
     1
  3
ACAD_XREC_ROUNDTRIP
360
76C
  0
DICTIONARY
  5
761
330
33F
100
AcDbDictionary
280
     1
281
     1
  3
ACAD_XREC_ROUNDTRIP
360
762
  0
DICTIONARY
  5
755
330
339
100
AcDbDictionary
280
     1
281
     1
  3
ACAD_XREC_ROUNDTRIP
360
756
  0
DICTIONARY
  5
76D
330
345
100
AcDbDictionary
280
     1
281
     1
  3
ACAD_XREC_ROUNDTRIP
360
76E
  0
XRECORD
  5
77C
102
{ACAD_REACTORS
330
77B
102
}
330
77B
100
AcDbXrecord
280
     1
102
DISPLAYNAME
  1
Imperial24
102
FLAGS
 90
        0
  0
XRECORD
  5
325
102
{ACAD_REACTORS
330
323
102
}
330
323
100
AcDbXrecord
280
     1
270
     1
271
     1
  0
XRECORD
  5
324
102
{ACAD_REACTORS
330
323
102
}
330
323
100
AcDbXrecord
280
     1
270
     1
271
     1
  0
XRECORD
  5
328
102
{ACAD_REACTORS
330
323
102
}
330
323
100
AcDbXrecord
280
     1
270
     1
271
     1
  0
XRECORD
  5
327
102
{ACAD_REACTORS
330
323
102
}
330
323
100
AcDbXrecord
280
     1
270
     1
271
     1
  0
XRECORD
  5
329
102
{ACAD_REACTORS
330
323
102
}
330
323
100
AcDbXrecord
280
     1
270
     1
271
     1
  0
XRECORD
  5
326
102
{ACAD_REACTORS
330
323
102
}
330
323
100
AcDbXrecord
280
     1
270
     1
271
     1
  0
XRECORD
  5
31D
102
{ACAD_REACTORS
330
31B
102
}
330
31B
100
AcDbXrecord
280
     1
270
     1
271
     1
  0
XRECORD
  5
31C
102
{ACAD_REACTORS
330
31B
102
}
330
31B
100
AcDbXrecord
280
     1
270
     1
271
     1
  0
XRECORD
  5
320
102
{ACAD_REACTORS
330
31B
102
}
330
31B
100
AcDbXrecord
280
     1
270
     1
271
     1
  0
XRECORD
  5
31F
102
{ACAD_REACTORS
330
31B
102
}
330
31B
100
AcDbXrecord
280
     1
270
     1
271
     1
  0
XRECORD
  5
321
102
{ACAD_REACTORS
330
31B
102
}
330
31B
100
AcDbXrecord
280
     1
270
     1
271
     1
  0
XRECORD
  5
31E
102
{ACAD_REACTORS
330
31B
102
}
330
31B
100
AcDbXrecord
280
     1
270
     1
271
     1
  0
XRECORD
  5
32D
102
{ACAD_REACTORS
330
32B
102
}
330
32B
100
AcDbXrecord
280
     1
270
     1
271
     1
  0
XRECORD
  5
32C
102
{ACAD_REACTORS
330
32B
102
}
330
32B
100
AcDbXrecord
280
     1
270
     1
271
     1
  0
XRECORD
  5
330
102
{ACAD_REACTORS
330
32B
102
}
330
32B
100
AcDbXrecord
280
     1
270
     1
271
     1
  0
XRECORD
  5
32F
102
{ACAD_REACTORS
330
32B
102
}
330
32B
100
AcDbXrecord
280
     1
270
     1
271
     1
  0
XRECORD
  5
331
102
{ACAD_REACTORS
330
32B
102
}
330
32B
100
AcDbXrecord
280
     1
270
     1
271
     1
  0
XRECORD
  5
32E
102
{ACAD_REACTORS
330
32B
102
}
330
32B
100
AcDbXrecord
280
     1
270
     1
271
     1
  0
XRECORD
  5
77A
102
{ACAD_REACTORS
330
779
102
}
330
779
100
AcDbXrecord
280
     1
102
DISPLAYNAME
  1
Imperial24
102
FLAGS
 90
        0
  0
CELLSTYLEMAP
  5
747
102
{ACAD_REACTORS
330
513
102
}
330
513
100
AcDbCellStyleMap
 90
        3
300
CELLSTYLE
  1
TABLEFORMAT_BEGIN
 90
        5
170
     1
 91
        0
 92
    32768
 62
   257
 93
        1
300
CONTENTFORMAT
  1
CONTENTFORMAT_BEGIN
 90
        0
 91
        0
 92
      512
 93
        0
300

 40
0.0
140
1.0
 94
        5
 62
     0
340
17
144
0.25
309
CONTENTFORMAT_END
171
     1
301
MARGIN
  1
CELLMARGIN_BEGIN
 40
0.06
 40
0.06
 40
0.06
 40
0.06
 40
0.18
 40
0.18
309
CELLMARGIN_END
 94
        6
 95
        1
302
GRIDFORMAT
  1
GRIDFORMAT_BEGIN
 90
        0
 91
        1
 62
     0
 92
       -2
340
0
 93
        0
 40
0.045
309
GRIDFORMAT_END
 95
        2
302
GRIDFORMAT
  1
GRIDFORMAT_BEGIN
 90
        0
 91
        1
 62
     0
 92
       -2
340
0
 93
        0
 40
0.045
309
GRIDFORMAT_END
 95
        4
302
GRIDFORMAT
  1
GRIDFORMAT_BEGIN
 90
        0
 91
        1
 62
     0
 92
       -2
340
0
 93
        0
 40
0.045
309
GRIDFORMAT_END
 95
        8
302
GRIDFORMAT
  1
GRIDFORMAT_BEGIN
 90
        0
 91
        1
 62
     0
 92
       -2
340
0
 93
        0
 40
0.045
309
GRIDFORMAT_END
 95
       16
302
GRIDFORMAT
  1
GRIDFORMAT_BEGIN
 90
        0
 91
        1
 62
     0
 92
       -2
340
0
 93
        0
 40
0.045
309
GRIDFORMAT_END
 95
       32
302
GRIDFORMAT
  1
GRIDFORMAT_BEGIN
 90
        0
 91
        1
 62
     0
 92
       -2
340
0
 93
        0
 40
0.045
309
GRIDFORMAT_END
309
TABLEFORMAT_END
  1
CELLSTYLE_BEGIN
 90
        1
 91
        1
300
_TITLE
309
CELLSTYLE_END
300
CELLSTYLE
  1
TABLEFORMAT_BEGIN
 90
        5
170
     1
 91
        0
 92
        0
 62
   257
 93
        1
300
CONTENTFORMAT
  1
CONTENTFORMAT_BEGIN
 90
        0
 91
        0
 92
      512
 93
        0
300

 40
0.0
140
1.0
 94
        5
 62
     0
340
17
144
0.18
309
CONTENTFORMAT_END
171
     1
301
MARGIN
  1
CELLMARGIN_BEGIN
 40
0.06
 40
0.06
 40
0.06
 40
0.06
 40
0.18
 40
0.18
309
CELLMARGIN_END
 94
        6
 95
        1
302
GRIDFORMAT
  1
GRIDFORMAT_BEGIN
 90
        0
 91
        1
 62
     0
 92
       -2
340
0
 93
        0
 40
0.045
309
GRIDFORMAT_END
 95
        2
302
GRIDFORMAT
  1
GRIDFORMAT_BEGIN
 90
        0
 91
        1
 62
     0
 92
       -2
340
0
 93
        0
 40
0.045
309
GRIDFORMAT_END
 95
        4
302
GRIDFORMAT
  1
GRIDFORMAT_BEGIN
 90
        0
 91
        1
 62
     0
 92
       -2
340
0
 93
        0
 40
0.045
309
GRIDFORMAT_END
 95
        8
302
GRIDFORMAT
  1
GRIDFORMAT_BEGIN
 90
        0
 91
        1
 62
     0
 92
       -2
340
0
 93
        0
 40
0.045
309
GRIDFORMAT_END
 95
       16
302
GRIDFORMAT
  1
GRIDFORMAT_BEGIN
 90
        0
 91
        1
 62
     0
 92
       -2
340
0
 93
        0
 40
0.045
309
GRIDFORMAT_END
 95
       32
302
GRIDFORMAT
  1
GRIDFORMAT_BEGIN
 90
        0
 91
        1
 62
     0
 92
       -2
340
0
 93
        0
 40
0.045
309
GRIDFORMAT_END
309
TABLEFORMAT_END
  1
CELLSTYLE_BEGIN
 90
        2
 91
        1
300
_HEADER
309
CELLSTYLE_END
300
CELLSTYLE
  1
TABLEFORMAT_BEGIN
 90
        5
170
     1
 91
        0
 92
        0
 62
   257
 93
        1
300
CONTENTFORMAT
  1
CONTENTFORMAT_BEGIN
 90
        0
 91
        0
 92
      512
 93
        0
300

 40
0.0
140
1.0
 94
        2
 62
     0
340
17
144
0.18
309
CONTENTFORMAT_END
171
     1
301
MARGIN
  1
CELLMARGIN_BEGIN
 40
0.06
 40
0.06
 40
0.06
 40
0.06
 40
0.18
 40
0.18
309
CELLMARGIN_END
 94
        6
 95
        1
302
GRIDFORMAT
  1
GRIDFORMAT_BEGIN
 90
        0
 91
        1
 62
     0
 92
       -2
340
0
 93
        0
 40
0.045
309
GRIDFORMAT_END
 95
        2
302
GRIDFORMAT
  1
GRIDFORMAT_BEGIN
 90
        0
 91
        1
 62
     0
 92
       -2
340
0
 93
        0
 40
0.045
309
GRIDFORMAT_END
 95
        4
302
GRIDFORMAT
  1
GRIDFORMAT_BEGIN
 90
        0
 91
        1
 62
     0
 92
       -2
340
0
 93
        0
 40
0.045
309
GRIDFORMAT_END
 95
        8
302
GRIDFORMAT
  1
GRIDFORMAT_BEGIN
 90
        0
 91
        1
 62
     0
 92
       -2
340
0
 93
        0
 40
0.045
309
GRIDFORMAT_END
 95
       16
302
GRIDFORMAT
  1
GRIDFORMAT_BEGIN
 90
        0
 91
        1
 62
     0
 92
       -2
340
0
 93
        0
 40
0.045
309
GRIDFORMAT_END
 95
       32
302
GRIDFORMAT
  1
GRIDFORMAT_BEGIN
 90
        0
 91
        1
 62
     0
 92
       -2
340
0
 93
        0
 40
0.045
309
GRIDFORMAT_END
309
TABLEFORMAT_END
  1
CELLSTYLE_BEGIN
 90
        3
 91
        2
300
_DATA
309
CELLSTYLE_END
  0
XRECORD
  5
754
102
{ACAD_REACTORS
330
753
102
}
330
753
100
AcDbXrecord
280
     1
102
RTVSPost2010Prop28
280
     1
102
RTVSPost2010PropOp28
 70
     1
102
RTVSPost2010Prop29
280
     1
102
RTVSPost2010PropOp29
 70
     1
102
RTVSPost2010Prop30
280
     0
102
RTVSPost2010PropOp30
 70
     1
102
RTVSPost2010Prop31
280
     0
102
RTVSPost2010PropOp31
 70
     1
102
RTVSPost2010Prop32
280
     0
102
RTVSPost2010PropOp32
 70
     1
102
RTVSPost2010Prop33
280
     0
102
RTVSPost2010PropOp33
 70
     1
102
RTVSPost2010Prop34
280
     0
102
RTVSPost2010PropOp34
 70
     1
102
RTVSPost2010Prop35
280
     0
102
RTVSPost2010PropOp35
 70
     1
102
RTVSPost2010Prop36
280
     0
102
RTVSPost2010PropOp36
 70
     1
102
RTVSPost2010Prop37
 90
       50
102
RTVSPost2010PropOp37
 70
     1
102
RTVSPost2010Prop38
140
0.0
102
RTVSPost2010PropOp38
 70
     1
102
RTVSPost2010Prop39
140
1.0
102
RTVSPost2010PropOp39
 70
     1
102
RTVSPost2010Prop40
 90
        0
102
RTVSPost2010PropOp40
 70
     1
102
RTVSPost2010Prop41ColorIndex
 90
       18
102
RTVSPost2010Prop41ColorRGB
 90
        0
102
RTVSPost2010PropOp41
 70
     1
102
RTVSPost2010Prop42
 90
       50
102
RTVSPost2010PropOp42
 70
     1
102
RTVSPost2010Prop43
 90
        3
102
RTVSPost2010PropOp43
 70
     1
102
RTVSPost2010Prop44ColorIndex
 90
        5
102
RTVSPost2010Prop44ColorRGB
 90
      255
102
RTVSPost2010PropOp44
 70
     1
102
RTVSPost2010Prop45
280
     0
102
RTVSPost2010PropOp45
 70
     1
102
RTVSPost2010Prop46
 90
       50
102
RTVSPost2010PropOp46
 70
     1
102
RTVSPost2010Prop47
 90
       50
102
RTVSPost2010PropOp47
 70
     1
102
RTVSPost2010Prop48
 90
       50
102
RTVSPost2010PropOp48
 70
     1
102
RTVSPost2010Prop49
280
     0
102
RTVSPost2010PropOp49
 70
     1
102
RTVSPost2010Prop50
 90
       50
102
RTVSPost2010PropOp50
 70
     1
102
RTVSPost2010Prop51ColorIndex
 90
      256
102
RTVSPost2010Prop51ColorRGB
 90
-16777216
102
RTVSPost2010PropOp51
 70
     0
102
RTVSPost2010Prop52
140
1.0
102
RTVSPost2010PropOp52
 70
     0
102
RTVSPost2010Prop53
 90
        2
102
RTVSPost2010PropOp53
 70
     1
102
RTVSPost2010Prop54
  1
strokes_ogs.tif
102
RTVSPost2010PropOp54
 70
     1
102
RTVSPost2010Prop55
280
     0
102
RTVSPost2010PropOp55
 70
     1
102
RTVSPost2010Prop56
140
1.0
102
RTVSPost2010PropOp56
 70
     1
102
RTVSPost2010Prop57
140
1.0
102
RTVSPost2010PropOp57
 70
     1
  0
XRECORD
  5
752
102
{ACAD_REACTORS
330
751
102
}
330
751
100
AcDbXrecord
280
     1
102
RTVSPost2010Prop28
280
     0
102
RTVSPost2010PropOp28
 70
     1
102
RTVSPost2010Prop29
280
     1
102
RTVSPost2010PropOp29
 70
     1
102
RTVSPost2010Prop30
280
     1
102
RTVSPost2010PropOp30
 70
     1
102
RTVSPost2010Prop31
280
     0
102
RTVSPost2010PropOp31
 70
     1
102
RTVSPost2010Prop32
280
     0
102
RTVSPost2010PropOp32
 70
     1
102
RTVSPost2010Prop33
280
     0
102
RTVSPost2010PropOp33
 70
     1
102
RTVSPost2010Prop34
280
     0
102
RTVSPost2010PropOp34
 70
     1
102
RTVSPost2010Prop35
280
     0
102
RTVSPost2010PropOp35
 70
     1
102
RTVSPost2010Prop36
280
     0
102
RTVSPost2010PropOp36
 70
     1
102
RTVSPost2010Prop37
 90
       50
102
RTVSPost2010PropOp37
 70
     1
102
RTVSPost2010Prop38
140
0.0
102
RTVSPost2010PropOp38
 70
     1
102
RTVSPost2010Prop39
140
1.0
102
RTVSPost2010PropOp39
 70
     1
102
RTVSPost2010Prop40
 90
        0
102
RTVSPost2010PropOp40
 70
     1
102
RTVSPost2010Prop41ColorIndex
 90
       18
102
RTVSPost2010Prop41ColorRGB
 90
        0
102
RTVSPost2010PropOp41
 70
     1
102
RTVSPost2010Prop42
 90
       50
102
RTVSPost2010PropOp42
 70
     1
102
RTVSPost2010Prop43
 90
        3
102
RTVSPost2010PropOp43
 70
     1
102
RTVSPost2010Prop44ColorIndex
 90
        5
102
RTVSPost2010Prop44ColorRGB
 90
      255
102
RTVSPost2010PropOp44
 70
     1
102
RTVSPost2010Prop45
280
     0
102
RTVSPost2010PropOp45
 70
     1
102
RTVSPost2010Prop46
 90
       50
102
RTVSPost2010PropOp46
 70
     1
102
RTVSPost2010Prop47
 90
       50
102
RTVSPost2010PropOp47
 70
     1
102
RTVSPost2010Prop48
 90
       50
102
RTVSPost2010PropOp48
 70
     1
102
RTVSPost2010Prop49
280
     0
102
RTVSPost2010PropOp49
 70
     1
102
RTVSPost2010Prop50
 90
       50
102
RTVSPost2010PropOp50
 70
     1
102
RTVSPost2010Prop51ColorIndex
 90
      256
102
RTVSPost2010Prop51ColorRGB
 90
-16777216
102
RTVSPost2010PropOp51
 70
     0
102
RTVSPost2010Prop52
140
1.0
102
RTVSPost2010PropOp52
 70
     0
102
RTVSPost2010Prop53
 90
        2
102
RTVSPost2010PropOp53
 70
     1
102
RTVSPost2010Prop54
  1
strokes_ogs.tif
102
RTVSPost2010PropOp54
 70
     1
102
RTVSPost2010Prop55
280
     0
102
RTVSPost2010PropOp55
 70
     1
102
RTVSPost2010Prop56
140
1.0
102
RTVSPost2010PropOp56
 70
     1
102
RTVSPost2010Prop57
140
1.0
102
RTVSPost2010PropOp57
 70
     1
  0
XRECORD
  5
760
102
{ACAD_REACTORS
330
75F
102
}
330
75F
100
AcDbXrecord
280
     1
102
RTVSPost2010Prop28
280
     0
102
RTVSPost2010PropOp28
 70
     1
102
RTVSPost2010Prop29
280
     1
102
RTVSPost2010PropOp29
 70
     1
102
RTVSPost2010Prop30
280
     1
102
RTVSPost2010PropOp30
 70
     1
102
RTVSPost2010Prop31
280
     0
102
RTVSPost2010PropOp31
 70
     1
102
RTVSPost2010Prop32
280
     0
102
RTVSPost2010PropOp32
 70
     1
102
RTVSPost2010Prop33
280
     0
102
RTVSPost2010PropOp33
 70
     1
102
RTVSPost2010Prop34
280
     0
102
RTVSPost2010PropOp34
 70
     1
102
RTVSPost2010Prop35
280
     0
102
RTVSPost2010PropOp35
 70
     1
102
RTVSPost2010Prop36
280
     0
102
RTVSPost2010PropOp36
 70
     1
102
RTVSPost2010Prop37
 90
       50
102
RTVSPost2010PropOp37
 70
     1
102
RTVSPost2010Prop38
140
0.0
102
RTVSPost2010PropOp38
 70
     1
102
RTVSPost2010Prop39
140
1.0
102
RTVSPost2010PropOp39
 70
     1
102
RTVSPost2010Prop40
 90
        0
102
RTVSPost2010PropOp40
 70
     1
102
RTVSPost2010Prop41ColorIndex
 90
       18
102
RTVSPost2010Prop41ColorRGB
 90
        0
102
RTVSPost2010PropOp41
 70
     1
102
RTVSPost2010Prop42
 90
       50
102
RTVSPost2010PropOp42
 70
     1
102
RTVSPost2010Prop43
 90
        3
102
RTVSPost2010PropOp43
 70
     1
102
RTVSPost2010Prop44ColorIndex
 90
        5
102
RTVSPost2010Prop44ColorRGB
 90
      255
102
RTVSPost2010PropOp44
 70
     1
102
RTVSPost2010Prop45
280
     0
102
RTVSPost2010PropOp45
 70
     1
102
RTVSPost2010Prop46
 90
       50
102
RTVSPost2010PropOp46
 70
     1
102
RTVSPost2010Prop47
 90
       50
102
RTVSPost2010PropOp47
 70
     1
102
RTVSPost2010Prop48
 90
       50
102
RTVSPost2010PropOp48
 70
     1
102
RTVSPost2010Prop49
280
     0
102
RTVSPost2010PropOp49
 70
     1
102
RTVSPost2010Prop50
 90
       50
102
RTVSPost2010PropOp50
 70
     1
102
RTVSPost2010Prop51ColorIndex
 90
      256
102
RTVSPost2010Prop51ColorRGB
 90
-16777216
102
RTVSPost2010PropOp51
 70
     0
102
RTVSPost2010Prop52
140
1.0
102
RTVSPost2010PropOp52
 70
     0
102
RTVSPost2010Prop53
 90
        2
102
RTVSPost2010PropOp53
 70
     1
102
RTVSPost2010Prop54
  1
strokes_ogs.tif
102
RTVSPost2010PropOp54
 70
     1
102
RTVSPost2010Prop55
280
     0
102
RTVSPost2010PropOp55
 70
     1
102
RTVSPost2010Prop56
140
1.0
102
RTVSPost2010PropOp56
 70
     1
102
RTVSPost2010Prop57
140
1.0
102
RTVSPost2010PropOp57
 70
     1
  0
XRECORD
  5
768
102
{ACAD_REACTORS
330
767
102
}
330
767
100
AcDbXrecord
280
     1
102
RTVSPost2010Prop28
280
     0
102
RTVSPost2010PropOp28
 70
     1
102
RTVSPost2010Prop29
280
     1
102
RTVSPost2010PropOp29
 70
     1
102
RTVSPost2010Prop30
280
     1
102
RTVSPost2010PropOp30
 70
     1
102
RTVSPost2010Prop31
280
     0
102
RTVSPost2010PropOp31
 70
     1
102
RTVSPost2010Prop32
280
     0
102
RTVSPost2010PropOp32
 70
     1
102
RTVSPost2010Prop33
280
     0
102
RTVSPost2010PropOp33
 70
     1
102
RTVSPost2010Prop34
280
     0
102
RTVSPost2010PropOp34
 70
     1
102
RTVSPost2010Prop35
280
     0
102
RTVSPost2010PropOp35
 70
     1
102
RTVSPost2010Prop36
280
     0
102
RTVSPost2010PropOp36
 70
     1
102
RTVSPost2010Prop37
 90
       50
102
RTVSPost2010PropOp37
 70
     1
102
RTVSPost2010Prop38
140
0.0
102
RTVSPost2010PropOp38
 70
     1
102
RTVSPost2010Prop39
140
1.0
102
RTVSPost2010PropOp39
 70
     1
102
RTVSPost2010Prop40
 90
        0
102
RTVSPost2010PropOp40
 70
     1
102
RTVSPost2010Prop41ColorIndex
 90
       18
102
RTVSPost2010Prop41ColorRGB
 90
        0
102
RTVSPost2010PropOp41
 70
     1
102
RTVSPost2010Prop42
 90
       50
102
RTVSPost2010PropOp42
 70
     1
102
RTVSPost2010Prop43
 90
        3
102
RTVSPost2010PropOp43
 70
     1
102
RTVSPost2010Prop44ColorIndex
 90
        5
102
RTVSPost2010Prop44ColorRGB
 90
      255
102
RTVSPost2010PropOp44
 70
     1
102
RTVSPost2010Prop45
280
     0
102
RTVSPost2010PropOp45
 70
     1
102
RTVSPost2010Prop46
 90
       50
102
RTVSPost2010PropOp46
 70
     1
102
RTVSPost2010Prop47
 90
       50
102
RTVSPost2010PropOp47
 70
     1
102
RTVSPost2010Prop48
 90
       50
102
RTVSPost2010PropOp48
 70
     1
102
RTVSPost2010Prop49
280
     0
102
RTVSPost2010PropOp49
 70
     1
102
RTVSPost2010Prop50
 90
       50
102
RTVSPost2010PropOp50
 70
     1
102
RTVSPost2010Prop51ColorIndex
 90
      256
102
RTVSPost2010Prop51ColorRGB
 90
-16777216
102
RTVSPost2010PropOp51
 70
     0
102
RTVSPost2010Prop52
140
1.0
102
RTVSPost2010PropOp52
 70
     0
102
RTVSPost2010Prop53
 90
        2
102
RTVSPost2010PropOp53
 70
     1
102
RTVSPost2010Prop54
  1
strokes_ogs.tif
102
RTVSPost2010PropOp54
 70
     1
102
RTVSPost2010Prop55
280
     0
102
RTVSPost2010PropOp55
 70
     1
102
RTVSPost2010Prop56
140
1.0
102
RTVSPost2010PropOp56
 70
     1
102
RTVSPost2010Prop57
140
1.0
102
RTVSPost2010PropOp57
 70
     1
  0
XRECORD
  5
75A
102
{ACAD_REACTORS
330
759
102
}
330
759
100
AcDbXrecord
280
     1
102
RTVSPost2010Prop28
280
     0
102
RTVSPost2010PropOp28
 70
     1
102
RTVSPost2010Prop29
280
     1
102
RTVSPost2010PropOp29
 70
     1
102
RTVSPost2010Prop30
280
     1
102
RTVSPost2010PropOp30
 70
     1
102
RTVSPost2010Prop31
280
     0
102
RTVSPost2010PropOp31
 70
     1
102
RTVSPost2010Prop32
280
     0
102
RTVSPost2010PropOp32
 70
     1
102
RTVSPost2010Prop33
280
     0
102
RTVSPost2010PropOp33
 70
     1
102
RTVSPost2010Prop34
280
     0
102
RTVSPost2010PropOp34
 70
     1
102
RTVSPost2010Prop35
280
     0
102
RTVSPost2010PropOp35
 70
     1
102
RTVSPost2010Prop36
280
     0
102
RTVSPost2010PropOp36
 70
     1
102
RTVSPost2010Prop37
 90
       50
102
RTVSPost2010PropOp37
 70
     1
102
RTVSPost2010Prop38
140
0.0
102
RTVSPost2010PropOp38
 70
     1
102
RTVSPost2010Prop39
140
1.0
102
RTVSPost2010PropOp39
 70
     1
102
RTVSPost2010Prop40
 90
        0
102
RTVSPost2010PropOp40
 70
     1
102
RTVSPost2010Prop41ColorIndex
 90
       18
102
RTVSPost2010Prop41ColorRGB
 90
        0
102
RTVSPost2010PropOp41
 70
     1
102
RTVSPost2010Prop42
 90
       50
102
RTVSPost2010PropOp42
 70
     1
102
RTVSPost2010Prop43
 90
        3
102
RTVSPost2010PropOp43
 70
     1
102
RTVSPost2010Prop44ColorIndex
 90
        5
102
RTVSPost2010Prop44ColorRGB
 90
      255
102
RTVSPost2010PropOp44
 70
     1
102
RTVSPost2010Prop45
280
     0
102
RTVSPost2010PropOp45
 70
     1
102
RTVSPost2010Prop46
 90
       50
102
RTVSPost2010PropOp46
 70
     1
102
RTVSPost2010Prop47
 90
       50
102
RTVSPost2010PropOp47
 70
     1
102
RTVSPost2010Prop48
 90
       50
102
RTVSPost2010PropOp48
 70
     1
102
RTVSPost2010Prop49
280
     0
102
RTVSPost2010PropOp49
 70
     1
102
RTVSPost2010Prop50
 90
       50
102
RTVSPost2010PropOp50
 70
     1
102
RTVSPost2010Prop51ColorIndex
 90
      256
102
RTVSPost2010Prop51ColorRGB
 90
-16777216
102
RTVSPost2010PropOp51
 70
     0
102
RTVSPost2010Prop52
140
1.0
102
RTVSPost2010PropOp52
 70
     0
102
RTVSPost2010Prop53
 90
        2
102
RTVSPost2010PropOp53
 70
     1
102
RTVSPost2010Prop54
  1
strokes_ogs.tif
102
RTVSPost2010PropOp54
 70
     1
102
RTVSPost2010Prop55
280
     0
102
RTVSPost2010PropOp55
 70
     1
102
RTVSPost2010Prop56
140
1.0
102
RTVSPost2010PropOp56
 70
     1
102
RTVSPost2010Prop57
140
1.0
102
RTVSPost2010PropOp57
 70
     1
  0
XRECORD
  5
75E
102
{ACAD_REACTORS
330
75D
102
}
330
75D
100
AcDbXrecord
280
     1
102
RTVSPost2010Prop28
280
     0
102
RTVSPost2010PropOp28
 70
     1
102
RTVSPost2010Prop29
280
     1
102
RTVSPost2010PropOp29
 70
     1
102
RTVSPost2010Prop30
280
     1
102
RTVSPost2010PropOp30
 70
     1
102
RTVSPost2010Prop31
280
     0
102
RTVSPost2010PropOp31
 70
     1
102
RTVSPost2010Prop32
280
     0
102
RTVSPost2010PropOp32
 70
     1
102
RTVSPost2010Prop33
280
     0
102
RTVSPost2010PropOp33
 70
     1
102
RTVSPost2010Prop34
280
     0
102
RTVSPost2010PropOp34
 70
     1
102
RTVSPost2010Prop35
280
     0
102
RTVSPost2010PropOp35
 70
     1
102
RTVSPost2010Prop36
280
     0
102
RTVSPost2010PropOp36
 70
     1
102
RTVSPost2010Prop37
 90
       50
102
RTVSPost2010PropOp37
 70
     1
102
RTVSPost2010Prop38
140
0.0
102
RTVSPost2010PropOp38
 70
     1
102
RTVSPost2010Prop39
140
1.0
102
RTVSPost2010PropOp39
 70
     1
102
RTVSPost2010Prop40
 90
        0
102
RTVSPost2010PropOp40
 70
     1
102
RTVSPost2010Prop41ColorIndex
 90
       18
102
RTVSPost2010Prop41ColorRGB
 90
        0
102
RTVSPost2010PropOp41
 70
     1
102
RTVSPost2010Prop42
 90
       50
102
RTVSPost2010PropOp42
 70
     1
102
RTVSPost2010Prop43
 90
        3
102
RTVSPost2010PropOp43
 70
     1
102
RTVSPost2010Prop44ColorIndex
 90
        5
102
RTVSPost2010Prop44ColorRGB
 90
      255
102
RTVSPost2010PropOp44
 70
     1
102
RTVSPost2010Prop45
280
     0
102
RTVSPost2010PropOp45
 70
     1
102
RTVSPost2010Prop46
 90
       50
102
RTVSPost2010PropOp46
 70
     1
102
RTVSPost2010Prop47
 90
       50
102
RTVSPost2010PropOp47
 70
     1
102
RTVSPost2010Prop48
 90
       50
102
RTVSPost2010PropOp48
 70
     1
102
RTVSPost2010Prop49
280
     0
102
RTVSPost2010PropOp49
 70
     1
102
RTVSPost2010Prop50
 90
       50
102
RTVSPost2010PropOp50
 70
     1
102
RTVSPost2010Prop51ColorIndex
 90
      256
102
RTVSPost2010Prop51ColorRGB
 90
-16777216
102
RTVSPost2010PropOp51
 70
     0
102
RTVSPost2010Prop52
140
1.0
102
RTVSPost2010PropOp52
 70
     0
102
RTVSPost2010Prop53
 90
        2
102
RTVSPost2010PropOp53
 70
     1
102
RTVSPost2010Prop54
  1
strokes_ogs.tif
102
RTVSPost2010PropOp54
 70
     1
102
RTVSPost2010Prop55
280
     0
102
RTVSPost2010PropOp55
 70
     1
102
RTVSPost2010Prop56
140
1.0
102
RTVSPost2010PropOp56
 70
     1
102
RTVSPost2010Prop57
140
1.0
102
RTVSPost2010PropOp57
 70
     1
  0
XRECORD
  5
778
102
{ACAD_REACTORS
330
777
102
}
330
777
100
AcDbXrecord
280
     1
102
RTVSPost2010Prop28
280
     0
102
RTVSPost2010PropOp28
 70
     1
102
RTVSPost2010Prop29
280
     1
102
RTVSPost2010PropOp29
 70
     1
102
RTVSPost2010Prop30
280
     1
102
RTVSPost2010PropOp30
 70
     1
102
RTVSPost2010Prop31
280
     0
102
RTVSPost2010PropOp31
 70
     1
102
RTVSPost2010Prop32
280
     0
102
RTVSPost2010PropOp32
 70
     1
102
RTVSPost2010Prop33
280
     0
102
RTVSPost2010PropOp33
 70
     1
102
RTVSPost2010Prop34
280
     0
102
RTVSPost2010PropOp34
 70
     1
102
RTVSPost2010Prop35
280
     0
102
RTVSPost2010PropOp35
 70
     1
102
RTVSPost2010Prop36
280
     0
102
RTVSPost2010PropOp36
 70
     1
102
RTVSPost2010Prop37
 90
       50
102
RTVSPost2010PropOp37
 70
     0
102
RTVSPost2010Prop38
140
0.0
102
RTVSPost2010PropOp38
 70
     0
102
RTVSPost2010Prop39
140
1.0
102
RTVSPost2010PropOp39
 70
     0
102
RTVSPost2010Prop40
 90
        0
102
RTVSPost2010PropOp40
 70
     0
102
RTVSPost2010Prop41ColorIndex
 90
       18
102
RTVSPost2010Prop41ColorRGB
 90
        0
102
RTVSPost2010PropOp41
 70
     0
102
RTVSPost2010Prop42
 90
       50
102
RTVSPost2010PropOp42
 70
     0
102
RTVSPost2010Prop43
 90
        3
102
RTVSPost2010PropOp43
 70
     0
102
RTVSPost2010Prop44ColorIndex
 90
        5
102
RTVSPost2010Prop44ColorRGB
 90
      255
102
RTVSPost2010PropOp44
 70
     0
102
RTVSPost2010Prop45
280
     0
102
RTVSPost2010PropOp45
 70
     1
102
RTVSPost2010Prop46
 90
       50
102
RTVSPost2010PropOp46
 70
     0
102
RTVSPost2010Prop47
 90
       50
102
RTVSPost2010PropOp47
 70
     0
102
RTVSPost2010Prop48
 90
       50
102
RTVSPost2010PropOp48
 70
     0
102
RTVSPost2010Prop49
280
     0
102
RTVSPost2010PropOp49
 70
     1
102
RTVSPost2010Prop50
 90
       50
102
RTVSPost2010PropOp50
 70
     0
102
RTVSPost2010Prop51ColorIndex
 90
      256
102
RTVSPost2010Prop51ColorRGB
 90
-16777216
102
RTVSPost2010PropOp51
 70
     0
102
RTVSPost2010Prop52
140
1.0
102
RTVSPost2010PropOp52
 70
     0
102
RTVSPost2010Prop53
 90
        2
102
RTVSPost2010PropOp53
 70
     0
102
RTVSPost2010Prop54
  1
strokes_ogs.tif
102
RTVSPost2010PropOp54
 70
     0
102
RTVSPost2010Prop55
280
     0
102
RTVSPost2010PropOp55
 70
     1
102
RTVSPost2010Prop56
140
1.0
102
RTVSPost2010PropOp56
 70
     0
102
RTVSPost2010Prop57
140
1.0
102
RTVSPost2010PropOp57
 70
     0
  0
XRECORD
  5
766
102
{ACAD_REACTORS
330
765
102
}
330
765
100
AcDbXrecord
280
     1
102
RTVSPost2010Prop28
280
     0
102
RTVSPost2010PropOp28
 70
     1
102
RTVSPost2010Prop29
280
     1
102
RTVSPost2010PropOp29
 70
     1
102
RTVSPost2010Prop30
280
     1
102
RTVSPost2010PropOp30
 70
     1
102
RTVSPost2010Prop31
280
     0
102
RTVSPost2010PropOp31
 70
     1
102
RTVSPost2010Prop32
280
     0
102
RTVSPost2010PropOp32
 70
     1
102
RTVSPost2010Prop33
280
     0
102
RTVSPost2010PropOp33
 70
     1
102
RTVSPost2010Prop34
280
     0
102
RTVSPost2010PropOp34
 70
     1
102
RTVSPost2010Prop35
280
     0
102
RTVSPost2010PropOp35
 70
     1
102
RTVSPost2010Prop36
280
     0
102
RTVSPost2010PropOp36
 70
     1
102
RTVSPost2010Prop37
 90
       50
102
RTVSPost2010PropOp37
 70
     1
102
RTVSPost2010Prop38
140
0.0
102
RTVSPost2010PropOp38
 70
     1
102
RTVSPost2010Prop39
140
1.0
102
RTVSPost2010PropOp39
 70
     1
102
RTVSPost2010Prop40
 90
        0
102
RTVSPost2010PropOp40
 70
     1
102
RTVSPost2010Prop41ColorIndex
 90
       18
102
RTVSPost2010Prop41ColorRGB
 90
        0
102
RTVSPost2010PropOp41
 70
     1
102
RTVSPost2010Prop42
 90
       50
102
RTVSPost2010PropOp42
 70
     1
102
RTVSPost2010Prop43
 90
        3
102
RTVSPost2010PropOp43
 70
     1
102
RTVSPost2010Prop44ColorIndex
 90
        5
102
RTVSPost2010Prop44ColorRGB
 90
      255
102
RTVSPost2010PropOp44
 70
     1
102
RTVSPost2010Prop45
280
     0
102
RTVSPost2010PropOp45
 70
     1
102
RTVSPost2010Prop46
 90
       50
102
RTVSPost2010PropOp46
 70
     1
102
RTVSPost2010Prop47
 90
       50
102
RTVSPost2010PropOp47
 70
     1
102
RTVSPost2010Prop48
 90
       50
102
RTVSPost2010PropOp48
 70
     1
102
RTVSPost2010Prop49
280
     0
102
RTVSPost2010PropOp49
 70
     1
102
RTVSPost2010Prop50
 90
       50
102
RTVSPost2010PropOp50
 70
     1
102
RTVSPost2010Prop51ColorIndex
 90
      256
102
RTVSPost2010Prop51ColorRGB
 90
-16777216
102
RTVSPost2010PropOp51
 70
     0
102
RTVSPost2010Prop52
140
1.0
102
RTVSPost2010PropOp52
 70
     0
102
RTVSPost2010Prop53
 90
        2
102
RTVSPost2010PropOp53
 70
     1
102
RTVSPost2010Prop54
  1
strokes_ogs.tif
102
RTVSPost2010PropOp54
 70
     1
102
RTVSPost2010Prop55
280
     0
102
RTVSPost2010PropOp55
 70
     1
102
RTVSPost2010Prop56
140
1.0
102
RTVSPost2010PropOp56
 70
     1
102
RTVSPost2010Prop57
140
1.0
102
RTVSPost2010PropOp57
 70
     1
  0
XRECORD
  5
74A
102
{ACAD_REACTORS
330
749
102
}
330
749
100
AcDbXrecord
280
     1
102
RTVSPost2010Prop28
280
     0
102
RTVSPost2010PropOp28
 70
     1
102
RTVSPost2010Prop29
280
     1
102
RTVSPost2010PropOp29
 70
     1
102
RTVSPost2010Prop30
280
     1
102
RTVSPost2010PropOp30
 70
     1
102
RTVSPost2010Prop31
280
     0
102
RTVSPost2010PropOp31
 70
     1
102
RTVSPost2010Prop32
280
     0
102
RTVSPost2010PropOp32
 70
     1
102
RTVSPost2010Prop33
280
     0
102
RTVSPost2010PropOp33
 70
     1
102
RTVSPost2010Prop34
280
     0
102
RTVSPost2010PropOp34
 70
     1
102
RTVSPost2010Prop35
280
     0
102
RTVSPost2010PropOp35
 70
     1
102
RTVSPost2010Prop36
280
     0
102
RTVSPost2010PropOp36
 70
     1
102
RTVSPost2010Prop37
 90
       50
102
RTVSPost2010PropOp37
 70
     1
102
RTVSPost2010Prop38
140
0.0
102
RTVSPost2010PropOp38
 70
     1
102
RTVSPost2010Prop39
140
1.0
102
RTVSPost2010PropOp39
 70
     1
102
RTVSPost2010Prop40
 90
        0
102
RTVSPost2010PropOp40
 70
     1
102
RTVSPost2010Prop41ColorIndex
 90
       18
102
RTVSPost2010Prop41ColorRGB
 90
        0
102
RTVSPost2010PropOp41
 70
     1
102
RTVSPost2010Prop42
 90
       50
102
RTVSPost2010PropOp42
 70
     1
102
RTVSPost2010Prop43
 90
        3
102
RTVSPost2010PropOp43
 70
     1
102
RTVSPost2010Prop44ColorIndex
 90
        5
102
RTVSPost2010Prop44ColorRGB
 90
      255
102
RTVSPost2010PropOp44
 70
     1
102
RTVSPost2010Prop45
280
     0
102
RTVSPost2010PropOp45
 70
     1
102
RTVSPost2010Prop46
 90
       50
102
RTVSPost2010PropOp46
 70
     1
102
RTVSPost2010Prop47
 90
       50
102
RTVSPost2010PropOp47
 70
     1
102
RTVSPost2010Prop48
 90
       50
102
RTVSPost2010PropOp48
 70
     1
102
RTVSPost2010Prop49
280
     0
102
RTVSPost2010PropOp49
 70
     1
102
RTVSPost2010Prop50
 90
       50
102
RTVSPost2010PropOp50
 70
     1
102
RTVSPost2010Prop51ColorIndex
 90
      256
102
RTVSPost2010Prop51ColorRGB
 90
-16777216
102
RTVSPost2010PropOp51
 70
     0
102
RTVSPost2010Prop52
140
1.0
102
RTVSPost2010PropOp52
 70
     0
102
RTVSPost2010Prop53
 90
        2
102
RTVSPost2010PropOp53
 70
     1
102
RTVSPost2010Prop54
  1
strokes_ogs.tif
102
RTVSPost2010PropOp54
 70
     1
102
RTVSPost2010Prop55
280
     0
102
RTVSPost2010PropOp55
 70
     1
102
RTVSPost2010Prop56
140
1.0
102
RTVSPost2010PropOp56
 70
     1
102
RTVSPost2010Prop57
140
1.0
102
RTVSPost2010PropOp57
 70
     1
  0
XRECORD
  5
74C
102
{ACAD_REACTORS
330
74B
102
}
330
74B
100
AcDbXrecord
280
     1
102
RTVSPost2010Prop28
280
     0
102
RTVSPost2010PropOp28
 70
     1
102
RTVSPost2010Prop29
280
     1
102
RTVSPost2010PropOp29
 70
     1
102
RTVSPost2010Prop30
280
     1
102
RTVSPost2010PropOp30
 70
     1
102
RTVSPost2010Prop31
280
     0
102
RTVSPost2010PropOp31
 70
     1
102
RTVSPost2010Prop32
280
     0
102
RTVSPost2010PropOp32
 70
     1
102
RTVSPost2010Prop33
280
     0
102
RTVSPost2010PropOp33
 70
     1
102
RTVSPost2010Prop34
280
     0
102
RTVSPost2010PropOp34
 70
     1
102
RTVSPost2010Prop35
280
     0
102
RTVSPost2010PropOp35
 70
     1
102
RTVSPost2010Prop36
280
     0
102
RTVSPost2010PropOp36
 70
     1
102
RTVSPost2010Prop37
 90
       50
102
RTVSPost2010PropOp37
 70
     1
102
RTVSPost2010Prop38
140
0.0
102
RTVSPost2010PropOp38
 70
     1
102
RTVSPost2010Prop39
140
1.0
102
RTVSPost2010PropOp39
 70
     1
102
RTVSPost2010Prop40
 90
        0
102
RTVSPost2010PropOp40
 70
     1
102
RTVSPost2010Prop41ColorIndex
 90
       18
102
RTVSPost2010Prop41ColorRGB
 90
        0
102
RTVSPost2010PropOp41
 70
     1
102
RTVSPost2010Prop42
 90
       50
102
RTVSPost2010PropOp42
 70
     1
102
RTVSPost2010Prop43
 90
        3
102
RTVSPost2010PropOp43
 70
     1
102
RTVSPost2010Prop44ColorIndex
 90
        5
102
RTVSPost2010Prop44ColorRGB
 90
      255
102
RTVSPost2010PropOp44
 70
     1
102
RTVSPost2010Prop45
280
     0
102
RTVSPost2010PropOp45
 70
     1
102
RTVSPost2010Prop46
 90
       50
102
RTVSPost2010PropOp46
 70
     1
102
RTVSPost2010Prop47
 90
       50
102
RTVSPost2010PropOp47
 70
     1
102
RTVSPost2010Prop48
 90
       50
102
RTVSPost2010PropOp48
 70
     1
102
RTVSPost2010Prop49
280
     0
102
RTVSPost2010PropOp49
 70
     1
102
RTVSPost2010Prop50
 90
       50
102
RTVSPost2010PropOp50
 70
     1
102
RTVSPost2010Prop51ColorIndex
 90
      256
102
RTVSPost2010Prop51ColorRGB
 90
-16777216
102
RTVSPost2010PropOp51
 70
     0
102
RTVSPost2010Prop52
140
1.0
102
RTVSPost2010PropOp52
 70
     0
102
RTVSPost2010Prop53
 90
        2
102
RTVSPost2010PropOp53
 70
     1
102
RTVSPost2010Prop54
  1
strokes_ogs.tif
102
RTVSPost2010PropOp54
 70
     1
102
RTVSPost2010Prop55
280
     0
102
RTVSPost2010PropOp55
 70
     1
102
RTVSPost2010Prop56
140
1.0
102
RTVSPost2010PropOp56
 70
     1
102
RTVSPost2010Prop57
140
1.0
102
RTVSPost2010PropOp57
 70
     1
  0
XRECORD
  5
74E
102
{ACAD_REACTORS
330
74D
102
}
330
74D
100
AcDbXrecord
280
     1
102
RTVSPost2010Prop28
280
     0
102
RTVSPost2010PropOp28
 70
     1
102
RTVSPost2010Prop29
280
     1
102
RTVSPost2010PropOp29
 70
     1
102
RTVSPost2010Prop30
280
     1
102
RTVSPost2010PropOp30
 70
     1
102
RTVSPost2010Prop31
280
     0
102
RTVSPost2010PropOp31
 70
     1
102
RTVSPost2010Prop32
280
     0
102
RTVSPost2010PropOp32
 70
     1
102
RTVSPost2010Prop33
280
     0
102
RTVSPost2010PropOp33
 70
     1
102
RTVSPost2010Prop34
280
     0
102
RTVSPost2010PropOp34
 70
     1
102
RTVSPost2010Prop35
280
     0
102
RTVSPost2010PropOp35
 70
     1
102
RTVSPost2010Prop36
280
     0
102
RTVSPost2010PropOp36
 70
     1
102
RTVSPost2010Prop37
 90
       50
102
RTVSPost2010PropOp37
 70
     1
102
RTVSPost2010Prop38
140
0.0
102
RTVSPost2010PropOp38
 70
     1
102
RTVSPost2010Prop39
140
1.0
102
RTVSPost2010PropOp39
 70
     1
102
RTVSPost2010Prop40
 90
        0
102
RTVSPost2010PropOp40
 70
     1
102
RTVSPost2010Prop41ColorIndex
 90
       18
102
RTVSPost2010Prop41ColorRGB
 90
        0
102
RTVSPost2010PropOp41
 70
     1
102
RTVSPost2010Prop42
 90
       50
102
RTVSPost2010PropOp42
 70
     1
102
RTVSPost2010Prop43
 90
        3
102
RTVSPost2010PropOp43
 70
     1
102
RTVSPost2010Prop44ColorIndex
 90
        5
102
RTVSPost2010Prop44ColorRGB
 90
      255
102
RTVSPost2010PropOp44
 70
     1
102
RTVSPost2010Prop45
280
     0
102
RTVSPost2010PropOp45
 70
     1
102
RTVSPost2010Prop46
 90
       50
102
RTVSPost2010PropOp46
 70
     1
102
RTVSPost2010Prop47
 90
       50
102
RTVSPost2010PropOp47
 70
     1
102
RTVSPost2010Prop48
 90
       50
102
RTVSPost2010PropOp48
 70
     1
102
RTVSPost2010Prop49
280
     0
102
RTVSPost2010PropOp49
 70
     1
102
RTVSPost2010Prop50
 90
       50
102
RTVSPost2010PropOp50
 70
     1
102
RTVSPost2010Prop51ColorIndex
 90
      256
102
RTVSPost2010Prop51ColorRGB
 90
-16777216
102
RTVSPost2010PropOp51
 70
     0
102
RTVSPost2010Prop52
140
1.0
102
RTVSPost2010PropOp52
 70
     0
102
RTVSPost2010Prop53
 90
        2
102
RTVSPost2010PropOp53
 70
     1
102
RTVSPost2010Prop54
  1
strokes_ogs.tif
102
RTVSPost2010PropOp54
 70
     1
102
RTVSPost2010Prop55
280
     0
102
RTVSPost2010PropOp55
 70
     1
102
RTVSPost2010Prop56
140
1.0
102
RTVSPost2010PropOp56
 70
     1
102
RTVSPost2010Prop57
140
1.0
102
RTVSPost2010PropOp57
 70
     1
  0
XRECORD
  5
750
102
{ACAD_REACTORS
330
74F
102
}
330
74F
100
AcDbXrecord
280
     1
102
RTVSPost2010Prop28
280
     0
102
RTVSPost2010PropOp28
 70
     1
102
RTVSPost2010Prop29
280
     1
102
RTVSPost2010PropOp29
 70
     1
102
RTVSPost2010Prop30
280
     1
102
RTVSPost2010PropOp30
 70
     1
102
RTVSPost2010Prop31
280
     0
102
RTVSPost2010PropOp31
 70
     1
102
RTVSPost2010Prop32
280
     0
102
RTVSPost2010PropOp32
 70
     1
102
RTVSPost2010Prop33
280
     0
102
RTVSPost2010PropOp33
 70
     1
102
RTVSPost2010Prop34
280
     0
102
RTVSPost2010PropOp34
 70
     1
102
RTVSPost2010Prop35
280
     0
102
RTVSPost2010PropOp35
 70
     1
102
RTVSPost2010Prop36
280
     0
102
RTVSPost2010PropOp36
 70
     1
102
RTVSPost2010Prop37
 90
       50
102
RTVSPost2010PropOp37
 70
     1
102
RTVSPost2010Prop38
140
0.0
102
RTVSPost2010PropOp38
 70
     1
102
RTVSPost2010Prop39
140
1.0
102
RTVSPost2010PropOp39
 70
     1
102
RTVSPost2010Prop40
 90
        0
102
RTVSPost2010PropOp40
 70
     1
102
RTVSPost2010Prop41ColorIndex
 90
       18
102
RTVSPost2010Prop41ColorRGB
 90
        0
102
RTVSPost2010PropOp41
 70
     1
102
RTVSPost2010Prop42
 90
       50
102
RTVSPost2010PropOp42
 70
     1
102
RTVSPost2010Prop43
 90
        3
102
RTVSPost2010PropOp43
 70
     1
102
RTVSPost2010Prop44ColorIndex
 90
        5
102
RTVSPost2010Prop44ColorRGB
 90
      255
102
RTVSPost2010PropOp44
 70
     1
102
RTVSPost2010Prop45
280
     0
102
RTVSPost2010PropOp45
 70
     1
102
RTVSPost2010Prop46
 90
       50
102
RTVSPost2010PropOp46
 70
     1
102
RTVSPost2010Prop47
 90
       50
102
RTVSPost2010PropOp47
 70
     1
102
RTVSPost2010Prop48
 90
       50
102
RTVSPost2010PropOp48
 70
     1
102
RTVSPost2010Prop49
280
     0
102
RTVSPost2010PropOp49
 70
     1
102
RTVSPost2010Prop50
 90
       50
102
RTVSPost2010PropOp50
 70
     1
102
RTVSPost2010Prop51ColorIndex
 90
      256
102
RTVSPost2010Prop51ColorRGB
 90
-16777216
102
RTVSPost2010PropOp51
 70
     0
102
RTVSPost2010Prop52
140
1.0
102
RTVSPost2010PropOp52
 70
     0
102
RTVSPost2010Prop53
 90
        2
102
RTVSPost2010PropOp53
 70
     1
102
RTVSPost2010Prop54
  1
strokes_ogs.tif
102
RTVSPost2010PropOp54
 70
     1
102
RTVSPost2010Prop55
280
     0
102
RTVSPost2010PropOp55
 70
     1
102
RTVSPost2010Prop56
140
1.0
102
RTVSPost2010PropOp56
 70
     1
102
RTVSPost2010Prop57
140
1.0
102
RTVSPost2010PropOp57
 70
     1
  0
XRECORD
  5
758
102
{ACAD_REACTORS
330
757
102
}
330
757
100
AcDbXrecord
280
     1
102
RTVSPost2010Prop28
280
     0
102
RTVSPost2010PropOp28
 70
     1
102
RTVSPost2010Prop29
280
     1
102
RTVSPost2010PropOp29
 70
     1
102
RTVSPost2010Prop30
280
     1
102
RTVSPost2010PropOp30
 70
     1
102
RTVSPost2010Prop31
280
     0
102
RTVSPost2010PropOp31
 70
     1
102
RTVSPost2010Prop32
280
     0
102
RTVSPost2010PropOp32
 70
     1
102
RTVSPost2010Prop33
280
     0
102
RTVSPost2010PropOp33
 70
     1
102
RTVSPost2010Prop34
280
     0
102
RTVSPost2010PropOp34
 70
     1
102
RTVSPost2010Prop35
280
     0
102
RTVSPost2010PropOp35
 70
     1
102
RTVSPost2010Prop36
280
     0
102
RTVSPost2010PropOp36
 70
     1
102
RTVSPost2010Prop37
 90
       50
102
RTVSPost2010PropOp37
 70
     1
102
RTVSPost2010Prop38
140
0.0
102
RTVSPost2010PropOp38
 70
     1
102
RTVSPost2010Prop39
140
1.0
102
RTVSPost2010PropOp39
 70
     1
102
RTVSPost2010Prop40
 90
        0
102
RTVSPost2010PropOp40
 70
     1
102
RTVSPost2010Prop41ColorIndex
 90
       18
102
RTVSPost2010Prop41ColorRGB
 90
        0
102
RTVSPost2010PropOp41
 70
     1
102
RTVSPost2010Prop42
 90
       50
102
RTVSPost2010PropOp42
 70
     1
102
RTVSPost2010Prop43
 90
        3
102
RTVSPost2010PropOp43
 70
     1
102
RTVSPost2010Prop44ColorIndex
 90
        5
102
RTVSPost2010Prop44ColorRGB
 90
      255
102
RTVSPost2010PropOp44
 70
     1
102
RTVSPost2010Prop45
280
     0
102
RTVSPost2010PropOp45
 70
     1
102
RTVSPost2010Prop46
 90
       50
102
RTVSPost2010PropOp46
 70
     1
102
RTVSPost2010Prop47
 90
       50
102
RTVSPost2010PropOp47
 70
     1
102
RTVSPost2010Prop48
 90
       50
102
RTVSPost2010PropOp48
 70
     1
102
RTVSPost2010Prop49
280
     0
102
RTVSPost2010PropOp49
 70
     1
102
RTVSPost2010Prop50
 90
       50
102
RTVSPost2010PropOp50
 70
     1
102
RTVSPost2010Prop51ColorIndex
 90
      256
102
RTVSPost2010Prop51ColorRGB
 90
-16777216
102
RTVSPost2010PropOp51
 70
     0
102
RTVSPost2010Prop52
140
1.0
102
RTVSPost2010PropOp52
 70
     0
102
RTVSPost2010Prop53
 90
        2
102
RTVSPost2010PropOp53
 70
     1
102
RTVSPost2010Prop54
  1
strokes_ogs.tif
102
RTVSPost2010PropOp54
 70
     1
102
RTVSPost2010Prop55
280
     0
102
RTVSPost2010PropOp55
 70
     1
102
RTVSPost2010Prop56
140
1.0
102
RTVSPost2010PropOp56
 70
     1
102
RTVSPost2010Prop57
140
1.0
102
RTVSPost2010PropOp57
 70
     1
  0
XRECORD
  5
774
102
{ACAD_REACTORS
330
773
102
}
330
773
100
AcDbXrecord
280
     1
102
RTVSPost2010Prop28
280
     0
102
RTVSPost2010PropOp28
 70
     1
102
RTVSPost2010Prop29
280
     1
102
RTVSPost2010PropOp29
 70
     1
102
RTVSPost2010Prop30
280
     1
102
RTVSPost2010PropOp30
 70
     1
102
RTVSPost2010Prop31
280
     0
102
RTVSPost2010PropOp31
 70
     1
102
RTVSPost2010Prop32
280
     0
102
RTVSPost2010PropOp32
 70
     1
102
RTVSPost2010Prop33
280
     0
102
RTVSPost2010PropOp33
 70
     1
102
RTVSPost2010Prop34
280
     0
102
RTVSPost2010PropOp34
 70
     1
102
RTVSPost2010Prop35
280
     0
102
RTVSPost2010PropOp35
 70
     1
102
RTVSPost2010Prop36
280
     0
102
RTVSPost2010PropOp36
 70
     1
102
RTVSPost2010Prop37
 90
       50
102
RTVSPost2010PropOp37
 70
     0
102
RTVSPost2010Prop38
140
0.0
102
RTVSPost2010PropOp38
 70
     0
102
RTVSPost2010Prop39
140
1.0
102
RTVSPost2010PropOp39
 70
     0
102
RTVSPost2010Prop40
 90
        0
102
RTVSPost2010PropOp40
 70
     0
102
RTVSPost2010Prop41ColorIndex
 90
       18
102
RTVSPost2010Prop41ColorRGB
 90
        0
102
RTVSPost2010PropOp41
 70
     0
102
RTVSPost2010Prop42
 90
       50
102
RTVSPost2010PropOp42
 70
     0
102
RTVSPost2010Prop43
 90
        3
102
RTVSPost2010PropOp43
 70
     0
102
RTVSPost2010Prop44ColorIndex
 90
        5
102
RTVSPost2010Prop44ColorRGB
 90
      255
102
RTVSPost2010PropOp44
 70
     0
102
RTVSPost2010Prop45
280
     0
102
RTVSPost2010PropOp45
 70
     1
102
RTVSPost2010Prop46
 90
       50
102
RTVSPost2010PropOp46
 70
     0
102
RTVSPost2010Prop47
 90
       50
102
RTVSPost2010PropOp47
 70
     0
102
RTVSPost2010Prop48
 90
       50
102
RTVSPost2010PropOp48
 70
     0
102
RTVSPost2010Prop49
280
     0
102
RTVSPost2010PropOp49
 70
     1
102
RTVSPost2010Prop50
 90
       50
102
RTVSPost2010PropOp50
 70
     0
102
RTVSPost2010Prop51ColorIndex
 90
      256
102
RTVSPost2010Prop51ColorRGB
 90
-16777216
102
RTVSPost2010PropOp51
 70
     0
102
RTVSPost2010Prop52
140
1.0
102
RTVSPost2010PropOp52
 70
     0
102
RTVSPost2010Prop53
 90
        2
102
RTVSPost2010PropOp53
 70
     0
102
RTVSPost2010Prop54
  1
strokes_ogs.tif
102
RTVSPost2010PropOp54
 70
     0
102
RTVSPost2010Prop55
280
     0
102
RTVSPost2010PropOp55
 70
     1
102
RTVSPost2010Prop56
140
1.0
102
RTVSPost2010PropOp56
 70
     0
102
RTVSPost2010Prop57
140
1.0
102
RTVSPost2010PropOp57
 70
     0
  0
XRECORD
  5
764
102
{ACAD_REACTORS
330
763
102
}
330
763
100
AcDbXrecord
280
     1
102
RTVSPost2010Prop28
280
     0
102
RTVSPost2010PropOp28
 70
     1
102
RTVSPost2010Prop29
280
     1
102
RTVSPost2010PropOp29
 70
     1
102
RTVSPost2010Prop30
280
     1
102
RTVSPost2010PropOp30
 70
     1
102
RTVSPost2010Prop31
280
     0
102
RTVSPost2010PropOp31
 70
     1
102
RTVSPost2010Prop32
280
     0
102
RTVSPost2010PropOp32
 70
     1
102
RTVSPost2010Prop33
280
     0
102
RTVSPost2010PropOp33
 70
     1
102
RTVSPost2010Prop34
280
     0
102
RTVSPost2010PropOp34
 70
     1
102
RTVSPost2010Prop35
280
     0
102
RTVSPost2010PropOp35
 70
     1
102
RTVSPost2010Prop36
280
     0
102
RTVSPost2010PropOp36
 70
     1
102
RTVSPost2010Prop37
 90
       50
102
RTVSPost2010PropOp37
 70
     1
102
RTVSPost2010Prop38
140
0.0
102
RTVSPost2010PropOp38
 70
     1
102
RTVSPost2010Prop39
140
1.0
102
RTVSPost2010PropOp39
 70
     1
102
RTVSPost2010Prop40
 90
        0
102
RTVSPost2010PropOp40
 70
     1
102
RTVSPost2010Prop41ColorIndex
 90
       18
102
RTVSPost2010Prop41ColorRGB
 90
        0
102
RTVSPost2010PropOp41
 70
     1
102
RTVSPost2010Prop42
 90
       50
102
RTVSPost2010PropOp42
 70
     1
102
RTVSPost2010Prop43
 90
        3
102
RTVSPost2010PropOp43
 70
     1
102
RTVSPost2010Prop44ColorIndex
 90
        5
102
RTVSPost2010Prop44ColorRGB
 90
      255
102
RTVSPost2010PropOp44
 70
     1
102
RTVSPost2010Prop45
280
     0
102
RTVSPost2010PropOp45
 70
     1
102
RTVSPost2010Prop46
 90
       50
102
RTVSPost2010PropOp46
 70
     1
102
RTVSPost2010Prop47
 90
       50
102
RTVSPost2010PropOp47
 70
     1
102
RTVSPost2010Prop48
 90
       50
102
RTVSPost2010PropOp48
 70
     1
102
RTVSPost2010Prop49
280
     0
102
RTVSPost2010PropOp49
 70
     1
102
RTVSPost2010Prop50
 90
       50
102
RTVSPost2010PropOp50
 70
     1
102
RTVSPost2010Prop51ColorIndex
 90
      256
102
RTVSPost2010Prop51ColorRGB
 90
-16777216
102
RTVSPost2010PropOp51
 70
     0
102
RTVSPost2010Prop52
140
1.0
102
RTVSPost2010PropOp52
 70
     0
102
RTVSPost2010Prop53
 90
        2
102
RTVSPost2010PropOp53
 70
     1
102
RTVSPost2010Prop54
  1
strokes_ogs.tif
102
RTVSPost2010PropOp54
 70
     1
102
RTVSPost2010Prop55
280
     0
102
RTVSPost2010PropOp55
 70
     1
102
RTVSPost2010Prop56
140
1.0
102
RTVSPost2010PropOp56
 70
     1
102
RTVSPost2010Prop57
140
1.0
102
RTVSPost2010PropOp57
 70
     1
  0
XRECORD
  5
776
102
{ACAD_REACTORS
330
775
102
}
330
775
100
AcDbXrecord
280
     1
102
RTVSPost2010Prop28
280
     0
102
RTVSPost2010PropOp28
 70
     1
102
RTVSPost2010Prop29
280
     1
102
RTVSPost2010PropOp29
 70
     1
102
RTVSPost2010Prop30
280
     1
102
RTVSPost2010PropOp30
 70
     1
102
RTVSPost2010Prop31
280
     0
102
RTVSPost2010PropOp31
 70
     1
102
RTVSPost2010Prop32
280
     0
102
RTVSPost2010PropOp32
 70
     1
102
RTVSPost2010Prop33
280
     0
102
RTVSPost2010PropOp33
 70
     1
102
RTVSPost2010Prop34
280
     0
102
RTVSPost2010PropOp34
 70
     1
102
RTVSPost2010Prop35
280
     0
102
RTVSPost2010PropOp35
 70
     1
102
RTVSPost2010Prop36
280
     0
102
RTVSPost2010PropOp36
 70
     1
102
RTVSPost2010Prop37
 90
       50
102
RTVSPost2010PropOp37
 70
     0
102
RTVSPost2010Prop38
140
0.0
102
RTVSPost2010PropOp38
 70
     0
102
RTVSPost2010Prop39
140
1.0
102
RTVSPost2010PropOp39
 70
     0
102
RTVSPost2010Prop40
 90
        0
102
RTVSPost2010PropOp40
 70
     0
102
RTVSPost2010Prop41ColorIndex
 90
       18
102
RTVSPost2010Prop41ColorRGB
 90
        0
102
RTVSPost2010PropOp41
 70
     0
102
RTVSPost2010Prop42
 90
       50
102
RTVSPost2010PropOp42
 70
     0
102
RTVSPost2010Prop43
 90
        3
102
RTVSPost2010PropOp43
 70
     0
102
RTVSPost2010Prop44ColorIndex
 90
        5
102
RTVSPost2010Prop44ColorRGB
 90
      255
102
RTVSPost2010PropOp44
 70
     0
102
RTVSPost2010Prop45
280
     0
102
RTVSPost2010PropOp45
 70
     1
102
RTVSPost2010Prop46
 90
       50
102
RTVSPost2010PropOp46
 70
     0
102
RTVSPost2010Prop47
 90
       50
102
RTVSPost2010PropOp47
 70
     0
102
RTVSPost2010Prop48
 90
       50
102
RTVSPost2010PropOp48
 70
     0
102
RTVSPost2010Prop49
280
     0
102
RTVSPost2010PropOp49
 70
     1
102
RTVSPost2010Prop50
 90
       50
102
RTVSPost2010PropOp50
 70
     0
102
RTVSPost2010Prop51ColorIndex
 90
      256
102
RTVSPost2010Prop51ColorRGB
 90
-16777216
102
RTVSPost2010PropOp51
 70
     0
102
RTVSPost2010Prop52
140
1.0
102
RTVSPost2010PropOp52
 70
     0
102
RTVSPost2010Prop53
 90
        2
102
RTVSPost2010PropOp53
 70
     0
102
RTVSPost2010Prop54
  1
strokes_ogs.tif
102
RTVSPost2010PropOp54
 70
     0
102
RTVSPost2010Prop55
280
     0
102
RTVSPost2010PropOp55
 70
     1
102
RTVSPost2010Prop56
140
1.0
102
RTVSPost2010PropOp56
 70
     0
102
RTVSPost2010Prop57
140
1.0
102
RTVSPost2010PropOp57
 70
     0
  0
XRECORD
  5
75C
102
{ACAD_REACTORS
330
75B
102
}
330
75B
100
AcDbXrecord
280
     1
102
RTVSPost2010Prop28
280
     0
102
RTVSPost2010PropOp28
 70
     1
102
RTVSPost2010Prop29
280
     1
102
RTVSPost2010PropOp29
 70
     1
102
RTVSPost2010Prop30
280
     1
102
RTVSPost2010PropOp30
 70
     1
102
RTVSPost2010Prop31
280
     0
102
RTVSPost2010PropOp31
 70
     1
102
RTVSPost2010Prop32
280
     0
102
RTVSPost2010PropOp32
 70
     1
102
RTVSPost2010Prop33
280
     0
102
RTVSPost2010PropOp33
 70
     1
102
RTVSPost2010Prop34
280
     0
102
RTVSPost2010PropOp34
 70
     1
102
RTVSPost2010Prop35
280
     0
102
RTVSPost2010PropOp35
 70
     1
102
RTVSPost2010Prop36
280
     0
102
RTVSPost2010PropOp36
 70
     1
102
RTVSPost2010Prop37
 90
       50
102
RTVSPost2010PropOp37
 70
     1
102
RTVSPost2010Prop38
140
0.0
102
RTVSPost2010PropOp38
 70
     1
102
RTVSPost2010Prop39
140
1.0
102
RTVSPost2010PropOp39
 70
     1
102
RTVSPost2010Prop40
 90
        0
102
RTVSPost2010PropOp40
 70
     1
102
RTVSPost2010Prop41ColorIndex
 90
       18
102
RTVSPost2010Prop41ColorRGB
 90
        0
102
RTVSPost2010PropOp41
 70
     1
102
RTVSPost2010Prop42
 90
       50
102
RTVSPost2010PropOp42
 70
     1
102
RTVSPost2010Prop43
 90
        3
102
RTVSPost2010PropOp43
 70
     1
102
RTVSPost2010Prop44ColorIndex
 90
        5
102
RTVSPost2010Prop44ColorRGB
 90
      255
102
RTVSPost2010PropOp44
 70
     1
102
RTVSPost2010Prop45
280
     0
102
RTVSPost2010PropOp45
 70
     1
102
RTVSPost2010Prop46
 90
       50
102
RTVSPost2010PropOp46
 70
     1
102
RTVSPost2010Prop47
 90
       50
102
RTVSPost2010PropOp47
 70
     1
102
RTVSPost2010Prop48
 90
       50
102
RTVSPost2010PropOp48
 70
     1
102
RTVSPost2010Prop49
280
     0
102
RTVSPost2010PropOp49
 70
     1
102
RTVSPost2010Prop50
 90
       50
102
RTVSPost2010PropOp50
 70
     1
102
RTVSPost2010Prop51ColorIndex
 90
      256
102
RTVSPost2010Prop51ColorRGB
 90
-16777216
102
RTVSPost2010PropOp51
 70
     0
102
RTVSPost2010Prop52
140
1.0
102
RTVSPost2010PropOp52
 70
     0
102
RTVSPost2010Prop53
 90
        2
102
RTVSPost2010PropOp53
 70
     1
102
RTVSPost2010Prop54
  1
strokes_ogs.tif
102
RTVSPost2010PropOp54
 70
     1
102
RTVSPost2010Prop55
280
     0
102
RTVSPost2010PropOp55
 70
     1
102
RTVSPost2010Prop56
140
1.0
102
RTVSPost2010PropOp56
 70
     1
102
RTVSPost2010Prop57
140
1.0
102
RTVSPost2010PropOp57
 70
     1
  0
XRECORD
  5
772
102
{ACAD_REACTORS
330
771
102
}
330
771
100
AcDbXrecord
280
     1
102
RTVSPost2010Prop28
280
     0
102
RTVSPost2010PropOp28
 70
     1
102
RTVSPost2010Prop29
280
     1
102
RTVSPost2010PropOp29
 70
     1
102
RTVSPost2010Prop30
280
     1
102
RTVSPost2010PropOp30
 70
     1
102
RTVSPost2010Prop31
280
     0
102
RTVSPost2010PropOp31
 70
     1
102
RTVSPost2010Prop32
280
     0
102
RTVSPost2010PropOp32
 70
     1
102
RTVSPost2010Prop33
280
     0
102
RTVSPost2010PropOp33
 70
     1
102
RTVSPost2010Prop34
280
     0
102
RTVSPost2010PropOp34
 70
     1
102
RTVSPost2010Prop35
280
     0
102
RTVSPost2010PropOp35
 70
     1
102
RTVSPost2010Prop36
280
     0
102
RTVSPost2010PropOp36
 70
     1
102
RTVSPost2010Prop37
 90
       50
102
RTVSPost2010PropOp37
 70
     1
102
RTVSPost2010Prop38
140
0.0
102
RTVSPost2010PropOp38
 70
     1
102
RTVSPost2010Prop39
140
1.0
102
RTVSPost2010PropOp39
 70
     1
102
RTVSPost2010Prop40
 90
        0
102
RTVSPost2010PropOp40
 70
     1
102
RTVSPost2010Prop41ColorIndex
 90
       18
102
RTVSPost2010Prop41ColorRGB
 90
        0
102
RTVSPost2010PropOp41
 70
     1
102
RTVSPost2010Prop42
 90
       50
102
RTVSPost2010PropOp42
 70
     1
102
RTVSPost2010Prop43
 90
        3
102
RTVSPost2010PropOp43
 70
     1
102
RTVSPost2010Prop44ColorIndex
 90
        5
102
RTVSPost2010Prop44ColorRGB
 90
      255
102
RTVSPost2010PropOp44
 70
     1
102
RTVSPost2010Prop45
280
     0
102
RTVSPost2010PropOp45
 70
     1
102
RTVSPost2010Prop46
 90
       50
102
RTVSPost2010PropOp46
 70
     1
102
RTVSPost2010Prop47
 90
       50
102
RTVSPost2010PropOp47
 70
     1
102
RTVSPost2010Prop48
 90
       50
102
RTVSPost2010PropOp48
 70
     1
102
RTVSPost2010Prop49
280
     0
102
RTVSPost2010PropOp49
 70
     1
102
RTVSPost2010Prop50
 90
       50
102
RTVSPost2010PropOp50
 70
     1
102
RTVSPost2010Prop51ColorIndex
 90
      256
102
RTVSPost2010Prop51ColorRGB
 90
-16777216
102
RTVSPost2010PropOp51
 70
     0
102
RTVSPost2010Prop52
140
1.0
102
RTVSPost2010PropOp52
 70
     0
102
RTVSPost2010Prop53
 90
        2
102
RTVSPost2010PropOp53
 70
     1
102
RTVSPost2010Prop54
  1
strokes_ogs.tif
102
RTVSPost2010PropOp54
 70
     1
102
RTVSPost2010Prop55
280
     0
102
RTVSPost2010PropOp55
 70
     1
102
RTVSPost2010Prop56
140
1.0
102
RTVSPost2010PropOp56
 70
     1
102
RTVSPost2010Prop57
140
1.0
102
RTVSPost2010PropOp57
 70
     1
  0
XRECORD
  5
770
102
{ACAD_REACTORS
330
76F
102
}
330
76F
100
AcDbXrecord
280
     1
102
RTVSPost2010Prop28
280
     0
102
RTVSPost2010PropOp28
 70
     1
102
RTVSPost2010Prop29
280
     1
102
RTVSPost2010PropOp29
 70
     1
102
RTVSPost2010Prop30
280
     1
102
RTVSPost2010PropOp30
 70
     1
102
RTVSPost2010Prop31
280
     0
102
RTVSPost2010PropOp31
 70
     1
102
RTVSPost2010Prop32
280
     0
102
RTVSPost2010PropOp32
 70
     1
102
RTVSPost2010Prop33
280
     0
102
RTVSPost2010PropOp33
 70
     1
102
RTVSPost2010Prop34
280
     0
102
RTVSPost2010PropOp34
 70
     1
102
RTVSPost2010Prop35
280
     0
102
RTVSPost2010PropOp35
 70
     1
102
RTVSPost2010Prop36
280
     0
102
RTVSPost2010PropOp36
 70
     1
102
RTVSPost2010Prop37
 90
       50
102
RTVSPost2010PropOp37
 70
     1
102
RTVSPost2010Prop38
140
0.0
102
RTVSPost2010PropOp38
 70
     1
102
RTVSPost2010Prop39
140
1.0
102
RTVSPost2010PropOp39
 70
     1
102
RTVSPost2010Prop40
 90
        0
102
RTVSPost2010PropOp40
 70
     1
102
RTVSPost2010Prop41ColorIndex
 90
       18
102
RTVSPost2010Prop41ColorRGB
 90
        0
102
RTVSPost2010PropOp41
 70
     1
102
RTVSPost2010Prop42
 90
       50
102
RTVSPost2010PropOp42
 70
     1
102
RTVSPost2010Prop43
 90
        3
102
RTVSPost2010PropOp43
 70
     1
102
RTVSPost2010Prop44ColorIndex
 90
        5
102
RTVSPost2010Prop44ColorRGB
 90
      255
102
RTVSPost2010PropOp44
 70
     1
102
RTVSPost2010Prop45
280
     0
102
RTVSPost2010PropOp45
 70
     1
102
RTVSPost2010Prop46
 90
       50
102
RTVSPost2010PropOp46
 70
     1
102
RTVSPost2010Prop47
 90
       50
102
RTVSPost2010PropOp47
 70
     1
102
RTVSPost2010Prop48
 90
       50
102
RTVSPost2010PropOp48
 70
     1
102
RTVSPost2010Prop49
280
     0
102
RTVSPost2010PropOp49
 70
     1
102
RTVSPost2010Prop50
 90
       50
102
RTVSPost2010PropOp50
 70
     1
102
RTVSPost2010Prop51ColorIndex
 90
      256
102
RTVSPost2010Prop51ColorRGB
 90
-16777216
102
RTVSPost2010PropOp51
 70
     0
102
RTVSPost2010Prop52
140
1.0
102
RTVSPost2010PropOp52
 70
     0
102
RTVSPost2010Prop53
 90
        2
102
RTVSPost2010PropOp53
 70
     1
102
RTVSPost2010Prop54
  1
strokes_ogs.tif
102
RTVSPost2010PropOp54
 70
     1
102
RTVSPost2010Prop55
280
     0
102
RTVSPost2010PropOp55
 70
     1
102
RTVSPost2010Prop56
140
1.0
102
RTVSPost2010PropOp56
 70
     1
102
RTVSPost2010Prop57
140
1.0
102
RTVSPost2010PropOp57
 70
     1
  0
XRECORD
  5
76A
102
{ACAD_REACTORS
330
769
102
}
330
769
100
AcDbXrecord
280
     1
102
RTVSPost2010Prop28
280
     0
102
RTVSPost2010PropOp28
 70
     1
102
RTVSPost2010Prop29
280
     1
102
RTVSPost2010PropOp29
 70
     1
102
RTVSPost2010Prop30
280
     1
102
RTVSPost2010PropOp30
 70
     1
102
RTVSPost2010Prop31
280
     0
102
RTVSPost2010PropOp31
 70
     1
102
RTVSPost2010Prop32
280
     0
102
RTVSPost2010PropOp32
 70
     1
102
RTVSPost2010Prop33
280
     0
102
RTVSPost2010PropOp33
 70
     1
102
RTVSPost2010Prop34
280
     0
102
RTVSPost2010PropOp34
 70
     1
102
RTVSPost2010Prop35
280
     0
102
RTVSPost2010PropOp35
 70
     1
102
RTVSPost2010Prop36
280
     0
102
RTVSPost2010PropOp36
 70
     1
102
RTVSPost2010Prop37
 90
       50
102
RTVSPost2010PropOp37
 70
     1
102
RTVSPost2010Prop38
140
0.0
102
RTVSPost2010PropOp38
 70
     1
102
RTVSPost2010Prop39
140
1.0
102
RTVSPost2010PropOp39
 70
     1
102
RTVSPost2010Prop40
 90
        0
102
RTVSPost2010PropOp40
 70
     1
102
RTVSPost2010Prop41ColorIndex
 90
       18
102
RTVSPost2010Prop41ColorRGB
 90
        0
102
RTVSPost2010PropOp41
 70
     1
102
RTVSPost2010Prop42
 90
       50
102
RTVSPost2010PropOp42
 70
     1
102
RTVSPost2010Prop43
 90
        3
102
RTVSPost2010PropOp43
 70
     1
102
RTVSPost2010Prop44ColorIndex
 90
        5
102
RTVSPost2010Prop44ColorRGB
 90
      255
102
RTVSPost2010PropOp44
 70
     1
102
RTVSPost2010Prop45
280
     0
102
RTVSPost2010PropOp45
 70
     1
102
RTVSPost2010Prop46
 90
       50
102
RTVSPost2010PropOp46
 70
     1
102
RTVSPost2010Prop47
 90
       50
102
RTVSPost2010PropOp47
 70
     1
102
RTVSPost2010Prop48
 90
       50
102
RTVSPost2010PropOp48
 70
     1
102
RTVSPost2010Prop49
280
     0
102
RTVSPost2010PropOp49
 70
     1
102
RTVSPost2010Prop50
 90
       50
102
RTVSPost2010PropOp50
 70
     1
102
RTVSPost2010Prop51ColorIndex
 90
      256
102
RTVSPost2010Prop51ColorRGB
 90
-16777216
102
RTVSPost2010PropOp51
 70
     0
102
RTVSPost2010Prop52
140
1.0
102
RTVSPost2010PropOp52
 70
     0
102
RTVSPost2010Prop53
 90
        2
102
RTVSPost2010PropOp53
 70
     1
102
RTVSPost2010Prop54
  1
strokes_ogs.tif
102
RTVSPost2010PropOp54
 70
     1
102
RTVSPost2010Prop55
280
     0
102
RTVSPost2010PropOp55
 70
     1
102
RTVSPost2010Prop56
140
1.0
102
RTVSPost2010PropOp56
 70
     1
102
RTVSPost2010Prop57
140
1.0
102
RTVSPost2010PropOp57
 70
     1
  0
XRECORD
  5
76C
102
{ACAD_REACTORS
330
76B
102
}
330
76B
100
AcDbXrecord
280
     1
102
RTVSPost2010Prop28
280
     0
102
RTVSPost2010PropOp28
 70
     1
102
RTVSPost2010Prop29
280
     1
102
RTVSPost2010PropOp29
 70
     1
102
RTVSPost2010Prop30
280
     1
102
RTVSPost2010PropOp30
 70
     1
102
RTVSPost2010Prop31
280
     0
102
RTVSPost2010PropOp31
 70
     1
102
RTVSPost2010Prop32
280
     0
102
RTVSPost2010PropOp32
 70
     1
102
RTVSPost2010Prop33
280
     0
102
RTVSPost2010PropOp33
 70
     1
102
RTVSPost2010Prop34
280
     0
102
RTVSPost2010PropOp34
 70
     1
102
RTVSPost2010Prop35
280
     0
102
RTVSPost2010PropOp35
 70
     1
102
RTVSPost2010Prop36
280
     0
102
RTVSPost2010PropOp36
 70
     1
102
RTVSPost2010Prop37
 90
       50
102
RTVSPost2010PropOp37
 70
     1
102
RTVSPost2010Prop38
140
0.0
102
RTVSPost2010PropOp38
 70
     1
102
RTVSPost2010Prop39
140
1.0
102
RTVSPost2010PropOp39
 70
     1
102
RTVSPost2010Prop40
 90
        0
102
RTVSPost2010PropOp40
 70
     1
102
RTVSPost2010Prop41ColorIndex
 90
       18
102
RTVSPost2010Prop41ColorRGB
 90
        0
102
RTVSPost2010PropOp41
 70
     1
102
RTVSPost2010Prop42
 90
       50
102
RTVSPost2010PropOp42
 70
     1
102
RTVSPost2010Prop43
 90
        3
102
RTVSPost2010PropOp43
 70
     1
102
RTVSPost2010Prop44ColorIndex
 90
        5
102
RTVSPost2010Prop44ColorRGB
 90
      255
102
RTVSPost2010PropOp44
 70
     1
102
RTVSPost2010Prop45
280
     0
102
RTVSPost2010PropOp45
 70
     1
102
RTVSPost2010Prop46
 90
       50
102
RTVSPost2010PropOp46
 70
     1
102
RTVSPost2010Prop47
 90
       50
102
RTVSPost2010PropOp47
 70
     1
102
RTVSPost2010Prop48
 90
       50
102
RTVSPost2010PropOp48
 70
     1
102
RTVSPost2010Prop49
280
     0
102
RTVSPost2010PropOp49
 70
     1
102
RTVSPost2010Prop50
 90
       50
102
RTVSPost2010PropOp50
 70
     1
102
RTVSPost2010Prop51ColorIndex
 90
      256
102
RTVSPost2010Prop51ColorRGB
 90
-16777216
102
RTVSPost2010PropOp51
 70
     0
102
RTVSPost2010Prop52
140
1.0
102
RTVSPost2010PropOp52
 70
     0
102
RTVSPost2010Prop53
 90
        2
102
RTVSPost2010PropOp53
 70
     1
102
RTVSPost2010Prop54
  1
strokes_ogs.tif
102
RTVSPost2010PropOp54
 70
     1
102
RTVSPost2010Prop55
280
     0
102
RTVSPost2010PropOp55
 70
     1
102
RTVSPost2010Prop56
140
1.0
102
RTVSPost2010PropOp56
 70
     1
102
RTVSPost2010Prop57
140
1.0
102
RTVSPost2010PropOp57
 70
     1
  0
XRECORD
  5
762
102
{ACAD_REACTORS
330
761
102
}
330
761
100
AcDbXrecord
280
     1
102
RTVSPost2010Prop28
280
     0
102
RTVSPost2010PropOp28
 70
     1
102
RTVSPost2010Prop29
280
     1
102
RTVSPost2010PropOp29
 70
     1
102
RTVSPost2010Prop30
280
     1
102
RTVSPost2010PropOp30
 70
     1
102
RTVSPost2010Prop31
280
     0
102
RTVSPost2010PropOp31
 70
     1
102
RTVSPost2010Prop32
280
     0
102
RTVSPost2010PropOp32
 70
     1
102
RTVSPost2010Prop33
280
     0
102
RTVSPost2010PropOp33
 70
     1
102
RTVSPost2010Prop34
280
     0
102
RTVSPost2010PropOp34
 70
     1
102
RTVSPost2010Prop35
280
     0
102
RTVSPost2010PropOp35
 70
     1
102
RTVSPost2010Prop36
280
     0
102
RTVSPost2010PropOp36
 70
     1
102
RTVSPost2010Prop37
 90
       50
102
RTVSPost2010PropOp37
 70
     1
102
RTVSPost2010Prop38
140
0.0
102
RTVSPost2010PropOp38
 70
     1
102
RTVSPost2010Prop39
140
1.0
102
RTVSPost2010PropOp39
 70
     1
102
RTVSPost2010Prop40
 90
        0
102
RTVSPost2010PropOp40
 70
     1
102
RTVSPost2010Prop41ColorIndex
 90
       18
102
RTVSPost2010Prop41ColorRGB
 90
        0
102
RTVSPost2010PropOp41
 70
     1
102
RTVSPost2010Prop42
 90
       50
102
RTVSPost2010PropOp42
 70
     1
102
RTVSPost2010Prop43
 90
        3
102
RTVSPost2010PropOp43
 70
     1
102
RTVSPost2010Prop44ColorIndex
 90
        5
102
RTVSPost2010Prop44ColorRGB
 90
      255
102
RTVSPost2010PropOp44
 70
     1
102
RTVSPost2010Prop45
280
     0
102
RTVSPost2010PropOp45
 70
     1
102
RTVSPost2010Prop46
 90
       50
102
RTVSPost2010PropOp46
 70
     1
102
RTVSPost2010Prop47
 90
       50
102
RTVSPost2010PropOp47
 70
     1
102
RTVSPost2010Prop48
 90
       50
102
RTVSPost2010PropOp48
 70
     1
102
RTVSPost2010Prop49
280
     0
102
RTVSPost2010PropOp49
 70
     1
102
RTVSPost2010Prop50
 90
       50
102
RTVSPost2010PropOp50
 70
     1
102
RTVSPost2010Prop51ColorIndex
 90
      256
102
RTVSPost2010Prop51ColorRGB
 90
-16777216
102
RTVSPost2010PropOp51
 70
     0
102
RTVSPost2010Prop52
140
1.0
102
RTVSPost2010PropOp52
 70
     0
102
RTVSPost2010Prop53
 90
        2
102
RTVSPost2010PropOp53
 70
     1
102
RTVSPost2010Prop54
  1
strokes_ogs.tif
102
RTVSPost2010PropOp54
 70
     1
102
RTVSPost2010Prop55
280
     0
102
RTVSPost2010PropOp55
 70
     1
102
RTVSPost2010Prop56
140
1.0
102
RTVSPost2010PropOp56
 70
     1
102
RTVSPost2010Prop57
140
1.0
102
RTVSPost2010PropOp57
 70
     1
  0
XRECORD
  5
756
102
{ACAD_REACTORS
330
755
102
}
330
755
100
AcDbXrecord
280
     1
102
RTVSPost2010Prop28
280
     0
102
RTVSPost2010PropOp28
 70
     1
102
RTVSPost2010Prop29
280
     1
102
RTVSPost2010PropOp29
 70
     1
102
RTVSPost2010Prop30
280
     1
102
RTVSPost2010PropOp30
 70
     1
102
RTVSPost2010Prop31
280
     0
102
RTVSPost2010PropOp31
 70
     1
102
RTVSPost2010Prop32
280
     0
102
RTVSPost2010PropOp32
 70
     1
102
RTVSPost2010Prop33
280
     0
102
RTVSPost2010PropOp33
 70
     1
102
RTVSPost2010Prop34
280
     0
102
RTVSPost2010PropOp34
 70
     1
102
RTVSPost2010Prop35
280
     0
102
RTVSPost2010PropOp35
 70
     1
102
RTVSPost2010Prop36
280
     0
102
RTVSPost2010PropOp36
 70
     1
102
RTVSPost2010Prop37
 90
       50
102
RTVSPost2010PropOp37
 70
     1
102
RTVSPost2010Prop38
140
0.0
102
RTVSPost2010PropOp38
 70
     1
102
RTVSPost2010Prop39
140
1.0
102
RTVSPost2010PropOp39
 70
     1
102
RTVSPost2010Prop40
 90
        0
102
RTVSPost2010PropOp40
 70
     1
102
RTVSPost2010Prop41ColorIndex
 90
       18
102
RTVSPost2010Prop41ColorRGB
 90
        0
102
RTVSPost2010PropOp41
 70
     1
102
RTVSPost2010Prop42
 90
       50
102
RTVSPost2010PropOp42
 70
     1
102
RTVSPost2010Prop43
 90
        3
102
RTVSPost2010PropOp43
 70
     1
102
RTVSPost2010Prop44ColorIndex
 90
        5
102
RTVSPost2010Prop44ColorRGB
 90
      255
102
RTVSPost2010PropOp44
 70
     1
102
RTVSPost2010Prop45
280
     0
102
RTVSPost2010PropOp45
 70
     1
102
RTVSPost2010Prop46
 90
       50
102
RTVSPost2010PropOp46
 70
     1
102
RTVSPost2010Prop47
 90
       50
102
RTVSPost2010PropOp47
 70
     1
102
RTVSPost2010Prop48
 90
       50
102
RTVSPost2010PropOp48
 70
     1
102
RTVSPost2010Prop49
280
     0
102
RTVSPost2010PropOp49
 70
     1
102
RTVSPost2010Prop50
 90
       50
102
RTVSPost2010PropOp50
 70
     1
102
RTVSPost2010Prop51ColorIndex
 90
      256
102
RTVSPost2010Prop51ColorRGB
 90
-16777216
102
RTVSPost2010PropOp51
 70
     0
102
RTVSPost2010Prop52
140
1.0
102
RTVSPost2010PropOp52
 70
     0
102
RTVSPost2010Prop53
 90
        2
102
RTVSPost2010PropOp53
 70
     1
102
RTVSPost2010Prop54
  1
strokes_ogs.tif
102
RTVSPost2010PropOp54
 70
     1
102
RTVSPost2010Prop55
280
     0
102
RTVSPost2010PropOp55
 70
     1
102
RTVSPost2010Prop56
140
1.0
102
RTVSPost2010PropOp56
 70
     1
102
RTVSPost2010Prop57
140
1.0
102
RTVSPost2010PropOp57
 70
     1
  0
XRECORD
  5
76E
102
{ACAD_REACTORS
330
76D
102
}
330
76D
100
AcDbXrecord
280
     1
102
RTVSPost2010Prop28
280
     0
102
RTVSPost2010PropOp28
 70
     1
102
RTVSPost2010Prop29
280
     1
102
RTVSPost2010PropOp29
 70
     1
102
RTVSPost2010Prop30
280
     1
102
RTVSPost2010PropOp30
 70
     1
102
RTVSPost2010Prop31
280
     0
102
RTVSPost2010PropOp31
 70
     1
102
RTVSPost2010Prop32
280
     0
102
RTVSPost2010PropOp32
 70
     1
102
RTVSPost2010Prop33
280
     0
102
RTVSPost2010PropOp33
 70
     1
102
RTVSPost2010Prop34
280
     0
102
RTVSPost2010PropOp34
 70
     1
102
RTVSPost2010Prop35
280
     0
102
RTVSPost2010PropOp35
 70
     1
102
RTVSPost2010Prop36
280
     0
102
RTVSPost2010PropOp36
 70
     1
102
RTVSPost2010Prop37
 90
       50
102
RTVSPost2010PropOp37
 70
     1
102
RTVSPost2010Prop38
140
0.0
102
RTVSPost2010PropOp38
 70
     1
102
RTVSPost2010Prop39
140
1.0
102
RTVSPost2010PropOp39
 70
     1
102
RTVSPost2010Prop40
 90
        0
102
RTVSPost2010PropOp40
 70
     1
102
RTVSPost2010Prop41ColorIndex
 90
       18
102
RTVSPost2010Prop41ColorRGB
 90
        0
102
RTVSPost2010PropOp41
 70
     1
102
RTVSPost2010Prop42
 90
       50
102
RTVSPost2010PropOp42
 70
     1
102
RTVSPost2010Prop43
 90
        3
102
RTVSPost2010PropOp43
 70
     1
102
RTVSPost2010Prop44ColorIndex
 90
        5
102
RTVSPost2010Prop44ColorRGB
 90
      255
102
RTVSPost2010PropOp44
 70
     1
102
RTVSPost2010Prop45
280
     0
102
RTVSPost2010PropOp45
 70
     1
102
RTVSPost2010Prop46
 90
       50
102
RTVSPost2010PropOp46
 70
     1
102
RTVSPost2010Prop47
 90
       50
102
RTVSPost2010PropOp47
 70
     1
102
RTVSPost2010Prop48
 90
       50
102
RTVSPost2010PropOp48
 70
     1
102
RTVSPost2010Prop49
280
     0
102
RTVSPost2010PropOp49
 70
     1
102
RTVSPost2010Prop50
 90
       50
102
RTVSPost2010PropOp50
 70
     1
102
RTVSPost2010Prop51ColorIndex
 90
      256
102
RTVSPost2010Prop51ColorRGB
 90
-16777216
102
RTVSPost2010PropOp51
 70
     0
102
RTVSPost2010Prop52
140
1.0
102
RTVSPost2010PropOp52
 70
     0
102
RTVSPost2010Prop53
 90
        2
102
RTVSPost2010PropOp53
 70
     1
102
RTVSPost2010Prop54
  1
strokes_ogs.tif
102
RTVSPost2010PropOp54
 70
     1
102
RTVSPost2010Prop55
280
     0
102
RTVSPost2010PropOp55
 70
     1
102
RTVSPost2010Prop56
140
1.0
102
RTVSPost2010PropOp56
 70
     1
102
RTVSPost2010Prop57
140
1.0
102
RTVSPost2010PropOp57
 70
     1
  0
ENDSEC
  0
EOF
