  0
SECTION
  2
HEADER
  9
$ACADVER
  1
AC1024
  9
$ACADMAINTVER
 70
   205
  9
$DWGCODEPAGE
  3
ANSI_1252
  9
$LASTSAVEDBY
  1
kaschu
  9
$INSBASE
 10
0.0
 20
0.0
 30
0.0
  9
$EXTMIN
 10
-2908.778157915
 20
-3001.908141157239
 30
-0.0029903937887778
  9
$EXTMAX
 10
-721.8841930849994
 20
-1382.099939317292
 30
0.0029920673813101
  9
$LIMMIN
 10
0.0
 20
0.0
  9
$LIMMAX
 10
0.0
 20
0.0
  9
$ORTHOMODE
 70
     1
  9
$REGENMODE
 70
     1
  9
$FILLMODE
 70
     1
  9
$QTEXTMODE
 70
     0
  9
$MIRRTEXT
 70
     1
  9
$LTSCALE
 40
1.0
  9
$ATTMODE
 70
     1
  9
$TEXTSIZE
 40
0.0
  9
$TRACEWID
 40
0.05
  9
$TEXTSTYLE
  7
STANDARD
  9
$CLAYER
  8
0
  9
$CELTYPE
  6
CONTINUOUS
  9
$CECOLOR
 62
   256
  9
$CELTSCALE
 40
1.0
  9
$DISPSILH
 70
     0
  9
$DIMSCALE
 40
1.0
  9
$DIMASZ
 40
0.18
  9
$DIMEXO
 40
0.0625
  9
$DIMDLI
 40
0.38
  9
$DIMRND
 40
0.0
  9
$DIMDLE
 40
0.0
  9
$DIMEXE
 40
0.18
  9
$DIMTP
 40
0.0
  9
$DIMTM
 40
0.0
  9
$DIMTXT
 40
0.18
  9
$DIMCEN
 40
0.09
  9
$DIMTSZ
 40
0.0
  9
$DIMTOL
 70
     0
  9
$DIMLIM
 70
     0
  9
$DIMTIH
 70
     1
  9
$DIMTOH
 70
     1
  9
$DIMSE1
 70
     0
  9
$DIMSE2
 70
     0
  9
$DIMTAD
 70
     0
  9
$DIMZIN
 70
     0
  9
$DIMBLK
  1

  9
$DIMASO
 70
     1
  9
$DIMSHO
 70
     1
  9
$DIMPOST
  1

  9
$DIMAPOST
  1

  9
$DIMALT
 70
     0
  9
$DIMALTD
 70
     2
  9
$DIMALTF
 40
25.4
  9
$DIMLFAC
 40
1.0
  9
$DIMTOFL
 70
     0
  9
$DIMTVP
 40
0.0
  9
$DIMTIX
 70
     0
  9
$DIMSOXD
 70
     0
  9
$DIMSAH
 70
     0
  9
$DIMBLK1
  1

  9
$DIMBLK2
  1

  9
$DIMSTYLE
  2
STANDARD
  9
$DIMCLRD
 70
     0
  9
$DIMCLRE
 70
     0
  9
$DIMCLRT
 70
     0
  9
$DIMTFAC
 40
1.0
  9
$DIMGAP
 40
0.09
  9
$DIMJUST
 70
     0
  9
$DIMSD1
 70
     0
  9
$DIMSD2
 70
     0
  9
$DIMTOLJ
 70
     1
  9
$DIMTZIN
 70
     0
  9
$DIMALTZ
 70
     0
  9
$DIMALTTZ
 70
     0
  9
$DIMUPT
 70
     0
  9
$DIMDEC
 70
     4
  9
$DIMTDEC
 70
     4
  9
$DIMALTU
 70
     2
  9
$DIMALTTD
 70
     2
  9
$DIMTXSTY
  7
STANDARD
  9
$DIMAUNIT
 70
     0
  9
$DIMADEC
 70
     0
  9
$DIMALTRND
 40
0.0
  9
$DIMAZIN
 70
     0
  9
$DIMDSEP
 70
    46
  9
$DIMATFIT
 70
     3
  9
$DIMFRAC
 70
     0
  9
$DIMLDRBLK
  1

  9
$DIMLUNIT
 70
     2
  9
$DIMLWD
 70
    -2
  9
$DIMLWE
 70
    -2
  9
$DIMTMOVE
 70
     0
  9
$DIMFXL
 40
1.0
  9
$DIMFXLON
 70
     0
  9
$DIMJOGANG
 40
0.7853981633974483
  9
$DIMTFILL
 70
     0
  9
$DIMTFILLCLR
 70
     0
  9
$DIMARCSYM
 70
     0
  9
$DIMLTYPE
  6

  9
$DIMLTEX1
  6

  9
$DIMLTEX2
  6

  9
$DIMTXTDIRECTION
 70
     0
  9
$LUNITS
 70
     2
  9
$LUPREC
 70
     4
  9
$SKETCHINC
 40
0.1
  9
$FILLETRAD
 40
0.0
  9
$AUNITS
 70
     0
  9
$AUPREC
 70
     0
  9
$MENU
  1
acad
  9
$ELEVATION
 40
0.0
  9
$PELEVATION
 40
0.0
  9
$THICKNESS
 40
0.0
  9
$LIMCHECK
 70
     0
  9
$CHAMFERA
 40
0.0
  9
$CHAMFERB
 40
0.0
  9
$CHAMFERC
 40
0.0
  9
$CHAMFERD
 40
0.0
  9
$SKPOLY
 70
     0
  9
$TDCREATE
 40
2305824.133323553
  9
$TDUCREATE
 40
2305824.091656887
  9
$TDUPDATE
 40
2458501.626445139
  9
$TDUUPDATE
 40
2458501.584778472
  9
$TDINDWG
 40
0.0123447685
  9
$TDUSRTIMER
 40
0.0123447338
  9
$USRTIMER
 70
     1
  9
$ANGBASE
 50
0.0
  9
$ANGDIR
 70
     0
  9
$PDMODE
 70
     0
  9
$PDSIZE
 40
0.0
  9
$PLINEWID
 40
0.0
  9
$SPLFRAME
 70
     0
  9
$SPLINETYPE
 70
     6
  9
$SPLINESEGS
 70
     8
  9
$HANDSEED
  5
DB3
  9
$SURFTAB1
 70
     6
  9
$SURFTAB2
 70
     6
  9
$SURFTYPE
 70
     6
  9
$SURFU
 70
     6
  9
$SURFV
 70
     6
  9
$UCSBASE
  2

  9
$UCSNAME
  2

  9
$UCSORG
 10
0.0
 20
0.0
 30
0.0
  9
$UCSXDIR
 10
1.0
 20
0.0
 30
0.0
  9
$UCSYDIR
 10
0.0
 20
1.0
 30
0.0
  9
$UCSORTHOREF
  2

  9
$UCSORTHOVIEW
 70
     0
  9
$UCSORGTOP
 10
0.0
 20
0.0
 30
0.0
  9
$UCSORGBOTTOM
 10
0.0
 20
0.0
 30
0.0
  9
$UCSORGLEFT
 10
0.0
 20
0.0
 30
0.0
  9
$UCSORGRIGHT
 10
0.0
 20
0.0
 30
0.0
  9
$UCSORGFRONT
 10
0.0
 20
0.0
 30
0.0
  9
$UCSORGBACK
 10
0.0
 20
0.0
 30
0.0
  9
$PUCSBASE
  2

  9
$PUCSNAME
  2

  9
$PUCSORG
 10
0.0
 20
0.0
 30
0.0
  9
$PUCSXDIR
 10
1.0
 20
0.0
 30
0.0
  9
$PUCSYDIR
 10
0.0
 20
1.0
 30
0.0
  9
$PUCSORTHOREF
  2

  9
$PUCSORTHOVIEW
 70
     0
  9
$PUCSORGTOP
 10
0.0
 20
0.0
 30
0.0
  9
$PUCSORGBOTTOM
 10
0.0
 20
0.0
 30
0.0
  9
$PUCSORGLEFT
 10
0.0
 20
0.0
 30
0.0
  9
$PUCSORGRIGHT
 10
0.0
 20
0.0
 30
0.0
  9
$PUCSORGFRONT
 10
0.0
 20
0.0
 30
0.0
  9
$PUCSORGBACK
 10
0.0
 20
0.0
 30
0.0
  9
$USERI1
 70
     0
  9
$USERI2
 70
     0
  9
$USERI3
 70
     0
  9
$USERI4
 70
     0
  9
$USERI5
 70
     0
  9
$USERR1
 40
0.0
  9
$USERR2
 40
0.0
  9
$USERR3
 40
0.0
  9
$USERR4
 40
0.0
  9
$USERR5
 40
0.0
  9
$WORLDVIEW
 70
     1
  9
$SHADEDGE
 70
     3
  9
$SHADEDIF
 70
    70
  9
$TILEMODE
 70
     1
  9
$MAXACTVP
 70
    16
  9
$PINSBASE
 10
0.0
 20
0.0
 30
0.0
  9
$PLIMCHECK
 70
     0
  9
$PEXTMIN
 10
1.000000000000000E+20
 20
1.000000000000000E+20
 30
1.000000000000000E+20
  9
$PEXTMAX
 10
-1.000000000000000E+20
 20
-1.000000000000000E+20
 30
-1.000000000000000E+20
  9
$PLIMMIN
 10
0.0
 20
0.0
  9
$PLIMMAX
 10
12.0
 20
9.0
  9
$UNITMODE
 70
     0
  9
$VISRETAIN
 70
     0
  9
$PLINEGEN
 70
     1
  9
$PSLTSCALE
 70
     0
  9
$TREEDEPTH
 70
  3020
  9
$CMLSTYLE
  2
STANDARD
  9
$CMLJUST
 70
     0
  9
$CMLSCALE
 40
1.0
  9
$PROXYGRAPHICS
 70
     1
  9
$MEASUREMENT
 70
     0
  9
$CELWEIGHT
370
    -1
  9
$ENDCAPS
280
     0
  9
$JOINSTYLE
280
     0
  9
$LWDISPLAY
290
     0
  9
$INSUNITS
 70
     0
  9
$HYPERLINKBASE
  1

  9
$STYLESHEET
  1

  9
$XEDIT
290
     1
  9
$CEPSNTYPE
380
     0
  9
$PSTYLEMODE
290
     1
  9
$FINGERPRINTGUID
  2
{5243222F-CC4B-4302-8C19-076DE45F7F99}
  9
$VERSIONGUID
  2
{FDBF4155-039D-4177-AAA3-4E7097D74B1B}
  9
$EXTNAMES
290
     1
  9
$PSVPSCALE
 40
0.0
  9
$OLESTARTUP
290
     0
  9
$SORTENTS
280
   127
  9
$INDEXCTL
280
     0
  9
$HIDETEXT
280
     0
  9
$XCLIPFRAME
280
     2
  9
$HALOGAP
280
     0
  9
$OBSCOLOR
 70
   257
  9
$OBSLTYPE
280
     0
  9
$INTERSECTIONDISPLAY
280
     0
  9
$INTERSECTIONCOLOR
 70
   257
  9
$DIMASSOC
280
     1
  9
$PROJECTNAME
  1

  9
$CAMERADISPLAY
290
     0
  9
$LENSLENGTH
 40
50.0
  9
$CAMERAHEIGHT
 40
0.0
  9
$STEPSPERSEC
 40
2.0
  9
$STEPSIZE
 40
6.0
  9
$3DDWFPREC
 40
2.0
  9
$PSOLWIDTH
 40
0.25
  9
$PSOLHEIGHT
 40
4.0
  9
$LOFTANG1
 40
1.570796326794896
  9
$LOFTANG2
 40
1.570796326794896
  9
$LOFTMAG1
 40
0.0
  9
$LOFTMAG2
 40
0.0
  9
$LOFTPARAM
 70
     7
  9
$LOFTNORMALS
280
     1
  9
$LATITUDE
 40
37.795
  9
$LONGITUDE
 40
-122.394
  9
$NORTHDIRECTION
 40
0.0
  9
$TIMEZONE
 70
 -8000
  9
$LIGHTGLYPHDISPLAY
280
     1
  9
$TILEMODELIGHTSYNCH
280
     1
  9
$CMATERIAL
347
31A
  9
$SOLIDHIST
280
     0
  9
$SHOWHIST
280
     1
  9
$DWFFRAME
280
     2
  9
$DGNFRAME
280
     0
  9
$REALWORLDSCALE
290
     1
  9
$INTERFERECOLOR
 62
     1
  9
$INTERFEREOBJVS
345
33C
  9
$INTERFEREVPVS
346
339
  9
$CSHADOW
280
     0
  9
$SHADOWPLANELOCATION
 40
0.0
  0
ENDSEC
  0
SECTION
  2
CLASSES
  0
CLASS
  1
IMAGE
  2
AcDbRasterImage
  3
ISM
 90
     2175
 91
        0
280
     0
281
     1
  0
CLASS
  1
DICTIONARYVAR
  2
AcDbDictionaryVar
  3
ObjectDBX Classes
 90
        0
 91
        9
280
     0
281
     0
  0
CLASS
  1
RASTERVARIABLES
  2
AcDbRasterVariables
  3
ISM
 90
        0
 91
        0
280
     0
281
     0
  0
CLASS
  1
IMAGEDEF
  2
AcDbRasterImageDef
  3
ISM
 90
        0
 91
        0
280
     0
281
     0
  0
CLASS
  1
IMAGEDEF_REACTOR
  2
AcDbRasterImageDefReactor
  3
ISM
 90
        1
 91
        0
280
     0
281
     0
  0
CLASS
  1
IDBUFFER
  2
AcDbIdBuffer
  3
ObjectDBX Classes
 90
        0
 91
        0
280
     0
281
     0
  0
CLASS
  1
SPATIAL_FILTER
  2
AcDbSpatialFilter
  3
ObjectDBX Classes
 90
        0
 91
        0
280
     0
281
     0
  0
CLASS
  1
SORTENTSTABLE
  2
AcDbSortentsTable
  3
ObjectDBX Classes
 90
        0
 91
        0
280
     0
281
     0
  0
CLASS
  1
LAYER_INDEX
  2
AcDbLayerIndex
  3
ObjectDBX Classes
 90
        0
 91
        0
280
     0
281
     0
  0
CLASS
  1
SPATIAL_INDEX
  2
AcDbSpatialIndex
  3
ObjectDBX Classes
 90
        0
 91
        0
280
     0
281
     0
  0
CLASS
  1
OBJECT_PTR
  2
CAseDLPNTableRecord
  3
"ASE-LPNTableRecord"
 90
        0
 91
        0
280
     0
281
     0
  0
CLASS
  1
PLOTSETTINGS
  2
AcDbPlotSettings
  3
ObjectDBX Classes
 90
        0
 91
        0
280
     0
281
     0
  0
CLASS
  1
ACDBDICTIONARYWDFLT
  2
AcDbDictionaryWithDefault
  3
ObjectDBX Classes
 90
        0
 91
        1
280
     0
281
     0
  0
CLASS
  1
WIPEOUT
  2
AcDbWipeout
  3
WipeOut|Product Desc: Object Enabler for WipeOut entity | Company: Autodesk, Inc. | WEB Address: www.autodesk.com
 90
     2175
 91
        0
280
     0
281
     1
  0
CLASS
  1
WIPEOUTVARIABLES
  2
AcDbWipeoutVariables
  3
"WipeOut|Product Desc:     WipeOut Dbx Application|Company:          Autodesk, Inc.|WEB Address:      www.autodesk.com"
 90
        0
 91
        0
280
     0
281
     0
  0
CLASS
  1
RTEXT
  2
RText
  3
RText|AutoCAD Express Tool|expresstools@autodesk.com
 90
        0
 91
        0
280
     0
281
     1
  0
CLASS
  1
ARCALIGNEDTEXT
  2
AcDbArcAlignedText
  3
ATEXT|AutoCAD Express Tool|expresstools@autodesk.com
 90
        0
 91
        0
280
     0
281
     1
  0
CLASS
  1
MATERIAL
  2
AcDbMaterial
  3
ObjectDBX Classes
 90
     1153
 91
        3
280
     0
281
     0
  0
CLASS
  1
VISUALSTYLE
  2
AcDbVisualStyle
  3
ObjectDBX Classes
 90
     4095
 91
       24
280
     0
281
     0
  0
CLASS
  1
TABLESTYLE
  2
AcDbTableStyle
  3
ObjectDBX Classes
 90
     4095
 91
        1
280
     0
281
     0
  0
CLASS
  1
SCALE
  2
AcDbScale
  3
ObjectDBX Classes
 90
     1153
 91
       17
280
     0
281
     0
  0
CLASS
  1
MLEADERSTYLE
  2
AcDbMLeaderStyle
  3
ACDB_MLEADERSTYLE_CLASS
 90
     4095
 91
        1
280
     0
281
     0
  0
CLASS
  1
ACDBSECTIONVIEWSTYLE
  2
AcDbSectionViewStyle
  3
ObjectDBX Classes
 90
     1025
 91
        1
280
     0
281
     0
  0
CLASS
  1
ACDBDETAILVIEWSTYLE
  2
AcDbDetailViewStyle
  3
ObjectDBX Classes
 90
     1025
 91
        1
280
     0
281
     0
  0
CLASS
  1
CELLSTYLEMAP
  2
AcDbCellStyleMap
  3
ObjectDBX Classes
 90
     1152
 91
       10
280
     0
281
     0
  0
ENDSEC
  0
SECTION
  2
TABLES
  0
TABLE
  2
VPORT
  5
7
330
0
100
AcDbSymbolTable
 70
     1
  0
VPORT
  5
15
330
7
100
AcDbSymbolTableRecord
100
AcDbViewportTableRecord
  2
*ACTIVE
 70
     0
 10
0.0
 20
0.0
 11
1.0
 21
1.0
 12
-1017.882497724932
 22
-2279.718604256001
 13
0.0
 23
0.0
 14
1.0
 24
1.0
 15
0.0
 25
0.0
 16
0.0
 26
0.0
 36
1.0
 17
0.0
 27
0.0
 37
0.0
 40
2436.126290176194
 41
2.282336578581363
 42
50.0
 43
0.0
 44
0.0
 50
0.0
 51
0.0
 71
     0
 72
   100
 73
     1
 74
     1
 75
     0
 76
     0
 77
     0
 78
     0
281
     0
 65
     1
110
0.0
120
0.0
130
0.0
111
1.0
121
0.0
131
0.0
112
0.0
122
1.0
132
0.0
 79
     0
146
0.0
348
338
 60
     3
 61
     5
292
     1
282
     1
141
0.0
142
0.0
 63
   250
421
  3355443
1001
ACAD_NAV_VCDISPLAY
1070
     3
  0
ENDTAB
  0
TABLE
  2
LTYPE
  5
4
330
0
100
AcDbSymbolTable
 70
     2
  0
LTYPE
  5
11
330
4
100
AcDbSymbolTableRecord
100
AcDbLinetypeTableRecord
  2
BYBLOCK
 70
     0
  3

 72
    65
 73
     0
 40
0.0
  0
LTYPE
  5
12
330
4
100
AcDbSymbolTableRecord
100
AcDbLinetypeTableRecord
  2
BYLAYER
 70
     0
  3

 72
    65
 73
     0
 40
0.0
  0
LTYPE
  5
13
330
4
100
AcDbSymbolTableRecord
100
AcDbLinetypeTableRecord
  2
CONTINUOUS
 70
     0
  3
Solid line
 72
    65
 73
     0
 40
0.0
  0
LTYPE
  5
1E
330
4
100
AcDbSymbolTableRecord
100
AcDbLinetypeTableRecord
  2
STANDARD
 70
     0
  3

 72
    65
 73
     0
 40
0.0
  0
ENDTAB
  0
TABLE
  2
LAYER
  5
2
102
{ACAD_XDICTIONARY
360
372
102
}
330
0
100
AcDbSymbolTable
 70
     4
  0
LAYER
  5
14
102
{ACAD_XDICTIONARY
360
65A
102
}
330
2
100
AcDbSymbolTableRecord
100
AcDbLayerTableRecord
  2
0
 70
     0
 62
     7
  6
CONTINUOUS
370
    -3
390
318
347
32A
  0
LAYER
  5
1D
102
{ACAD_XDICTIONARY
360
65C
102
}
330
2
100
AcDbSymbolTableRecord
100
AcDbLayerTableRecord
  2
BEMA_UNG
 70
     0
 62
   171
  6
CONTINUOUS
370
    -3
390
318
347
32A
  0
LAYER
  5
36D
102
{ACAD_XDICTIONARY
360
65E
102
}
330
2
100
AcDbSymbolTableRecord
100
AcDbLayerTableRecord
  2
HEWI
 70
     0
 62
     7
  6
CONTINUOUS
370
     9
390
318
347
32A
1001
AcAecLayerStandard
1000

1000

1001
AcCmTransparency
1071
        0
  0
LAYER
  5
554
330
2
100
AcDbSymbolTableRecord
100
AcDbLayerTableRecord
  2
Defpoints
 70
     0
 62
     7
  6
CONTINUOUS
290
     0
370
    -3
390
318
347
32A
  0
ENDTAB
  0
TABLE
  2
STYLE
  5
3
330
0
100
AcDbSymbolTable
 70
     1
  0
STYLE
  5
17
330
3
100
AcDbSymbolTableRecord
100
AcDbTextStyleTableRecord
  2
STANDARD
 70
     0
 40
0.0
 41
1.0
 50
0.0
 71
     0
 42
0.0
  3
txt
  4

  0
ENDTAB
  0
TABLE
  2
VIEW
  5
5
330
0
100
AcDbSymbolTable
 70
     3
  0
ENDTAB
  0
TABLE
  2
UCS
  5
6
330
0
100
AcDbSymbolTable
 70
     0
  0
ENDTAB
  0
TABLE
  2
APPID
  5
8
330
0
100
AcDbSymbolTable
 70
     8
  0
APPID
  5
16
330
8
100
AcDbSymbolTableRecord
100
AcDbRegAppTableRecord
  2
ACAD
 70
     0
  0
APPID
  5
36E
330
8
100
AcDbSymbolTableRecord
100
AcDbRegAppTableRecord
  2
ACAD_NAV_VCDISPLAY
 70
     0
  0
APPID
  5
36F
330
8
100
AcDbSymbolTableRecord
100
AcDbRegAppTableRecord
  2
AcAecLayerStandard
 70
     0
  0
APPID
  5
370
330
8
100
AcDbSymbolTableRecord
100
AcDbRegAppTableRecord
  2
AcCmTransparency
 70
     0
  0
APPID
  5
371
330
8
100
AcDbSymbolTableRecord
100
AcDbRegAppTableRecord
  2
ACAD_PSEXT
 70
     0
  0
APPID
  5
484
330
8
100
AcDbSymbolTableRecord
100
AcDbRegAppTableRecord
  2
ACAD_EXEMPT_FROM_CAD_STANDARDS
 70
     0
  0
APPID
  5
781
330
8
100
AcDbSymbolTableRecord
100
AcDbRegAppTableRecord
  2
GradientColor1ACI
 70
     0
  0
APPID
  5
782
330
8
100
AcDbSymbolTableRecord
100
AcDbRegAppTableRecord
  2
GradientColor2ACI
 70
     0
  0
ENDTAB
  0
TABLE
  2
DIMSTYLE
  5
9
330
0
100
AcDbSymbolTable
 70
     1
100
AcDbDimStyleTable
 71
     1
340
18
  0
DIMSTYLE
105
18
330
9
100
AcDbSymbolTableRecord
100
AcDbDimStyleTableRecord
  2
STANDARD
 70
     0
340
17
  0
ENDTAB
  0
TABLE
  2
BLOCK_RECORD
  5
1
330
0
100
AcDbSymbolTable
 70
     6
  0
BLOCK_RECORD
  5
A
330
1
100
AcDbSymbolTableRecord
100
AcDbBlockTableRecord
  2
*MODEL_SPACE
340
368
 70
     0
280
     1
281
     0
  0
BLOCK_RECORD
  5
B
330
1
100
AcDbSymbolTableRecord
100
AcDbBlockTableRecord
  2
*PAPER_SPACE
340
369
 70
     0
280
     1
281
     0
  0
BLOCK_RECORD
  5
555
330
1
100
AcDbSymbolTableRecord
100
AcDbBlockTableRecord
  2
*D0
340
0
 70
     0
280
     1
281
     0
  0
BLOCK_RECORD
  5
98E
330
1
100
AcDbSymbolTableRecord
100
AcDbBlockTableRecord
  2
*D1
340
0
 70
     0
280
     1
281
     0
  0
BLOCK_RECORD
  5
A6E
330
1
100
AcDbSymbolTableRecord
100
AcDbBlockTableRecord
  2
*D2
340
0
 70
     0
280
     1
281
     0
  0
BLOCK_RECORD
  5
A7C
330
1
100
AcDbSymbolTableRecord
100
AcDbBlockTableRecord
  2
*D3
340
0
 70
     0
280
     1
281
     0
  0
BLOCK_RECORD
  5
C1D
330
1
100
AcDbSymbolTableRecord
100
AcDbBlockTableRecord
  2
*D4
340
0
 70
     0
280
     1
281
     0
  0
BLOCK_RECORD
  5
CC8
330
1
100
AcDbSymbolTableRecord
100
AcDbBlockTableRecord
  2
*D5
340
0
 70
     0
280
     1
281
     0
  0
ENDTAB
  0
ENDSEC
  0
SECTION
  2
BLOCKS
  0
BLOCK
  5
D
330
A
100
AcDbEntity
  8
0
100
AcDbBlockBegin
  2
*MODEL_SPACE
 70
     0
 10
0.0
 20
0.0
 30
0.0
  3
*MODEL_SPACE
  1

  0
ENDBLK
  5
E
330
A
100
AcDbEntity
  8
0
100
AcDbBlockEnd
  0
BLOCK
  5
F
330
B
100
AcDbEntity
 67
     1
  8
0
100
AcDbBlockBegin
  2
*PAPER_SPACE
 70
     0
 10
0.0
 20
0.0
 30
0.0
  3
*PAPER_SPACE
  1

  0
ENDBLK
  5
10
330
B
100
AcDbEntity
 67
     1
  8
0
100
AcDbBlockEnd
  0
BLOCK
  5
556
330
555
100
AcDbEntity
  8
0
100
AcDbBlockBegin
  2
*D0
 70
     1
 10
0.0
 20
0.0
 30
0.0
  3
*D0
  1

  0
LINE
  5
558
330
555
100
AcDbEntity
  8
0
  6
Continuous
 62
     0
440
 16777216
370
    -2
100
AcDbLine
 10
-1571.884155084999
 20
-1674.538160844551
 30
0.0
 11
-1571.884155084999
 21
-1948.499022356918
 31
0.0
  0
LINE
  5
559
330
555
100
AcDbEntity
  8
0
  6
Continuous
 62
     0
440
 16777216
370
    -2
100
AcDbLine
 10
-871.8841930849997
 20
-1674.538160844551
 30
0.0
 11
-871.8841930849997
 21
-1948.499022356918
 31
0.0
  0
LINE
  5
55A
330
555
100
AcDbEntity
  8
0
  6
Continuous
 62
     0
440
 16777216
370
    -2
100
AcDbLine
 10
-1571.704155084999
 20
-1948.319022356918
 30
0.0
 11
-1222.514174084999
 21
-1948.319022356918
 31
0.0
  0
LINE
  5
55B
330
555
100
AcDbEntity
  8
0
  6
Continuous
 62
     0
440
 16777216
370
    -2
100
AcDbLine
 10
-872.0641930849996
 20
-1948.319022356918
 30
0.0
 11
-1221.254174084999
 21
-1948.319022356918
 31
0.0
  0
SOLID
  5
55C
330
555
100
AcDbEntity
  8
0
  6
Continuous
 62
     0
440
 16777216
100
AcDbTrace
 10
-1571.704155084999
 20
-1948.289022356918
 30
0.0
 11
-1571.704155084999
 21
-1948.349022356918
 31
0.0
 12
-1571.884155084999
 22
-1948.319022356918
 32
0.0
 13
-1571.884155084999
 23
-1948.319022356918
 33
0.0
  0
SOLID
  5
55D
330
555
100
AcDbEntity
  8
0
  6
Continuous
 62
     0
440
 16777216
100
AcDbTrace
 10
-872.0641930849996
 20
-1948.289022356918
 30
0.0
 11
-872.0641930849996
 21
-1948.349022356918
 31
0.0
 12
-871.8841930849997
 22
-1948.319022356918
 32
0.0
 13
-871.8841930849997
 23
-1948.319022356918
 33
0.0
  0
MTEXT
  5
55E
330
555
100
AcDbEntity
  8
0
  6
Continuous
 62
     0
440
 16777216
100
AcDbMText
 10
-1221.884174084999
 20
-1948.319022356918
 30
0.0
 40
0.18
 41
0.0
 46
0.0
 71
     5
 72
     1
  1
\A1;700.0000
 73
     1
 44
1.0
  0
POINT
  5
55F
330
555
100
AcDbEntity
  8
Defpoints
  6
Continuous
 62
     0
440
 16777216
100
AcDbPoint
 10
-1571.884155084999
 20
-1674.475660844551
 30
0.0
  0
POINT
  5
560
330
555
100
AcDbEntity
  8
Defpoints
  6
Continuous
 62
     0
440
 16777216
100
AcDbPoint
 10
-871.8841930849997
 20
-1674.475660844551
 30
0.0
  0
POINT
  5
561
330
555
100
AcDbEntity
  8
Defpoints
  6
Continuous
 62
     0
440
 16777216
100
AcDbPoint
 10
-871.8841930849997
 20
-1948.319022356918
 30
0.0
  0
ENDBLK
  5
557
330
555
100
AcDbEntity
  8
0
100
AcDbBlockEnd
  0
BLOCK
  5
98F
330
98E
100
AcDbEntity
  8
0
100
AcDbBlockBegin
  2
*D1
 70
     1
 10
0.0
 20
0.0
 30
0.0
  3
*D1
  1

  0
LINE
  5
991
330
98E
100
AcDbEntity
  8
0
  6
Continuous
 62
     0
440
 16777216
370
    -2
100
AcDbLine
 10
-671.8841930849996
 20
-1685.2228015
 30
0.0
 11
-671.8841930849996
 21
-1441.684931733702
 31
0.0
  0
LINE
  5
992
330
98E
100
AcDbEntity
  8
0
  6
Continuous
 62
     0
440
 16777216
370
    -2
100
AcDbLine
 10
-1571.884155084999
 20
-1685.2228015
 30
0.0
 11
-1571.884155084999
 21
-1441.684931733702
 31
0.0
  0
LINE
  5
993
330
98E
100
AcDbEntity
  8
0
  6
Continuous
 62
     0
440
 16777216
370
    -2
100
AcDbLine
 10
-672.0641930849994
 20
-1441.864931733702
 30
0.0
 11
-1121.254174084999
 21
-1441.864931733702
 31
0.0
  0
LINE
  5
994
330
98E
100
AcDbEntity
  8
0
  6
Continuous
 62
     0
440
 16777216
370
    -2
100
AcDbLine
 10
-1571.704155084999
 20
-1441.864931733702
 30
0.0
 11
-1122.514174084999
 21
-1441.864931733702
 31
0.0
  0
SOLID
  5
995
330
98E
100
AcDbEntity
  8
0
  6
Continuous
 62
     0
440
 16777216
100
AcDbTrace
 10
-672.0641930849994
 20
-1441.834931733702
 30
0.0
 11
-672.0641930849994
 21
-1441.894931733702
 31
0.0
 12
-671.8841930849996
 22
-1441.864931733702
 32
0.0
 13
-671.8841930849996
 23
-1441.864931733702
 33
0.0
  0
SOLID
  5
996
330
98E
100
AcDbEntity
  8
0
  6
Continuous
 62
     0
440
 16777216
100
AcDbTrace
 10
-1571.704155084999
 20
-1441.834931733702
 30
0.0
 11
-1571.704155084999
 21
-1441.894931733702
 31
0.0
 12
-1571.884155084999
 22
-1441.864931733702
 32
0.0
 13
-1571.884155084999
 23
-1441.864931733702
 33
0.0
  0
MTEXT
  5
997
330
98E
100
AcDbEntity
  8
0
  6
Continuous
 62
     0
440
 16777216
100
AcDbMText
 10
-1121.884174084999
 20
-1441.864931733702
 30
0.0
 40
0.18
 41
0.0
 46
0.0
 71
     5
 72
     1
  1
\A1;900.0000
 73
     1
 44
1.0
  0
POINT
  5
998
330
98E
100
AcDbEntity
  8
Defpoints
  6
Continuous
 62
     0
440
 16777216
100
AcDbPoint
 10
-671.8841930849996
 20
-1685.2853015
 30
0.0
  0
POINT
  5
999
330
98E
100
AcDbEntity
  8
Defpoints
  6
Continuous
 62
     0
440
 16777216
100
AcDbPoint
 10
-1571.884155084999
 20
-1685.2853015
 30
0.0
  0
POINT
  5
99A
330
98E
100
AcDbEntity
  8
Defpoints
  6
Continuous
 62
     0
440
 16777216
100
AcDbPoint
 10
-1571.884155084999
 20
-1441.864931733702
 30
0.0
  0
ENDBLK
  5
990
330
98E
100
AcDbEntity
  8
0
100
AcDbBlockEnd
  0
BLOCK
  5
A6F
330
A6E
100
AcDbEntity
  8
0
100
AcDbBlockBegin
  2
*D2
 70
     1
 10
0.0
 20
0.0
 30
0.0
  3
*D2
  1

  0
LINE
  5
A71
330
A6E
100
AcDbEntity
  8
0
  6
Continuous
 62
     0
440
 16777216
370
    -2
100
AcDbLine
 10
-2908.778157915
 20
-1685.222801499997
 30
0.0
 11
-2908.778157915
 21
-1630.55362026492
 31
0.0
  0
LINE
  5
A72
330
A6E
100
AcDbEntity
  8
0
  6
Continuous
 62
     0
440
 16777216
370
    -2
100
AcDbLine
 10
-2058.778195915
 20
-1685.2228015
 30
0.0
 11
-2058.778195915
 21
-1630.55362026492
 31
0.0
  0
LINE
  5
A73
330
A6E
100
AcDbEntity
  8
0
  6
Continuous
 62
     0
440
 16777216
370
    -2
100
AcDbLine
 10
-2908.598157915
 20
-1630.73362026492
 30
0.0
 11
-2484.423176915
 21
-1630.73362026492
 31
0.0
  0
LINE
  5
A74
330
A6E
100
AcDbEntity
  8
0
  6
Continuous
 62
     0
440
 16777216
370
    -2
100
AcDbLine
 10
-2058.958195915
 20
-1630.73362026492
 30
0.0
 11
-2483.133176915
 21
-1630.73362026492
 31
0.0
  0
SOLID
  5
A75
330
A6E
100
AcDbEntity
  8
0
  6
Continuous
 62
     0
440
 16777216
100
AcDbTrace
 10
-2908.598157915
 20
-1630.70362026492
 30
0.0
 11
-2908.598157915
 21
-1630.76362026492
 31
0.0
 12
-2908.778157915
 22
-1630.73362026492
 32
0.0
 13
-2908.778157915
 23
-1630.73362026492
 33
0.0
  0
SOLID
  5
A76
330
A6E
100
AcDbEntity
  8
0
  6
Continuous
 62
     0
440
 16777216
100
AcDbTrace
 10
-2058.958195915
 20
-1630.70362026492
 30
0.0
 11
-2058.958195915
 21
-1630.76362026492
 31
0.0
 12
-2058.778195915
 22
-1630.73362026492
 32
0.0
 13
-2058.778195915
 23
-1630.73362026492
 33
0.0
  0
MTEXT
  5
A77
330
A6E
100
AcDbEntity
  8
0
  6
Continuous
 62
     0
440
 16777216
100
AcDbMText
 10
-2483.778176915
 20
-1630.73362026492
 30
0.0
 40
0.18
 41
0.0
 46
0.0
 71
     5
 72
     1
  1
\A1;850.0000
 73
     1
 44
1.0
  0
POINT
  5
A78
330
A6E
100
AcDbEntity
  8
Defpoints
  6
Continuous
 62
     0
440
 16777216
100
AcDbPoint
 10
-2908.778157915
 20
-1685.285301499998
 30
0.0
  0
POINT
  5
A79
330
A6E
100
AcDbEntity
  8
Defpoints
  6
Continuous
 62
     0
440
 16777216
100
AcDbPoint
 10
-2058.778195915
 20
-1685.285301499999
 30
0.0
  0
POINT
  5
A7A
330
A6E
100
AcDbEntity
  8
Defpoints
  6
Continuous
 62
     0
440
 16777216
100
AcDbPoint
 10
-2058.778195915
 20
-1630.73362026492
 30
0.0
  0
ENDBLK
  5
A70
330
A6E
100
AcDbEntity
  8
0
100
AcDbBlockEnd
  0
BLOCK
  5
A7D
330
A7C
100
AcDbEntity
  8
0
100
AcDbBlockBegin
  2
*D3
 70
     1
 10
0.0
 20
0.0
 30
0.0
  3
*D3
  1

  0
LINE
  5
A7F
330
A7C
100
AcDbEntity
  8
0
  6
Continuous
 62
     0
440
 16777216
370
    -2
100
AcDbLine
 10
-1815.2686755
 20
-2151.908141157238
 30
0.0
 11
-1613.942976005732
 21
-2151.908141157238
 31
0.0
  0
LINE
  5
A80
330
A7C
100
AcDbEntity
  8
0
  6
Continuous
 62
     0
440
 16777216
370
    -2
100
AcDbLine
 10
-1816.940846352067
 20
-3048.908139157238
 30
0.0
 11
-1613.942976005732
 21
-3048.908139157238
 31
0.0
  0
LINE
  5
A81
330
A7C
100
AcDbEntity
  8
0
  6
Continuous
 62
     0
440
 16777216
370
    -2
100
AcDbLine
 10
-1614.122976005732
 20
-2152.088141157238
 30
0.0
 11
-1614.122976005732
 21
-2600.228140157238
 31
0.0
  0
LINE
  5
A82
330
A7C
100
AcDbEntity
  8
0
  6
Continuous
 62
     0
440
 16777216
370
    -2
100
AcDbLine
 10
-1614.122976005732
 20
-3048.728139157239
 30
0.0
 11
-1614.122976005732
 21
-2600.588140157238
 31
0.0
  0
SOLID
  5
A83
330
A7C
100
AcDbEntity
  8
0
  6
Continuous
 62
     0
440
 16777216
100
AcDbTrace
 10
-1614.152976005732
 20
-2152.088141157238
 30
0.0
 11
-1614.092976005732
 21
-2152.088141157238
 31
0.0
 12
-1614.122976005732
 22
-2151.908141157238
 32
0.0
 13
-1614.122976005732
 23
-2151.908141157238
 33
0.0
  0
SOLID
  5
A84
330
A7C
100
AcDbEntity
  8
0
  6
Continuous
 62
     0
440
 16777216
100
AcDbTrace
 10
-1614.152976005732
 20
-3048.728139157239
 30
0.0
 11
-1614.092976005732
 21
-3048.728139157239
 31
0.0
 12
-1614.122976005732
 22
-3048.908139157238
 32
0.0
 13
-1614.122976005732
 23
-3048.908139157238
 33
0.0
  0
MTEXT
  5
A85
330
A7C
100
AcDbEntity
  8
0
  6
Continuous
 62
     0
440
 16777216
100
AcDbMText
 10
-1614.122976005732
 20
-2600.408140157238
 30
0.0
 40
0.18
 41
0.0
 46
0.0
 71
     5
 72
     1
  1
\A1;897.0000
 73
     1
 44
1.0
  0
POINT
  5
A86
330
A7C
100
AcDbEntity
  8
Defpoints
  6
Continuous
 62
     0
440
 16777216
100
AcDbPoint
 10
-1815.3311755
 20
-2151.908141157238
 30
0.0
  0
POINT
  5
A87
330
A7C
100
AcDbEntity
  8
Defpoints
  6
Continuous
 62
     0
440
 16777216
100
AcDbPoint
 10
-1817.003346352067
 20
-3048.908139157238
 30
0.0
  0
POINT
  5
A88
330
A7C
100
AcDbEntity
  8
Defpoints
  6
Continuous
 62
     0
440
 16777216
100
AcDbPoint
 10
-1614.122976005732
 20
-3048.908139157238
 30
0.0
  0
ENDBLK
  5
A7E
330
A7C
100
AcDbEntity
  8
0
100
AcDbBlockEnd
  0
BLOCK
  5
C1E
330
C1D
100
AcDbEntity
  8
0
100
AcDbBlockBegin
  2
*D4
 70
     1
 10
0.0
 20
0.0
 30
0.0
  3
*D4
  1

  0
LINE
  5
C20
330
C1D
100
AcDbEntity
  8
0
  6
Continuous
 62
     0
440
 16777216
370
    -2
100
AcDbLine
 10
-2843.236390511371
 20
-1775.135307999998
 30
0.0
 11
-2837.731485226129
 21
-1775.135307999998
 31
0.0
  0
LINE
  5
C21
330
C1D
100
AcDbEntity
  8
0
  6
Continuous
 62
     0
440
 16777216
370
    -2
100
AcDbLine
 10
-2843.236390511371
 20
-1800.135307999997
 30
0.0
 11
-2837.731485226129
 21
-1800.135307999997
 31
0.0
  0
LINE
  5
C22
330
C1D
100
AcDbEntity
  8
0
  6
Continuous
 62
     0
440
 16777216
370
    -2
100
AcDbLine
 10
-2837.911485226128
 20
-1775.315307999998
 30
0.0
 11
-2837.911485226128
 21
-1787.455307999997
 31
0.0
  0
LINE
  5
C23
330
C1D
100
AcDbEntity
  8
0
  6
Continuous
 62
     0
440
 16777216
370
    -2
100
AcDbLine
 10
-2837.911485226128
 20
-1799.955307999997
 30
0.0
 11
-2837.911485226128
 21
-1787.815307999997
 31
0.0
  0
SOLID
  5
C24
330
C1D
100
AcDbEntity
  8
0
  6
Continuous
 62
     0
440
 16777216
100
AcDbTrace
 10
-2837.941485226128
 20
-1775.315307999998
 30
0.0
 11
-2837.881485226128
 21
-1775.315307999998
 31
0.0
 12
-2837.911485226128
 22
-1775.135307999998
 32
0.0
 13
-2837.911485226128
 23
-1775.135307999998
 33
0.0
  0
SOLID
  5
C25
330
C1D
100
AcDbEntity
  8
0
  6
Continuous
 62
     0
440
 16777216
100
AcDbTrace
 10
-2837.941485226128
 20
-1799.955307999997
 30
0.0
 11
-2837.881485226128
 21
-1799.955307999997
 31
0.0
 12
-2837.911485226128
 22
-1800.135307999997
 32
0.0
 13
-2837.911485226128
 23
-1800.135307999997
 33
0.0
  0
MTEXT
  5
C26
330
C1D
100
AcDbEntity
  8
0
  6
Continuous
 62
     0
440
 16777216
100
AcDbMText
 10
-2837.911485226128
 20
-1787.635307999998
 30
0.0
 40
0.18
 41
0.0
 46
0.0
 71
     5
 72
     1
  1
\A1;25.0000
 73
     1
 44
1.0
  0
POINT
  5
C27
330
C1D
100
AcDbEntity
  8
Defpoints
  6
Continuous
 62
     0
440
 16777216
100
AcDbPoint
 10
-2843.298890511371
 20
-1775.135307999998
 30
0.0
  0
POINT
  5
C28
330
C1D
100
AcDbEntity
  8
Defpoints
  6
Continuous
 62
     0
440
 16777216
100
AcDbPoint
 10
-2843.298890511371
 20
-1800.135307999997
 30
0.0
  0
POINT
  5
C29
330
C1D
100
AcDbEntity
  8
Defpoints
  6
Continuous
 62
     0
440
 16777216
100
AcDbPoint
 10
-2837.911485226128
 20
-1800.135307999997
 30
0.0
  0
ENDBLK
  5
C1F
330
C1D
100
AcDbEntity
  8
0
100
AcDbBlockEnd
  0
BLOCK
  5
CC9
330
CC8
100
AcDbEntity
  8
0
100
AcDbBlockBegin
  2
*D5
 70
     1
 10
0.0
 20
0.0
 30
0.0
  3
*D5
  1

  0
LINE
  5
CCB
330
CC8
100
AcDbEntity
  8
0
  6
Continuous
 62
     0
440
 16777216
370
    -2
100
AcDbLine
 10
-816.5321133915009
 20
-1668.513594688429
 30
0.0
 11
-816.5321133915009
 21
-1382.099939317292
 31
0.0
  0
LINE
  5
CCC
330
CC8
100
AcDbEntity
  8
0
  6
Continuous
 62
     0
440
 16777216
370
    -2
100
AcDbLine
 10
-1571.884155084999
 20
-1668.513594688431
 30
0.0
 11
-1571.884155084999
 21
-1382.099939317292
 31
0.0
  0
LINE
  5
CCD
330
CC8
100
AcDbEntity
  8
0
  6
Continuous
 62
     0
440
 16777216
370
    -2
100
AcDbLine
 10
-816.7121133915008
 20
-1382.279939317293
 30
0.0
 11
-1193.50313423825
 21
-1382.279939317293
 31
0.0
  0
LINE
  5
CCE
330
CC8
100
AcDbEntity
  8
0
  6
Continuous
 62
     0
440
 16777216
370
    -2
100
AcDbLine
 10
-1571.704155084999
 20
-1382.279939317293
 30
0.0
 11
-1194.91313423825
 21
-1382.279939317293
 31
0.0
  0
SOLID
  5
CCF
330
CC8
100
AcDbEntity
  8
0
  6
Continuous
 62
     0
440
 16777216
100
AcDbTrace
 10
-816.7121133915008
 20
-1382.249939317293
 30
0.0
 11
-816.7121133915008
 21
-1382.309939317292
 31
0.0
 12
-816.5321133915009
 22
-1382.279939317293
 32
0.0
 13
-816.5321133915009
 23
-1382.279939317293
 33
0.0
  0
SOLID
  5
CD0
330
CC8
100
AcDbEntity
  8
0
  6
Continuous
 62
     0
440
 16777216
100
AcDbTrace
 10
-1571.704155084999
 20
-1382.249939317293
 30
0.0
 11
-1571.704155084999
 21
-1382.309939317292
 31
0.0
 12
-1571.884155084999
 22
-1382.279939317293
 32
0.0
 13
-1571.884155084999
 23
-1382.279939317293
 33
0.0
  0
MTEXT
  5
CD1
330
CC8
100
AcDbEntity
  8
0
  6
Continuous
 62
     0
440
 16777216
100
AcDbMText
 10
-1194.20813423825
 20
-1382.279939317293
 30
0.0
 40
0.18
 41
0.0
 46
0.0
 71
     5
 72
     1
  1
\A1;755.3520
 73
     1
 44
1.0
  0
POINT
  5
CD2
330
CC8
100
AcDbEntity
  8
Defpoints
  6
Continuous
 62
     0
440
 16777216
100
AcDbPoint
 10
-816.5321133915009
 20
-1668.576094688428
 30
0.0
  0
POINT
  5
CD3
330
CC8
100
AcDbEntity
  8
Defpoints
  6
Continuous
 62
     0
440
 16777216
100
AcDbPoint
 10
-1571.884155084999
 20
-1668.576094688431
 30
0.0
  0
POINT
  5
CD4
330
CC8
100
AcDbEntity
  8
Defpoints
  6
Continuous
 62
     0
440
 16777216
100
AcDbPoint
 10
-1571.884155084999
 20
-1382.279939317293
 30
0.0
  0
ENDBLK
  5
CCA
330
CC8
100
AcDbEntity
  8
0
100
AcDbBlockEnd
  0
ENDSEC
  0
SECTION
  2
ENTITIES
  0
LINE
  5
1F
330
A
100
AcDbEntity
  8
HEWI
  6
STANDARD
 62
     7
100
AcDbLine
 10
-1797.273161499999
 20
-2215.448180157238
 30
0.0
 11
-1792.7871725
 21
-2215.448180157238
 31
0.0
  0
LINE
  5
20
330
A
100
AcDbEntity
  8
HEWI
  6
STANDARD
 62
     7
100
AcDbLine
 10
-1837.7871535
 20
-2215.448180157238
 30
0.0
 11
-1830.9741805
 21
-2215.448180157238
 31
0.0
  0
LINE
  5
21
330
A
100
AcDbEntity
  8
HEWI
  6
STANDARD
 62
     7
100
AcDbLine
 10
-1837.7871535
 20
-2170.448180157238
 30
0.0
 11
-1792.7871725
 21
-2170.448180157238
 31
0.0
  0
LINE
  5
22
330
A
100
AcDbEntity
  8
HEWI
  6
STANDARD
 62
     7
100
AcDbLine
 10
-1830.974180499999
 20
-2848.908139157238
 30
0.0
 11
-1797.2741725
 21
-2848.908139157238
 31
0.0
  0
LINE
  5
23
330
A
100
AcDbEntity
  8
HEWI
  6
STANDARD
 62
     7
100
AcDbLine
 10
-1830.661336352067
 20
-2848.908139157238
 30
0.0
 11
-1817.003346352067
 21
-2848.908139157238
 31
0.0
  0
LINE
  5
24
330
A
100
AcDbEntity
  8
HEWI
  6
STANDARD
 62
     7
100
AcDbLine
 10
-1852.8311755
 20
-2167.108183157238
 30
0.0
 11
-1777.8311755
 21
-2167.108183157238
 31
0.0
  0
LINE
  5
25
330
A
100
AcDbEntity
  8
HEWI
  6
STANDARD
 62
     7
100
AcDbLine
 10
-1830.675336352067
 20
-2851.908141157239
 30
0.0
 11
-1797.575341352067
 21
-2851.908141157239
 31
0.0
  0
LINE
  5
27
330
A
100
AcDbEntity
  8
HEWI
  6
STANDARD
 62
     7
100
AcDbLine
 10
-1852.8311755
 20
-2151.908141157238
 30
0.0
 11
-1777.8311755
 21
-2151.908141157238
 31
0.0
  0
LINE
  5
28
330
A
100
AcDbEntity
  8
HEWI
  6
STANDARD
 62
     7
100
AcDbLine
 10
-1837.7871535
 20
-2215.448180157238
 30
0.0
 11
-1837.7871535
 21
-2170.448180157238
 31
0.0
  0
LINE
  5
29
330
A
100
AcDbEntity
  8
HEWI
  6
STANDARD
 62
     7
100
AcDbLine
 10
-1792.7871725
 20
-2215.448180157238
 30
0.0
 11
-1792.7871725
 21
-2170.448180157238
 31
0.0
  0
LINE
  5
2A
330
A
100
AcDbEntity
  8
HEWI
  6
STANDARD
 62
     7
100
AcDbLine
 10
-1830.974180499999
 20
-2848.908139157238
 30
0.0
 11
-1830.9741805
 21
-2215.448180157238
 31
0.0
  0
LINE
  5
2B
330
A
100
AcDbEntity
  8
HEWI
  6
STANDARD
 62
     7
100
AcDbLine
 10
-1797.2741725
 20
-2848.908139157238
 30
0.0
 11
-1797.2741725
 21
-2215.447111157237
 31
0.0
  0
LINE
  5
2C
330
A
100
AcDbEntity
  8
HEWI
  6
STANDARD
 62
     7
100
AcDbLine
 10
-1852.8311755
 20
-2167.108183157238
 30
0.0
 11
-1852.8311755
 21
-2151.908141157238
 31
0.0
  0
LINE
  5
2D
330
A
100
AcDbEntity
  8
HEWI
  6
STANDARD
 62
     7
100
AcDbLine
 10
-1838.3311675
 20
-2215.408125157237
 30
0.0
 11
-1838.3311675
 21
-2167.108183157238
 31
0.0
  0
LINE
  5
2E
330
A
100
AcDbEntity
  8
HEWI
  6
STANDARD
 62
     7
100
AcDbLine
 10
-1777.8311755
 20
-2213.904143157238
 30
0.0
 11
-1777.8311755
 21
-2151.908141157238
 31
0.0
  0
LINE
  5
2F
330
A
100
AcDbEntity
  8
HEWI
  6
STANDARD
 62
     7
100
AcDbLine
 10
-1792.3311645
 20
-2215.408125157237
 30
0.0
 11
-1792.3311645
 21
-2167.108183157238
 31
0.0
  0
LINE
  5
30
330
A
100
AcDbEntity
  8
HEWI
  6
STANDARD
 62
     7
100
AcDbLine
 10
-1827.2731615
 20
-2170.448180157238
 30
0.0
 11
-1827.2731615
 21
-2168.108168157238
 31
0.0
  0
LINE
  5
31
330
A
100
AcDbEntity
  8
HEWI
  6
STANDARD
 62
     7
100
AcDbLine
 10
-1802.7731535
 20
-2170.448180157238
 30
0.0
 11
-1802.7731535
 21
-2168.108168157238
 31
0.0
  0
LINE
  5
32
330
A
100
AcDbEntity
  8
HEWI
  6
STANDARD
 62
     7
100
AcDbLine
 10
-1829.0561515
 20
-2214.091139157238
 30
0.0
 11
-1828.7161855
 21
-2213.751173157238
 31
0.0
  0
LINE
  5
33
330
A
100
AcDbEntity
  8
HEWI
  6
STANDARD
 62
     7
100
AcDbLine
 10
-1830.4541615
 20
-2215.106154157238
 30
0.0
 11
-1829.9571825
 21
-2214.609175157238
 31
0.0
  0
LINE
  5
34
330
A
100
AcDbEntity
  8
HEWI
  6
STANDARD
 62
     7
100
AcDbLine
 10
-1778.4091595
 20
-2215.079146157238
 30
0.0
 11
-1778.1481575
 21
-2214.818144157238
 31
0.0
  0
LINE
  5
35
330
A
100
AcDbEntity
  8
HEWI
  6
STANDARD
 62
     7
100
AcDbLine
 10
-1830.861340352067
 20
-2849.108143157238
 30
0.0
 11
-1830.661336352067
 21
-2848.908139157238
 31
0.0
  0
LINE
  5
36
330
A
100
AcDbEntity
  8
HEWI
  6
STANDARD
 62
     7
100
AcDbLine
 10
-1797.575341352067
 20
-2851.908141157239
 30
0.0
 11
-1797.375337352067
 21
-2851.708136157239
 31
0.0
  0
LINE
  5
37
330
A
100
AcDbEntity
  8
HEWI
  6
STANDARD
 62
     7
100
AcDbLine
 10
-1797.588330352067
 20
-2848.908139157238
 30
0.0
 11
-1797.388345352067
 21
-2849.108143157238
 31
0.0
  0
LINE
  5
38
330
A
100
AcDbEntity
  8
HEWI
  6
STANDARD
 62
     7
100
AcDbLine
 10
-1797.5291655
 20
-2215.192137157238
 30
0.0
 11
-1797.273161499999
 21
-2215.448180157238
 31
0.0
  0
LINE
  5
39
330
A
100
AcDbEntity
  8
HEWI
  6
STANDARD
 62
     7
100
AcDbLine
 10
-1852.6201845
 20
-2166.722136157238
 30
0.0
 11
-1852.5331715
 21
-2166.809187157238
 31
0.0
  0
LINE
  5
3A
330
A
100
AcDbEntity
  8
HEWI
  6
STANDARD
 62
     7
100
AcDbLine
 10
-1778.2161735
 20
-2166.896162157238
 30
0.0
 11
-1778.1291605
 21
-2166.809187157238
 31
0.0
  0
LINE
  5
3B
330
A
100
AcDbEntity
  8
HEWI
  6
STANDARD
 62
     7
100
AcDbLine
 10
-1852.6201845
 20
-2166.722136157238
 30
0.0
 11
-1852.5381685
 21
-2166.815138157238
 31
0.0
  0
LINE
  5
3C
330
A
100
AcDbEntity
  8
HEWI
  6
STANDARD
 62
     7
100
AcDbLine
 10
-1778.2161735
 20
-2166.896162157238
 30
0.0
 11
-1778.1241635
 21
-2166.815138157238
 31
0.0
  0
LINE
  5
3D
330
A
100
AcDbEntity
  8
HEWI
  6
STANDARD
 62
     7
100
AcDbLine
 10
-1778.1715995
 20
-2166.851607157238
 30
0.0
 11
-1778.1241635
 21
-2166.815138157238
 31
0.0
  0
LINE
  5
3E
330
A
100
AcDbEntity
  8
HEWI
  6
STANDARD
 62
     7
100
AcDbLine
 10
-1852.5745985
 20
-2166.767683157238
 30
0.0
 11
-1852.5381685
 21
-2166.815138157238
 31
0.0
  0
LINE
  5
3F
330
A
100
AcDbEntity
  8
HEWI
  6
STANDARD
 62
     7
100
AcDbLine
 10
-1826.6121505
 20
-2212.434187157238
 30
0.0
 11
-1824.9541685
 21
-2211.273146157238
 31
0.0
  0
LINE
  5
40
330
A
100
AcDbEntity
  8
HEWI
  6
STANDARD
 62
     7
100
AcDbLine
 10
-1822.7341675
 20
-2210.184126157238
 30
0.0
 11
-1822.5481635
 21
-2210.054121157238
 31
0.0
  0
LINE
  5
41
330
A
100
AcDbEntity
  8
HEWI
  6
STANDARD
 62
     7
100
AcDbLine
 10
-1778.3311675
 20
-2166.974135157238
 30
0.0
 11
-1778.2161735
 21
-2166.896162157238
 31
0.0
  0
LINE
  5
42
330
A
100
AcDbEntity
  8
HEWI
  6
STANDARD
 62
     7
100
AcDbLine
 10
-1852.6971655
 20
-2166.608153157238
 30
0.0
 11
-1852.6201845
 21
-2166.722136157238
 31
0.0
  0
LINE
  5
43
330
A
100
AcDbEntity
  8
HEWI
  6
STANDARD
 62
     7
100
AcDbLine
 10
-1828.7161855
 20
-2213.751173157238
 30
0.0
 11
-1827.0311575
 21
-2212.629195157238
 31
0.0
  0
LINE
  5
44
330
A
100
AcDbEntity
  8
HEWI
  6
STANDARD
 62
     7
100
AcDbLine
 10
-1778.4271645
 20
-2167.023192157238
 30
0.0
 11
-1778.3351735
 21
-2166.967192157238
 31
0.0
  0
LINE
  5
45
330
A
100
AcDbEntity
  8
HEWI
  6
STANDARD
 62
     7
100
AcDbLine
 10
-1852.7461835
 20
-2166.511183157238
 30
0.0
 11
-1852.6901845
 21
-2166.604185157238
 31
0.0
  0
LINE
  5
46
330
A
100
AcDbEntity
  8
HEWI
  6
STANDARD
 62
     7
100
AcDbLine
 10
-1778.7261605
 20
-2215.268126157238
 30
0.0
 11
-1778.4091595
 21
-2215.079146157238
 31
0.0
  0
LINE
  5
47
330
A
100
AcDbEntity
  8
HEWI
  6
STANDARD
 62
     7
100
AcDbLine
 10
-1829.9571825
 20
-2214.609175157238
 30
0.0
 11
-1829.0561515
 21
-2214.091139157238
 31
0.0
  0
LINE
  5
48
330
A
100
AcDbEntity
  8
HEWI
  6
STANDARD
 62
     7
100
AcDbLine
 10
-1778.4271645
 20
-2167.023192157238
 30
0.0
 11
-1778.3311675
 21
-2166.974135157238
 31
0.0
  0
LINE
  5
49
330
A
100
AcDbEntity
  8
HEWI
  6
STANDARD
 62
     7
100
AcDbLine
 10
-1852.7461835
 20
-2166.511183157238
 30
0.0
 11
-1852.6971655
 21
-2166.608153157238
 31
0.0
  0
LINE
  5
4A
330
A
100
AcDbEntity
  8
HEWI
  6
STANDARD
 62
     7
100
AcDbLine
 10
-1824.9541685
 20
-2211.273146157238
 30
0.0
 11
-1822.7341675
 21
-2210.184126157238
 31
0.0
  0
LINE
  5
4B
330
A
100
AcDbEntity
  8
HEWI
  6
STANDARD
 62
     7
100
AcDbLine
 10
-1827.0311575
 20
-2212.629195157238
 30
0.0
 11
-1826.6121505
 21
-2212.434187157238
 31
0.0
  0
LINE
  5
4C
330
A
100
AcDbEntity
  8
HEWI
  6
STANDARD
 62
     7
100
AcDbLine
 10
-1778.3798625
 20
-2166.994353157237
 30
0.0
 11
-1778.3311675
 21
-2166.974135157238
 31
0.0
  0
LINE
  5
4D
330
A
100
AcDbEntity
  8
HEWI
  6
STANDARD
 62
     7
100
AcDbLine
 10
-1852.7177645
 20
-2166.558333157238
 30
0.0
 11
-1852.6971655
 21
-2166.608153157238
 31
0.0
  0
LINE
  5
4E
330
A
100
AcDbEntity
  8
HEWI
  6
STANDARD
 62
     7
100
AcDbLine
 10
-1778.572161499999
 20
-2167.074156157238
 30
0.0
 11
-1778.4271645
 21
-2167.023192157238
 31
0.0
  0
LINE
  5
4F
330
A
100
AcDbEntity
  8
HEWI
  6
STANDARD
 62
     7
100
AcDbLine
 10
-1852.7971485
 20
-2166.366148157238
 30
0.0
 11
-1852.7461835
 21
-2166.511183157238
 31
0.0
  0
LINE
  5
50
330
A
100
AcDbEntity
  8
HEWI
  6
STANDARD
 62
     7
100
AcDbLine
 10
-1830.7171845
 20
-2215.192137157238
 30
0.0
 11
-1830.4541615
 21
-2215.106154157238
 31
0.0
  0
LINE
  5
51
330
A
100
AcDbEntity
  8
HEWI
  6
STANDARD
 62
     7
100
AcDbLine
 10
-1778.6631605
 20
-2167.094145157237
 30
0.0
 11
-1778.5741645
 21
-2167.067137157237
 31
0.0
  0
LINE
  5
52
330
A
100
AcDbEntity
  8
HEWI
  6
STANDARD
 62
     7
100
AcDbLine
 10
-1852.8171755
 20
-2166.275130157238
 30
0.0
 11
-1852.7901675
 21
-2166.364165157238
 31
0.0
  0
LINE
  5
53
330
A
100
AcDbEntity
  8
HEWI
  6
STANDARD
 62
     7
100
AcDbLine
 10
-1779.0801645
 20
-2215.375166157238
 30
0.0
 11
-1778.7261605
 21
-2215.268126157238
 31
0.0
  0
LINE
  5
54
330
A
100
AcDbEntity
  8
HEWI
  6
STANDARD
 62
     7
100
AcDbLine
 10
-1852.8171755
 20
-2166.275130157238
 30
0.0
 11
-1852.7971485
 21
-2166.366148157238
 31
0.0
  0
LINE
  5
55
330
A
100
AcDbEntity
  8
HEWI
  6
STANDARD
 62
     7
100
AcDbLine
 10
-1778.6631605
 20
-2167.094145157237
 30
0.0
 11
-1778.572161499999
 21
-2167.074156157238
 31
0.0
  0
LINE
  5
56
330
A
100
AcDbEntity
  8
HEWI
  6
STANDARD
 62
     7
100
AcDbLine
 10
-1826.5961675
 20
-2167.157164157238
 30
0.0
 11
-1826.2931655
 21
-2167.108183157238
 31
0.0
  0
LINE
  5
57
330
A
100
AcDbEntity
  8
HEWI
  6
STANDARD
 62
     7
100
AcDbLine
 10
-1802.8211805
 20
-2167.799178157238
 30
0.0
 11
-1802.7731535
 21
-2168.108168157238
 31
0.0
  0
LINE
  5
58
330
A
100
AcDbEntity
  8
HEWI
  6
STANDARD
 62
     7
100
AcDbLine
 10
-1852.8030225
 20
-2166.321822157238
 30
0.0
 11
-1852.7971485
 21
-2166.366148157238
 31
0.0
  0
LINE
  5
59
330
A
100
AcDbEntity
  8
HEWI
  6
STANDARD
 62
     7
100
AcDbLine
 10
-1778.6163735
 20
-2167.079954157238
 30
0.0
 11
-1778.572161499999
 21
-2167.074156157238
 31
0.0
  0
LINE
  5
5A
330
A
100
AcDbEntity
  8
HEWI
  6
STANDARD
 62
     7
100
AcDbLine
 10
-1852.8311755
 20
-2213.904143157238
 30
0.0
 11
-1852.8101565
 21
-2214.148131157237
 31
0.0
  0
LINE
  5
5B
330
A
100
AcDbEntity
  8
HEWI
  6
STANDARD
 62
     7
100
AcDbLine
 10
-1852.8311755
 20
-2166.108122157238
 30
0.0
 11
-1852.8171755
 21
-2166.275130157238
 31
0.0
  0
LINE
  5
5C
330
A
100
AcDbEntity
  8
HEWI
  6
STANDARD
 62
     7
100
AcDbLine
 10
-1779.3311715
 20
-2215.396147157238
 30
0.0
 11
-1779.0801645
 21
-2215.375166157238
 31
0.0
  0
LINE
  5
5D
330
A
100
AcDbEntity
  8
HEWI
  6
STANDARD
 62
     7
100
AcDbLine
 10
-1778.8311605
 20
-2167.108183157238
 30
0.0
 11
-1778.6631605
 21
-2167.094145157237
 31
0.0
  0
LINE
  5
5E
330
A
100
AcDbEntity
  8
HEWI
  6
STANDARD
 62
     7
100
AcDbLine
 10
-1797.388345352067
 20
-2849.108143157238
 30
0.0
 11
-1797.375337352067
 21
-2851.708136157239
 31
0.0
  0
LINE
  5
5F
330
A
100
AcDbEntity
  8
HEWI
  6
STANDARD
 62
     7
100
AcDbLine
 10
-1792.3311645
 20
-2215.408125157237
 30
0.0
 11
-1779.3311715
 21
-2215.396147157238
 31
0.0
  0
LINE
  5
60
330
A
100
AcDbEntity
  8
HEWI
  6
STANDARD
 62
     7
100
AcDbLine
 10
-1830.875340352067
 20
-2851.708136157239
 30
0.0
 11
-1830.861340352067
 21
-2849.108143157238
 31
0.0
  0
LINE
  5
61
330
A
100
AcDbEntity
  8
HEWI
  6
STANDARD
 62
     7
100
AcDbLine
 10
-1777.8451755
 20
-2166.275130157238
 30
0.0
 11
-1777.8311755
 21
-2166.108122157238
 31
0.0
  0
LINE
  5
62
330
A
100
AcDbEntity
  8
HEWI
  6
STANDARD
 62
     7
100
AcDbLine
 10
-1851.9981605
 20
-2167.094145157237
 30
0.0
 11
-1851.8311525
 21
-2167.108183157238
 31
0.0
  0
LINE
  5
63
330
A
100
AcDbEntity
  8
HEWI
  6
STANDARD
 62
     7
100
AcDbLine
 10
-1777.8521755
 20
-2214.148131157237
 30
0.0
 11
-1777.8311755
 21
-2213.904143157238
 31
0.0
  0
LINE
  5
64
330
A
100
AcDbEntity
  8
HEWI
  6
STANDARD
 62
     7
100
AcDbLine
 10
-1827.2731615
 20
-2168.108168157238
 30
0.0
 11
-1827.2251725
 21
-2167.799178157238
 31
0.0
  0
LINE
  5
65
330
A
100
AcDbEntity
  8
HEWI
  6
STANDARD
 62
     7
100
AcDbLine
 10
-1803.7531495
 20
-2167.108183157238
 30
0.0
 11
-1803.4501485
 21
-2167.157164157238
 31
0.0
  0
LINE
  5
66
330
A
100
AcDbEntity
  8
HEWI
  6
STANDARD
 62
     7
100
AcDbLine
 10
-1852.0901705
 20
-2167.074156157238
 30
0.0
 11
-1851.9981605
 21
-2167.094145157237
 31
0.0
  0
LINE
  5
67
330
A
100
AcDbEntity
  8
HEWI
  6
STANDARD
 62
     7
100
AcDbLine
 10
-1777.8651645
 20
-2166.366148157238
 30
0.0
 11
-1777.8451755
 21
-2166.275130157238
 31
0.0
  0
LINE
  5
68
330
A
100
AcDbEntity
  8
HEWI
  6
STANDARD
 62
     7
100
AcDbLine
 10
-1777.9581665
 20
-2214.501143157237
 30
0.0
 11
-1777.8521755
 21
-2214.148131157237
 31
0.0
  0
LINE
  5
69
330
A
100
AcDbEntity
  8
HEWI
  6
STANDARD
 62
     7
100
AcDbLine
 10
-1851.9361715
 20
-2215.268126157238
 30
0.0
 11
-1851.5821675
 21
-2215.375166157238
 31
0.0
  0
LINE
  5
6A
330
A
100
AcDbEntity
  8
HEWI
  6
STANDARD
 62
     7
100
AcDbLine
 10
-1797.7921705
 20
-2215.106154157238
 30
0.0
 11
-1797.5291655
 21
-2215.192137157238
 31
0.0
  0
LINE
  5
6B
330
A
100
AcDbEntity
  8
HEWI
  6
STANDARD
 62
     7
100
AcDbLine
 10
-1777.9161665
 20
-2166.511183157238
 30
0.0
 11
-1777.8651645
 21
-2166.366148157238
 31
0.0
  0
LINE
  5
6C
330
A
100
AcDbEntity
  8
HEWI
  6
STANDARD
 62
     7
100
AcDbLine
 10
-1852.2341755
 20
-2167.023192157238
 30
0.0
 11
-1852.0901705
 21
-2167.074156157238
 31
0.0
  0
LINE
  5
6D
330
A
100
AcDbEntity
  8
HEWI
  6
STANDARD
 62
     7
100
AcDbLine
 10
-1801.6341615
 20
-2212.434187157238
 30
0.0
 11
-1801.2151555
 21
-2212.629195157238
 31
0.0
  0
LINE
  5
6E
330
A
100
AcDbEntity
  8
HEWI
  6
STANDARD
 62
     7
100
AcDbLine
 10
-1805.5131745
 20
-2210.184126157238
 30
0.0
 11
-1803.2921815
 21
-2211.273146157238
 31
0.0
  0
LINE
  5
6F
330
A
100
AcDbEntity
  8
HEWI
  6
STANDARD
 62
     7
100
AcDbLine
 10
-1777.9651665
 20
-2166.608153157238
 30
0.0
 11
-1777.9161665
 21
-2166.511183157238
 31
0.0
  0
LINE
  5
70
330
A
100
AcDbEntity
  8
HEWI
  6
STANDARD
 62
     7
100
AcDbLine
 10
-1852.3311835
 20
-2166.974135157238
 30
0.0
 11
-1852.2341755
 21
-2167.023192157238
 31
0.0
  0
LINE
  5
71
330
A
100
AcDbEntity
  8
HEWI
  6
STANDARD
 62
     7
100
AcDbLine
 10
-1799.1911725
 20
-2214.091139157238
 30
0.0
 11
-1798.2891685
 21
-2214.609175157238
 31
0.0
  0
LINE
  5
72
330
A
100
AcDbEntity
  8
HEWI
  6
STANDARD
 62
     7
100
AcDbLine
 10
-1778.1481575
 20
-2214.818144157238
 30
0.0
 11
-1777.9581665
 21
-2214.501143157237
 31
0.0
  0
LINE
  5
73
330
A
100
AcDbEntity
  8
HEWI
  6
STANDARD
 62
     7
100
AcDbLine
 10
-1801.2151555
 20
-2212.629195157238
 30
0.0
 11
-1799.5311765
 21
-2213.751173157238
 31
0.0
  0
LINE
  5
74
330
A
100
AcDbEntity
  8
HEWI
  6
STANDARD
 62
     7
100
AcDbLine
 10
-1778.0421665
 20
-2166.722136157238
 30
0.0
 11
-1777.9651665
 21
-2166.608153157238
 31
0.0
  0
LINE
  5
75
330
A
100
AcDbEntity
  8
HEWI
  6
STANDARD
 62
     7
100
AcDbLine
 10
-1852.4451665
 20
-2166.896162157238
 30
0.0
 11
-1852.3311835
 21
-2166.974135157238
 31
0.0
  0
LINE
  5
76
330
A
100
AcDbEntity
  8
HEWI
  6
STANDARD
 62
     7
100
AcDbLine
 10
-1803.2921815
 20
-2211.273146157238
 30
0.0
 11
-1801.6341615
 21
-2212.434187157238
 31
0.0
  0
LINE
  5
77
330
A
100
AcDbEntity
  8
HEWI
  6
STANDARD
 62
     7
100
AcDbLine
 10
-1805.6981495
 20
-2210.054121157238
 30
0.0
 11
-1805.5131745
 21
-2210.184126157238
 31
0.0
  0
LINE
  5
78
330
A
100
AcDbEntity
  8
HEWI
  6
STANDARD
 62
     7
100
AcDbLine
 10
-1852.5381685
 20
-2166.815138157238
 30
0.0
 11
-1852.4451665
 21
-2166.896162157238
 31
0.0
  0
LINE
  5
79
330
A
100
AcDbEntity
  8
HEWI
  6
STANDARD
 62
     7
100
AcDbLine
 10
-1778.1241635
 20
-2166.815138157238
 30
0.0
 11
-1778.0421665
 21
-2166.722136157238
 31
0.0
  0
LINE
  5
7A
330
A
100
AcDbEntity
  8
HEWI
  6
STANDARD
 62
     7
100
AcDbLine
 10
-1799.5311765
 20
-2213.751173157238
 30
0.0
 11
-1799.1911725
 21
-2214.091139157238
 31
0.0
  0
LINE
  5
7B
330
A
100
AcDbEntity
  8
HEWI
  6
STANDARD
 62
     7
100
AcDbLine
 10
-1798.2891685
 20
-2214.609175157238
 30
0.0
 11
-1797.7921705
 21
-2215.106154157238
 31
0.0
  0
LINE
  5
7C
330
A
100
AcDbEntity
  8
HEWI
  6
STANDARD
 62
     7
100
AcDbLine
 10
-1830.875340352067
 20
-2851.708136157239
 30
0.0
 11
-1830.675336352067
 21
-2851.908141157239
 31
0.0
  0
ARC
  5
7D
330
A
100
AcDbEntity
  8
HEWI
  6
STANDARD
 62
     7
100
AcDbCircle
 10
-1803.7610475
 20
-2168.096119157238
 30
0.0
 40
0.987967
100
AcDbArc
 50
359.301222999997
 51
89.54194999999996
  0
ARC
  5
7E
330
A
100
AcDbEntity
  8
HEWI
  6
STANDARD
 62
     7
100
AcDbCircle
 10
-1814.1231565
 20
-2224.650740157238
 30
0.0
 40
16.853546
100
AcDbArc
 50
60.00693300000265
 51
119.9930669999972
  0
ARC
  5
7F
330
A
100
AcDbEntity
  8
HEWI
  6
STANDARD
 62
     7
100
AcDbCircle
 10
-1826.2853245
 20
-2168.096063157237
 30
0.0
 40
0.987911
100
AcDbArc
 50
90.45475399999999
 51
180.7020729999987
  0
LINE
  5
80
330
A
100
AcDbEntity
  8
HEWI
100
AcDbLine
 10
-1792.331173
 20
-1662.785302
 30
0.0
 11
-1779.331181
 21
-1662.785302
 31
0.0
  0
LINE
  5
81
330
A
100
AcDbEntity
  8
HEWI
100
AcDbLine
 10
-1837.787182
 20
-1662.785302
 30
0.0
 11
-1792.787182
 21
-1662.785302
 31
0.0
  0
LINE
  5
82
330
A
100
AcDbEntity
  8
HEWI
100
AcDbLine
 10
-1792.331173
 20
-1707.785302
 30
0.0
 11
-1779.331181
 21
-1707.785302
 31
0.0
  0
LINE
  5
83
330
A
100
AcDbEntity
  8
HEWI
100
AcDbLine
 10
-1807.831166
 20
-1707.785302
 30
0.0
 11
-1792.787182
 21
-1707.785302
 31
0.0
  0
LINE
  5
84
330
A
100
AcDbEntity
  8
HEWI
100
AcDbLine
 10
-1837.787182
 20
-1707.785302
 30
0.0
 11
-1822.831166
 21
-1707.785302
 31
0.0
  0
LINE
  5
85
330
A
100
AcDbEntity
  8
HEWI
100
AcDbLine
 10
-1842.881176
 20
-1707.785302
 30
0.0
 11
-1838.331158
 21
-1707.785302
 31
0.0
  0
LINE
  5
86
330
A
100
AcDbEntity
  8
HEWI
100
AcDbLine
 10
-1851.331189
 20
-1707.785302
 30
0.0
 11
-1848.281186
 21
-1707.785302
 31
0.0
  0
LINE
  5
87
330
A
100
AcDbEntity
  8
HEWI
100
AcDbLine
 10
-1851.831180999999
 20
-1627.185288
 30
0.0
 11
-1778.83117
 21
-1627.185288
 31
0.0
  0
LINE
  5
88
330
A
100
AcDbEntity
  8
HEWI
100
AcDbLine
 10
-1851.831180999999
 20
-1883.185311
 30
0.0
 11
-1778.83117
 21
-1883.185311
 31
0.0
  0
LINE
  5
89
330
A
100
AcDbEntity
  8
HEWI
100
AcDbLine
 10
-1792.787182
 20
-1685.18528
 30
0.0
 11
-1792.331173
 21
-1685.18528
 31
0.0
  0
LINE
  5
8A
330
A
100
AcDbEntity
  8
HEWI
100
AcDbLine
 10
-1838.331158
 20
-1685.18528
 30
0.0
 11
-1837.787182
 21
-1685.18528
 31
0.0
  0
LINE
  5
8B
330
A
100
AcDbEntity
  8
HEWI
100
AcDbLine
 10
-1837.787182
 20
-1707.785302
 30
0.0
 11
-1837.787182
 21
-1662.785302
 31
0.0
  0
LINE
  5
8C
330
A
100
AcDbEntity
  8
HEWI
100
AcDbLine
 10
-1792.787182
 20
-1707.785302
 30
0.0
 11
-1792.787182
 21
-1662.785302
 31
0.0
  0
LINE
  5
8D
330
A
100
AcDbEntity
  8
HEWI
100
AcDbLine
 10
-1852.831166
 20
-1664.285317
 30
0.0
 11
-1852.831166
 21
-1628.185311
 31
0.0
  0
LINE
  5
8E
330
A
100
AcDbEntity
  8
HEWI
100
AcDbLine
 10
-1852.831166
 20
-1704.702263
 30
0.0
 11
-1852.831166
 21
-1685.18528
 31
0.0
  0
LINE
  5
8F
330
A
100
AcDbEntity
  8
HEWI
100
AcDbLine
 10
-1852.831166
 20
-1704.935265
 30
0.0
 11
-1852.831166
 21
-1704.831276
 31
0.0
  0
LINE
  5
90
330
A
100
AcDbEntity
  8
HEWI
100
AcDbLine
 10
-1852.831166
 20
-1882.185326
 30
0.0
 11
-1852.831166
 21
-1664.285317
 31
0.0
  0
LINE
  5
91
330
A
100
AcDbEntity
  8
HEWI
100
AcDbLine
 10
-1838.331158
 20
-1707.785302
 30
0.0
 11
-1838.331158
 21
-1662.785302
 31
0.0
  0
LINE
  5
92
330
A
100
AcDbEntity
  8
HEWI
100
AcDbLine
 10
-1777.831185
 20
-1882.185326
 30
0.0
 11
-1777.831185
 21
-1628.185311
 31
0.0
  0
LINE
  5
93
330
A
100
AcDbEntity
  8
HEWI
100
AcDbLine
 10
-1792.331173
 20
-1707.785302
 30
0.0
 11
-1792.331173
 21
-1662.785302
 31
0.0
  0
LINE
  5
94
330
A
100
AcDbEntity
  8
HEWI
100
AcDbLine
 10
-1822.831165999999
 20
-1777.635309751144
 30
0.0
 11
-1822.831166
 21
-1700.374337
 31
0.0
  0
LINE
  5
95
330
A
100
AcDbEntity
  8
HEWI
100
AcDbLine
 10
-1807.831166
 20
-1777.635128251144
 30
0.0
 11
-1807.831166
 21
-1700.872231
 31
0.0
  0
LINE
  5
96
330
A
100
AcDbEntity
  8
HEWI
100
AcDbLine
 10
-1801.634189999999
 20
-1696.535302
 30
0.0
 11
-1801.215184
 21
-1696.116295
 31
0.0
  0
LINE
  5
9A
330
A
100
AcDbEntity
  8
HEWI
100
AcDbLine
 10
-1803.837178
 20
-1673.377266
 30
0.0
 11
-1802.816174
 21
-1674.4553
 31
0.0
  0
LINE
  5
9B
330
A
100
AcDbEntity
  8
HEWI
100
AcDbLine
 10
-1852.620175
 20
-1882.800331
 30
0.0
 11
-1852.538159
 21
-1882.892266
 31
0.0
  0
LINE
  5
9C
330
A
100
AcDbEntity
  8
HEWI
100
AcDbLine
 10
-1778.216183
 20
-1882.974282
 30
0.0
 11
-1778.124173
 21
-1882.892266
 31
0.0
  0
LINE
  5
9D
330
A
100
AcDbEntity
  8
HEWI
100
AcDbLine
 10
-1778.124173
 20
-1627.478295
 30
0.0
 11
-1778.042176
 21
-1627.570305
 31
0.0
  0
LINE
  5
9E
330
A
100
AcDbEntity
  8
HEWI
100
AcDbLine
 10
-1852.538159
 20
-1627.478295
 30
0.0
 11
-1852.445157
 21
-1627.396317
 31
0.0
  0
LINE
  5
9F
330
A
100
AcDbEntity
  8
HEWI
100
AcDbLine
 10
-1778.27018
 20
-1663.224297
 30
0.0
 11
-1778.148167
 21
-1663.363304
 31
0.0
  0
LINE
  5
A0
330
A
100
AcDbEntity
  8
HEWI
100
AcDbLine
 10
-1778.409169
 20
-1707.4683
 30
0.0
 11
-1778.27018
 21
-1707.346305999999
 31
0.0
  0
LINE
  5
A1
330
A
100
AcDbEntity
  8
HEWI
100
AcDbLine
 10
-1852.514164
 20
-1707.207299
 30
0.0
 11
-1852.39217
 21
-1707.346305999999
 31
0.0
  0
LINE
  5
A2
330
A
100
AcDbEntity
  8
HEWI
100
AcDbLine
 10
-1852.39217
 20
-1663.224297
 30
0.0
 11
-1852.253163
 21
-1663.102303
 31
0.0
  0
LINE
  5
A8
330
A
100
AcDbEntity
  8
HEWI
100
AcDbLine
 10
-1805.698178
 20
-1699.878273
 30
0.0
 11
-1805.513165
 21
-1699.748268
 31
0.0
  0
LINE
  5
A9
330
A
100
AcDbEntity
  8
HEWI
100
AcDbLine
 10
-1801.159184
 20
-1674.535332
 30
0.0
 11
-1799.531167
 21
-1676.860314
 31
0.0
  0
LINE
  5
AA
330
A
100
AcDbEntity
  8
HEWI
100
AcDbLine
 10
-1805.513165
 20
-1699.748268
 30
0.0
 11
-1803.292172
 21
-1698.193322
 31
0.0
  0
LINE
  5
AB
330
A
100
AcDbEntity
  8
HEWI
100
AcDbLine
 10
-1801.215184
 20
-1674.454308
 30
0.0
 11
-1799.531167
 21
-1676.860314
 31
0.0
  0
LINE
  5
AC
330
A
100
AcDbEntity
  8
HEWI
100
AcDbLine
 10
-1804.595158
 20
-1699.105263
 30
0.0
 11
-1803.292172
 21
-1698.193322
 31
0.0
  0
LINE
  5
B2
330
A
100
AcDbEntity
  8
HEWI
100
AcDbLine
 10
-1801.215184
 20
-1674.454308
 30
0.0
 11
-1801.159184
 21
-1674.535332
 31
0.0
  0
LINE
  5
B3
330
A
100
AcDbEntity
  8
HEWI
100
AcDbLine
 10
-1806.169178
 20
-1699.308280999999
 30
0.0
 11
-1805.550168
 21
-1698.882332
 31
0.0
  0
LINE
  5
B4
330
A
100
AcDbEntity
  8
HEWI
100
AcDbLine
 10
-1852.445157
 20
-1627.396317
 30
0.0
 11
-1852.331173
 21
-1627.319298
 31
0.0
  0
LINE
  5
B5
330
A
100
AcDbEntity
  8
HEWI
100
AcDbLine
 10
-1852.630169
 20
-1707.035332
 30
0.0
 11
-1852.514164
 21
-1707.207299
 31
0.0
  0
LINE
  5
B6
330
A
100
AcDbEntity
  8
HEWI
100
AcDbLine
 10
-1852.253163
 20
-1663.102303
 30
0.0
 11
-1852.081158
 21
-1662.986298
 31
0.0
  0
LINE
  5
B7
330
A
100
AcDbEntity
  8
HEWI
100
AcDbLine
 10
-1778.148167
 20
-1663.363304
 30
0.0
 11
-1778.032181
 21
-1663.535309
 31
0.0
  0
LINE
  5
B8
330
A
100
AcDbEntity
  8
HEWI
100
AcDbLine
 10
-1778.581173
 20
-1707.584267
 30
0.0
 11
-1778.409169
 21
-1707.4683
 31
0.0
  0
LINE
  5
B9
330
A
100
AcDbEntity
  8
HEWI
100
AcDbLine
 10
-1778.331177
 20
-1883.051339
 30
0.0
 11
-1778.216183
 21
-1882.974282
 31
0.0
  0
LINE
  5
BA
330
A
100
AcDbEntity
  8
HEWI
100
AcDbLine
 10
-1778.042176
 20
-1627.570305
 30
0.0
 11
-1777.965176
 21
-1627.685318
 31
0.0
  0
LINE
  5
BB
330
A
100
AcDbEntity
  8
HEWI
100
AcDbLine
 10
-1852.697194
 20
-1882.68528
 30
0.0
 11
-1852.620175
 21
-1882.800331
 31
0.0
  0
LINE
  5
BF
330
A
100
AcDbEntity
  8
HEWI
100
AcDbLine
 10
-1806.808178
 20
-1699.704323
 30
0.0
 11
-1806.169178
 21
-1699.308280999999
 31
0.0
  0
LINE
  5
C4
330
A
100
AcDbEntity
  8
HEWI
100
AcDbLine
 10
-1807.463162
 20
-1700.072289
 30
0.0
 11
-1806.808178
 21
-1699.704323
 31
0.0
  0
LINE
  5
C6
330
A
100
AcDbEntity
  8
HEWI
100
AcDbLine
 10
-1778.032181
 20
-1663.535309
 30
0.0
 11
-1777.958176
 21
-1663.680306
 31
0.0
  0
LINE
  5
C7
330
A
100
AcDbEntity
  8
HEWI
100
AcDbLine
 10
-1852.081158
 20
-1662.986298
 30
0.0
 11
-1851.936162
 21
-1662.912292999999
 31
0.0
  0
LINE
  5
C8
330
A
100
AcDbEntity
  8
HEWI
100
AcDbLine
 10
-1778.72617
 20
-1707.658272
 30
0.0
 11
-1778.581173
 21
-1707.584267
 31
0.0
  0
LINE
  5
C9
330
A
100
AcDbEntity
  8
HEWI
100
AcDbLine
 10
-1852.704175
 20
-1706.890297
 30
0.0
 11
-1852.630169
 21
-1707.035332
 31
0.0
  0
LINE
  5
CA
330
A
100
AcDbEntity
  8
HEWI
100
AcDbLine
 10
-1778.427174
 20
-1883.100319
 30
0.0
 11
-1778.331177
 21
-1883.051339
 31
0.0
  0
LINE
  5
CC
330
A
100
AcDbEntity
  8
HEWI
100
AcDbLine
 10
-1777.965176
 20
-1627.685318
 30
0.0
 11
-1777.916176
 21
-1627.782288
 31
0.0
  0
LINE
  5
CD
330
A
100
AcDbEntity
  8
HEWI
100
AcDbLine
 10
-1823.198178
 20
-1670.498314
 30
0.0
 11
-1822.527173
 21
-1670.159302
 31
0.0
  0
LINE
  5
CE
330
A
100
AcDbEntity
  8
HEWI
100
AcDbLine
 10
-1852.746174
 20
-1882.588311
 30
0.0
 11
-1852.697194
 21
-1882.68528
 31
0.0
  0
LINE
  5
CF
330
A
100
AcDbEntity
  8
HEWI
100
AcDbLine
 10
-1852.331173
 20
-1627.319298
 30
0.0
 11
-1852.234166
 21
-1627.270317
 31
0.0
  0
LINE
  5
D1
330
A
100
AcDbEntity
  8
HEWI
100
AcDbLine
 10
-1798.972867
 20
-1678.0579
 30
0.0
 11
-1798.289177
 21
-1679.522286
 31
0.0
  0
LINE
  5
D6
330
A
100
AcDbEntity
  8
HEWI
100
AcDbLine
 10
-1807.831166
 20
-1700.872689
 30
0.0
 11
-1805.698178
 21
-1699.878273
 31
0.0
  0
LINE
  5
D7
330
A
100
AcDbEntity
  8
HEWI
100
AcDbLine
 10
-1822.527173
 20
-1670.159302
 30
0.0
 11
-1821.841176
 21
-1669.852295
 31
0.0
  0
LINE
  5
DC
330
A
100
AcDbEntity
  8
HEWI
100
AcDbLine
 10
-1777.916176
 20
-1627.782288
 30
0.0
 11
-1777.865173999999
 21
-1627.926293
 31
0.0
  0
LINE
  5
DD
330
A
100
AcDbEntity
  8
HEWI
100
AcDbLine
 10
-1852.234166
 20
-1627.270317
 30
0.0
 11
-1852.090161
 21
-1627.219315
 31
0.0
  0
LINE
  5
DE
330
A
100
AcDbEntity
  8
HEWI
100
AcDbLine
 10
-1852.797177
 20
-1882.444268
 30
0.0
 11
-1852.746174
 21
-1882.588311
 31
0.0
  0
LINE
  5
DF
330
A
100
AcDbEntity
  8
HEWI
100
AcDbLine
 10
-1778.572171
 20
-1883.151284
 30
0.0
 11
-1778.427174
 21
-1883.100319
 31
0.0
  0
LINE
  5
E0
330
A
100
AcDbEntity
  8
HEWI
100
AcDbLine
 10
-1778.943169
 20
-1707.734337
 30
0.0
 11
-1778.72617
 21
-1707.658272
 31
0.0
  0
LINE
  5
E1
330
A
100
AcDbEntity
  8
HEWI
100
AcDbLine
 10
-1777.958176
 20
-1663.680306
 30
0.0
 11
-1777.882168
 21
-1663.897286
 31
0.0
  0
LINE
  5
E2
330
A
100
AcDbEntity
  8
HEWI
100
AcDbLine
 10
-1852.780163
 20
-1706.673317
 30
0.0
 11
-1852.704175
 21
-1706.890297
 31
0.0
  0
LINE
  5
E3
330
A
100
AcDbEntity
  8
HEWI
100
AcDbLine
 10
-1851.936162
 20
-1662.912292999999
 30
0.0
 11
-1851.719182
 21
-1662.836304
 31
0.0
  0
LINE
  5
E6
330
A
100
AcDbEntity
  8
HEWI
100
AcDbLine
 10
-1852.790158
 20
-1882.442284
 30
0.0
 11
-1852.746174
 21
-1882.588311
 31
0.0
  0
LINE
  5
E7
330
A
100
AcDbEntity
  8
HEWI
100
AcDbLine
 10
-1852.817166
 20
-1882.352333
 30
0.0
 11
-1852.746174
 21
-1882.588311
 31
0.0
  0
LINE
  5
E8
330
A
100
AcDbEntity
  8
HEWI
100
AcDbLine
 10
-1852.817166
 20
-1882.352333
 30
0.0
 11
-1852.790158
 21
-1882.442284
 31
0.0
  0
LINE
  5
E9
330
A
100
AcDbEntity
  8
HEWI
100
AcDbLine
 10
-1810.951169
 20
-1701.452294
 30
0.0
 11
-1810.230191
 21
-1701.239281
 31
0.0
  0
LINE
  5
EA
330
A
100
AcDbEntity
  8
HEWI
100
AcDbLine
 10
-1797.746174
 20
-1681.552315
 30
0.0
 11
-1797.529175
 21
-1682.359276
 31
0.0
  0
LINE
  5
EB
330
A
100
AcDbEntity
  8
HEWI
100
AcDbLine
 10
-1797.79218
 20
-1681.378289
 30
0.0
 11
-1797.529175
 21
-1682.359276
 31
0.0
  0
LINE
  5
F0
330
A
100
AcDbEntity
  8
HEWI
100
AcDbLine
 10
-1798.289177
 20
-1679.522286
 30
0.0
 11
-1797.79218
 21
-1681.378289
 31
0.0
  0
LINE
  5
F1
330
A
100
AcDbEntity
  8
HEWI
100
AcDbLine
 10
-1798.289177
 20
-1679.522286
 30
0.0
 11
-1797.746174
 21
-1681.552315
 31
0.0
  0
LINE
  5
F2
330
A
100
AcDbEntity
  8
HEWI
100
AcDbLine
 10
-1811.681187
 20
-1701.632271
 30
0.0
 11
-1810.951169
 21
-1701.452294
 31
0.0
  0
LINE
  5
F3
330
A
100
AcDbEntity
  8
HEWI
100
AcDbLine
 10
-1799.357178
 20
-1680.95829
 30
0.0
 11
-1799.033177
 21
-1682.407265
 31
0.0
  0
LINE
  5
F4
330
A
100
AcDbEntity
  8
HEWI
100
AcDbLine
 10
-1778.66317
 20
-1883.171273
 30
0.0
 11
-1778.572171
 21
-1883.151284
 31
0.0
  0
LINE
  5
F5
330
A
100
AcDbEntity
  8
HEWI
100
AcDbLine
 10
-1777.865173999999
 20
-1627.926293
 30
0.0
 11
-1777.845185
 21
-1628.017311
 31
0.0
  0
LINE
  5
F6
330
A
100
AcDbEntity
  8
HEWI
100
AcDbLine
 10
-1852.810185
 20
-1706.536293
 30
0.0
 11
-1852.780163
 21
-1706.673317
 31
0.0
  0
LINE
  5
F7
330
A
100
AcDbEntity
  8
HEWI
100
AcDbLine
 10
-1851.719182
 20
-1662.836304
 30
0.0
 11
-1851.582158
 21
-1662.806282
 31
0.0
  0
LINE
  5
F8
330
A
100
AcDbEntity
  8
HEWI
100
AcDbLine
 10
-1779.080174
 20
-1707.764321
 30
0.0
 11
-1778.943169
 21
-1707.734337
 31
0.0
  0
LINE
  5
F9
330
A
100
AcDbEntity
  8
HEWI
100
AcDbLine
 10
-1777.882168
 20
-1663.897286
 30
0.0
 11
-1777.852185
 21
-1664.03431
 31
0.0
  0
LINE
  5
FA
330
A
100
AcDbEntity
  8
HEWI
100
AcDbLine
 10
-1852.090161
 20
-1627.219315
 30
0.0
 11
-1851.998189
 21
-1627.199288
 31
0.0
  0
LINE
  5
FB
330
A
100
AcDbEntity
  8
HEWI
100
AcDbLine
 10
-1852.817166
 20
-1882.352333
 30
0.0
 11
-1852.797177
 21
-1882.444268
 31
0.0
  0
LINE
  5
103
330
A
100
AcDbEntity
  8
HEWI
100
AcDbLine
 10
-1815.270817
 20
-1668.535614
 30
0.0
 11
-1814.124157
 21
-1668.435288
 31
0.0
  0
LINE
  5
104
330
A
100
AcDbEntity
  8
HEWI
100
AcDbLine
 10
-1797.529175
 20
-1682.359276
 30
0.0
 11
-1797.273171
 21
-1685.285302
 31
0.0
  0
LINE
  5
106
330
A
100
AcDbEntity
  8
HEWI
100
AcDbLine
 10
-1852.831166
 20
-1882.185326
 30
0.0
 11
-1852.817166
 21
-1882.352333
 31
0.0
  0
LINE
  5
107
330
A
100
AcDbEntity
  8
HEWI
100
AcDbLine
 10
-1851.998189
 20
-1627.199288
 30
0.0
 11
-1851.831180999999
 21
-1627.185288
 31
0.0
  0
LINE
  5
108
330
A
100
AcDbEntity
  8
HEWI
100
AcDbLine
 10
-1777.852185
 20
-1664.03431
 30
0.0
 11
-1777.831185
 21
-1664.285317
 31
0.0
  0
LINE
  5
109
330
A
100
AcDbEntity
  8
HEWI
100
AcDbLine
 10
-1779.331181
 20
-1707.785302
 30
0.0
 11
-1779.080174
 21
-1707.764321
 31
0.0
  0
LINE
  5
10A
330
A
100
AcDbEntity
  8
HEWI
100
AcDbLine
 10
-1778.83117
 20
-1883.185311
 30
0.0
 11
-1778.66317
 21
-1883.171273
 31
0.0
  0
LINE
  5
10B
330
A
100
AcDbEntity
  8
HEWI
100
AcDbLine
 10
-1777.845185
 20
-1628.017311
 30
0.0
 11
-1777.831185
 21
-1628.185311
 31
0.0
  0
LINE
  5
10D
330
A
100
AcDbEntity
  8
HEWI
100
AcDbLine
 10
-1815.331166
 20
-1702.135277
 30
0.0
 11
-1814.604161
 21
-1702.093315
 31
0.0
  0
LINE
  5
10E
330
A
100
AcDbEntity
  8
HEWI
100
AcDbLine
 10
-1816.152165
 20
-1701.8153
 30
0.0
 11
-1814.666188
 21
-1701.822319
 31
0.0
  0
LINE
  5
10F
330
A
100
AcDbEntity
  8
HEWI
100
AcDbLine
 10
-1817.270176
 20
-1702.023278
 30
0.0
 11
-1815.331166
 21
-1702.135277
 31
0.0
  0
LINE
  5
111
330
A
100
AcDbEntity
  8
HEWI
100
AcDbLine
 10
-1852.831166
 20
-1628.185311
 30
0.0
 11
-1852.817166
 21
-1628.017311
 31
0.0
  0
LINE
  5
112
330
A
100
AcDbEntity
  8
HEWI
100
AcDbLine
 10
-1778.83117
 20
-1627.185288
 30
0.0
 11
-1778.66317
 21
-1627.199288
 31
0.0
  0
LINE
  5
113
330
A
100
AcDbEntity
  8
HEWI
100
AcDbLine
 10
-1779.331181
 20
-1662.785302
 30
0.0
 11
-1779.080174
 21
-1662.806282
 31
0.0
  0
LINE
  5
114
330
A
100
AcDbEntity
  8
HEWI
100
AcDbLine
 10
-1851.582158
 20
-1707.764321
 30
0.0
 11
-1851.331189
 21
-1707.785302
 31
0.0
  0
LINE
  5
115
330
A
100
AcDbEntity
  8
HEWI
100
AcDbLine
 10
-1777.852185
 20
-1706.536293
 30
0.0
 11
-1777.831185
 21
-1706.285286
 31
0.0
  0
LINE
  5
116
330
A
100
AcDbEntity
  8
HEWI
100
AcDbLine
 10
-1777.845185
 20
-1882.352333
 30
0.0
 11
-1777.831185
 21
-1882.185326
 31
0.0
  0
LINE
  5
117
330
A
100
AcDbEntity
  8
HEWI
100
AcDbLine
 10
-1851.998189
 20
-1883.171273
 30
0.0
 11
-1851.831180999999
 21
-1883.185311
 31
0.0
  0
LINE
  5
118
330
A
100
AcDbEntity
  8
HEWI
100
AcDbLine
 10
-1815.292218
 20
-1702.03312
 30
0.0
 11
-1814.124157
 21
-1702.135277
 31
0.0
  0
LINE
  5
119
330
A
100
AcDbEntity
  8
HEWI
100
AcDbLine
 10
-1797.529175
 20
-1688.211327
 30
0.0
 11
-1797.273171
 21
-1685.285302
 31
0.0
  0
LINE
  5
11E
330
A
100
AcDbEntity
  8
HEWI
100
AcDbLine
 10
-1817.630169
 20
-1701.674309
 30
0.0
 11
-1816.152165
 21
-1701.8153
 31
0.0
  0
LINE
  5
11F
330
A
100
AcDbEntity
  8
HEWI
100
AcDbLine
 10
-1819.183171
 20
-1701.689263
 30
0.0
 11
-1817.270176
 21
-1702.023278
 31
0.0
  0
LINE
  5
122
330
A
100
AcDbEntity
  8
HEWI
100
AcDbLine
 10
-1852.090161
 20
-1883.151284
 30
0.0
 11
-1851.998189
 21
-1883.171273
 31
0.0
  0
LINE
  5
123
330
A
100
AcDbEntity
  8
HEWI
100
AcDbLine
 10
-1777.865173999999
 20
-1882.444268
 30
0.0
 11
-1777.845185
 21
-1882.352333
 31
0.0
  0
LINE
  5
124
330
A
100
AcDbEntity
  8
HEWI
100
AcDbLine
 10
-1777.882168
 20
-1706.673317
 30
0.0
 11
-1777.852185
 21
-1706.536293
 31
0.0
  0
LINE
  5
125
330
A
100
AcDbEntity
  8
HEWI
100
AcDbLine
 10
-1851.719182
 20
-1707.734337
 30
0.0
 11
-1851.582158
 21
-1707.764321
 31
0.0
  0
LINE
  5
126
330
A
100
AcDbEntity
  8
HEWI
100
AcDbLine
 10
-1852.810185
 20
-1664.03431
 30
0.0
 11
-1852.780163
 21
-1663.897286
 31
0.0
  0
LINE
  5
127
330
A
100
AcDbEntity
  8
HEWI
100
AcDbLine
 10
-1779.080174
 20
-1662.806282
 30
0.0
 11
-1778.943169
 21
-1662.836304
 31
0.0
  0
LINE
  5
128
330
A
100
AcDbEntity
  8
HEWI
100
AcDbLine
 10
-1852.817166
 20
-1628.017311
 30
0.0
 11
-1852.797177
 21
-1627.926293
 31
0.0
  0
LINE
  5
129
330
A
100
AcDbEntity
  8
HEWI
100
AcDbLine
 10
-1778.66317
 20
-1627.199288
 30
0.0
 11
-1778.572171
 21
-1627.219315
 31
0.0
  0
LINE
  5
12A
330
A
100
AcDbEntity
  8
HEWI
100
AcDbLine
 10
-1819.831173
 20
-1701.523323
 30
0.0
 11
-1819.183171
 21
-1701.689263
 31
0.0
  0
LINE
  5
12B
330
A
100
AcDbEntity
  8
HEWI
100
AcDbLine
 10
-1798.289177
 20
-1691.048317
 30
0.0
 11
-1797.746174
 21
-1689.018288
 31
0.0
  0
LINE
  5
12C
330
A
100
AcDbEntity
  8
HEWI
100
AcDbLine
 10
-1798.289177
 20
-1691.048317
 30
0.0
 11
-1797.79218
 21
-1689.192314
 31
0.0
  0
LINE
  5
131
330
A
100
AcDbEntity
  8
HEWI
100
AcDbLine
 10
-1797.79218
 20
-1689.192314
 30
0.0
 11
-1797.529175
 21
-1688.211327
 31
0.0
  0
LINE
  5
132
330
A
100
AcDbEntity
  8
HEWI
100
AcDbLine
 10
-1820.519192
 20
-1701.00132
 30
0.0
 11
-1819.090168
 21
-1701.402321
 31
0.0
  0
LINE
  5
133
330
A
100
AcDbEntity
  8
HEWI
100
AcDbLine
 10
-1820.169194
 20
-1701.425286
 30
0.0
 11
-1819.831173
 21
-1701.523323
 31
0.0
  0
LINE
  5
134
330
A
100
AcDbEntity
  8
HEWI
100
AcDbLine
 10
-1820.498173
 20
-1701.323281
 30
0.0
 11
-1820.169194
 21
-1701.425286
 31
0.0
  0
LINE
  5
137
330
A
100
AcDbEntity
  8
HEWI
100
AcDbLine
 10
-1821.045163
 20
-1701.137276
 30
0.0
 11
-1820.498173
 21
-1701.323281
 31
0.0
  0
LINE
  5
138
330
A
100
AcDbEntity
  8
HEWI
100
AcDbLine
 10
-1778.943169
 20
-1662.836304
 30
0.0
 11
-1778.72617
 21
-1662.912292999999
 31
0.0
  0
LINE
  5
139
330
A
100
AcDbEntity
  8
HEWI
100
AcDbLine
 10
-1852.780163
 20
-1663.897286
 30
0.0
 11
-1852.704175
 21
-1663.680306
 31
0.0
  0
LINE
  5
13A
330
A
100
AcDbEntity
  8
HEWI
100
AcDbLine
 10
-1777.958176
 20
-1706.890297
 30
0.0
 11
-1777.882168
 21
-1706.673317
 31
0.0
  0
LINE
  5
13B
330
A
100
AcDbEntity
  8
HEWI
100
AcDbLine
 10
-1851.936162
 20
-1707.658272
 30
0.0
 11
-1851.719182
 21
-1707.734337
 31
0.0
  0
LINE
  5
13C
330
A
100
AcDbEntity
  8
HEWI
100
AcDbLine
 10
-1778.572171
 20
-1627.219315
 30
0.0
 11
-1778.427174
 21
-1627.270317
 31
0.0
  0
LINE
  5
13D
330
A
100
AcDbEntity
  8
HEWI
100
AcDbLine
 10
-1852.234166
 20
-1883.100319
 30
0.0
 11
-1852.090161
 21
-1883.151284
 31
0.0
  0
LINE
  5
13E
330
A
100
AcDbEntity
  8
HEWI
100
AcDbLine
 10
-1777.916176
 20
-1882.588311
 30
0.0
 11
-1777.865173999999
 21
-1882.444268
 31
0.0
  0
LINE
  5
13F
330
A
100
AcDbEntity
  8
HEWI
100
AcDbLine
 10
-1852.797177
 20
-1627.926293
 30
0.0
 11
-1852.746174
 21
-1627.782288
 31
0.0
  0
LINE
  5
140
330
A
100
AcDbEntity
  8
HEWI
100
AcDbLine
 10
-1821.132176
 20
-1701.105309
 30
0.0
 11
-1821.045163
 21
-1701.137276
 31
0.0
  0
LINE
  5
141
330
A
100
AcDbEntity
  8
HEWI
100
AcDbLine
 10
-1821.426175
 20
-1700.994301
 30
0.0
 11
-1821.130192
 21
-1701.105309
 31
0.0
  0
LINE
  5
142
330
A
100
AcDbEntity
  8
HEWI
100
AcDbLine
 10
-1821.130192
 20
-1701.105309
 30
0.0
 11
-1821.045163
 21
-1701.137276
 31
0.0
  0
LINE
  5
143
330
A
100
AcDbEntity
  8
HEWI
100
AcDbLine
 10
-1821.426175
 20
-1700.994301
 30
0.0
 11
-1821.132176
 21
-1701.105309
 31
0.0
  0
LINE
  5
145
330
A
100
AcDbEntity
  8
HEWI
100
AcDbLine
 10
-1821.701176
 20
-1700.884285
 30
0.0
 11
-1821.426175
 21
-1700.994301
 31
0.0
  0
LINE
  5
146
330
A
100
AcDbEntity
  8
HEWI
100
AcDbLine
 10
-1821.953175
 20
-1700.779305
 30
0.0
 11
-1821.701176
 21
-1700.884285
 31
0.0
  0
LINE
  5
148
330
A
100
AcDbEntity
  8
HEWI
100
AcDbLine
 10
-1822.176182
 20
-1700.682335
 30
0.0
 11
-1821.953175
 21
-1700.779305
 31
0.0
  0
LINE
  5
149
330
A
100
AcDbEntity
  8
HEWI
100
AcDbLine
 10
-1822.369167999999
 20
-1700.594292
 30
0.0
 11
-1822.176182
 21
-1700.682335
 31
0.0
  0
LINE
  5
14A
330
A
100
AcDbEntity
  8
HEWI
100
AcDbLine
 10
-1822.534192
 20
-1700.518303
 30
0.0
 11
-1822.369167999999
 21
-1700.594292
 31
0.0
  0
LINE
  5
14F
330
A
100
AcDbEntity
  8
HEWI
100
AcDbLine
 10
-1798.972867
 20
-1692.512703
 30
0.0
 11
-1798.289177
 21
-1691.048317
 31
0.0
  0
LINE
  5
150
330
A
100
AcDbEntity
  8
HEWI
100
AcDbLine
 10
-1822.831166
 20
-1700.374337
 30
0.0
 11
-1822.812169
 21
-1700.383263
 31
0.0
  0
LINE
  5
152
330
A
100
AcDbEntity
  8
HEWI
100
AcDbLine
 10
-1822.756169
 20
-1700.411263
 30
0.0
 11
-1822.662175
 21
-1700.456276
 31
0.0
  0
LINE
  5
153
330
A
100
AcDbEntity
  8
HEWI
100
AcDbLine
 10
-1822.662175
 20
-1700.456276
 30
0.0
 11
-1822.534192
 21
-1700.518303
 31
0.0
  0
LINE
  5
154
330
A
100
AcDbEntity
  8
HEWI
100
AcDbLine
 10
-1822.812169
 20
-1700.383263
 30
0.0
 11
-1822.756169
 21
-1700.411263
 31
0.0
  0
LINE
  5
156
330
A
100
AcDbEntity
  8
HEWI
100
AcDbLine
 10
-1852.331173
 20
-1883.051339
 30
0.0
 11
-1852.234166
 21
-1883.100319
 31
0.0
  0
LINE
  5
157
330
A
100
AcDbEntity
  8
HEWI
100
AcDbLine
 10
-1852.746174
 20
-1627.782288
 30
0.0
 11
-1852.697194
 21
-1627.685318
 31
0.0
  0
LINE
  5
158
330
A
100
AcDbEntity
  8
HEWI
100
AcDbLine
 10
-1777.965176
 20
-1882.68528
 30
0.0
 11
-1777.916176
 21
-1882.588311
 31
0.0
  0
LINE
  5
159
330
A
100
AcDbEntity
  8
HEWI
100
AcDbLine
 10
-1778.427174
 20
-1627.270317
 30
0.0
 11
-1778.331177
 21
-1627.319298
 31
0.0
  0
LINE
  5
15A
330
A
100
AcDbEntity
  8
HEWI
100
AcDbLine
 10
-1778.032181
 20
-1707.035332
 30
0.0
 11
-1777.958176
 21
-1706.890297
 31
0.0
  0
LINE
  5
15B
330
A
100
AcDbEntity
  8
HEWI
100
AcDbLine
 10
-1852.704175
 20
-1663.680306
 30
0.0
 11
-1852.630169
 21
-1663.535309
 31
0.0
  0
LINE
  5
15C
330
A
100
AcDbEntity
  8
HEWI
100
AcDbLine
 10
-1852.081158
 20
-1707.584267
 30
0.0
 11
-1851.936162
 21
-1707.658272
 31
0.0
  0
LINE
  5
15D
330
A
100
AcDbEntity
  8
HEWI
100
AcDbLine
 10
-1778.72617
 20
-1662.912292999999
 30
0.0
 11
-1778.581173
 21
-1662.986298
 31
0.0
  0
LINE
  5
167
330
A
100
AcDbEntity
  8
HEWI
100
AcDbLine
 10
-1778.042176
 20
-1882.800331
 30
0.0
 11
-1777.965176
 21
-1882.68528
 31
0.0
  0
LINE
  5
168
330
A
100
AcDbEntity
  8
HEWI
100
AcDbLine
 10
-1852.697194
 20
-1627.685318
 30
0.0
 11
-1852.620175
 21
-1627.570305
 31
0.0
  0
LINE
  5
169
330
A
100
AcDbEntity
  8
HEWI
100
AcDbLine
 10
-1778.331177
 20
-1627.319298
 30
0.0
 11
-1778.216183
 21
-1627.396317
 31
0.0
  0
LINE
  5
16A
330
A
100
AcDbEntity
  8
HEWI
100
AcDbLine
 10
-1852.253163
 20
-1707.4683
 30
0.0
 11
-1852.081158
 21
-1707.584267
 31
0.0
  0
LINE
  5
16B
330
A
100
AcDbEntity
  8
HEWI
100
AcDbLine
 10
-1852.630169
 20
-1663.535309
 30
0.0
 11
-1852.514164
 21
-1663.363304
 31
0.0
  0
LINE
  5
16C
330
A
100
AcDbEntity
  8
HEWI
100
AcDbLine
 10
-1778.581173
 20
-1662.986298
 30
0.0
 11
-1778.409169
 21
-1663.102303
 31
0.0
  0
LINE
  5
16D
330
A
100
AcDbEntity
  8
HEWI
100
AcDbLine
 10
-1778.148167
 20
-1707.207299
 30
0.0
 11
-1778.032181
 21
-1707.035332
 31
0.0
  0
LINE
  5
16E
330
A
100
AcDbEntity
  8
HEWI
100
AcDbLine
 10
-1852.445157
 20
-1882.974282
 30
0.0
 11
-1852.331173
 21
-1883.051339
 31
0.0
  0
LINE
  5
16F
330
A
100
AcDbEntity
  8
HEWI
100
AcDbLine
 10
-1801.215184
 20
-1696.116295
 30
0.0
 11
-1801.159184
 21
-1696.035271
 31
0.0
  0
LINE
  5
176
330
A
100
AcDbEntity
  8
HEWI
100
AcDbLine
 10
-1801.215184
 20
-1696.116295
 30
0.0
 11
-1799.531167
 21
-1693.710289
 31
0.0
  0
LINE
  5
177
330
A
100
AcDbEntity
  8
HEWI
100
AcDbLine
 10
-1804.595158
 20
-1671.465302
 30
0.0
 11
-1803.292172
 21
-1672.37732
 31
0.0
  0
LINE
  5
178
330
A
100
AcDbEntity
  8
HEWI
100
AcDbLine
 10
-1805.513165
 20
-1670.822296
 30
0.0
 11
-1803.292172
 21
-1672.37732
 31
0.0
  0
LINE
  5
179
330
A
100
AcDbEntity
  8
HEWI
100
AcDbLine
 10
-1805.000546
 20
-1671.181221
 30
0.0
 11
-1804.595158
 21
-1671.465302
 31
0.0
  0
LINE
  5
17A
330
A
100
AcDbEntity
  8
HEWI
100
AcDbLine
 10
-1805.698178
 20
-1670.692292
 30
0.0
 11
-1805.513165
 21
-1670.822296
 31
0.0
  0
LINE
  5
17F
330
A
100
AcDbEntity
  8
HEWI
100
AcDbLine
 10
-1802.285168
 20
-1695.790291
 30
0.0
 11
-1801.826184
 21
-1695.194283
 31
0.0
  0
LINE
  5
181
330
A
100
AcDbEntity
  8
HEWI
100
AcDbLine
 10
-1802.769177
 20
-1696.365319
 30
0.0
 11
-1802.285168
 21
-1695.790291
 31
0.0
  0
LINE
  5
182
330
A
100
AcDbEntity
  8
HEWI
100
AcDbLine
 10
-1852.514164
 20
-1663.363304
 30
0.0
 11
-1852.39217
 21
-1663.224297
 31
0.0
  0
LINE
  5
183
330
A
100
AcDbEntity
  8
HEWI
100
AcDbLine
 10
-1852.39217
 20
-1707.346305999999
 30
0.0
 11
-1852.253163
 21
-1707.4683
 31
0.0
  0
LINE
  5
184
330
A
100
AcDbEntity
  8
HEWI
100
AcDbLine
 10
-1778.409169
 20
-1663.102303
 30
0.0
 11
-1778.27018
 21
-1663.224297
 31
0.0
  0
LINE
  5
185
330
A
100
AcDbEntity
  8
HEWI
100
AcDbLine
 10
-1778.27018
 20
-1707.346305999999
 30
0.0
 11
-1778.148167
 21
-1707.207299
 31
0.0
  0
LINE
  5
186
330
A
100
AcDbEntity
  8
HEWI
100
AcDbLine
 10
-1804.951184
 20
-1672.395287
 30
0.0
 11
-1803.837178
 21
-1673.377266
 31
0.0
  0
LINE
  5
187
330
A
100
AcDbEntity
  8
HEWI
100
AcDbLine
 10
-1852.538159
 20
-1882.892266
 30
0.0
 11
-1852.445157
 21
-1882.974282
 31
0.0
  0
LINE
  5
188
330
A
100
AcDbEntity
  8
HEWI
100
AcDbLine
 10
-1778.216183
 20
-1627.396317
 30
0.0
 11
-1778.124173
 21
-1627.478295
 31
0.0
  0
LINE
  5
189
330
A
100
AcDbEntity
  8
HEWI
100
AcDbLine
 10
-1852.620175
 20
-1627.570305
 30
0.0
 11
-1852.538159
 21
-1627.478295
 31
0.0
  0
LINE
  5
18A
330
A
100
AcDbEntity
  8
HEWI
100
AcDbLine
 10
-1778.124173
 20
-1882.892266
 30
0.0
 11
-1778.042176
 21
-1882.800331
 31
0.0
  0
LINE
  5
18C
330
A
100
AcDbEntity
  8
HEWI
100
AcDbLine
 10
-1803.292172
 20
-1698.193322
 30
0.0
 11
-1801.634189999999
 21
-1696.535302
 31
0.0
  0
LINE
  5
18D
330
A
100
AcDbEntity
  8
HEWI
100
AcDbLine
 10
-1803.292172
 20
-1698.193322
 30
0.0
 11
-1801.215184
 21
-1696.116295
 31
0.0
  0
LINE
  5
18E
330
A
100
AcDbEntity
  8
HEWI
100
AcDbLine
 10
-1803.292172
 20
-1672.37732
 30
0.0
 11
-1801.215184
 21
-1674.454308
 31
0.0
  0
ARC
  5
191
330
A
100
AcDbEntity
  8
HEWI
100
AcDbCircle
 10
-1815.32859
 20
-1685.282283
 30
0.0
 40
16.753732
100
AcDbArc
 50
218.301824
 51
231.157638
  0
ARC
  5
192
330
A
100
AcDbEntity
  8
HEWI
100
AcDbCircle
 10
-1815.320603
 20
-1685.295535
 30
0.0
 40
16.735067
100
AcDbArc
 50
305.720382
 51
321.162651
  0
ARC
  5
193
330
A
100
AcDbEntity
  8
HEWI
100
AcDbCircle
 10
-1815.332032
 20
-1685.287092
 30
0.0
 40
16.751741
100
AcDbArc
 50
12.591202
 51
107.7218
  0
ARC
  5
196
330
A
100
AcDbEntity
  8
HEWI
100
AcDbCircle
 10
-1815.331901
 20
-1685.281771
 30
0.0
 40
16.546509
100
AcDbArc
 50
107.731243
 51
133.449439
  0
ARC
  5
197
330
A
100
AcDbEntity
  8
HEWI
100
AcDbCircle
 10
-1815.338857
 20
-1685.280172
 30
0.0
 40
16.559136
100
AcDbArc
 50
308.311793
 51
334.011321
  0
ARC
  5
199
330
A
100
AcDbEntity
  8
HEWI
100
AcDbCircle
 10
-1815.343666
 20
-1685.295755999999
 30
0.0
 40
16.733551
100
AcDbArc
 50
210.578124
 51
226.021879
  0
ARC
  5
19A
330
A
100
AcDbEntity
  8
HEWI
100
AcDbCircle
 10
-1815.329545
 20
-1685.284225
 30
0.0
 40
16.551526
100
AcDbArc
 50
169.448435
 51
220.873068
  0
ARC
  5
19C
330
A
100
AcDbEntity
  8
HEWI
100
AcDbCircle
 10
-1815.319616
 20
-1685.30157
 30
0.0
 40
16.770126
100
AcDbArc
 50
115.453946
 51
130.865937
  0
ARC
  5
19D
330
A
100
AcDbEntity
  8
HEWI
100
AcDbCircle
 10
-1815.320259
 20
-1685.305116
 30
0.0
 40
16.728147
100
AcDbArc
 50
303.16465
 51
316.038832
  0
ARC
  5
1A0
330
A
100
AcDbEntity
  8
HEWI
100
AcDbCircle
 10
-1814.123055
 20
-1685.284154
 30
0.0
 40
16.848866
100
AcDbArc
 50
29.997672
 51
90.003749
  0
ARC
  5
1A1
330
A
100
AcDbEntity
  8
HEWI
100
AcDbCircle
 10
-1814.123074
 20
-1685.28634
 30
0.0
 40
16.848937
100
AcDbArc
 50
269.996316
 51
330.002038
  0
ARC
  5
1A3
330
A
100
AcDbEntity
  8
HEWI
100
AcDbCircle
 10
-1815.326778
 20
-1685.28388
 30
0.0
 40
16.75395
100
AcDbArc
 50
177.161838
 51
223.437725
  0
ARC
  5
1A4
330
A
100
AcDbEntity
  8
HEWI
100
AcDbCircle
 10
-1815.317387
 20
-1685.317435
 30
0.0
 40
16.515448
100
AcDbArc
 50
282.566142
 51
303.179027
  0
ARC
  5
1A5
330
A
100
AcDbEntity
  8
HEWI
100
AcDbCircle
 10
-1814.127571
 20
-1685.285302
 30
0.0
 40
16.853351
100
AcDbArc
 50
330.006626
 51
29.993374
  0
ARC
  5
1A6
330
A
100
AcDbEntity
  8
HEWI
100
AcDbCircle
 10
-1815.317431
 20
-1685.315892
 30
0.0
 40
16.716289
100
AcDbArc
 50
287.717759
 51
300.599877
  0
ARC
  5
1A7
330
A
100
AcDbEntity
  8
HEWI
100
AcDbCircle
 10
-1815.320287
 20
-1685.316322
 30
0.0
 40
16.78316
100
AcDbArc
 50
102.599171
 51
115.430233
  0
ARC
  5
1A8
330
A
100
AcDbEntity
  8
HEWI
100
AcDbCircle
 10
-1815.335082
 20
-1685.273785
 30
0.0
 40
16.761946
100
AcDbArc
 50
285.161439
 51
298.01031
  0
ARC
  5
1A9
330
A
100
AcDbEntity
  8
HEWI
100
AcDbCircle
 10
-1815.383771
 20
-1685.29563
 30
0.0
 40
16.803836
100
AcDbArc
 50
4.893262
 51
17.708661
  0
ARC
  5
1AA
330
A
100
AcDbEntity
  8
HEWI
100
AcDbCircle
 10
-1815.329095
 20
-1685.278921
 30
0.0
 40
16.543856
100
AcDbArc
 50
56.293054
 51
102.596934
  0
ARC
  5
1AB
330
A
100
AcDbEntity
  8
HEWI
100
AcDbCircle
 10
-1815.317722
 20
-1685.364403
 30
0.0
 40
16.669944
100
AcDbArc
 50
272.267495
 51
285.185307
  0
ARC
  5
1AD
330
A
100
AcDbEntity
  8
HEWI
100
AcDbCircle
 10
-1815.413317
 20
-1685.291889
 30
0.0
 40
16.83085
100
AcDbArc
 50
352.075704
 51
17.665936
  0
ARC
  5
1AE
330
A
100
AcDbEntity
  8
HEWI
100
AcDbCircle
 10
-1815.325015
 20
-1685.359649
 30
0.0
 40
16.675602
100
AcDbArc
 50
267.125855
 51
282.6216819999999
  0
ARC
  5
1AF
330
A
100
AcDbEntity
  8
HEWI
100
AcDbCircle
 10
-1815.33941
 20
-1685.285922
 30
0.0
 40
16.558083
100
AcDbArc
 50
344.3116740000002
 51
4.873261
  0
ARC
  5
1B0
330
A
100
AcDbEntity
  8
HEWI
100
AcDbCircle
 10
-1815.332562
 20
-1685.285356
 30
0.0
 40
16.748081
100
AcDbArc
 50
161.727779
 51
182.299358
  0
ARC
  5
1B1
330
A
100
AcDbEntity
  8
HEWI
100
AcDbCircle
 10
-1815.333493
 20
-1685.315379
 30
0.0
 40
16.719559
100
AcDbArc
 50
259.431069
 51
272.31485
  0
ARC
  5
1B2
330
A
100
AcDbEntity
  8
HEWI
100
AcDbCircle
 10
-1814.123495
 20
-1685.289497
 30
0.0
 40
16.854209
100
AcDbArc
 50
60.00701799999998
 51
89.99888199999999
  0
ARC
  5
1B5
330
A
100
AcDbEntity
  8
HEWI
100
AcDbCircle
 10
-1815.257897
 20
-1685.293441
 30
0.0
 40
16.677028
100
AcDbArc
 50
344.260518
 51
357.171845
  0
ARC
  5
1B6
330
A
100
AcDbEntity
  8
HEWI
100
AcDbCircle
 10
-1815.336057
 20
-1685.315835
 30
0.0
 40
16.718863
100
AcDbArc
 50
251.712564
 51
264.59403
  0
ARC
  5
1B7
330
A
100
AcDbEntity
  8
HEWI
100
AcDbCircle
 10
-1815.414344
 20
-1685.262984
 30
0.0
 40
16.835876
100
AcDbArc
 50
339.186212
 51
351.9787560000001
  0
ARC
  5
1B8
330
A
100
AcDbEntity
  8
HEWI
100
AcDbCircle
 10
-1815.309149
 20
-1685.209739
 30
0.0
 40
16.828298
100
AcDbArc
 50
249.18111
 51
261.976021
  0
ARC
  5
1B9
330
A
100
AcDbEntity
  8
HEWI
100
AcDbCircle
 10
-1815.337377
 20
-1685.279167
 30
0.0
 40
16.54172
100
AcDbArc
 50
138.587724
 51
164.315595
  0
ARC
  5
1BA
330
A
100
AcDbEntity
  8
HEWI
100
AcDbCircle
 10
-1815.365255999999
 20
-1685.271432
 30
0.0
 40
16.713459
100
AcDbArc
 50
148.851734
 51
164.312587
  0
ARC
  5
1BB
330
A
100
AcDbEntity
  8
HEWI
100
AcDbCircle
 10
-1815.335476
 20
-1685.295958
 30
0.0
 40
16.738353
100
AcDbArc
 50
241.438247
 51
256.879135
  0
ARC
  5
1BC
330
A
100
AcDbEntity
  8
HEWI
100
AcDbCircle
 10
-1815.329281
 20
-1685.283811
 30
0.0
 40
16.748967
100
AcDbArc
 50
328.863748
 51
349.436555
  0
ARC
  5
1BE
330
A
100
AcDbEntity
  8
HEWI
100
AcDbCircle
 10
-1815.332467
 20
-1685.285583
 30
0.0
 40
16.548807
100
AcDbArc
 50
231.159236
 51
246.591025
  0
ARC
  5
1BF
330
A
100
AcDbEntity
  8
HEWI
100
AcDbCircle
 10
-1815.349853
 20
-1685.328168
 30
0.0
 40
16.703476
100
AcDbArc
 50
238.850193
 51
254.323666
  0
ARC
  5
1C0
330
A
100
AcDbEntity
  8
HEWI
100
AcDbCircle
 10
-1815.345723
 20
-1685.274228
 30
0.0
 40
16.767996
100
AcDbArc
 50
321.15977
 51
336.5711950000001
  0
ARC
  5
1C1
330
A
100
AcDbEntity
  8
HEWI
100
AcDbCircle
 10
-1815.311928
 20
-1685.258904
 30
0.0
 40
16.782109
100
AcDbArc
 50
226.031272
 51
246.5618379999999
  0
ARC
  5
1C2
330
A
100
AcDbEntity
  8
HEWI
100
AcDbCircle
 10
-1815.332936
 20
-1685.284291
 30
0.0
 40
16.74775
100
AcDbArc
 50
118.010265
 51
182.30305
  0
LINE
  5
1C3
330
A
100
AcDbEntity
  8
HEWI
  6
STANDARD
 62
     7
100
AcDbLine
 10
-2567.278161915
 20
-1702.135276999999
 30
0.0
 11
-2755.778165914999
 21
-1702.135277
 31
0.0
  0
LINE
  5
1C4
330
A
100
AcDbEntity
  8
HEWI
  6
STANDARD
 62
     7
100
AcDbLine
 10
-2248.278184914998
 20
-1702.135277
 30
0.0
 11
-2727.278170915
 21
-1702.135277000001
 31
0.0
  0
LINE
  5
1C5
330
A
100
AcDbEntity
  8
HEWI
  6
STANDARD
 62
     7
100
AcDbLine
 10
-2114.680123914999
 20
-1702.135277
 30
0.0
 11
-2208.278165915
 21
-1702.135277
 31
0.0
  0
LINE
  5
1C6
330
A
100
AcDbEntity
  8
HEWI
  6
STANDARD
 62
     7
100
AcDbLine
 10
-2114.680123914999
 20
-1668.435288000001
 30
0.0
 11
-2755.778165915
 21
-1668.435288
 31
0.0
  0
LINE
  5
1C7
330
A
100
AcDbEntity
  8
HEWI
  6
STANDARD
 62
     7
100
AcDbLine
 10
-2530.278163915
 20
-1777.635307999999
 30
0.0
 11
-2564.278169915001
 21
-1777.635307999999
 31
0.0
  0
LINE
  5
1C8
330
A
100
AcDbEntity
  8
HEWI
  6
STANDARD
 62
     7
100
AcDbLine
 10
-2211.278176915
 20
-1777.635307999999
 30
0.0
 11
-2245.278172915
 21
-1777.635308
 31
0.0
  0
LINE
  5
1C9
330
A
100
AcDbEntity
  8
HEWI
  6
STANDARD
 62
     7
100
AcDbLine
 10
-2530.278163915
 20
-1700.374335999999
 30
0.0
 11
-2564.278169915001
 21
-1700.374335999999
 31
0.0
  0
LINE
  5
1CA
330
A
100
AcDbEntity
  8
HEWI
  6
STANDARD
 62
     7
100
AcDbLine
 10
-2211.278176914998
 20
-1700.374336
 30
0.0
 11
-2245.278172915
 21
-1700.374336
 31
0.0
  0
LINE
  5
1CB
330
A
100
AcDbEntity
  8
HEWI
  6
STANDARD
 62
     7
100
AcDbLine
 10
-2070.978169914999
 20
-1704.685326
 30
0.0
 11
-2073.478188915
 21
-1704.685326
 31
0.0
  0
LINE
  5
1CC
330
A
100
AcDbEntity
  8
HEWI
  6
STANDARD
 62
     7
100
AcDbLine
 10
-2070.978169914999
 20
-1665.885314999999
 30
0.0
 11
-2073.478188915
 21
-1665.885314999999
 31
0.0
  0
LINE
  5
1CD
330
A
100
AcDbEntity
  8
HEWI
  6
STANDARD
 62
     7
100
AcDbLine
 10
-2073.978181914999
 20
-1707.785301
 30
0.0
 11
-2099.778180915
 21
-1707.785301
 31
0.0
  0
LINE
  5
1CE
330
A
100
AcDbEntity
  8
HEWI
  6
STANDARD
 62
     7
100
AcDbLine
 10
-2078.278184914999
 20
-1800.135307999999
 30
0.0
 11
-2700.078161915
 21
-1800.135307999999
 31
0.0
  0
LINE
  5
1CF
330
A
100
AcDbEntity
  8
HEWI
  6
STANDARD
 62
     7
100
AcDbLine
 10
-2567.278180914999
 20
-1775.135307999999
 30
0.0
 11
-2697.278161915
 21
-1775.135308
 31
0.0
  0
LINE
  5
1D0
330
A
100
AcDbEntity
  8
HEWI
  6
STANDARD
 62
     7
100
AcDbLine
 10
-2248.278174915
 20
-1775.135308
 30
0.0
 11
-2700.078161915
 21
-1775.135308
 31
0.0
  0
LINE
  5
1D1
330
A
100
AcDbEntity
  8
HEWI
  6
STANDARD
 62
     7
100
AcDbLine
 10
-2078.278184914999
 20
-1775.135307999999
 30
0.0
 11
-2208.278184914999
 21
-1775.135308
 31
0.0
  0
LINE
  5
1D2
330
A
100
AcDbEntity
  8
HEWI
  6
STANDARD
 62
     7
100
AcDbLine
 10
-2074.978185915
 20
-1799.885292
 30
0.0
 11
-2078.278184914999
 21
-1799.885292
 31
0.0
  0
LINE
  5
1D3
330
A
100
AcDbEntity
  8
HEWI
  6
STANDARD
 62
     7
100
AcDbLine
 10
-2074.978185915
 20
-1775.385323
 30
0.0
 11
-2078.278184914999
 21
-1775.385323
 31
0.0
  0
LINE
  5
1D6
330
A
100
AcDbEntity
  8
HEWI
  6
STANDARD
 62
     7
100
AcDbLine
 10
-2070.978169914999
 20
-1665.685311
 30
0.0
 11
-2073.872361915
 21
-1665.685311
 31
0.0
  0
LINE
  5
1D7
330
A
100
AcDbEntity
  8
HEWI
  6
STANDARD
 62
     7
100
AcDbLine
 10
-2058.778195914999
 20
-1627.185287999999
 30
0.0
 11
-2067.978177915001
 21
-1627.185287999999
 31
0.0
  0
LINE
  5
1D8
330
A
100
AcDbEntity
  8
HEWI
  6
STANDARD
 62
     7
100
AcDbLine
 10
-2058.778195915001
 20
-1883.185310999999
 30
0.0
 11
-2067.978177915001
 21
-1883.185310999999
 31
0.0
  0
LINE
  5
1DA
330
A
100
AcDbEntity
  8
HEWI
  6
STANDARD
 62
     7
100
AcDbLine
 10
-2755.778165914999
 20
-1668.691292
 30
0.0
 11
-2755.778165914999
 21
-1668.435288
 31
0.0
  0
LINE
  5
1DB
330
A
100
AcDbEntity
  8
HEWI
  6
STANDARD
 62
     7
100
AcDbLine
 10
-2755.778165914999
 20
-1702.135277
 30
0.0
 11
-2755.778165914999
 21
-1668.987313
 31
0.0
  0
LINE
  5
1DC
330
A
100
AcDbEntity
  8
HEWI
  6
STANDARD
 62
     7
100
AcDbLine
 10
-2248.278174915
 20
-1775.97332
 30
0.0
 11
-2248.278174914998
 21
-1701.523323
 31
0.0
  0
LINE
  5
1DD
330
A
100
AcDbEntity
  8
HEWI
  6
STANDARD
 62
     7
100
AcDbLine
 10
-2208.278184914999
 20
-1775.97332
 30
0.0
 11
-2208.278184914998
 21
-1701.523322999999
 31
0.0
  0
LINE
  5
1DE
330
A
100
AcDbEntity
  8
HEWI
  6
STANDARD
 62
     7
100
AcDbLine
 10
-2073.978181914999
 20
-1665.685311
 30
0.0
 11
-2073.978181914999
 21
-1633.185310999999
 31
0.0
  0
LINE
  5
1DF
330
A
100
AcDbEntity
  8
HEWI
  6
STANDARD
 62
     7
100
AcDbLine
 10
-2073.978181915
 20
-1877.185326000001
 30
0.0
 11
-2073.978181914999
 21
-1704.685326
 31
0.0
  0
LINE
  5
1E0
330
A
100
AcDbEntity
  8
HEWI
  6
STANDARD
 62
     7
100
AcDbLine
 10
-2070.978169914999
 20
-1704.685326
 30
0.0
 11
-2070.978169914999
 21
-1665.685311
 31
0.0
  0
LINE
  5
1E1
330
A
100
AcDbEntity
  8
HEWI
  6
STANDARD
 62
     7
100
AcDbLine
 10
-2078.278184914999
 20
-1800.135307999999
 30
0.0
 11
-2078.278184914999
 21
-1775.135307999999
 31
0.0
  0
LINE
  5
1E3
330
A
100
AcDbEntity
  8
HEWI
  6
STANDARD
 62
     7
100
AcDbLine
 10
-2567.278161915
 20
-1775.973319999999
 30
0.0
 11
-2567.278161915
 21
-1701.523322999999
 31
0.0
  0
LINE
  5
1E4
330
A
100
AcDbEntity
  8
HEWI
  6
STANDARD
 62
     7
100
AcDbLine
 10
-2527.278170915
 20
-1775.973319999999
 30
0.0
 11
-2527.278170915
 21
-1701.523322999999
 31
0.0
  0
LINE
  5
1E5
330
A
100
AcDbEntity
  8
HEWI
  6
STANDARD
 62
     7
100
AcDbLine
 10
-2758.778157915
 20
-1701.822319
 30
0.0
 11
-2758.778157915
 21
-1668.748284
 31
0.0
  0
LINE
  5
1ED
330
A
100
AcDbEntity
  8
HEWI
  6
STANDARD
 62
     7
100
AcDbLine
 10
-2058.778195915001
 20
-1883.185310999999
 30
0.0
 11
-2058.778195914999
 21
-1627.185287999999
 31
0.0
  0
LINE
  5
1EE
330
A
100
AcDbEntity
  8
HEWI
  6
STANDARD
 62
     7
100
AcDbLine
 10
-2072.978177915
 20
-1665.885314999999
 30
0.0
 11
-2072.978177915
 21
-1665.685311
 31
0.0
  0
LINE
  5
1EF
330
A
100
AcDbEntity
  8
HEWI
  6
STANDARD
 62
     7
100
AcDbLine
 10
-2067.978177915001
 20
-1882.588309999999
 30
0.0
 11
-2067.978177915001
 21
-1882.352333
 31
0.0
  0
LINE
  5
1F0
330
A
100
AcDbEntity
  8
HEWI
  6
STANDARD
 62
     7
100
AcDbLine
 10
-2116.695676914999
 20
-1700.106774
 30
0.0
 11
-2117.054181914999
 21
-1699.748268000001
 31
0.0
  0
LINE
  5
1F1
330
A
100
AcDbEntity
  8
HEWI
  6
STANDARD
 62
     7
100
AcDbLine
 10
-2755.778165914999
 20
-1668.735314
 30
0.0
 11
-2755.978169914999
 21
-1668.535309
 31
0.0
  0
LINE
  5
1F2
330
A
100
AcDbEntity
  8
HEWI
  6
STANDARD
 62
     7
100
AcDbLine
 10
-2116.695676914999
 20
-1700.106774
 30
0.0
 11
-2116.924195915
 21
-1699.878273
 31
0.0
  0
LINE
  5
1F3
330
A
100
AcDbEntity
  8
HEWI
  6
STANDARD
 62
     7
100
AcDbLine
 10
-2755.778165914999
 20
-1701.835289
 30
0.0
 11
-2755.978169915
 21
-1702.035332
 31
0.0
  0
LINE
  5
1F5
330
A
100
AcDbEntity
  8
HEWI
  6
STANDARD
 62
     7
100
AcDbLine
 10
-2758.578152915
 20
-1702.021294
 30
0.0
 11
-2758.778157915
 21
-1701.822319
 31
0.0
  0
LINE
  5
1F6
330
A
100
AcDbEntity
  8
HEWI
  6
STANDARD
 62
     7
100
AcDbLine
 10
-2115.209184914999
 20
-1668.911286
 30
0.0
 11
-2116.243176914998
 21
-1669.951287
 31
0.0
  0
LINE
  5
1F7
330
A
100
AcDbEntity
  8
HEWI
  6
STANDARD
 62
     7
100
AcDbLine
 10
-2567.021165914999
 20
-1701.137275999999
 30
0.0
 11
-2567.202172915
 21
-1701.323280999999
 31
0.0
  0
LINE
  5
1F8
330
A
100
AcDbEntity
  8
HEWI
  6
STANDARD
 62
     7
100
AcDbLine
 10
-2248.021178914999
 20
-1701.137276
 30
0.0
 11
-2248.202176914999
 21
-1701.323281
 31
0.0
  0
LINE
  5
1F9
330
A
100
AcDbEntity
  8
HEWI
  6
STANDARD
 62
     7
100
AcDbLine
 10
-2247.780175915
 20
-1776.755333
 30
0.0
 11
-2247.981171914999
 21
-1776.563301
 31
0.0
  0
LINE
  5
1FA
330
A
100
AcDbEntity
  8
HEWI
  6
STANDARD
 62
     7
100
AcDbLine
 10
-2566.780171915
 20
-1776.755332999999
 30
0.0
 11
-2566.981168914999
 21
-1776.563300999999
 31
0.0
  0
LINE
  5
1FB
330
A
100
AcDbEntity
  8
HEWI
  6
STANDARD
 62
     7
100
AcDbLine
 10
-2114.936185914999
 20
-1701.913338
 30
0.0
 11
-2115.209184914999
 21
-1701.659279000001
 31
0.0
  0
LINE
  5
1FC
330
A
100
AcDbEntity
  8
HEWI
  6
STANDARD
 62
     7
100
AcDbLine
 10
-2116.243176914998
 20
-1669.951287
 30
0.0
 11
-2116.405186914999
 21
-1670.127297
 31
0.0
  0
LINE
  5
1FD
330
A
100
AcDbEntity
  8
HEWI
  6
STANDARD
 62
     7
100
AcDbLine
 10
-2114.109177914999
 20
-1702.630272
 30
0.0
 11
-2114.936185914999
 21
-1701.913338
 31
0.0
  0
LINE
  5
1FE
330
A
100
AcDbEntity
  8
HEWI
  6
STANDARD
 62
     7
100
AcDbLine
 10
-2072.220197915
 20
-1628.942298999999
 30
0.0
 11
-2072.785191915
 21
-1629.595298999999
 31
0.0
  0
LINE
  5
1FF
330
A
100
AcDbEntity
  8
HEWI
  6
STANDARD
 62
     7
100
AcDbLine
 10
-2116.405186914999
 20
-1670.127297
 30
0.0
 11
-2117.207188915
 21
-1671.05629
 31
0.0
  0
LINE
  5
200
330
A
100
AcDbEntity
  8
HEWI
  6
STANDARD
 62
     7
100
AcDbLine
 10
-2208.446183915
 20
-1776.406287999999
 30
0.0
 11
-2208.575177915001
 21
-1776.563301
 31
0.0
  0
LINE
  5
201
330
A
100
AcDbEntity
  8
HEWI
  6
STANDARD
 62
     7
100
AcDbLine
 10
-2527.446170915001
 20
-1776.406287999999
 30
0.0
 11
-2527.575164915
 21
-1776.563300999999
 31
0.0
  0
LINE
  5
202
330
A
100
AcDbEntity
  8
HEWI
  6
STANDARD
 62
     7
100
AcDbLine
 10
-2071.213193914999
 20
-1882.238273999999
 30
0.0
 11
-2072.220197915
 21
-1881.428336999999
 31
0.0
  0
LINE
  5
203
330
A
100
AcDbEntity
  8
HEWI
  6
STANDARD
 62
     7
100
AcDbLine
 10
-2113.337178914998
 20
-1703.240319000001
 30
0.0
 11
-2114.109177914999
 21
-1702.630272
 31
0.0
  0
LINE
  5
204
330
A
100
AcDbEntity
  8
HEWI
  6
STANDARD
 62
     7
100
AcDbLine
 10
-2117.207188915
 20
-1671.05629
 30
0.0
 11
-2117.733178914999
 21
-1671.726302999999
 31
0.0
  0
LINE
  5
205
330
A
100
AcDbEntity
  8
HEWI
  6
STANDARD
 62
     7
100
AcDbLine
 10
-2073.728185914998
 20
-1665.818291
 30
0.0
 11
-2073.831181914998
 21
-1665.738297
 31
0.0
  0
LINE
  5
206
330
A
100
AcDbEntity
  8
HEWI
  6
STANDARD
 62
     7
100
AcDbLine
 10
-2112.949185915
 20
-1703.527336
 30
0.0
 11
-2113.337178914998
 21
-1703.240319000001
 31
0.0
  0
LINE
  5
207
330
A
100
AcDbEntity
  8
HEWI
  6
STANDARD
 62
     7
100
AcDbLine
 10
-2117.733178914999
 20
-1671.726302999999
 30
0.0
 11
-2118.097176914999
 21
-1672.22229
 31
0.0
  0
LINE
  5
208
330
A
100
AcDbEntity
  8
HEWI
  6
STANDARD
 62
     7
100
AcDbLine
 10
-2247.612176915
 20
-1776.878319
 30
0.0
 11
-2247.780175915
 21
-1776.755333
 31
0.0
  0
LINE
  5
209
330
A
100
AcDbEntity
  8
HEWI
  6
STANDARD
 62
     7
100
AcDbLine
 10
-2566.612172915001
 20
-1776.878318999999
 30
0.0
 11
-2566.780171915
 21
-1776.755332999999
 31
0.0
  0
LINE
  5
20A
330
A
100
AcDbEntity
  8
HEWI
  6
STANDARD
 62
     7
100
AcDbLine
 10
-2247.400174914999
 20
-1777.03228
 30
0.0
 11
-2247.612176915
 21
-1776.878319
 31
0.0
  0
LINE
  5
20B
330
A
100
AcDbEntity
  8
HEWI
  6
STANDARD
 62
     7
100
AcDbLine
 10
-2566.400170914999
 20
-1777.032279999999
 30
0.0
 11
-2566.612172915001
 21
-1776.878318999999
 31
0.0
  0
LINE
  5
20C
330
A
100
AcDbEntity
  8
HEWI
  6
STANDARD
 62
     7
100
AcDbLine
 10
-2208.580174915001
 20
-1701.105309
 30
0.0
 11
-2208.737168915
 21
-1700.994300999999
 31
0.0
  0
LINE
  5
20D
330
A
100
AcDbEntity
  8
HEWI
  6
STANDARD
 62
     7
100
AcDbLine
 10
-2527.580161915
 20
-1701.105308999999
 30
0.0
 11
-2527.737164915001
 21
-1700.994300999999
 31
0.0
  0
LINE
  5
20E
330
A
100
AcDbEntity
  8
HEWI
  6
STANDARD
 62
     7
100
AcDbLine
 10
-2113.981805914999
 20
-1702.730980000001
 30
0.0
 11
-2114.281182915
 21
-1702.521324
 31
0.0
  0
LINE
  5
20F
330
A
100
AcDbEntity
  8
HEWI
  6
STANDARD
 62
     7
100
AcDbLine
 10
-2117.054181914999
 20
-1670.822296
 30
0.0
 11
-2117.307782914998
 21
-1671.184426
 31
0.0
  0
LINE
  5
210
330
A
100
AcDbEntity
  8
HEWI
  6
STANDARD
 62
     7
100
AcDbLine
 10
-2111.068177914999
 20
-1704.771308999999
 30
0.0
 11
-2111.358514914999
 21
-1704.567985999999
 31
0.0
  0
LINE
  5
211
330
A
100
AcDbEntity
  8
HEWI
  6
STANDARD
 62
     7
100
AcDbLine
 10
-2118.998055915
 20
-1673.598137
 30
0.0
 11
-2119.304185915001
 21
-1674.035300999999
 31
0.0
  0
LINE
  5
212
330
A
100
AcDbEntity
  8
HEWI
  6
STANDARD
 62
     7
100
AcDbLine
 10
-2118.997979914999
 20
-1673.597984999999
 30
0.0
 11
-2119.304185915001
 21
-1674.035300999999
 31
0.0
  0
LINE
  5
213
330
A
100
AcDbEntity
  8
HEWI
  6
STANDARD
 62
     7
100
AcDbLine
 10
-2527.534165915001
 20
-1701.137275999999
 30
0.0
 11
-2527.580161915
 21
-1701.105308999999
 31
0.0
  0
LINE
  5
214
330
A
100
AcDbEntity
  8
HEWI
  6
STANDARD
 62
     7
100
AcDbLine
 10
-2208.534169915
 20
-1701.137276
 30
0.0
 11
-2208.580174915001
 21
-1701.105309
 31
0.0
  0
LINE
  5
215
330
A
100
AcDbEntity
  8
HEWI
  6
STANDARD
 62
     7
100
AcDbLine
 10
-2111.732182914998
 20
-1704.346276
 30
0.0
 11
-2112.949185915
 21
-1703.527336
 31
0.0
  0
LINE
  5
216
330
A
100
AcDbEntity
  8
HEWI
  6
STANDARD
 62
     7
100
AcDbLine
 10
-2118.097176914999
 20
-1672.22229
 30
0.0
 11
-2118.908181914998
 21
-1673.440285
 31
0.0
  0
LINE
  5
217
330
A
100
AcDbEntity
  8
HEWI
  6
STANDARD
 62
     7
100
AcDbLine
 10
-2072.954182914999
 20
-1629.859314
 30
0.0
 11
-2073.251195915
 21
-1630.322303999999
 31
0.0
  0
LINE
  5
218
330
A
100
AcDbEntity
  8
HEWI
  6
STANDARD
 62
     7
100
AcDbLine
 10
-2072.785191915
 20
-1629.595298999999
 30
0.0
 11
-2072.954182914999
 21
-1629.859314
 31
0.0
  0
LINE
  5
219
330
A
100
AcDbEntity
  8
HEWI
  6
STANDARD
 62
     7
100
AcDbLine
 10
-2111.622186914999
 20
-1704.415321999999
 30
0.0
 11
-2111.732182914998
 21
-1704.346276
 31
0.0
  0
LINE
  5
21A
330
A
100
AcDbEntity
  8
HEWI
  6
STANDARD
 62
     7
100
AcDbLine
 10
-2208.353181914999
 20
-1776.253318999999
 30
0.0
 11
-2208.446183915
 21
-1776.406287999999
 31
0.0
  0
LINE
  5
21B
330
A
100
AcDbEntity
  8
HEWI
  6
STANDARD
 62
     7
100
AcDbLine
 10
-2527.353167914999
 20
-1776.253318999999
 30
0.0
 11
-2527.446170915001
 21
-1776.406287999999
 31
0.0
  0
LINE
  5
21C
330
A
100
AcDbEntity
  8
HEWI
  6
STANDARD
 62
     7
100
AcDbLine
 10
-2110.465188914999
 20
-1705.085334999999
 30
0.0
 11
-2111.622186914999
 21
-1704.415321999999
 31
0.0
  0
LINE
  5
21D
330
A
100
AcDbEntity
  8
HEWI
  6
STANDARD
 62
     7
100
AcDbLine
 10
-2118.907189915001
 20
-1673.440285
 30
0.0
 11
-2119.641194914998
 21
-1674.715308999999
 31
0.0
  0
LINE
  5
21E
330
A
100
AcDbEntity
  8
HEWI
  6
STANDARD
 62
     7
100
AcDbLine
 10
-2247.148175914999
 20
-1777.176323
 30
0.0
 11
-2247.400174914999
 21
-1777.03228
 31
0.0
  0
LINE
  5
21F
330
A
100
AcDbEntity
  8
HEWI
  6
STANDARD
 62
     7
100
AcDbLine
 10
-2566.148171914999
 20
-1777.176323
 30
0.0
 11
-2566.400170914999
 21
-1777.032279999999
 31
0.0
  0
LINE
  5
220
330
A
100
AcDbEntity
  8
HEWI
  6
STANDARD
 62
     7
100
AcDbLine
 10
-2527.737164915001
 20
-1700.994300999999
 30
0.0
 11
-2527.932162915
 21
-1700.884284999999
 31
0.0
  0
LINE
  5
221
330
A
100
AcDbEntity
  8
HEWI
  6
STANDARD
 62
     7
100
AcDbLine
 10
-2208.737168915
 20
-1700.994300999999
 30
0.0
 11
-2208.932175914998
 21
-1700.884285
 31
0.0
  0
LINE
  5
222
330
A
100
AcDbEntity
  8
HEWI
  6
STANDARD
 62
     7
100
AcDbLine
 10
-2248.202176914999
 20
-1701.323281
 30
0.0
 11
-2248.259177915
 21
-1701.425286
 31
0.0
  0
LINE
  5
223
330
A
100
AcDbEntity
  8
HEWI
  6
STANDARD
 62
     7
100
AcDbLine
 10
-2567.202172915
 20
-1701.323280999999
 30
0.0
 11
-2567.259164915001
 21
-1701.425285999999
 31
0.0
  0
LINE
  5
224
330
A
100
AcDbEntity
  8
HEWI
  6
STANDARD
 62
     7
100
AcDbLine
 10
-2118.908181914998
 20
-1673.440285
 30
0.0
 11
-2118.937535914998
 21
-1673.493004
 31
0.0
  0
LINE
  5
225
330
A
100
AcDbEntity
  8
HEWI
  6
STANDARD
 62
     7
100
AcDbLine
 10
-2109.807191914998
 20
-1705.426292999999
 30
0.0
 11
-2110.465188914999
 21
-1705.085334999999
 31
0.0
  0
LINE
  5
226
330
A
100
AcDbEntity
  8
HEWI
  6
STANDARD
 62
     7
100
AcDbLine
 10
-2119.641194914998
 20
-1674.715308999999
 30
0.0
 11
-2119.919190915
 21
-1675.256309999999
 31
0.0
  0
LINE
  5
227
330
A
100
AcDbEntity
  8
HEWI
  6
STANDARD
 62
     7
100
AcDbLine
 10
-2070.054173914999
 20
-1882.814292999999
 30
0.0
 11
-2070.967183915001
 21
-1882.360267999999
 31
0.0
  0
LINE
  5
228
330
A
100
AcDbEntity
  8
HEWI
  6
STANDARD
 62
     7
100
AcDbLine
 10
-2070.967183915001
 20
-1882.360267999999
 30
0.0
 11
-2071.213193914999
 21
-1882.238273999999
 31
0.0
  0
LINE
  5
229
330
A
100
AcDbEntity
  8
HEWI
  6
STANDARD
 62
     7
100
AcDbLine
 10
-2109.152188915
 20
-1705.739326999999
 30
0.0
 11
-2109.807191914998
 21
-1705.426292999999
 31
0.0
  0
LINE
  5
22A
330
A
100
AcDbEntity
  8
HEWI
  6
STANDARD
 62
     7
100
AcDbLine
 10
-2246.876178915
 20
-1777.305336
 30
0.0
 11
-2247.148175914999
 21
-1777.176323
 31
0.0
  0
LINE
  5
22B
330
A
100
AcDbEntity
  8
HEWI
  6
STANDARD
 62
     7
100
AcDbLine
 10
-2565.876164915
 20
-1777.305335999999
 30
0.0
 11
-2566.148171914999
 21
-1777.176323
 31
0.0
  0
LINE
  5
22C
330
A
100
AcDbEntity
  8
HEWI
  6
STANDARD
 62
     7
100
AcDbLine
 10
-2119.919190915
 20
-1675.256309999999
 30
0.0
 11
-2120.287194914999
 21
-1676.032295
 31
0.0
  0
LINE
  5
22D
330
A
100
AcDbEntity
  8
HEWI
  6
STANDARD
 62
     7
100
AcDbLine
 10
-2107.513184914999
 20
-1706.428336999999
 30
0.0
 11
-2107.705922914999
 21
-1706.338462999999
 31
0.0
  0
LINE
  5
22E
330
A
100
AcDbEntity
  8
HEWI
  6
STANDARD
 62
     7
100
AcDbLine
 10
-2110.756745915001
 20
-1704.916496999999
 30
0.0
 11
-2111.068177914999
 21
-1704.771308999999
 31
0.0
  0
LINE
  5
22F
330
A
100
AcDbEntity
  8
HEWI
  6
STANDARD
 62
     7
100
AcDbLine
 10
-2120.747800914999
 20
-1677.132454
 30
0.0
 11
-2120.961194915
 21
-1677.590293999999
 31
0.0
  0
LINE
  5
230
330
A
100
AcDbEntity
  8
HEWI
  6
STANDARD
 62
     7
100
AcDbLine
 10
-2119.304185915001
 20
-1674.035300999999
 30
0.0
 11
-2119.535851914999
 21
-1674.532357
 31
0.0
  0
LINE
  5
231
330
A
100
AcDbEntity
  8
HEWI
  6
STANDARD
 62
     7
100
AcDbLine
 10
-2120.746369914999
 20
-1677.129097
 30
0.0
 11
-2120.961194915
 21
-1677.590293999999
 31
0.0
  0
LINE
  5
232
330
A
100
AcDbEntity
  8
HEWI
  6
STANDARD
 62
     7
100
AcDbLine
 10
-2208.932175914998
 20
-1700.884285
 30
0.0
 11
-2209.156174914998
 21
-1700.780296999998
 31
0.0
  0
LINE
  5
233
330
A
100
AcDbEntity
  8
HEWI
  6
STANDARD
 62
     7
100
AcDbLine
 10
-2527.932162915
 20
-1700.884284999999
 30
0.0
 11
-2528.156161914999
 21
-1700.780296999998
 31
0.0
  0
LINE
  5
234
330
A
100
AcDbEntity
  8
HEWI
  6
STANDARD
 62
     7
100
AcDbLine
 10
-2073.510194915
 20
-1630.894317999999
 30
0.0
 11
-2073.607182914999
 21
-1631.108283999999
 31
0.0
  0
LINE
  5
235
330
A
100
AcDbEntity
  8
HEWI
  6
STANDARD
 62
     7
100
AcDbLine
 10
-2073.251195915
 20
-1630.322303999999
 30
0.0
 11
-2073.510194915
 21
-1630.894317999999
 31
0.0
  0
LINE
  5
236
330
A
100
AcDbEntity
  8
HEWI
  6
STANDARD
 62
     7
100
AcDbLine
 10
-2107.906194914999
 20
-1706.266289
 30
0.0
 11
-2109.152188915
 21
-1705.739326999999
 31
0.0
  0
LINE
  5
237
330
A
100
AcDbEntity
  8
HEWI
  6
STANDARD
 62
     7
100
AcDbLine
 10
-2120.287194914999
 20
-1676.032295
 30
0.0
 11
-2120.758195915
 21
-1677.157325999999
 31
0.0
  0
LINE
  5
238
330
A
100
AcDbEntity
  8
HEWI
  6
STANDARD
 62
     7
100
AcDbLine
 10
-2073.607182914998
 20
-1665.868301999999
 30
0.0
 11
-2073.728185914998
 21
-1665.818291
 31
0.0
  0
LINE
  5
239
330
A
100
AcDbEntity
  8
HEWI
  6
STANDARD
 62
     7
100
AcDbLine
 10
-2073.911195915
 20
-1704.935264999999
 30
0.0
 11
-2073.961186914999
 21
-1705.056266999999
 31
0.0
  0
LINE
  5
23A
330
A
100
AcDbEntity
  8
HEWI
  6
STANDARD
 62
     7
100
AcDbLine
 10
-2209.156174914998
 20
-1700.780296999998
 30
0.0
 11
-2209.407182914999
 21
-1700.682334999999
 31
0.0
  0
LINE
  5
23B
330
A
100
AcDbEntity
  8
HEWI
  6
STANDARD
 62
     7
100
AcDbLine
 10
-2528.156161914999
 20
-1700.780296999998
 30
0.0
 11
-2528.407168915
 21
-1700.682335000001
 31
0.0
  0
LINE
  5
23C
330
A
100
AcDbEntity
  8
HEWI
  6
STANDARD
 62
     7
100
AcDbLine
 10
-2565.579171915
 20
-1777.419318999999
 30
0.0
 11
-2565.876164915
 21
-1777.305335999999
 31
0.0
  0
LINE
  5
23D
330
A
100
AcDbEntity
  8
HEWI
  6
STANDARD
 62
     7
100
AcDbLine
 10
-2246.579175915
 20
-1777.419319
 30
0.0
 11
-2246.876178915
 21
-1777.305336
 31
0.0
  0
LINE
  5
23E
330
A
100
AcDbEntity
  8
HEWI
  6
STANDARD
 62
     7
100
AcDbLine
 10
-2120.758195915
 20
-1677.157325999999
 30
0.0
 11
-2120.846181914998
 21
-1677.388267999999
 31
0.0
  0
LINE
  5
23F
330
A
100
AcDbEntity
  8
HEWI
  6
STANDARD
 62
     7
100
AcDbLine
 10
-2107.799191914999
 20
-1706.306266999999
 30
0.0
 11
-2107.906194914999
 21
-1706.266289
 31
0.0
  0
LINE
  5
240
330
A
100
AcDbEntity
  8
HEWI
  6
STANDARD
 62
     7
100
AcDbLine
 10
-2106.413178915
 20
-1706.784324999999
 30
0.0
 11
-2107.799191914999
 21
-1706.306266999999
 31
0.0
  0
LINE
  5
241
330
A
100
AcDbEntity
  8
HEWI
  6
STANDARD
 62
     7
100
AcDbLine
 10
-2208.285184914999
 20
-1776.055335999999
 30
0.0
 11
-2208.353181914999
 21
-1776.253318999999
 31
0.0
  0
LINE
  5
242
330
A
100
AcDbEntity
  8
HEWI
  6
STANDARD
 62
     7
100
AcDbLine
 10
-2527.285170914999
 20
-1776.055335999999
 30
0.0
 11
-2527.353167914999
 21
-1776.253318999999
 31
0.0
  0
LINE
  5
243
330
A
100
AcDbEntity
  8
HEWI
  6
STANDARD
 62
     7
100
AcDbLine
 10
-2120.846181914998
 20
-1677.388267999999
 30
0.0
 11
-2121.316190914999
 21
-1678.777275
 31
0.0
  0
LINE
  5
244
330
A
100
AcDbEntity
  8
HEWI
  6
STANDARD
 62
     7
100
AcDbLine
 10
-2209.407182914999
 20
-1700.682334999999
 30
0.0
 11
-2209.681172914999
 21
-1700.594292
 31
0.0
  0
LINE
  5
245
330
A
100
AcDbEntity
  8
HEWI
  6
STANDARD
 62
     7
100
AcDbLine
 10
-2528.407168915
 20
-1700.682335000001
 30
0.0
 11
-2528.681168915
 21
-1700.594292
 31
0.0
  0
LINE
  5
246
330
A
100
AcDbEntity
  8
HEWI
  6
STANDARD
 62
     7
100
AcDbLine
 10
-2105.935178915
 20
-1706.926307999999
 30
0.0
 11
-2106.413178915
 21
-1706.784324999999
 31
0.0
  0
LINE
  5
247
330
A
100
AcDbEntity
  8
HEWI
  6
STANDARD
 62
     7
100
AcDbLine
 10
-2246.272178914999
 20
-1777.510338
 30
0.0
 11
-2246.579175915
 21
-1777.419319
 31
0.0
  0
LINE
  5
248
330
A
100
AcDbEntity
  8
HEWI
  6
STANDARD
 62
     7
100
AcDbLine
 10
-2565.272164915
 20
-1777.510337999999
 30
0.0
 11
-2565.579171915
 21
-1777.419318999999
 31
0.0
  0
LINE
  5
249
330
A
100
AcDbEntity
  8
HEWI
  6
STANDARD
 62
     7
100
AcDbLine
 10
-2121.316190914999
 20
-1678.777275
 30
0.0
 11
-2121.419186914998
 21
-1679.128304
 31
0.0
  0
LINE
  5
24A
330
A
100
AcDbEntity
  8
HEWI
  6
STANDARD
 62
     7
100
AcDbLine
 10
-2073.607182914999
 20
-1631.108283999999
 30
0.0
 11
-2073.847184914999
 21
-1631.937294
 31
0.0
  0
LINE
  5
24B
330
A
100
AcDbEntity
  8
HEWI
  6
STANDARD
 62
     7
100
AcDbLine
 10
-2121.821675914999
 20
-1680.801659
 30
0.0
 11
-2121.976189914999
 21
-1681.378289
 31
0.0
  0
LINE
  5
24C
330
A
100
AcDbEntity
  8
HEWI
  6
STANDARD
 62
     7
100
AcDbLine
 10
-2120.961194915
 20
-1677.590293999999
 30
0.0
 11
-2121.138673914999
 21
-1678.252754
 31
0.0
  0
LINE
  5
24D
330
A
100
AcDbEntity
  8
HEWI
  6
STANDARD
 62
     7
100
AcDbLine
 10
-2103.725190915
 20
-1707.443276000001
 30
0.0
 11
-2103.809228914998
 21
-1707.420769
 31
0.0
  0
LINE
  5
24E
330
A
100
AcDbEntity
  8
HEWI
  6
STANDARD
 62
     7
100
AcDbLine
 10
-2121.821313914999
 20
-1680.799904
 30
0.0
 11
-2121.976189914999
 21
-1681.378289
 31
0.0
  0
LINE
  5
24F
330
A
100
AcDbEntity
  8
HEWI
  6
STANDARD
 62
     7
100
AcDbLine
 10
-2107.209439915
 20
-1706.509667
 30
0.0
 11
-2107.513184914999
 21
-1706.428336999999
 31
0.0
  0
LINE
  5
250
330
A
100
AcDbEntity
  8
HEWI
  6
STANDARD
 62
     7
100
AcDbLine
 10
-2104.998193914999
 20
-1707.171287999999
 30
0.0
 11
-2105.935178915
 21
-1706.926307999999
 31
0.0
  0
LINE
  5
251
330
A
100
AcDbEntity
  8
HEWI
  6
STANDARD
 62
     7
100
AcDbLine
 10
-2121.419186914998
 20
-1679.128304
 30
0.0
 11
-2121.694188914999
 21
-1680.195275
 31
0.0
  0
LINE
  5
252
330
A
100
AcDbEntity
  8
HEWI
  6
STANDARD
 62
     7
100
AcDbLine
 10
-2528.681168915
 20
-1700.594292
 30
0.0
 11
-2528.976168915
 21
-1700.518302999999
 31
0.0
  0
LINE
  5
253
330
A
100
AcDbEntity
  8
HEWI
  6
STANDARD
 62
     7
100
AcDbLine
 10
-2209.681172914999
 20
-1700.594292
 30
0.0
 11
-2209.976182914999
 21
-1700.518303
 31
0.0
  0
LINE
  5
254
330
A
100
AcDbEntity
  8
HEWI
  6
STANDARD
 62
     7
100
AcDbLine
 10
-2068.800168914999
 20
-1883.128319
 30
0.0
 11
-2069.522176915
 21
-1882.947272999999
 31
0.0
  0
LINE
  5
255
330
A
100
AcDbEntity
  8
HEWI
  6
STANDARD
 62
     7
100
AcDbLine
 10
-2069.522176915
 20
-1882.947272999999
 30
0.0
 11
-2070.054173914999
 21
-1882.814292999999
 31
0.0
  0
LINE
  5
256
330
A
100
AcDbEntity
  8
HEWI
  6
STANDARD
 62
     7
100
AcDbLine
 10
-2103.912186915
 20
-1707.402305999999
 30
0.0
 11
-2104.998193914999
 21
-1707.171287999999
 31
0.0
  0
LINE
  5
257
330
A
100
AcDbEntity
  8
HEWI
  6
STANDARD
 62
     7
100
AcDbLine
 10
-2564.945168915001
 20
-1777.579307999999
 30
0.0
 11
-2565.272164915
 21
-1777.510337999999
 31
0.0
  0
LINE
  5
258
330
A
100
AcDbEntity
  8
HEWI
  6
STANDARD
 62
     7
100
AcDbLine
 10
-2245.945172915
 20
-1777.579308
 30
0.0
 11
-2246.272178914999
 21
-1777.510338
 31
0.0
  0
LINE
  5
259
330
A
100
AcDbEntity
  8
HEWI
  6
STANDARD
 62
     7
100
AcDbLine
 10
-2121.694188914999
 20
-1680.195275
 30
0.0
 11
-2121.895184915
 21
-1681.151314
 31
0.0
  0
LINE
  5
25A
330
A
100
AcDbEntity
  8
HEWI
  6
STANDARD
 62
     7
100
AcDbLine
 10
-2209.976182914999
 20
-1700.518303
 30
0.0
 11
-2210.285172914999
 21
-1700.457267999999
 31
0.0
  0
LINE
  5
25B
330
A
100
AcDbEntity
  8
HEWI
  6
STANDARD
 62
     7
100
AcDbLine
 10
-2528.976168915
 20
-1700.518302999999
 30
0.0
 11
-2529.285168914999
 21
-1700.457267999999
 31
0.0
  0
LINE
  5
25C
330
A
100
AcDbEntity
  8
HEWI
  6
STANDARD
 62
     7
100
AcDbLine
 10
-2248.259177915
 20
-1701.425286
 30
0.0
 11
-2248.278174914998
 21
-1701.523323
 31
0.0
  0
LINE
  5
25D
330
A
100
AcDbEntity
  8
HEWI
  6
STANDARD
 62
     7
100
AcDbLine
 10
-2567.259164915001
 20
-1701.425285999999
 30
0.0
 11
-2567.278161915
 21
-1701.523322999999
 31
0.0
  0
LINE
  5
25E
330
A
100
AcDbEntity
  8
HEWI
  6
STANDARD
 62
     7
100
AcDbLine
 10
-2103.561177915
 20
-1707.465324999999
 30
0.0
 11
-2103.912186915
 21
-1707.402305999999
 31
0.0
  0
LINE
  5
25F
330
A
100
AcDbEntity
  8
HEWI
  6
STANDARD
 62
     7
100
AcDbLine
 10
-2121.895184915
 20
-1681.151314
 30
0.0
 11
-2121.979184914998
 21
-1681.633263
 31
0.0
  0
LINE
  5
260
330
A
100
AcDbEntity
  8
HEWI
  6
STANDARD
 62
     7
100
AcDbLine
 10
-2073.978181914999
 20
-1798.905296999999
 30
0.0
 11
-2074.027181914999
 21
-1799.208335999999
 31
0.0
  0
LINE
  5
261
330
A
100
AcDbEntity
  8
HEWI
  6
STANDARD
 62
     7
100
AcDbLine
 10
-2074.669194914999
 20
-1775.433312
 30
0.0
 11
-2074.978185915
 21
-1775.385323
 31
0.0
  0
LINE
  5
262
330
A
100
AcDbEntity
  8
HEWI
  6
STANDARD
 62
     7
100
AcDbLine
 10
-2529.285168914999
 20
-1700.457267999999
 30
0.0
 11
-2529.610162915
 21
-1700.411262999999
 31
0.0
  0
LINE
  5
263
330
A
100
AcDbEntity
  8
HEWI
  6
STANDARD
 62
     7
100
AcDbLine
 10
-2210.285172914999
 20
-1700.457267999999
 30
0.0
 11
-2210.610184914999
 21
-1700.411263
 31
0.0
  0
LINE
  5
264
330
A
100
AcDbEntity
  8
HEWI
  6
STANDARD
 62
     7
100
AcDbLine
 10
-2073.857179915
 20
-1632.015305
 30
0.0
 11
-2073.965192915
 21
-1632.793311999999
 31
0.0
  0
LINE
  5
265
330
A
100
AcDbEntity
  8
HEWI
  6
STANDARD
 62
     7
100
AcDbLine
 10
-2102.107186914999
 20
-1707.664298999999
 30
0.0
 11
-2103.561177915
 21
-1707.465324999999
 31
0.0
  0
LINE
  5
266
330
A
100
AcDbEntity
  8
HEWI
  6
STANDARD
 62
     7
100
AcDbLine
 10
-2073.478188915
 20
-1665.885314999999
 30
0.0
 11
-2073.607182914998
 21
-1665.868301999999
 31
0.0
  0
LINE
  5
267
330
A
100
AcDbEntity
  8
HEWI
  6
STANDARD
 62
     7
100
AcDbLine
 10
-2073.961186914999
 20
-1705.056266999999
 30
0.0
 11
-2073.978181914999
 21
-1705.18528
 31
0.0
  0
LINE
  5
268
330
A
100
AcDbEntity
  8
HEWI
  6
STANDARD
 62
     7
100
AcDbLine
 10
-2121.979184914998
 20
-1681.633263
 30
0.0
 11
-2122.170186914999
 21
-1683.088265
 31
0.0
  0
LINE
  5
269
330
A
100
AcDbEntity
  8
HEWI
  6
STANDARD
 62
     7
100
AcDbLine
 10
-2073.847184914999
 20
-1631.937294
 30
0.0
 11
-2073.857179915
 21
-1632.015305
 31
0.0
  0
LINE
  5
26A
330
A
100
AcDbEntity
  8
HEWI
  6
STANDARD
 62
     7
100
AcDbLine
 10
-2245.616174915001
 20
-1777.621269
 30
0.0
 11
-2245.945172915
 21
-1777.579308
 31
0.0
  0
LINE
  5
26B
330
A
100
AcDbEntity
  8
HEWI
  6
STANDARD
 62
     7
100
AcDbLine
 10
-2564.616170914999
 20
-1777.621269000001
 30
0.0
 11
-2564.945168915001
 21
-1777.579307999999
 31
0.0
  0
LINE
  5
26C
330
A
100
AcDbEntity
  8
HEWI
  6
STANDARD
 62
     7
100
AcDbLine
 10
-2122.170186914999
 20
-1683.088265
 30
0.0
 11
-2122.182183914999
 21
-1683.209267000001
 31
0.0
  0
LINE
  5
26D
330
A
100
AcDbEntity
  8
HEWI
  6
STANDARD
 62
     7
100
AcDbLine
 10
-2101.854176914998
 20
-1707.689323999999
 30
0.0
 11
-2102.107186914999
 21
-1707.664298999999
 31
0.0
  0
LINE
  5
26E
330
A
100
AcDbEntity
  8
HEWI
  6
STANDARD
 62
     7
100
AcDbLine
 10
-2099.810853914999
 20
-1662.785949999999
 30
0.0
 11
-2099.818177915
 21
-1662.785300999999
 31
0.0
  0
LINE
  5
26F
330
A
100
AcDbEntity
  8
HEWI
  6
STANDARD
 62
     7
100
AcDbLine
 10
-2103.644318915001
 20
-1707.450371
 30
0.0
 11
-2103.725190915
 21
-1707.443276000001
 31
0.0
  0
LINE
  5
270
330
A
100
AcDbEntity
  8
HEWI
  6
STANDARD
 62
     7
100
AcDbLine
 10
-2121.976189914999
 20
-1681.378289
 30
0.0
 11
-2122.037453914998
 21
-1682.077141
 31
0.0
  0
LINE
  5
271
330
A
100
AcDbEntity
  8
HEWI
  6
STANDARD
 62
     7
100
AcDbLine
 10
-2122.268987914999
 20
-1684.723244
 30
0.0
 11
-2122.318177914999
 21
-1685.285300999999
 31
0.0
  0
LINE
  5
272
330
A
100
AcDbEntity
  8
HEWI
  6
STANDARD
 62
     7
100
AcDbLine
 10
-2121.976189914999
 20
-1681.378289
 30
0.0
 11
-2122.037167914999
 21
-1682.075080999999
 31
0.0
  0
LINE
  5
273
330
A
100
AcDbEntity
  8
HEWI
  6
STANDARD
 62
     7
100
AcDbLine
 10
-2122.268967914999
 20
-1684.722862
 30
0.0
 11
-2122.318177914999
 21
-1685.285300999999
 31
0.0
  0
LINE
  5
274
330
A
100
AcDbEntity
  8
HEWI
  6
STANDARD
 62
     7
100
AcDbLine
 10
-2099.818177915
 20
-1707.785301
 30
0.0
 11
-2099.829755914999
 21
-1707.78431
 31
0.0
  0
LINE
  5
275
330
A
100
AcDbEntity
  8
HEWI
  6
STANDARD
 62
     7
100
AcDbLine
 10
-2208.278184914999
 20
-1775.97332
 30
0.0
 11
-2208.285184914999
 21
-1776.055335999999
 31
0.0
  0
LINE
  5
276
330
A
100
AcDbEntity
  8
HEWI
  6
STANDARD
 62
     7
100
AcDbLine
 10
-2527.278170915
 20
-1775.973319999999
 30
0.0
 11
-2527.285170914999
 21
-1776.055335999999
 31
0.0
  0
LINE
  5
277
330
A
100
AcDbEntity
  8
HEWI
  6
STANDARD
 62
     7
100
AcDbLine
 10
-2210.610184914999
 20
-1700.411263
 30
0.0
 11
-2210.940175915001
 21
-1700.383263
 31
0.0
  0
LINE
  5
278
330
A
100
AcDbEntity
  8
HEWI
  6
STANDARD
 62
     7
100
AcDbLine
 10
-2529.610162915
 20
-1700.411262999999
 30
0.0
 11
-2529.940162915
 21
-1700.383262999999
 31
0.0
  0
LINE
  5
279
330
A
100
AcDbEntity
  8
HEWI
  6
STANDARD
 62
     7
100
AcDbLine
 10
-2067.978177915001
 20
-1883.185310999999
 30
0.0
 11
-2068.800168914999
 21
-1883.128319
 31
0.0
  0
LINE
  5
27A
330
A
100
AcDbEntity
  8
HEWI
  6
STANDARD
 62
     7
100
AcDbLine
 10
-2100.644193914999
 20
-1707.768287999999
 30
0.0
 11
-2101.854176914998
 21
-1707.689323999999
 31
0.0
  0
LINE
  5
27B
330
A
100
AcDbEntity
  8
HEWI
  6
STANDARD
 62
     7
100
AcDbLine
 10
-2122.182183914999
 20
-1683.209267000001
 30
0.0
 11
-2122.266183915001
 21
-1684.552269
 31
0.0
  0
LINE
  5
27C
330
A
100
AcDbEntity
  8
HEWI
  6
STANDARD
 62
     7
100
AcDbLine
 10
-2245.278172915
 20
-1777.635308
 30
0.0
 11
-2245.616174915001
 21
-1777.621269
 31
0.0
  0
LINE
  5
27D
330
A
100
AcDbEntity
  8
HEWI
  6
STANDARD
 62
     7
100
AcDbLine
 10
-2564.278169915001
 20
-1777.635307999999
 30
0.0
 11
-2564.616170914999
 21
-1777.621269000001
 31
0.0
  0
LINE
  5
27E
330
A
100
AcDbEntity
  8
HEWI
  6
STANDARD
 62
     7
100
AcDbLine
 10
-2073.965192915
 20
-1632.793311999999
 30
0.0
 11
-2073.978181914999
 21
-1633.185310999999
 31
0.0
  0
LINE
  5
27F
330
A
100
AcDbEntity
  8
HEWI
  6
STANDARD
 62
     7
100
AcDbLine
 10
-2210.940175915001
 20
-1700.383263
 30
0.0
 11
-2211.278176914998
 21
-1700.374336
 31
0.0
  0
LINE
  5
280
330
A
100
AcDbEntity
  8
HEWI
  6
STANDARD
 62
     7
100
AcDbLine
 10
-2529.940162915
 20
-1700.383262999999
 30
0.0
 11
-2530.278163915
 21
-1700.374335999999
 31
0.0
  0
LINE
  5
281
330
A
100
AcDbEntity
  8
HEWI
  6
STANDARD
 62
     7
100
AcDbLine
 10
-2099.778180915
 20
-1707.785301
 30
0.0
 11
-2100.644193914999
 21
-1707.768287999999
 31
0.0
  0
LINE
  5
282
330
A
100
AcDbEntity
  8
HEWI
  6
STANDARD
 62
     7
100
AcDbLine
 10
-2122.266183915001
 20
-1684.552269
 30
0.0
 11
-2122.278180914999
 21
-1685.285300999999
 31
0.0
  0
LINE
  5
283
330
A
100
AcDbEntity
  8
HEWI
  6
STANDARD
 62
     7
100
AcDbLine
 10
-2755.978169915
 20
-1702.035332
 30
0.0
 11
-2758.578152915
 21
-1702.021294
 31
0.0
  0
LINE
  5
284
330
A
100
AcDbEntity
  8
HEWI
  6
STANDARD
 62
     7
100
AcDbLine
 10
-2755.978169914999
 20
-1668.535309
 30
0.0
 11
-2758.578152915
 21
-1668.548317
 31
0.0
  0
LINE
  5
285
330
A
100
AcDbEntity
  8
HEWI
  6
STANDARD
 62
     7
100
AcDbLine
 10
-2122.266183915001
 20
-1686.018334
 30
0.0
 11
-2122.278180914999
 21
-1685.285300999999
 31
0.0
  0
LINE
  5
286
330
A
100
AcDbEntity
  8
HEWI
  6
STANDARD
 62
     7
100
AcDbLine
 10
-2245.278172915
 20
-1700.374336
 30
0.0
 11
-2245.614180915
 21
-1700.383263
 31
0.0
  0
LINE
  5
287
330
A
100
AcDbEntity
  8
HEWI
  6
STANDARD
 62
     7
100
AcDbLine
 10
-2564.278169915001
 20
-1700.374335999999
 30
0.0
 11
-2564.614167914999
 21
-1700.383262999999
 31
0.0
  0
LINE
  5
288
330
A
100
AcDbEntity
  8
HEWI
  6
STANDARD
 62
     7
100
AcDbLine
 10
-2067.978177915001
 20
-1627.185287999999
 30
0.0
 11
-2068.370175914999
 21
-1627.198295999999
 31
0.0
  0
LINE
  5
289
330
A
100
AcDbEntity
  8
HEWI
  6
STANDARD
 62
     7
100
AcDbLine
 10
-2122.182183914999
 20
-1687.361335999999
 30
0.0
 11
-2122.266183915001
 21
-1686.018334
 31
0.0
  0
LINE
  5
28A
330
A
100
AcDbEntity
  8
HEWI
  6
STANDARD
 62
     7
100
AcDbLine
 10
-2100.644193914999
 20
-1662.802314999999
 30
0.0
 11
-2101.854176914999
 21
-1662.881317
 31
0.0
  0
LINE
  5
28B
330
A
100
AcDbEntity
  8
HEWI
  6
STANDARD
 62
     7
100
AcDbLine
 10
-2073.921189915
 20
-1878.007316999999
 30
0.0
 11
-2073.978181915
 21
-1877.185326000001
 31
0.0
  0
LINE
  5
28C
330
A
100
AcDbEntity
  8
HEWI
  6
STANDARD
 62
     7
100
AcDbLine
 10
-2099.810853914998
 20
-1707.784691
 30
0.0
 11
-2099.818177915
 21
-1707.785301
 31
0.0
  0
LINE
  5
28D
330
A
100
AcDbEntity
  8
HEWI
  6
STANDARD
 62
     7
100
AcDbLine
 10
-2564.614167914999
 20
-1700.383262999999
 30
0.0
 11
-2564.945168915001
 21
-1700.411262999999
 31
0.0
  0
LINE
  5
28E
330
A
100
AcDbEntity
  8
HEWI
  6
STANDARD
 62
     7
100
AcDbLine
 10
-2245.614180915
 20
-1700.383263
 30
0.0
 11
-2245.945172915
 21
-1700.411263
 31
0.0
  0
LINE
  5
28F
330
A
100
AcDbEntity
  8
HEWI
  6
STANDARD
 62
     7
100
AcDbLine
 10
-2248.271174914998
 20
-1776.055336
 30
0.0
 11
-2248.278174915
 21
-1775.97332
 31
0.0
  0
LINE
  5
290
330
A
100
AcDbEntity
  8
HEWI
  6
STANDARD
 62
     7
100
AcDbLine
 10
-2567.271161914999
 20
-1776.055335999999
 30
0.0
 11
-2567.278161915
 21
-1775.973319999999
 31
0.0
  0
LINE
  5
291
330
A
100
AcDbEntity
  8
HEWI
  6
STANDARD
 62
     7
100
AcDbLine
 10
-2099.818177915
 20
-1662.785300999999
 30
0.0
 11
-2099.829755915
 21
-1662.786292999999
 31
0.0
  0
LINE
  5
292
330
A
100
AcDbEntity
  8
HEWI
  6
STANDARD
 62
     7
100
AcDbLine
 10
-2103.644318915002
 20
-1663.120231999999
 30
0.0
 11
-2103.725190915
 21
-1663.127288999999
 31
0.0
  0
LINE
  5
293
330
A
100
AcDbEntity
  8
HEWI
  6
STANDARD
 62
     7
100
AcDbLine
 10
-2122.268967914999
 20
-1685.847739999999
 30
0.0
 11
-2122.318177914999
 21
-1685.285300999999
 31
0.0
  0
LINE
  5
294
330
A
100
AcDbEntity
  8
HEWI
  6
STANDARD
 62
     7
100
AcDbLine
 10
-2122.268987914999
 20
-1685.847359
 30
0.0
 11
-2122.318177914999
 21
-1685.285300999999
 31
0.0
  0
LINE
  5
295
330
A
100
AcDbEntity
  8
HEWI
  6
STANDARD
 62
     7
100
AcDbLine
 10
-2121.976189914999
 20
-1689.192313999999
 30
0.0
 11
-2122.037358915
 21
-1688.493461999999
 31
0.0
  0
LINE
  5
296
330
A
100
AcDbEntity
  8
HEWI
  6
STANDARD
 62
     7
100
AcDbLine
 10
-2121.976189914999
 20
-1689.192313999999
 30
0.0
 11
-2122.037644914998
 21
-1688.491326000001
 31
0.0
  0
LINE
  5
297
330
A
100
AcDbEntity
  8
HEWI
  6
STANDARD
 62
     7
100
AcDbLine
 10
-2101.854176914999
 20
-1662.881317
 30
0.0
 11
-2102.107186914999
 21
-1662.906304
 31
0.0
  0
LINE
  5
298
330
A
100
AcDbEntity
  8
HEWI
  6
STANDARD
 62
     7
100
AcDbLine
 10
-2122.170186914999
 20
-1687.482338
 30
0.0
 11
-2122.182183914999
 21
-1687.361335999999
 31
0.0
  0
LINE
  5
299
330
A
100
AcDbEntity
  8
HEWI
  6
STANDARD
 62
     7
100
AcDbLine
 10
-2121.979184914998
 20
-1688.936272
 30
0.0
 11
-2122.170186914999
 21
-1687.482338
 31
0.0
  0
LINE
  5
29A
330
A
100
AcDbEntity
  8
HEWI
  6
STANDARD
 62
     7
100
AcDbLine
 10
-2073.961186914999
 20
-1665.514297999999
 30
0.0
 11
-2073.978181914999
 21
-1665.385284999999
 31
0.0
  0
LINE
  5
29B
330
A
100
AcDbEntity
  8
HEWI
  6
STANDARD
 62
     7
100
AcDbLine
 10
-2102.107186914999
 20
-1662.906304
 30
0.0
 11
-2103.561177915
 21
-1663.105315999999
 31
0.0
  0
LINE
  5
29C
330
A
100
AcDbEntity
  8
HEWI
  6
STANDARD
 62
     7
100
AcDbLine
 10
-2068.370175914999
 20
-1627.198295999999
 30
0.0
 11
-2069.148183915
 21
-1627.305297999999
 31
0.0
  0
LINE
  5
29D
330
A
100
AcDbEntity
  8
HEWI
  6
STANDARD
 62
     7
100
AcDbLine
 10
-2245.945172915
 20
-1700.411263
 30
0.0
 11
-2246.270175915
 21
-1700.456276
 31
0.0
  0
LINE
  5
29E
330
A
100
AcDbEntity
  8
HEWI
  6
STANDARD
 62
     7
100
AcDbLine
 10
-2564.945168915001
 20
-1700.411262999999
 30
0.0
 11
-2565.270161915
 21
-1700.456275999999
 31
0.0
  0
LINE
  5
29F
330
A
100
AcDbEntity
  8
HEWI
  6
STANDARD
 62
     7
100
AcDbLine
 10
-2069.148183915
 20
-1627.305297999999
 30
0.0
 11
-2069.225201914999
 21
-1627.316283999999
 31
0.0
  0
LINE
  5
2A0
330
A
100
AcDbEntity
  8
HEWI
  6
STANDARD
 62
     7
100
AcDbLine
 10
-2074.669194914999
 20
-1799.837302999999
 30
0.0
 11
-2074.978185915
 21
-1799.885292
 31
0.0
  0
LINE
  5
2A1
330
A
100
AcDbEntity
  8
HEWI
  6
STANDARD
 62
     7
100
AcDbLine
 10
-2073.978181914999
 20
-1776.365319000001
 30
0.0
 11
-2074.027181914999
 21
-1776.062278999999
 31
0.0
  0
LINE
  5
2A2
330
A
100
AcDbEntity
  8
HEWI
  6
STANDARD
 62
     7
100
AcDbLine
 10
-2121.895184915
 20
-1689.419288999999
 30
0.0
 11
-2121.979184914998
 21
-1688.936272
 31
0.0
  0
LINE
  5
2A3
330
A
100
AcDbEntity
  8
HEWI
  6
STANDARD
 62
     7
100
AcDbLine
 10
-2103.561177915
 20
-1663.105315999999
 30
0.0
 11
-2103.912186915
 21
-1663.168296999999
 31
0.0
  0
LINE
  5
2A4
330
A
100
AcDbEntity
  8
HEWI
  6
STANDARD
 62
     7
100
AcDbLine
 10
-2208.278184914998
 20
-1701.523322999999
 30
0.0
 11
-2208.297181914999
 21
-1701.426277
 31
0.0
  0
LINE
  5
2A5
330
A
100
AcDbEntity
  8
HEWI
  6
STANDARD
 62
     7
100
AcDbLine
 10
-2527.278170915
 20
-1701.523322999999
 30
0.0
 11
-2527.297168915001
 21
-1701.426276999999
 31
0.0
  0
LINE
  5
2A6
330
A
100
AcDbEntity
  8
HEWI
  6
STANDARD
 62
     7
100
AcDbLine
 10
-2565.270161915
 20
-1700.456275999999
 30
0.0
 11
-2565.579171915
 21
-1700.518302999999
 31
0.0
  0
LINE
  5
2A7
330
A
100
AcDbEntity
  8
HEWI
  6
STANDARD
 62
     7
100
AcDbLine
 10
-2246.270175915
 20
-1700.456276
 30
0.0
 11
-2246.579175914998
 21
-1700.518303
 31
0.0
  0
LINE
  5
2A8
330
A
100
AcDbEntity
  8
HEWI
  6
STANDARD
 62
     7
100
AcDbLine
 10
-2121.694188914999
 20
-1690.375328000001
 30
0.0
 11
-2121.895184915
 21
-1689.419288999999
 31
0.0
  0
LINE
  5
2A9
330
A
100
AcDbEntity
  8
HEWI
  6
STANDARD
 62
     7
100
AcDbLine
 10
-2103.912186915
 20
-1663.168296999999
 30
0.0
 11
-2104.998193914999
 21
-1663.399315
 31
0.0
  0
LINE
  5
2AA
330
A
100
AcDbEntity
  8
HEWI
  6
STANDARD
 62
     7
100
AcDbLine
 10
-2073.607182914999
 20
-1879.262276000001
 30
0.0
 11
-2073.740182915001
 21
-1878.730278
 31
0.0
  0
LINE
  5
2AB
330
A
100
AcDbEntity
  8
HEWI
  6
STANDARD
 62
     7
100
AcDbLine
 10
-2073.740182915001
 20
-1878.730278
 30
0.0
 11
-2073.921189915
 21
-1878.007316999999
 31
0.0
  0
LINE
  5
2AC
330
A
100
AcDbEntity
  8
HEWI
  6
STANDARD
 62
     7
100
AcDbLine
 10
-2246.579175914998
 20
-1700.518303
 30
0.0
 11
-2246.876178915
 21
-1700.594292
 31
0.0
  0
LINE
  5
2AD
330
A
100
AcDbEntity
  8
HEWI
  6
STANDARD
 62
     7
100
AcDbLine
 10
-2565.579171915
 20
-1700.518302999999
 30
0.0
 11
-2565.876164915
 21
-1700.594292
 31
0.0
  0
LINE
  5
2AE
330
A
100
AcDbEntity
  8
HEWI
  6
STANDARD
 62
     7
100
AcDbLine
 10
-2121.419186914998
 20
-1691.442299
 30
0.0
 11
-2121.694188914999
 21
-1690.375328000001
 31
0.0
  0
LINE
  5
2AF
330
A
100
AcDbEntity
  8
HEWI
  6
STANDARD
 62
     7
100
AcDbLine
 10
-2104.998193914999
 20
-1663.399315
 30
0.0
 11
-2105.935178915
 21
-1663.644294999999
 31
0.0
  0
LINE
  5
2B0
330
A
100
AcDbEntity
  8
HEWI
  6
STANDARD
 62
     7
100
AcDbLine
 10
-2107.222447914999
 20
-1664.064407999999
 30
0.0
 11
-2107.513184914999
 21
-1664.142303999999
 31
0.0
  0
LINE
  5
2B1
330
A
100
AcDbEntity
  8
HEWI
  6
STANDARD
 62
     7
100
AcDbLine
 10
-2120.961194915
 20
-1692.980309000001
 30
0.0
 11
-2121.139493915
 21
-1692.314873000001
 31
0.0
  0
LINE
  5
2B2
330
A
100
AcDbEntity
  8
HEWI
  6
STANDARD
 62
     7
100
AcDbLine
 10
-2121.821675914999
 20
-1689.768944
 30
0.0
 11
-2121.976189914999
 21
-1689.192313999999
 31
0.0
  0
LINE
  5
2B3
330
A
100
AcDbEntity
  8
HEWI
  6
STANDARD
 62
     7
100
AcDbLine
 10
-2120.961194915
 20
-1692.980309000001
 30
0.0
 11
-2121.140008914999
 21
-1692.313347
 31
0.0
  0
LINE
  5
2B4
330
A
100
AcDbEntity
  8
HEWI
  6
STANDARD
 62
     7
100
AcDbLine
 10
-2103.725190915
 20
-1663.127288999999
 30
0.0
 11
-2103.809228914999
 21
-1663.149833999999
 31
0.0
  0
LINE
  5
2B5
330
A
100
AcDbEntity
  8
HEWI
  6
STANDARD
 62
     7
100
AcDbLine
 10
-2069.225201914999
 20
-1627.316283999999
 30
0.0
 11
-2070.054173914999
 21
-1627.556304999999
 31
0.0
  0
LINE
  5
2B6
330
A
100
AcDbEntity
  8
HEWI
  6
STANDARD
 62
     7
100
AcDbLine
 10
-2121.316190914999
 20
-1691.792335999999
 30
0.0
 11
-2121.419186914998
 21
-1691.442299
 31
0.0
  0
LINE
  5
2B7
330
A
100
AcDbEntity
  8
HEWI
  6
STANDARD
 62
     7
100
AcDbLine
 10
-2528.976168915
 20
-1777.419318999999
 30
0.0
 11
-2529.285168914999
 21
-1777.510337999999
 31
0.0
  0
LINE
  5
2B8
330
A
100
AcDbEntity
  8
HEWI
  6
STANDARD
 62
     7
100
AcDbLine
 10
-2209.976182914999
 20
-1777.419319
 30
0.0
 11
-2210.285172914999
 21
-1777.510338
 31
0.0
  0
LINE
  5
2B9
330
A
100
AcDbEntity
  8
HEWI
  6
STANDARD
 62
     7
100
AcDbLine
 10
-2105.935178915
 20
-1663.644294999999
 30
0.0
 11
-2106.413178915
 21
-1663.785285999999
 31
0.0
  0
LINE
  5
2BA
330
A
100
AcDbEntity
  8
HEWI
  6
STANDARD
 62
     7
100
AcDbLine
 10
-2565.876164915
 20
-1700.594292
 30
0.0
 11
-2566.148171914999
 21
-1700.682335000001
 31
0.0
  0
LINE
  5
2BB
330
A
100
AcDbEntity
  8
HEWI
  6
STANDARD
 62
     7
100
AcDbLine
 10
-2246.876178915
 20
-1700.594292
 30
0.0
 11
-2247.148175914999
 21
-1700.682335
 31
0.0
  0
LINE
  5
2BC
330
A
100
AcDbEntity
  8
HEWI
  6
STANDARD
 62
     7
100
AcDbLine
 10
-2120.846181914998
 20
-1693.182335000001
 30
0.0
 11
-2121.316190914999
 21
-1691.792335999999
 31
0.0
  0
LINE
  5
2BD
330
A
100
AcDbEntity
  8
HEWI
  6
STANDARD
 62
     7
100
AcDbLine
 10
-2106.413178915
 20
-1663.785285999999
 30
0.0
 11
-2107.799191914999
 21
-1664.263306
 31
0.0
  0
LINE
  5
2BE
330
A
100
AcDbEntity
  8
HEWI
  6
STANDARD
 62
     7
100
AcDbLine
 10
-2567.202172915
 20
-1776.253318999999
 30
0.0
 11
-2567.271161914999
 21
-1776.055335999999
 31
0.0
  0
LINE
  5
2BF
330
A
100
AcDbEntity
  8
HEWI
  6
STANDARD
 62
     7
100
AcDbLine
 10
-2248.202176914999
 20
-1776.253319
 30
0.0
 11
-2248.271174914998
 21
-1776.055336
 31
0.0
  0
LINE
  5
2C0
330
A
100
AcDbEntity
  8
HEWI
  6
STANDARD
 62
     7
100
AcDbLine
 10
-2120.758195915
 20
-1693.413277
 30
0.0
 11
-2120.846181914998
 21
-1693.182335000001
 31
0.0
  0
LINE
  5
2C1
330
A
100
AcDbEntity
  8
HEWI
  6
STANDARD
 62
     7
100
AcDbLine
 10
-2107.799191914999
 20
-1664.263306
 30
0.0
 11
-2107.906194914999
 21
-1664.304313999999
 31
0.0
  0
LINE
  5
2C2
330
A
100
AcDbEntity
  8
HEWI
  6
STANDARD
 62
     7
100
AcDbLine
 10
-2209.678178915
 20
-1777.304268
 30
0.0
 11
-2209.976182914999
 21
-1777.419319
 31
0.0
  0
LINE
  5
2C3
330
A
100
AcDbEntity
  8
HEWI
  6
STANDARD
 62
     7
100
AcDbLine
 10
-2528.678164915
 20
-1777.304267999999
 30
0.0
 11
-2528.976168915
 21
-1777.419318999999
 31
0.0
  0
LINE
  5
2C4
330
A
100
AcDbEntity
  8
HEWI
  6
STANDARD
 62
     7
100
AcDbLine
 10
-2247.148175914999
 20
-1700.682335
 30
0.0
 11
-2247.399173914999
 21
-1700.779305
 31
0.0
  0
LINE
  5
2C5
330
A
100
AcDbEntity
  8
HEWI
  6
STANDARD
 62
     7
100
AcDbLine
 10
-2566.148171914999
 20
-1700.682335000001
 30
0.0
 11
-2566.399159915
 21
-1700.779305
 31
0.0
  0
LINE
  5
2C6
330
A
100
AcDbEntity
  8
HEWI
  6
STANDARD
 62
     7
100
AcDbLine
 10
-2073.911195915
 20
-1665.635299999999
 30
0.0
 11
-2073.961186914999
 21
-1665.514297999999
 31
0.0
  0
LINE
  5
2C7
330
A
100
AcDbEntity
  8
HEWI
  6
STANDARD
 62
     7
100
AcDbLine
 10
-2120.287194914999
 20
-1694.538307
 30
0.0
 11
-2120.758195915
 21
-1693.413277
 31
0.0
  0
LINE
  5
2C8
330
A
100
AcDbEntity
  8
HEWI
  6
STANDARD
 62
     7
100
AcDbLine
 10
-2107.906194914999
 20
-1664.304313999999
 30
0.0
 11
-2109.152188915
 21
-1664.831313999999
 31
0.0
  0
LINE
  5
2C9
330
A
100
AcDbEntity
  8
HEWI
  6
STANDARD
 62
     7
100
AcDbLine
 10
-2070.054173914999
 20
-1627.556304999999
 30
0.0
 11
-2070.269170915
 21
-1627.653312999999
 31
0.0
  0
LINE
  5
2CA
330
A
100
AcDbEntity
  8
HEWI
  6
STANDARD
 62
     7
100
AcDbLine
 10
-2070.269170915
 20
-1627.653312999999
 30
0.0
 11
-2070.841183915
 21
-1627.912292999999
 31
0.0
  0
LINE
  5
2CB
330
A
100
AcDbEntity
  8
HEWI
  6
STANDARD
 62
     7
100
AcDbLine
 10
-2107.513184914999
 20
-1664.142303999999
 30
0.0
 11
-2107.697682915
 21
-1664.228286999999
 31
0.0
  0
LINE
  5
2CC
330
A
100
AcDbEntity
  8
HEWI
  6
STANDARD
 62
     7
100
AcDbLine
 10
-2110.756745915001
 20
-1665.654144999999
 30
0.0
 11
-2111.068177914999
 21
-1665.799293999999
 31
0.0
  0
LINE
  5
2CD
330
A
100
AcDbEntity
  8
HEWI
  6
STANDARD
 62
     7
100
AcDbLine
 10
-2120.747800914999
 20
-1693.438149
 30
0.0
 11
-2120.961194915
 21
-1692.980309000001
 31
0.0
  0
LINE
  5
2CE
330
A
100
AcDbEntity
  8
HEWI
  6
STANDARD
 62
     7
100
AcDbLine
 10
-2119.304185915001
 20
-1696.535301000001
 30
0.0
 11
-2119.535432915
 21
-1696.039162
 31
0.0
  0
LINE
  5
2CF
330
A
100
AcDbEntity
  8
HEWI
  6
STANDARD
 62
     7
100
AcDbLine
 10
-2247.399173914999
 20
-1700.779305
 30
0.0
 11
-2247.623172915001
 21
-1700.884285
 31
0.0
  0
LINE
  5
2D0
330
A
100
AcDbEntity
  8
HEWI
  6
STANDARD
 62
     7
100
AcDbLine
 10
-2566.399159915
 20
-1700.779305
 30
0.0
 11
-2566.623158914999
 21
-1700.884284999999
 31
0.0
  0
LINE
  5
2D1
330
A
100
AcDbEntity
  8
HEWI
  6
STANDARD
 62
     7
100
AcDbLine
 10
-2209.407182914999
 20
-1777.176323
 30
0.0
 11
-2209.678178915
 21
-1777.304268
 31
0.0
  0
LINE
  5
2D2
330
A
100
AcDbEntity
  8
HEWI
  6
STANDARD
 62
     7
100
AcDbLine
 10
-2528.407168915
 20
-1777.176323
 30
0.0
 11
-2528.678164915
 21
-1777.304267999999
 31
0.0
  0
LINE
  5
2D3
330
A
100
AcDbEntity
  8
HEWI
  6
STANDARD
 62
     7
100
AcDbLine
 10
-2119.919190915
 20
-1695.314293
 30
0.0
 11
-2120.287194914999
 21
-1694.538307
 31
0.0
  0
LINE
  5
2D4
330
A
100
AcDbEntity
  8
HEWI
  6
STANDARD
 62
     7
100
AcDbLine
 10
-2109.152188915
 20
-1664.831313999999
 30
0.0
 11
-2109.807191914998
 21
-1665.144309999999
 31
0.0
  0
LINE
  5
2D5
330
A
100
AcDbEntity
  8
HEWI
  6
STANDARD
 62
     7
100
AcDbLine
 10
-2073.153195915001
 20
-1880.175285999999
 30
0.0
 11
-2073.607182914999
 21
-1879.262276000001
 31
0.0
  0
LINE
  5
2D6
330
A
100
AcDbEntity
  8
HEWI
  6
STANDARD
 62
     7
100
AcDbLine
 10
-2073.031201914999
 20
-1880.420264999998
 30
0.0
 11
-2073.153195915001
 21
-1880.175285999999
 31
0.0
  0
LINE
  5
2D7
330
A
100
AcDbEntity
  8
HEWI
  6
STANDARD
 62
     7
100
AcDbLine
 10
-2119.641194914998
 20
-1695.855294000001
 30
0.0
 11
-2119.919190915
 21
-1695.314293
 31
0.0
  0
LINE
  5
2D8
330
A
100
AcDbEntity
  8
HEWI
  6
STANDARD
 62
     7
100
AcDbLine
 10
-2109.807191914998
 20
-1665.144309999999
 30
0.0
 11
-2110.465188914999
 21
-1665.485306
 31
0.0
  0
LINE
  5
2D9
330
A
100
AcDbEntity
  8
HEWI
  6
STANDARD
 62
     7
100
AcDbLine
 10
-2208.297181914999
 20
-1701.426277
 30
0.0
 11
-2208.353181914999
 21
-1701.323281
 31
0.0
  0
LINE
  5
2DA
330
A
100
AcDbEntity
  8
HEWI
  6
STANDARD
 62
     7
100
AcDbLine
 10
-2527.297168915001
 20
-1701.426276999999
 30
0.0
 11
-2527.353167914999
 21
-1701.323280999999
 31
0.0
  0
LINE
  5
2DB
330
A
100
AcDbEntity
  8
HEWI
  6
STANDARD
 62
     7
100
AcDbLine
 10
-2118.908181914998
 20
-1697.130318
 30
0.0
 11
-2118.917260914999
 21
-1697.113991
 31
0.0
  0
LINE
  5
2DC
330
A
100
AcDbEntity
  8
HEWI
  6
STANDARD
 62
     7
100
AcDbLine
 10
-2247.623172915001
 20
-1700.884285
 30
0.0
 11
-2247.818179914999
 21
-1700.994301
 31
0.0
  0
LINE
  5
2DD
330
A
100
AcDbEntity
  8
HEWI
  6
STANDARD
 62
     7
100
AcDbLine
 10
-2566.623158914999
 20
-1700.884284999999
 30
0.0
 11
-2566.818166915
 21
-1700.994300999999
 31
0.0
  0
LINE
  5
2DE
330
A
100
AcDbEntity
  8
HEWI
  6
STANDARD
 62
     7
100
AcDbLine
 10
-2209.156174914999
 20
-1777.033271999999
 30
0.0
 11
-2209.407182914999
 21
-1777.176323
 31
0.0
  0
LINE
  5
2DF
330
A
100
AcDbEntity
  8
HEWI
  6
STANDARD
 62
     7
100
AcDbLine
 10
-2528.156161915
 20
-1777.033271999999
 30
0.0
 11
-2528.407168915
 21
-1777.176323
 31
0.0
  0
LINE
  5
2E0
330
A
100
AcDbEntity
  8
HEWI
  6
STANDARD
 62
     7
100
AcDbLine
 10
-2118.910184914999
 20
-1697.126273999998
 30
0.0
 11
-2119.641194914998
 21
-1695.855294000001
 31
0.0
  0
LINE
  5
2E1
330
A
100
AcDbEntity
  8
HEWI
  6
STANDARD
 62
     7
100
AcDbLine
 10
-2110.465188914999
 20
-1665.485306
 30
0.0
 11
-2111.622186914999
 21
-1666.155318999999
 31
0.0
  0
LINE
  5
2E2
330
A
100
AcDbEntity
  8
HEWI
  6
STANDARD
 62
     7
100
AcDbLine
 10
-2248.109174915
 20
-1776.406288
 30
0.0
 11
-2248.202176914999
 21
-1776.253319
 31
0.0
  0
LINE
  5
2E3
330
A
100
AcDbEntity
  8
HEWI
  6
STANDARD
 62
     7
100
AcDbLine
 10
-2567.109170915
 20
-1776.406287999999
 30
0.0
 11
-2567.202172915
 21
-1776.253318999999
 31
0.0
  0
LINE
  5
2E4
330
A
100
AcDbEntity
  8
HEWI
  6
STANDARD
 62
     7
100
AcDbLine
 10
-2111.622186914999
 20
-1666.155318999999
 30
0.0
 11
-2111.732182914998
 21
-1666.224288999999
 31
0.0
  0
LINE
  5
2E5
330
A
100
AcDbEntity
  8
HEWI
  6
STANDARD
 62
     7
100
AcDbLine
 10
-2071.303181915
 20
-1628.208313000001
 30
0.0
 11
-2071.568188915
 21
-1628.377303999999
 31
0.0
  0
LINE
  5
2E6
330
A
100
AcDbEntity
  8
HEWI
  6
STANDARD
 62
     7
100
AcDbLine
 10
-2070.841183915
 20
-1627.912292999999
 30
0.0
 11
-2071.303181915
 21
-1628.208313000001
 31
0.0
  0
LINE
  5
2E7
330
A
100
AcDbEntity
  8
HEWI
  6
STANDARD
 62
     7
100
AcDbLine
 10
-2118.097176914999
 20
-1698.348273999999
 30
0.0
 11
-2118.908181914998
 21
-1697.130318
 31
0.0
  0
LINE
  5
2E8
330
A
100
AcDbEntity
  8
HEWI
  6
STANDARD
 62
     7
100
AcDbLine
 10
-2111.732182914998
 20
-1666.224288999999
 30
0.0
 11
-2112.949185915
 21
-1667.043304999999
 31
0.0
  0
LINE
  5
2E9
330
A
100
AcDbEntity
  8
HEWI
  6
STANDARD
 62
     7
100
AcDbLine
 10
-2566.818166915
 20
-1700.994300999999
 30
0.0
 11
-2566.981168914999
 21
-1701.105308999999
 31
0.0
  0
LINE
  5
2EA
330
A
100
AcDbEntity
  8
HEWI
  6
STANDARD
 62
     7
100
AcDbLine
 10
-2247.818179914999
 20
-1700.994301
 30
0.0
 11
-2247.981171914999
 21
-1701.105309
 31
0.0
  0
LINE
  5
2EB
330
A
100
AcDbEntity
  8
HEWI
  6
STANDARD
 62
     7
100
AcDbLine
 10
-2208.932175914999
 20
-1776.880302999999
 30
0.0
 11
-2209.156174914999
 21
-1777.033271999999
 31
0.0
  0
LINE
  5
2EC
330
A
100
AcDbEntity
  8
HEWI
  6
STANDARD
 62
     7
100
AcDbLine
 10
-2527.932162915
 20
-1776.880302999999
 30
0.0
 11
-2528.156161915
 21
-1777.033271999999
 31
0.0
  0
LINE
  5
2ED
330
A
100
AcDbEntity
  8
HEWI
  6
STANDARD
 62
     7
100
AcDbLine
 10
-2119.001489915
 20
-1696.967583
 30
0.0
 11
-2119.304185915001
 21
-1696.535301000001
 31
0.0
  0
LINE
  5
2EE
330
A
100
AcDbEntity
  8
HEWI
  6
STANDARD
 62
     7
100
AcDbLine
 10
-2111.068177914999
 20
-1665.799293999999
 30
0.0
 11
-2111.358514914999
 21
-1666.002617
 31
0.0
  0
LINE
  5
2EF
330
A
100
AcDbEntity
  8
HEWI
  6
STANDARD
 62
     7
100
AcDbLine
 10
-2113.981805914999
 20
-1667.839660999999
 30
0.0
 11
-2114.281182915
 21
-1668.049317
 31
0.0
  0
LINE
  5
2F0
330
A
100
AcDbEntity
  8
HEWI
  6
STANDARD
 62
     7
100
AcDbLine
 10
-2117.054181914999
 20
-1699.748268000001
 30
0.0
 11
-2117.307935914999
 21
-1699.385947999999
 31
0.0
  0
LINE
  5
2F1
330
A
100
AcDbEntity
  8
HEWI
  6
STANDARD
 62
     7
100
AcDbLine
 10
-2117.054181914999
 20
-1699.748268000001
 30
0.0
 11
-2117.307782914998
 21
-1699.386177
 31
0.0
  0
LINE
  5
2F2
330
A
100
AcDbEntity
  8
HEWI
  6
STANDARD
 62
     7
100
AcDbLine
 10
-2117.733178914999
 20
-1698.844338
 30
0.0
 11
-2118.097176914999
 21
-1698.348273999999
 31
0.0
  0
LINE
  5
2F3
330
A
100
AcDbEntity
  8
HEWI
  6
STANDARD
 62
     7
100
AcDbLine
 10
-2112.949185915
 20
-1667.043304999999
 30
0.0
 11
-2113.337178914998
 21
-1667.330284
 31
0.0
  0
LINE
  5
2F4
330
A
100
AcDbEntity
  8
HEWI
  6
STANDARD
 62
     7
100
AcDbLine
 10
-2073.831181914998
 20
-1665.738297
 30
0.0
 11
-2073.911195915
 21
-1665.635299999999
 31
0.0
  0
LINE
  5
2F5
330
A
100
AcDbEntity
  8
HEWI
  6
STANDARD
 62
     7
100
AcDbLine
 10
-2117.207188915
 20
-1699.514275
 30
0.0
 11
-2117.733178914999
 21
-1698.844338
 31
0.0
  0
LINE
  5
2F6
330
A
100
AcDbEntity
  8
HEWI
  6
STANDARD
 62
     7
100
AcDbLine
 10
-2113.337178914998
 20
-1667.330284
 30
0.0
 11
-2114.109177914999
 21
-1667.940293
 31
0.0
  0
LINE
  5
2F7
330
A
100
AcDbEntity
  8
HEWI
  6
STANDARD
 62
     7
100
AcDbLine
 10
-2208.775182914999
 20
-1776.755333
 30
0.0
 11
-2208.932175914999
 21
-1776.880302999999
 31
0.0
  0
LINE
  5
2F8
330
A
100
AcDbEntity
  8
HEWI
  6
STANDARD
 62
     7
100
AcDbLine
 10
-2527.775168914999
 20
-1776.755332999999
 30
0.0
 11
-2527.932162915
 21
-1776.880302999999
 31
0.0
  0
LINE
  5
2F9
330
A
100
AcDbEntity
  8
HEWI
  6
STANDARD
 62
     7
100
AcDbLine
 10
-2247.981171914999
 20
-1701.105309
 30
0.0
 11
-2248.021178914999
 21
-1701.137276
 31
0.0
  0
LINE
  5
2FA
330
A
100
AcDbEntity
  8
HEWI
  6
STANDARD
 62
     7
100
AcDbLine
 10
-2566.981168914999
 20
-1701.105308999999
 30
0.0
 11
-2567.021165914999
 21
-1701.137275999999
 31
0.0
  0
LINE
  5
2FB
330
A
100
AcDbEntity
  8
HEWI
  6
STANDARD
 62
     7
100
AcDbLine
 10
-2072.220197915
 20
-1881.428336999999
 30
0.0
 11
-2073.031201914999
 21
-1880.420264999998
 31
0.0
  0
LINE
  5
2FC
330
A
100
AcDbEntity
  8
HEWI
  6
STANDARD
 62
     7
100
AcDbLine
 10
-2247.981171914999
 20
-1776.563301
 30
0.0
 11
-2248.109174915
 21
-1776.406288
 31
0.0
  0
LINE
  5
2FD
330
A
100
AcDbEntity
  8
HEWI
  6
STANDARD
 62
     7
100
AcDbLine
 10
-2566.981168914999
 20
-1776.563300999999
 30
0.0
 11
-2567.109170915
 21
-1776.406287999999
 31
0.0
  0
LINE
  5
2FE
330
A
100
AcDbEntity
  8
HEWI
  6
STANDARD
 62
     7
100
AcDbLine
 10
-2116.405186914999
 20
-1700.443305999999
 30
0.0
 11
-2117.207188915
 21
-1699.514275
 31
0.0
  0
LINE
  5
2FF
330
A
100
AcDbEntity
  8
HEWI
  6
STANDARD
 62
     7
100
AcDbLine
 10
-2071.568188915
 20
-1628.377303999999
 30
0.0
 11
-2072.220197915
 21
-1628.942298999999
 31
0.0
  0
LINE
  5
300
330
A
100
AcDbEntity
  8
HEWI
  6
STANDARD
 62
     7
100
AcDbLine
 10
-2114.109177914999
 20
-1667.940293
 30
0.0
 11
-2114.936185914999
 21
-1668.657302999999
 31
0.0
  0
LINE
  5
301
330
A
100
AcDbEntity
  8
HEWI
  6
STANDARD
 62
     7
100
AcDbLine
 10
-2116.243176914998
 20
-1700.619316
 30
0.0
 11
-2116.405186914999
 21
-1700.443305999999
 31
0.0
  0
LINE
  5
302
330
A
100
AcDbEntity
  8
HEWI
  6
STANDARD
 62
     7
100
AcDbLine
 10
-2114.936185914999
 20
-1668.657302999999
 30
0.0
 11
-2115.209184914999
 21
-1668.911286
 31
0.0
  0
LINE
  5
303
330
A
100
AcDbEntity
  8
HEWI
  6
STANDARD
 62
     7
100
AcDbLine
 10
-2208.575177915001
 20
-1776.563301
 30
0.0
 11
-2208.775182914999
 21
-1776.755333
 31
0.0
  0
LINE
  5
304
330
A
100
AcDbEntity
  8
HEWI
  6
STANDARD
 62
     7
100
AcDbLine
 10
-2527.575164915
 20
-1776.563300999999
 30
0.0
 11
-2527.775168914999
 21
-1776.755332999999
 31
0.0
  0
LINE
  5
305
330
A
100
AcDbEntity
  8
HEWI
  6
STANDARD
 62
     7
100
AcDbLine
 10
-2208.353181914999
 20
-1701.323281
 30
0.0
 11
-2208.534169915
 21
-1701.137276
 31
0.0
  0
LINE
  5
306
330
A
100
AcDbEntity
  8
HEWI
  6
STANDARD
 62
     7
100
AcDbLine
 10
-2527.353167914999
 20
-1701.323280999999
 30
0.0
 11
-2527.534165915001
 21
-1701.137275999999
 31
0.0
  0
LINE
  5
307
330
A
100
AcDbEntity
  8
HEWI
  6
STANDARD
 62
     7
100
AcDbLine
 10
-2115.209184914999
 20
-1701.659279000001
 30
0.0
 11
-2116.243176914998
 21
-1700.619316
 31
0.0
  0
LINE
  5
308
330
A
100
AcDbEntity
  8
HEWI
  6
STANDARD
 62
     7
100
AcDbLine
 10
-2758.578152915
 20
-1668.548317
 30
0.0
 11
-2758.778157915
 21
-1668.748284
 31
0.0
  0
LINE
  5
30A
330
A
100
AcDbEntity
  8
HEWI
  6
STANDARD
 62
     7
100
AcDbLine
 10
-2116.695676914999
 20
-1670.463790999999
 30
0.0
 11
-2116.924195915
 21
-1670.692292000001
 31
0.0
  0
LINE
  5
30B
330
A
100
AcDbEntity
  8
HEWI
  6
STANDARD
 62
     7
100
AcDbLine
 10
-2114.281182915
 20
-1702.521324
 30
0.0
 11
-2114.582829914999
 21
-1702.219658
 31
0.0
  0
LINE
  5
30C
330
A
100
AcDbEntity
  8
HEWI
  6
STANDARD
 62
     7
100
AcDbLine
 10
-2114.281182915
 20
-1668.049317
 30
0.0
 11
-2114.582829914999
 21
-1668.350944999999
 31
0.0
  0
LINE
  5
30D
330
A
100
AcDbEntity
  8
HEWI
  6
STANDARD
 62
     7
100
AcDbLine
 10
-2116.695676914999
 20
-1670.463790999999
 30
0.0
 11
-2117.054181914999
 21
-1670.822296
 31
0.0
  0
ARC
  5
30E
330
A
100
AcDbEntity
  8
HEWI
  6
STANDARD
 62
     7
100
AcDbCircle
 10
-2074.966137914999
 20
-1776.373237999999
 30
0.0
 40
0.9879879999999998
100
AcDbArc
 50
0.4592590000045015
 51
90.69866099999529
  0
ARC
  5
30F
330
A
100
AcDbEntity
  8
HEWI
  6
STANDARD
 62
     7
100
AcDbCircle
 10
-2074.969828914999
 20
-1798.893610999999
 30
0.0
 40
0.991716
100
AcDbArc
 50
269.5172169999977
 51
359.3248639999997
  0
ARC
  5
310
330
A
100
AcDbEntity
  8
HEWI
  6
STANDARD
 62
     7
100
AcDbCircle
 10
-2211.277075914999
 20
-1773.636383999999
 30
0.0
 40
3.998923999999998
100
AcDbArc
 50
269.984221000005
 51
284.361699999994
  0
ARC
  5
311
330
A
100
AcDbEntity
  8
HEWI
  6
STANDARD
 62
     7
100
AcDbCircle
 10
-2530.277014915001
 20
-1773.636836999999
 30
0.0
 40
3.998470999999998
100
AcDbArc
 50
269.9835380000031
 51
284.3625189999906
  0
ARC
  5
312
330
A
100
AcDbEntity
  8
HEWI
  6
STANDARD
 62
     7
100
AcDbCircle
 10
-2073.478217914999
 20
-1705.185211999999
 30
0.0
 40
0.499886
100
AcDbArc
 50
89.99668699999302
 51
165.0516559999913
  0
LINE
  5
48B
330
A
100
AcDbEntity
  8
HEWI
100
AcDbLine
 10
-1838.243031594354
 20
-1662.699753128151
 30
0.0
 11
-1851.242933322909
 21
-1662.651306786731
 31
0.0
  0
LINE
  5
48C
330
A
100
AcDbEntity
  8
HEWI
100
AcDbLine
 10
-1838.410730571698
 20
-1707.699440649877
 30
0.0
 11
-1851.410632300253
 21
-1707.650994308457
 31
0.0
  0
LINE
  5
48D
330
A
100
AcDbEntity
  8
HEWI
100
AcDbLine
 10
-1837.870502503156
 20
-1685.10127496674
 30
0.0
 11
-1838.326508336647
 21
-1685.099575583563
 31
0.0
  0
LINE
  5
48E
330
A
100
AcDbEntity
  8
HEWI
100
AcDbLine
 10
-1837.954724738208
 20
-1707.701140033054
 30
0.0
 11
-1837.787025760863
 21
-1662.701452511328
 31
0.0
  0
LINE
  5
48F
330
A
100
AcDbEntity
  8
HEWI
100
AcDbLine
 10
-1838.410730571698
 20
-1707.699440649877
 30
0.0
 11
-1838.243031594354
 21
-1662.699753128151
 31
0.0
  0
LINE
  5
490
330
A
100
AcDbEntity
  8
HEWI
100
AcDbLine
 10
-1852.305562933415
 20
-1663.086344765419
 30
0.0
 11
-1852.428093115756
 21
-1663.224896101152
 31
0.0
  0
LINE
  5
491
330
A
100
AcDbEntity
  8
HEWI
100
AcDbLine
 10
-1852.331456544254
 20
-1707.330558499274
 30
0.0
 11
-1852.46998995092
 21
-1707.20804738388
 31
0.0
  0
LINE
  5
492
330
A
100
AcDbEntity
  8
HEWI
100
AcDbLine
 10
-1852.428093115756
 20
-1663.224896101152
 30
0.0
 11
-1852.544719311745
 21
-1663.396467668232
 31
0.0
  0
LINE
  5
493
330
A
100
AcDbEntity
  8
HEWI
100
AcDbLine
 10
-1852.159885906362
 20
-1707.447165691668
 30
0.0
 11
-1852.331456544254
 21
-1707.330558499274
 31
0.0
  0
LINE
  5
494
330
A
100
AcDbEntity
  8
HEWI
100
AcDbLine
 10
-1852.544719311745
 20
-1663.396467668232
 30
0.0
 11
-1852.619264150048
 21
-1663.541187871093
 31
0.0
  0
LINE
  5
495
330
A
100
AcDbEntity
  8
HEWI
100
AcDbLine
 10
-1852.0151657035
 20
-1707.521710529971
 30
0.0
 11
-1852.159885906362
 21
-1707.447165691668
 31
0.0
  0
LINE
  5
496
330
A
100
AcDbEntity
  8
HEWI
100
AcDbLine
 10
-1851.798451677504
 20
-1707.598583679788
 30
0.0
 11
-1852.0151657035
 21
-1707.521710529971
 31
0.0
  0
LINE
  5
497
330
A
100
AcDbEntity
  8
HEWI
100
AcDbLine
 10
-1852.619264150048
 20
-1663.541187871093
 30
0.0
 11
-1852.696080229454
 21
-1663.75788310964
 31
0.0
  0
LINE
  5
498
330
A
100
AcDbEntity
  8
HEWI
100
AcDbLine
 10
-1851.661559368554
 20
-1707.629078040433
 30
0.0
 11
-1851.798451677504
 21
-1707.598583679788
 31
0.0
  0
LINE
  5
499
330
A
100
AcDbEntity
  8
HEWI
100
AcDbLine
 10
-1852.696080229454
 20
-1663.75788310964
 30
0.0
 11
-1852.726573660912
 21
-1663.894794422185
 31
0.0
  0
LINE
  5
49A
330
A
100
AcDbEntity
  8
HEWI
100
AcDbLine
 10
-1852.726573660912
 20
-1663.894794422185
 30
0.0
 11
-1852.748508928805
 21
-1664.14572141968
 31
0.0
  0
LINE
  5
49B
330
A
100
AcDbEntity
  8
HEWI
100
AcDbLine
 10
-1851.410632300253
 20
-1707.650994308457
 30
0.0
 11
-1851.661559368554
 21
-1707.629078040433
 31
0.0
  0
LINE
  5
49C
330
A
100
AcDbEntity
  8
HEWI
100
AcDbLine
 10
-1851.242933322909
 20
-1662.651306786731
 30
0.0
 11
-1851.494016764916
 21
-1662.671351227331
 31
0.0
  0
LINE
  5
49D
330
A
100
AcDbEntity
  8
HEWI
100
AcDbLine
 10
-1852.884963418339
 20
-1706.396482290045
 30
0.0
 11
-1852.9050278588
 21
-1706.145398773506
 31
0.0
  0
LINE
  5
49E
330
A
100
AcDbEntity
  8
HEWI
100
AcDbLine
 10
-1852.8554912662
 20
-1706.533617074522
 30
0.0
 11
-1852.884963418339
 21
-1706.396482290045
 31
0.0
  0
LINE
  5
49F
330
A
100
AcDbEntity
  8
HEWI
100
AcDbLine
 10
-1851.494016764916
 20
-1662.671351227331
 30
0.0
 11
-1851.631132694862
 21
-1662.700862450006
 31
0.0
  0
LINE
  5
4A0
330
A
100
AcDbEntity
  8
HEWI
100
AcDbLine
 10
-1851.631132694862
 20
-1662.700862450006
 30
0.0
 11
-1851.848413371976
 21
-1662.776042244333
 31
0.0
  0
LINE
  5
4A1
330
A
100
AcDbEntity
  8
HEWI
100
AcDbLine
 10
-1852.780292401198
 20
-1706.750878822573
 30
0.0
 11
-1852.8554912662
 21
-1706.533617074522
 31
0.0
  0
LINE
  5
4A2
330
A
100
AcDbEntity
  8
HEWI
100
AcDbLine
 10
-1852.706828408891
 20
-1706.896188605741
 30
0.0
 11
-1852.780292401198
 21
-1706.750878822573
 31
0.0
  0
LINE
  5
4A3
330
A
100
AcDbEntity
  8
HEWI
100
AcDbLine
 10
-1851.848413371976
 20
-1662.776042244333
 30
0.0
 11
-1851.993685155407
 21
-1662.849506378254
 31
0.0
  0
LINE
  5
4A4
330
A
100
AcDbEntity
  8
HEWI
100
AcDbLine
 10
-1851.993685155407
 20
-1662.849506378254
 30
0.0
 11
-1852.166120270348
 21
-1662.964869575055
 31
0.0
  0
LINE
  5
4A5
330
A
100
AcDbEntity
  8
HEWI
100
AcDbLine
 10
-1852.591484074071
 20
-1707.068586650133
 30
0.0
 11
-1852.706828408891
 21
-1706.896188605741
 31
0.0
  0
LINE
  5
4A6
330
A
100
AcDbEntity
  8
HEWI
100
AcDbLine
 10
-1852.166120270348
 20
-1662.964869575055
 30
0.0
 11
-1852.305562933415
 21
-1663.086344765419
 31
0.0
  0
LINE
  5
4A7
330
A
100
AcDbEntity
  8
HEWI
100
AcDbLine
 10
-1852.46998995092
 20
-1707.20804738388
 30
0.0
 11
-1852.591484074071
 21
-1707.068586650133
 31
0.0
  0
LINE
  5
4AA
330
A
100
AcDbEntity
  8
HEWI
  6
STANDARD
 62
     7
100
AcDbLine
 10
-2070.978169914999
 20
-1665.685233999999
 30
0.0
 11
-2073.478188915
 21
-1665.685233999999
 31
0.0
  0
LINE
  5
4AB
330
A
100
AcDbEntity
  8
HEWI
  6
STANDARD
 62
     7
100
AcDbLine
 10
-2073.978181914999
 20
-1662.585258999999
 30
0.0
 11
-2099.778180915
 21
-1662.585258999999
 31
0.0
  0
LINE
  5
4AC
330
A
100
AcDbEntity
  8
HEWI
  6
STANDARD
 62
     7
100
AcDbLine
 10
-2116.695676914999
 20
-1670.263786
 30
0.0
 11
-2117.054181914999
 21
-1670.622292
 31
0.0
  0
LINE
  5
4AD
330
A
100
AcDbEntity
  8
HEWI
  6
STANDARD
 62
     7
100
AcDbLine
 10
-2116.695676914999
 20
-1670.263786
 30
0.0
 11
-2116.924195915
 21
-1670.492287
 31
0.0
  0
LINE
  5
4AE
330
A
100
AcDbEntity
  8
HEWI
  6
STANDARD
 62
     7
100
AcDbLine
 10
-2114.936185914999
 20
-1668.457222
 30
0.0
 11
-2115.209184914999
 21
-1668.711281
 31
0.0
  0
LINE
  5
4AF
330
A
100
AcDbEntity
  8
HEWI
  6
STANDARD
 62
     7
100
AcDbLine
 10
-2114.109177914999
 20
-1667.740288000001
 30
0.0
 11
-2114.936185914999
 21
-1668.457222
 31
0.0
  0
LINE
  5
4B0
330
A
100
AcDbEntity
  8
HEWI
  6
STANDARD
 62
     7
100
AcDbLine
 10
-2113.337178914998
 20
-1667.130241
 30
0.0
 11
-2114.109177914999
 21
-1667.740288000001
 31
0.0
  0
LINE
  5
4B1
330
A
100
AcDbEntity
  8
HEWI
  6
STANDARD
 62
     7
100
AcDbLine
 10
-2112.949185915
 20
-1666.843224
 30
0.0
 11
-2113.337178914998
 21
-1667.130241
 31
0.0
  0
LINE
  5
4B2
330
A
100
AcDbEntity
  8
HEWI
  6
STANDARD
 62
     7
100
AcDbLine
 10
-2113.981805914999
 20
-1667.63958
 30
0.0
 11
-2114.281182915
 21
-1667.849236
 31
0.0
  0
LINE
  5
4B3
330
A
100
AcDbEntity
  8
HEWI
  6
STANDARD
 62
     7
100
AcDbLine
 10
-2111.068177914999
 20
-1665.599250999999
 30
0.0
 11
-2111.358514914999
 21
-1665.802573999999
 31
0.0
  0
LINE
  5
4B4
330
A
100
AcDbEntity
  8
HEWI
  6
STANDARD
 62
     7
100
AcDbLine
 10
-2111.732182914998
 20
-1666.024283999999
 30
0.0
 11
-2112.949185915
 21
-1666.843224
 31
0.0
  0
LINE
  5
4B5
330
A
100
AcDbEntity
  8
HEWI
  6
STANDARD
 62
     7
100
AcDbLine
 10
-2111.622186914999
 20
-1665.955238
 30
0.0
 11
-2111.732182914998
 21
-1666.024283999999
 31
0.0
  0
LINE
  5
4B6
330
A
100
AcDbEntity
  8
HEWI
  6
STANDARD
 62
     7
100
AcDbLine
 10
-2110.465188914999
 20
-1665.285224999999
 30
0.0
 11
-2111.622186914999
 21
-1665.955238
 31
0.0
  0
LINE
  5
4B7
330
A
100
AcDbEntity
  8
HEWI
  6
STANDARD
 62
     7
100
AcDbLine
 10
-2109.807191914998
 20
-1664.944266999999
 30
0.0
 11
-2110.465188914999
 21
-1665.285224999999
 31
0.0
  0
LINE
  5
4B8
330
A
100
AcDbEntity
  8
HEWI
  6
STANDARD
 62
     7
100
AcDbLine
 10
-2109.152188915
 20
-1664.631232999999
 30
0.0
 11
-2109.807191914998
 21
-1664.944266999999
 31
0.0
  0
LINE
  5
4B9
330
A
100
AcDbEntity
  8
HEWI
  6
STANDARD
 62
     7
100
AcDbLine
 10
-2107.513184914999
 20
-1663.942223
 30
0.0
 11
-2107.705922914999
 21
-1664.032096999999
 31
0.0
  0
LINE
  5
4BA
330
A
100
AcDbEntity
  8
HEWI
  6
STANDARD
 62
     7
100
AcDbLine
 10
-2110.756745915001
 20
-1665.454062999999
 30
0.0
 11
-2111.068177914999
 21
-1665.599250999999
 31
0.0
  0
LINE
  5
4BB
330
A
100
AcDbEntity
  8
HEWI
  6
STANDARD
 62
     7
100
AcDbLine
 10
-2107.906194914999
 20
-1664.104271000001
 30
0.0
 11
-2109.152188915
 21
-1664.631232999999
 31
0.0
  0
LINE
  5
4BC
330
A
100
AcDbEntity
  8
HEWI
  6
STANDARD
 62
     7
100
AcDbLine
 10
-2073.911195915
 20
-1665.435294999999
 30
0.0
 11
-2073.961186914999
 21
-1665.314292999999
 31
0.0
  0
LINE
  5
4BD
330
A
100
AcDbEntity
  8
HEWI
  6
STANDARD
 62
     7
100
AcDbLine
 10
-2107.799191914999
 20
-1664.064292999999
 30
0.0
 11
-2107.906194914999
 21
-1664.104271000001
 31
0.0
  0
LINE
  5
4BE
330
A
100
AcDbEntity
  8
HEWI
  6
STANDARD
 62
     7
100
AcDbLine
 10
-2106.413178915
 20
-1663.586234999999
 30
0.0
 11
-2107.799191914999
 21
-1664.064292999999
 31
0.0
  0
LINE
  5
4BF
330
A
100
AcDbEntity
  8
HEWI
  6
STANDARD
 62
     7
100
AcDbLine
 10
-2105.935178915
 20
-1663.444251999999
 30
0.0
 11
-2106.413178915
 21
-1663.586234999999
 31
0.0
  0
LINE
  5
4C0
330
A
100
AcDbEntity
  8
HEWI
  6
STANDARD
 62
     7
100
AcDbLine
 10
-2103.725190915
 20
-1662.927283999999
 30
0.0
 11
-2103.809228914999
 21
-1662.949790999999
 31
0.0
  0
LINE
  5
4C1
330
A
100
AcDbEntity
  8
HEWI
  6
STANDARD
 62
     7
100
AcDbLine
 10
-2107.209439915
 20
-1663.860893
 30
0.0
 11
-2107.513184914999
 21
-1663.942223
 31
0.0
  0
LINE
  5
4C2
330
A
100
AcDbEntity
  8
HEWI
  6
STANDARD
 62
     7
100
AcDbLine
 10
-2104.998193914999
 20
-1663.199271999999
 30
0.0
 11
-2105.935178915
 21
-1663.444251999999
 31
0.0
  0
LINE
  5
4C3
330
A
100
AcDbEntity
  8
HEWI
  6
STANDARD
 62
     7
100
AcDbLine
 10
-2103.912186915
 20
-1662.968253999999
 30
0.0
 11
-2104.998193914999
 21
-1663.199271999999
 31
0.0
  0
LINE
  5
4C4
330
A
100
AcDbEntity
  8
HEWI
  6
STANDARD
 62
     7
100
AcDbLine
 10
-2103.561177915
 20
-1662.905234999999
 30
0.0
 11
-2103.912186915
 21
-1662.968253999999
 31
0.0
  0
LINE
  5
4C5
330
A
100
AcDbEntity
  8
HEWI
  6
STANDARD
 62
     7
100
AcDbLine
 10
-2102.107186914999
 20
-1662.706260999999
 30
0.0
 11
-2103.561177915
 21
-1662.905234999999
 31
0.0
  0
LINE
  5
4C6
330
A
100
AcDbEntity
  8
HEWI
  6
STANDARD
 62
     7
100
AcDbLine
 10
-2073.961186914999
 20
-1665.314292999999
 30
0.0
 11
-2073.978181914999
 21
-1665.185280000001
 31
0.0
  0
LINE
  5
4C7
330
A
100
AcDbEntity
  8
HEWI
  6
STANDARD
 62
     7
100
AcDbLine
 10
-2101.854176914999
 20
-1662.681235999999
 30
0.0
 11
-2102.107186914999
 21
-1662.706260999999
 31
0.0
  0
LINE
  5
4C8
330
A
100
AcDbEntity
  8
HEWI
  6
STANDARD
 62
     7
100
AcDbLine
 10
-2103.644318915002
 20
-1662.920189000001
 30
0.0
 11
-2103.725190915
 21
-1662.927283999999
 31
0.0
  0
LINE
  5
4C9
330
A
100
AcDbEntity
  8
HEWI
  6
STANDARD
 62
     7
100
AcDbLine
 10
-2099.818177915
 20
-1662.585258999999
 30
0.0
 11
-2099.829755915
 21
-1662.586249999999
 31
0.0
  0
LINE
  5
4CA
330
A
100
AcDbEntity
  8
HEWI
  6
STANDARD
 62
     7
100
AcDbLine
 10
-2100.644193914999
 20
-1662.602272
 30
0.0
 11
-2101.854176914999
 21
-1662.681235999999
 31
0.0
  0
LINE
  5
4CB
330
A
100
AcDbEntity
  8
HEWI
  6
STANDARD
 62
     7
100
AcDbLine
 10
-2099.778180915
 20
-1662.585258999999
 30
0.0
 11
-2100.644193914999
 21
-1662.602272
 31
0.0
  0
LINE
  5
4CC
330
A
100
AcDbEntity
  8
HEWI
  6
STANDARD
 62
     7
100
AcDbLine
 10
-2099.810853914999
 20
-1662.585868999999
 30
0.0
 11
-2099.818177915
 21
-1662.585258999999
 31
0.0
  0
LINE
  5
4CD
330
A
100
AcDbEntity
  8
HEWI
  6
STANDARD
 62
     7
100
AcDbLine
 10
-2119.304185915001
 20
-1673.835259
 30
0.0
 11
-2119.535432915
 21
-1674.331398
 31
0.0
  0
LINE
  5
4CE
330
A
100
AcDbEntity
  8
HEWI
  6
STANDARD
 62
     7
100
AcDbLine
 10
-2119.919190915
 20
-1675.056266999999
 30
0.0
 11
-2120.287194914999
 21
-1675.832253000001
 31
0.0
  0
LINE
  5
4CF
330
A
100
AcDbEntity
  8
HEWI
  6
STANDARD
 62
     7
100
AcDbLine
 10
-2119.641194914998
 20
-1674.515265999999
 30
0.0
 11
-2119.919190915
 21
-1675.056266999999
 31
0.0
  0
LINE
  5
4D0
330
A
100
AcDbEntity
  8
HEWI
  6
STANDARD
 62
     7
100
AcDbLine
 10
-2118.908181914998
 20
-1673.240242
 30
0.0
 11
-2118.917260914999
 21
-1673.256569
 31
0.0
  0
LINE
  5
4D1
330
A
100
AcDbEntity
  8
HEWI
  6
STANDARD
 62
     7
100
AcDbLine
 10
-2118.910184914999
 20
-1673.244286
 30
0.0
 11
-2119.641194914998
 21
-1674.515265999999
 31
0.0
  0
LINE
  5
4D2
330
A
100
AcDbEntity
  8
HEWI
  6
STANDARD
 62
     7
100
AcDbLine
 10
-2118.097176914999
 20
-1672.022285999999
 30
0.0
 11
-2118.908181914998
 21
-1673.240242
 31
0.0
  0
LINE
  5
4D3
330
A
100
AcDbEntity
  8
HEWI
  6
STANDARD
 62
     7
100
AcDbLine
 10
-2119.001489915
 20
-1673.402977
 30
0.0
 11
-2119.304185915001
 21
-1673.835259
 31
0.0
  0
LINE
  5
4D4
330
A
100
AcDbEntity
  8
HEWI
  6
STANDARD
 62
     7
100
AcDbLine
 10
-2117.054181914999
 20
-1670.622292
 30
0.0
 11
-2117.307935914999
 21
-1670.984611999999
 31
0.0
  0
LINE
  5
4D5
330
A
100
AcDbEntity
  8
HEWI
  6
STANDARD
 62
     7
100
AcDbLine
 10
-2117.054181914999
 20
-1670.622292
 30
0.0
 11
-2117.307782914998
 21
-1670.984382999999
 31
0.0
  0
LINE
  5
4D6
330
A
100
AcDbEntity
  8
HEWI
  6
STANDARD
 62
     7
100
AcDbLine
 10
-2117.733178914999
 20
-1671.526221999999
 30
0.0
 11
-2118.097176914999
 21
-1672.022285999999
 31
0.0
  0
LINE
  5
4D7
330
A
100
AcDbEntity
  8
HEWI
  6
STANDARD
 62
     7
100
AcDbLine
 10
-2117.207188915
 20
-1670.856285
 30
0.0
 11
-2117.733178914999
 21
-1671.526221999999
 31
0.0
  0
LINE
  5
4D8
330
A
100
AcDbEntity
  8
HEWI
  6
STANDARD
 62
     7
100
AcDbLine
 10
-2116.405186914999
 20
-1669.927254
 30
0.0
 11
-2117.207188915
 21
-1670.856285
 31
0.0
  0
LINE
  5
4D9
330
A
100
AcDbEntity
  8
HEWI
  6
STANDARD
 62
     7
100
AcDbLine
 10
-2116.243176914998
 20
-1669.751243999999
 30
0.0
 11
-2116.405186914999
 21
-1669.927254
 31
0.0
  0
LINE
  5
4DA
330
A
100
AcDbEntity
  8
HEWI
  6
STANDARD
 62
     7
100
AcDbLine
 10
-2115.209184914999
 20
-1668.711281
 30
0.0
 11
-2116.243176914998
 21
-1669.751243999999
 31
0.0
  0
LINE
  5
4DB
330
A
100
AcDbEntity
  8
HEWI
  6
STANDARD
 62
     7
100
AcDbLine
 10
-2114.281182915
 20
-1667.849236
 30
0.0
 11
-2114.582829914999
 21
-1668.150902
 31
0.0
  0
ARC
  5
4DC
330
A
100
AcDbEntity
  8
HEWI
  6
STANDARD
 62
     7
100
AcDbCircle
 10
-2073.478217914999
 20
-1665.185347999999
 30
0.0
 40
0.499886
100
AcDbArc
 50
194.9483440000175
 51
270.003313000007
  0
LINE
  5
4DD
330
A
100
AcDbEntity
  8
HEWI
  6
STANDARD
 62
     7
100
AcDbLine
 10
-1833.3891895
 20
-2215.448180157238
 30
0.0
 11
-1837.8751785
 21
-2215.448180157238
 31
0.0
  0
LINE
  5
4DE
330
A
100
AcDbEntity
  8
HEWI
  6
STANDARD
 62
     7
100
AcDbLine
 10
-1837.8751785
 20
-2215.448180157238
 30
0.0
 11
-1837.8751785
 21
-2170.448180157238
 31
0.0
  0
LINE
  5
4DF
330
A
100
AcDbEntity
  8
HEWI
  6
STANDARD
 62
     7
100
AcDbLine
 10
-1852.8311755
 20
-2213.904143157238
 30
0.0
 11
-1852.8311755
 21
-2151.908141157238
 31
0.0
  0
LINE
  5
4E0
330
A
100
AcDbEntity
  8
HEWI
  6
STANDARD
 62
     7
100
AcDbLine
 10
-1838.3311865
 20
-2215.408125157237
 30
0.0
 11
-1838.3311865
 21
-2167.108183157238
 31
0.0
  0
LINE
  5
4E1
330
A
100
AcDbEntity
  8
HEWI
  6
STANDARD
 62
     7
100
AcDbLine
 10
-1827.8891975
 20
-2170.448180157238
 30
0.0
 11
-1827.8891975
 21
-2168.108168157238
 31
0.0
  0
LINE
  5
4E2
330
A
100
AcDbEntity
  8
HEWI
  6
STANDARD
 62
     7
100
AcDbLine
 10
-1852.2531915
 20
-2215.079146157238
 30
0.0
 11
-1852.5141935
 21
-2214.818144157238
 31
0.0
  0
LINE
  5
4E3
330
A
100
AcDbEntity
  8
HEWI
  6
STANDARD
 62
     7
100
AcDbLine
 10
-1833.1331855
 20
-2215.192137157238
 30
0.0
 11
-1833.3891895
 21
-2215.448180157238
 31
0.0
  0
LINE
  5
4E4
330
A
100
AcDbEntity
  8
HEWI
  6
STANDARD
 62
     7
100
AcDbLine
 10
-1852.4461775
 20
-2166.896162157238
 30
0.0
 11
-1852.5331905
 21
-2166.809187157238
 31
0.0
  0
LINE
  5
4E5
330
A
100
AcDbEntity
  8
HEWI
  6
STANDARD
 62
     7
100
AcDbLine
 10
-1852.4461775
 20
-2166.896162157238
 30
0.0
 11
-1852.5381875
 21
-2166.815138157238
 31
0.0
  0
LINE
  5
4E6
330
A
100
AcDbEntity
  8
HEWI
  6
STANDARD
 62
     7
100
AcDbLine
 10
-1852.4907515
 20
-2166.851607157238
 30
0.0
 11
-1852.5381875
 21
-2166.815138157238
 31
0.0
  0
LINE
  5
4E7
330
A
100
AcDbEntity
  8
HEWI
  6
STANDARD
 62
     7
100
AcDbLine
 10
-1852.3311835
 20
-2166.974135157238
 30
0.0
 11
-1852.4461775
 21
-2166.896162157238
 31
0.0
  0
LINE
  5
4E8
330
A
100
AcDbEntity
  8
HEWI
  6
STANDARD
 62
     7
100
AcDbLine
 10
-1852.235186499999
 20
-2167.023192157238
 30
0.0
 11
-1852.3271775
 21
-2166.967192157238
 31
0.0
  0
LINE
  5
4E9
330
A
100
AcDbEntity
  8
HEWI
  6
STANDARD
 62
     7
100
AcDbLine
 10
-1851.9361905
 20
-2215.268126157238
 30
0.0
 11
-1852.2531915
 21
-2215.079146157238
 31
0.0
  0
LINE
  5
4EA
330
A
100
AcDbEntity
  8
HEWI
  6
STANDARD
 62
     7
100
AcDbLine
 10
-1852.235186499999
 20
-2167.023192157238
 30
0.0
 11
-1852.3311835
 21
-2166.974135157238
 31
0.0
  0
LINE
  5
4EB
330
A
100
AcDbEntity
  8
HEWI
  6
STANDARD
 62
     7
100
AcDbLine
 10
-1852.2824885
 20
-2166.994353157237
 30
0.0
 11
-1852.3311835
 21
-2166.974135157238
 31
0.0
  0
LINE
  5
4EC
330
A
100
AcDbEntity
  8
HEWI
  6
STANDARD
 62
     7
100
AcDbLine
 10
-1852.0901895
 20
-2167.074156157238
 30
0.0
 11
-1852.235186499999
 21
-2167.023192157238
 31
0.0
  0
LINE
  5
4ED
330
A
100
AcDbEntity
  8
HEWI
  6
STANDARD
 62
     7
100
AcDbLine
 10
-1851.9991905
 20
-2167.094145157237
 30
0.0
 11
-1852.0881865
 21
-2167.067137157237
 31
0.0
  0
LINE
  5
4EE
330
A
100
AcDbEntity
  8
HEWI
  6
STANDARD
 62
     7
100
AcDbLine
 10
-1851.5821865
 20
-2215.375166157238
 30
0.0
 11
-1851.9361905
 21
-2215.268126157238
 31
0.0
  0
LINE
  5
4EF
330
A
100
AcDbEntity
  8
HEWI
  6
STANDARD
 62
     7
100
AcDbLine
 10
-1851.9991905
 20
-2167.094145157237
 30
0.0
 11
-1852.0901895
 21
-2167.074156157238
 31
0.0
  0
LINE
  5
4F0
330
A
100
AcDbEntity
  8
HEWI
  6
STANDARD
 62
     7
100
AcDbLine
 10
-1827.8411705
 20
-2167.799178157238
 30
0.0
 11
-1827.8891975
 21
-2168.108168157238
 31
0.0
  0
LINE
  5
4F1
330
A
100
AcDbEntity
  8
HEWI
  6
STANDARD
 62
     7
100
AcDbLine
 10
-1852.0459775
 20
-2167.079954157238
 30
0.0
 11
-1852.0901895
 21
-2167.074156157238
 31
0.0
  0
LINE
  5
4F2
330
A
100
AcDbEntity
  8
HEWI
  6
STANDARD
 62
     7
100
AcDbLine
 10
-1851.331179499999
 20
-2215.396147157238
 30
0.0
 11
-1851.5821865
 21
-2215.375166157238
 31
0.0
  0
LINE
  5
4F3
330
A
100
AcDbEntity
  8
HEWI
  6
STANDARD
 62
     7
100
AcDbLine
 10
-1851.8311905
 20
-2167.108183157238
 30
0.0
 11
-1851.9991905
 21
-2167.094145157237
 31
0.0
  0
LINE
  5
4F4
330
A
100
AcDbEntity
  8
HEWI
  6
STANDARD
 62
     7
100
AcDbLine
 10
-1838.3311865
 20
-2215.408125157237
 30
0.0
 11
-1851.331179499999
 21
-2215.396147157238
 31
0.0
  0
LINE
  5
4F5
330
A
100
AcDbEntity
  8
HEWI
  6
STANDARD
 62
     7
100
AcDbLine
 10
-1852.8171755
 20
-2166.275130157238
 30
0.0
 11
-1852.8311755
 21
-2166.108122157238
 31
0.0
  0
LINE
  5
4F6
330
A
100
AcDbEntity
  8
HEWI
  6
STANDARD
 62
     7
100
AcDbLine
 10
-1852.8101755
 20
-2214.148131157237
 30
0.0
 11
-1852.8311755
 21
-2213.904143157238
 31
0.0
  0
LINE
  5
4F7
330
A
100
AcDbEntity
  8
HEWI
  6
STANDARD
 62
     7
100
AcDbLine
 10
-1826.9092015
 20
-2167.108183157238
 30
0.0
 11
-1827.2122025
 21
-2167.157164157238
 31
0.0
  0
LINE
  5
4F8
330
A
100
AcDbEntity
  8
HEWI
  6
STANDARD
 62
     7
100
AcDbLine
 10
-1852.7971865
 20
-2166.366148157238
 30
0.0
 11
-1852.8171755
 21
-2166.275130157238
 31
0.0
  0
LINE
  5
4F9
330
A
100
AcDbEntity
  8
HEWI
  6
STANDARD
 62
     7
100
AcDbLine
 10
-1852.7041845
 20
-2214.501143157237
 30
0.0
 11
-1852.8101755
 21
-2214.148131157237
 31
0.0
  0
LINE
  5
4FA
330
A
100
AcDbEntity
  8
HEWI
  6
STANDARD
 62
     7
100
AcDbLine
 10
-1832.8701805
 20
-2215.106154157238
 30
0.0
 11
-1833.1331855
 21
-2215.192137157238
 31
0.0
  0
LINE
  5
4FB
330
A
100
AcDbEntity
  8
HEWI
  6
STANDARD
 62
     7
100
AcDbLine
 10
-1852.7461845
 20
-2166.511183157238
 30
0.0
 11
-1852.7971865
 21
-2166.366148157238
 31
0.0
  0
LINE
  5
4FC
330
A
100
AcDbEntity
  8
HEWI
  6
STANDARD
 62
     7
100
AcDbLine
 10
-1829.0281895
 20
-2212.434187157238
 30
0.0
 11
-1829.4471955
 21
-2212.629195157238
 31
0.0
  0
LINE
  5
4FD
330
A
100
AcDbEntity
  8
HEWI
  6
STANDARD
 62
     7
100
AcDbLine
 10
-1825.1491765
 20
-2210.184126157238
 30
0.0
 11
-1827.370169499999
 21
-2211.273146157238
 31
0.0
  0
LINE
  5
4FE
330
A
100
AcDbEntity
  8
HEWI
  6
STANDARD
 62
     7
100
AcDbLine
 10
-1852.6971845
 20
-2166.608153157238
 30
0.0
 11
-1852.7461845
 21
-2166.511183157238
 31
0.0
  0
LINE
  5
4FF
330
A
100
AcDbEntity
  8
HEWI
  6
STANDARD
 62
     7
100
AcDbLine
 10
-1831.4711785
 20
-2214.091139157238
 30
0.0
 11
-1832.3731825
 21
-2214.609175157238
 31
0.0
  0
LINE
  5
500
330
A
100
AcDbEntity
  8
HEWI
  6
STANDARD
 62
     7
100
AcDbLine
 10
-1852.5141935
 20
-2214.818144157238
 30
0.0
 11
-1852.7041845
 21
-2214.501143157237
 31
0.0
  0
LINE
  5
501
330
A
100
AcDbEntity
  8
HEWI
  6
STANDARD
 62
     7
100
AcDbLine
 10
-1829.4471955
 20
-2212.629195157238
 30
0.0
 11
-1831.1311745
 21
-2213.751173157238
 31
0.0
  0
LINE
  5
502
330
A
100
AcDbEntity
  8
HEWI
  6
STANDARD
 62
     7
100
AcDbLine
 10
-1852.6201845
 20
-2166.722136157238
 30
0.0
 11
-1852.6971845
 21
-2166.608153157238
 31
0.0
  0
LINE
  5
503
330
A
100
AcDbEntity
  8
HEWI
  6
STANDARD
 62
     7
100
AcDbLine
 10
-1827.370169499999
 20
-2211.273146157238
 30
0.0
 11
-1829.0281895
 21
-2212.434187157238
 31
0.0
  0
LINE
  5
504
330
A
100
AcDbEntity
  8
HEWI
  6
STANDARD
 62
     7
100
AcDbLine
 10
-1824.9642015
 20
-2210.054121157238
 30
0.0
 11
-1825.1491765
 21
-2210.184126157238
 31
0.0
  0
LINE
  5
505
330
A
100
AcDbEntity
  8
HEWI
  6
STANDARD
 62
     7
100
AcDbLine
 10
-1852.5381875
 20
-2166.815138157238
 30
0.0
 11
-1852.6201845
 21
-2166.722136157238
 31
0.0
  0
LINE
  5
506
330
A
100
AcDbEntity
  8
HEWI
  6
STANDARD
 62
     7
100
AcDbLine
 10
-1831.1311745
 20
-2213.751173157238
 30
0.0
 11
-1831.4711785
 21
-2214.091139157238
 31
0.0
  0
LINE
  5
507
330
A
100
AcDbEntity
  8
HEWI
  6
STANDARD
 62
     7
100
AcDbLine
 10
-1832.3731825
 20
-2214.609175157238
 30
0.0
 11
-1832.8701805
 21
-2215.106154157238
 31
0.0
  0
ARC
  5
508
330
A
100
AcDbEntity
  8
HEWI
  6
STANDARD
 62
     7
100
AcDbCircle
 10
-1826.901303499999
 20
-2168.096119157238
 30
0.0
 40
0.987967
100
AcDbArc
 50
90.45804999998878
 51
180.6987770000031
  0
LINE
  5
638
330
A
100
AcDbEntity
  8
HEWI
  6
STANDARD
 62
     7
100
AcDbLine
 10
-2697.478161914999
 20
-1775.135308
 30
0.0
 11
-2697.278161915
 21
-1775.335308
 31
0.0
  0
LINE
  5
639
330
A
100
AcDbEntity
  8
HEWI
  6
STANDARD
 62
     7
100
AcDbLine
 10
-2697.278161915
 20
-1799.935307999999
 30
0.0
 11
-2697.478161914999
 21
-1800.135307999999
 31
0.0
  0
LINE
  5
63A
330
A
100
AcDbEntity
  8
HEWI
  6
STANDARD
 62
     7
100
AcDbLine
 10
-2700.078161915
 20
-1800.135307999999
 30
0.0
 11
-2700.278161915
 21
-1799.935307999999
 31
0.0
  0
LINE
  5
63B
330
A
100
AcDbEntity
  8
HEWI
  6
STANDARD
 62
     7
100
AcDbLine
 10
-2700.278161915
 20
-1775.335308
 30
0.0
 11
-2700.078161915
 21
-1775.135308
 31
0.0
  0
LINE
  5
63C
330
A
100
AcDbEntity
  8
HEWI
  6
STANDARD
 62
     7
100
AcDbLine
 10
-2697.478161914999
 20
-1800.135307999999
 30
0.0
 11
-2700.078161915
 21
-1800.135307999999
 31
0.0
  0
LINE
  5
63D
330
A
100
AcDbEntity
  8
HEWI
  6
STANDARD
 62
     7
100
AcDbLine
 10
-2700.078161915
 20
-1775.135308
 30
0.0
 11
-2697.478161914999
 21
-1775.135308
 31
0.0
  0
LINE
  5
63E
330
A
100
AcDbEntity
  8
HEWI
  6
STANDARD
 62
     7
100
AcDbLine
 10
-2697.478161914999
 20
-1800.135307999999
 30
0.0
 11
-2697.478161914999
 21
-1775.135308
 31
0.0
  0
LINE
  5
63F
330
A
100
AcDbEntity
  8
HEWI
  6
STANDARD
 62
     7
100
AcDbLine
 10
-2697.278161915
 20
-1775.335308
 30
0.0
 11
-2697.278161915
 21
-1787.577686499999
 31
0.0
  0
LINE
  5
640
330
A
100
AcDbEntity
  8
HEWI
  6
STANDARD
 62
     7
100
AcDbLine
 10
-2697.278161915
 20
-1787.577686499999
 30
0.0
 11
-2697.278161915
 21
-1799.935307999999
 31
0.0
  0
LINE
  5
641
330
A
100
AcDbEntity
  8
HEWI
  6
STANDARD
 62
     7
100
AcDbLine
 10
-2700.278161915
 20
-1775.335308
 30
0.0
 11
-2700.278161915
 21
-1787.577686499999
 31
0.0
  0
LINE
  5
642
330
A
100
AcDbEntity
  8
HEWI
  6
STANDARD
 62
     7
100
AcDbLine
 10
-2700.278161915
 20
-1787.577686499999
 30
0.0
 11
-2700.278161915
 21
-1799.935307999999
 31
0.0
  0
LINE
  5
643
330
A
100
AcDbEntity
  8
HEWI
  6
STANDARD
 62
     7
100
AcDbLine
 10
-2700.078161915
 20
-1787.577686499999
 30
0.0
 11
-2700.078161915
 21
-1775.135308
 31
0.0
  0
LINE
  5
644
330
A
100
AcDbEntity
  8
HEWI
  6
STANDARD
 62
     7
100
AcDbLine
 10
-2700.078161915
 20
-1800.135307999999
 30
0.0
 11
-2700.078161915
 21
-1787.577686499999
 31
0.0
  0
HATCH
  5
99B
330
A
100
AcDbEntity
  8
0
 62
   152
420
    28896
100
AcDbHatch
 10
0.0
 20
0.0
 30
0.0
210
0.0
220
0.0
230
1.0
  2
SOLID
 70
     1
 71
     1
 91
        3
 92
        7
 72
     1
 73
     1
 93
       10
 10
-2524.328161914999
 20
-1738.710650499999
 42
0.0
 10
-2524.328161914999
 20
-1772.710650499999
 42
0.4142135623730991
 10
-2523.328161915
 20
-1773.710650499999
 42
0.0
 10
-2490.828161914999
 20
-1773.710650499999
 42
0.4142135623730829
 10
-2489.828161915
 20
-1772.710650499999
 42
0.0
 10
-2489.828161914999
 20
-1738.710650499999
 42
0.0
 10
-2489.828161914999
 20
-1704.710650499998
 42
0.4142135623730949
 10
-2490.828161914999
 20
-1703.710650499998
 42
0.0
 10
-2523.328161914999
 20
-1703.710650499998
 42
0.4142135623730951
 10
-2524.328161914999
 20
-1704.710650499998
 42
0.0
 97
       10
330
9C6
330
9B6
330
9C7
330
9B7
330
9B4
330
9C5
330
9B3
330
9C4
330
9B2
330
9B5
 92
       20
 93
        7
 72
     4
 94
        5
 73
     1
 74
     0
 95
       12
 96
        6
 40
0.0
 40
0.0
 40
0.0
 40
0.0
 40
0.0
 40
0.0
 40
0.4960304773248839
 40
0.4960304773248839
 40
0.4960304773248839
 40
0.4960304773248839
 40
0.4960304773248839
 40
0.4960304773248839
 10
-2514.657179437883
 20
-1736.94679248057
 42
1.0
 10
-2513.333162491939
 20
-1737.654623933402
 42
0.952754144170146
 10
-2511.850884174247
 20
-1738.035525836384
 42
0.92913121625522
 10
-2510.311332880181
 20
-1738.035508878553
 42
0.92913121625522
 10
-2508.829025170375
 20
-1737.654574321288
 42
0.952754144170146
 10
-2507.504953606167
 20
-1736.946713700326
 42
1.0
 97
        0
 72
     4
 94
        5
 73
     1
 74
     0
 95
       12
 96
        6
 40
0.0
 40
0.0
 40
0.0
 40
0.0
 40
0.0
 40
0.0
 40
1.0
 40
1.0
 40
1.0
 40
1.0
 40
1.0
 40
1.0
 10
-2499.998848992266
 20
-1737.608889408897
 42
1.0
 10
-2501.323372075873
 20
-1736.902304467826
 42
0.9529220753075458
 10
-2502.805552685217
 20
-1736.522159462356
 42
0.929383112961319
 10
-2504.344750195703
 20
-1736.522142509123
 42
0.929383112961319
 10
-2505.826901412091
 20
-1736.902254864456
 42
0.9529220753075458
 10
-2507.151369861062
 20
-1737.608810628653
 42
1.0
 97
        0
 72
     4
 94
        5
 73
     1
 74
     0
 95
       12
 96
        6
 40
0.0157553232654262
 40
0.0157553232654262
 40
0.0157553232654262
 40
0.0157553232654262
 40
0.0157553232654262
 40
0.0157553232654262
 40
1.0
 40
1.0
 40
1.0
 40
1.0
 40
1.0
 40
1.0
 10
-2507.504953606167
 20
-1736.946713700326
 42
1.0
 10
-2506.049532677081
 20
-1736.170299483333
 42
0.9529220753075458
 10
-2504.420871928219
 20
-1735.752586937123
 42
0.929383112961319
 10
-2502.729557934599
 20
-1735.752569983889
 42
0.929383112961319
 10
-2501.100926578694
 20
-1736.170249879963
 42
0.9529220753075458
 10
-2499.645560284242
 20
-1736.946634920081
 42
1.0
 97
        0
 72
     4
 94
        5
 73
     1
 74
     0
 95
       12
 96
        6
 40
0.0
 40
0.0
 40
0.0
 40
0.0
 40
0.0
 40
0.0
 40
0.0157553232654262
 40
0.0157553232654262
 40
0.0157553232654262
 40
0.0157553232654262
 40
0.0157553232654262
 40
0.0157553232654262
 10
-2499.645560284242
 20
-1736.946634920081
 42
1.0
 10
-2499.274697770506
 20
-1737.144476596576
 42
1.0
 10
-2498.916286451226
 20
-1737.365658558885
 42
1.0
 10
-2499.270804073897
 20
-1738.030216699705
 42
1.0
 10
-2499.627986478528
 20
-1737.806731085392
 42
1.0
 10
-2499.998848992266
 20
-1737.608889408897
 42
1.0
 97
        0
 72
     4
 94
        5
 73
     1
 74
     0
 95
       12
 96
        6
 40
0.0
 40
0.0
 40
0.0
 40
0.0
 40
0.0
 40
0.0
 40
1.0
 40
1.0
 40
1.0
 40
1.0
 40
1.0
 40
1.0
 10
-2499.998848992266
 20
-1737.608889408897
 42
1.0
 10
-2501.323372075873
 20
-1736.902304467826
 42
0.9529220753075458
 10
-2502.805552685217
 20
-1736.522159462356
 42
0.929383112961319
 10
-2504.344750195703
 20
-1736.522142509123
 42
0.929383112961319
 10
-2505.826901412091
 20
-1736.902254864456
 42
0.9529220753075458
 10
-2507.151369861062
 20
-1737.608810628653
 42
1.0
 97
        0
 72
     4
 94
        5
 73
     1
 74
     0
 95
       12
 96
        6
 40
0.5039695226751162
 40
0.5039695226751162
 40
0.5039695226751162
 40
0.5039695226751162
 40
0.5039695226751162
 40
0.5039695226751162
 40
1.0
 40
1.0
 40
1.0
 40
1.0
 40
1.0
 40
1.0
 10
-2507.151369861062
 20
-1737.608810628653
 42
1.0
 10
-2508.606354664706
 20
-1738.38665871586
 42
0.952754144170146
 10
-2510.235254018471
 20
-1738.805239169056
 42
0.92913121625522
 10
-2511.927090052282
 20
-1738.805222211226
 42
0.92913121625522
 10
-2513.556018798164
 20
-1738.386609103747
 42
0.952754144170146
 10
-2515.011058220068
 20
-1737.608731848408
 42
1.0
 97
        0
 72
     4
 94
        5
 73
     1
 74
     0
 95
       12
 96
        6
 40
0.4960304773248839
 40
0.4960304773248839
 40
0.4960304773248839
 40
0.4960304773248839
 40
0.4960304773248839
 40
0.4960304773248839
 40
0.5039695226751161
 40
0.5039695226751161
 40
0.5039695226751161
 40
0.5039695226751161
 40
0.5039695226751161
 40
0.5039695226751161
 10
-2515.011058220068
 20
-1737.608731848408
 42
1.0
 10
-2515.381744266058
 20
-1737.410559730385
 42
1.0
 10
-2515.739939365801
 20
-1737.189022976002
 42
1.0
 10
-2515.384823419715
 20
-1736.52476946125
 42
1.0
 10
-2515.027865483874
 20
-1736.748620362547
 42
1.0
 10
-2514.657179437883
 20
-1736.94679248057
 42
1.0
 97
        0
 97
        3
330
9D5
330
9D7
330
9D6
 92
       20
 93
        7
 72
     4
 94
        5
 73
     1
 74
     0
 95
       12
 96
        6
 40
0.0
 40
0.0
 40
0.0
 40
0.0
 40
0.0
 40
0.0
 40
0.4960304773248839
 40
0.4960304773248839
 40
0.4960304773248839
 40
0.4960304773248839
 40
0.4960304773248839
 40
0.4960304773248839
 10
-2514.657179437883
 20
-1740.074274603637
 42
1.0
 10
-2513.333162491939
 20
-1740.782106056469
 42
0.952754144170146
 10
-2511.850884174247
 20
-1741.16300795945
 42
0.92913121625522
 10
-2510.311332880181
 20
-1741.16299100162
 42
0.92913121625522
 10
-2508.829025170375
 20
-1740.782056444356
 42
0.952754144170146
 10
-2507.504953606167
 20
-1740.074195823394
 42
1.0
 97
        0
 72
     4
 94
        5
 73
     1
 74
     0
 95
       12
 96
        6
 40
0.0
 40
0.0
 40
0.0
 40
0.0
 40
0.0
 40
0.0
 40
1.0
 40
1.0
 40
1.0
 40
1.0
 40
1.0
 40
1.0
 10
-2499.998848992266
 20
-1740.736371531965
 42
1.0
 10
-2501.323372075873
 20
-1740.029786590892
 42
0.9529220753075458
 10
-2502.805552685217
 20
-1739.649641585423
 42
0.929383112961319
 10
-2504.344750195703
 20
-1739.649624632188
 42
0.929383112961319
 10
-2505.826901412091
 20
-1740.029736987523
 42
0.9529220753075458
 10
-2507.151369861062
 20
-1740.73629275172
 42
1.0
 97
        0
 72
     4
 94
        5
 73
     1
 74
     0
 95
       12
 96
        6
 40
0.0157553232654262
 40
0.0157553232654262
 40
0.0157553232654262
 40
0.0157553232654262
 40
0.0157553232654262
 40
0.0157553232654262
 40
1.0
 40
1.0
 40
1.0
 40
1.0
 40
1.0
 40
1.0
 10
-2507.504953606167
 20
-1740.074195823394
 42
1.0
 10
-2506.049532677081
 20
-1739.297781606399
 42
0.9529220753075458
 10
-2504.420871928219
 20
-1738.880069060191
 42
0.929383112961319
 10
-2502.729557934599
 20
-1738.880052106956
 42
0.929383112961319
 10
-2501.100926578695
 20
-1739.29773200303
 42
0.9529220753075458
 10
-2499.645560284242
 20
-1740.074117043149
 42
1.0
 97
        0
 72
     4
 94
        5
 73
     1
 74
     0
 95
       12
 96
        6
 40
0.0
 40
0.0
 40
0.0
 40
0.0
 40
0.0
 40
0.0
 40
0.0157553232654262
 40
0.0157553232654262
 40
0.0157553232654262
 40
0.0157553232654262
 40
0.0157553232654262
 40
0.0157553232654262
 10
-2499.645560284242
 20
-1740.074117043149
 42
1.0
 10
-2499.274697770506
 20
-1740.271958719642
 42
1.0
 10
-2498.916286451226
 20
-1740.493140681952
 42
1.0
 10
-2499.270804073897
 20
-1741.157698822772
 42
1.0
 10
-2499.627986478528
 20
-1740.934213208458
 42
1.0
 10
-2499.998848992266
 20
-1740.736371531965
 42
1.0
 97
        0
 72
     4
 94
        5
 73
     1
 74
     0
 95
       12
 96
        6
 40
0.0
 40
0.0
 40
0.0
 40
0.0
 40
0.0
 40
0.0
 40
1.0
 40
1.0
 40
1.0
 40
1.0
 40
1.0
 40
1.0
 10
-2499.998848992266
 20
-1740.736371531965
 42
1.0
 10
-2501.323372075873
 20
-1740.029786590892
 42
0.9529220753075458
 10
-2502.805552685217
 20
-1739.649641585423
 42
0.929383112961319
 10
-2504.344750195703
 20
-1739.649624632188
 42
0.929383112961319
 10
-2505.826901412091
 20
-1740.029736987523
 42
0.9529220753075458
 10
-2507.151369861062
 20
-1740.73629275172
 42
1.0
 97
        0
 72
     4
 94
        5
 73
     1
 74
     0
 95
       12
 96
        6
 40
0.5039695226751162
 40
0.5039695226751162
 40
0.5039695226751162
 40
0.5039695226751162
 40
0.5039695226751162
 40
0.5039695226751162
 40
1.0
 40
1.0
 40
1.0
 40
1.0
 40
1.0
 40
1.0
 10
-2507.151369861062
 20
-1740.73629275172
 42
1.0
 10
-2508.606354664706
 20
-1741.514140838928
 42
0.952754144170146
 10
-2510.235254018471
 20
-1741.932721292123
 42
0.92913121625522
 10
-2511.927090052282
 20
-1741.932704334293
 42
0.92913121625522
 10
-2513.556018798164
 20
-1741.514091226813
 42
0.952754144170146
 10
-2515.011058220068
 20
-1740.736213971475
 42
1.0
 97
        0
 72
     4
 94
        5
 73
     1
 74
     0
 95
       12
 96
        6
 40
0.4960304773248839
 40
0.4960304773248839
 40
0.4960304773248839
 40
0.4960304773248839
 40
0.4960304773248839
 40
0.4960304773248839
 40
0.5039695226751161
 40
0.5039695226751161
 40
0.5039695226751161
 40
0.5039695226751161
 40
0.5039695226751161
 40
0.5039695226751161
 10
-2515.011058220068
 20
-1740.736213971475
 42
1.0
 10
-2515.381744266058
 20
-1740.538041853453
 42
1.0
 10
-2515.739939365801
 20
-1740.316505099069
 42
1.0
 10
-2515.384823419715
 20
-1739.652251584318
 42
1.0
 10
-2515.027865483874
 20
-1739.876102485614
 42
1.0
 10
-2514.657179437883
 20
-1740.074274603637
 42
1.0
 97
        0
 97
        3
330
9D9
330
9DB
330
9DA
 75
     1
 76
     1
 47
0.1141113672883229
 98
        3
 10
-2513.644144765749
 20
-1715.710713565621
 10
-2513.644144765749
 20
-1715.710713565621
 10
-2513.644144765749
 20
-1715.710713565621
450
        0
451
        0
460
0.0
461
0.0
452
        0
462
1.0
453
        2
463
0.0
 63
     5
421
      255
463
1.0
 63
     2
421
 16776960
470
LINEAR
1001
GradientColor1ACI
1070
     5
1001
GradientColor2ACI
1070
     2
1001
ACAD
1010
0.0
1020
0.0
1030
0.0
  0
LINE
  5
99C
330
A
100
AcDbEntity
  8
HEWI
100
AcDbLine
 10
-2527.078161914999
 20
-1700.848242499998
 30
0.0
 11
-2487.078161914999
 21
-1700.848242499998
 31
0.0
  0
LINE
  5
99D
330
A
100
AcDbEntity
  8
HEWI
100
AcDbLine
 10
-2487.078161914999
 20
-1776.406198499998
 30
0.0
 11
-2527.078161915
 21
-1776.406198499998
 31
0.0
  0
LINE
  5
99E
330
A
100
AcDbEntity
  8
HEWI
100
AcDbLine
 10
-2565.078161914999
 20
-1700.435882499999
 30
0.0
 11
-2529.078161914999
 21
-1700.435882499999
 31
0.0
  0
LINE
  5
99F
330
A
100
AcDbEntity
  8
HEWI
100
AcDbLine
 10
-2529.078161914999
 20
-1777.385382499998
 30
0.0
 11
-2565.078161915
 21
-1777.385382499998
 31
0.0
  0
LINE
  5
9A0
330
A
100
AcDbEntity
  8
HEWI
100
AcDbLine
 10
-2527.078161915
 20
-1775.906198499998
 30
0.0
 11
-2527.078161915
 21
-1776.406198499998
 31
0.0
  0
LINE
  5
9A1
330
A
100
AcDbEntity
  8
HEWI
100
AcDbLine
 10
-2527.078161914999
 20
-1700.848242499998
 30
0.0
 11
-2527.078161914999
 21
-1701.348242499998
 31
0.0
  0
LINE
  5
9A2
330
A
100
AcDbEntity
  8
HEWI
100
AcDbLine
 10
-2527.078161914999
 20
-1701.348242499998
 30
0.0
 11
-2527.078161915
 21
-1775.906198499998
 31
0.0
  0
LINE
  5
9A3
330
A
100
AcDbEntity
  8
HEWI
100
AcDbLine
 10
-2527.078161914999
 20
-1701.348242499998
 30
0.0
 11
-2487.078161914999
 21
-1701.348242499998
 31
0.0
  0
LINE
  5
9A4
330
A
100
AcDbEntity
  8
HEWI
100
AcDbLine
 10
-2487.078161914999
 20
-1775.906198499998
 30
0.0
 11
-2527.078161915
 21
-1775.906198499998
 31
0.0
  0
LINE
  5
9A5
330
A
100
AcDbEntity
  8
HEWI
100
AcDbLine
 10
-2524.578161914999
 20
-1704.460650499999
 30
0.0
 11
-2524.578161915
 21
-1772.960650499998
 31
0.0
  0
LINE
  5
9A6
330
A
100
AcDbEntity
  8
HEWI
100
AcDbLine
 10
-2523.578161914999
 20
-1703.460650499998
 30
0.0
 11
-2490.578161914999
 21
-1703.460650499998
 31
0.0
  0
LINE
  5
9A7
330
A
100
AcDbEntity
  8
HEWI
100
AcDbLine
 10
-2523.578161914999
 20
-1773.960650499998
 30
0.0
 11
-2490.578161915
 21
-1773.960650499998
 31
0.0
  0
LINE
  5
9A8
330
A
100
AcDbEntity
  8
HEWI
100
AcDbLine
 10
-2489.578161914999
 20
-1704.460650499999
 30
0.0
 11
-2489.578161914999
 21
-1772.960650499998
 31
0.0
  0
LINE
  5
9A9
330
A
100
AcDbEntity
  8
HEWI
100
AcDbLine
 10
-2487.078161914999
 20
-1776.406198499998
 30
0.0
 11
-2487.078161914999
 21
-1775.906198499998
 31
0.0
  0
LINE
  5
9AA
330
A
100
AcDbEntity
  8
HEWI
100
AcDbLine
 10
-2487.078161914999
 20
-1701.348242499998
 30
0.0
 11
-2487.078161914999
 21
-1700.848242499998
 31
0.0
  0
LINE
  5
9AB
330
A
100
AcDbEntity
  8
HEWI
100
AcDbLine
 10
-2487.078161914999
 20
-1701.348242499998
 30
0.0
 11
-2487.078161914999
 21
-1775.906198499998
 31
0.0
  0
LINE
  5
9AC
330
A
100
AcDbEntity
  8
HEWI
100
AcDbLine
 10
-2565.078161915
 20
-1777.385382499998
 30
0.0
 11
-2565.078161915
 21
-1777.185382499999
 31
0.0
  0
LINE
  5
9AD
330
A
100
AcDbEntity
  8
HEWI
100
AcDbLine
 10
-2529.078161914999
 20
-1777.185382499999
 30
0.0
 11
-2565.078161915
 21
-1777.185382499999
 31
0.0
  0
LINE
  5
9AE
330
A
100
AcDbEntity
  8
HEWI
100
AcDbLine
 10
-2565.078161914999
 20
-1700.635882499998
 30
0.0
 11
-2529.078161914999
 21
-1700.635882499998
 31
0.0
  0
LINE
  5
9AF
330
A
100
AcDbEntity
  8
HEWI
100
AcDbLine
 10
-2529.078161914999
 20
-1777.385382499998
 30
0.0
 11
-2529.078161914999
 21
-1777.185382499999
 31
0.0
  0
LINE
  5
9B0
330
A
100
AcDbEntity
  8
HEWI
100
AcDbLine
 10
-2529.078161914999
 20
-1700.635882499998
 30
0.0
 11
-2529.078161914999
 21
-1777.185382499999
 31
0.0
  0
LINE
  5
9B1
330
A
100
AcDbEntity
  8
HEWI
100
AcDbLine
 10
-2529.078161914999
 20
-1700.435882499999
 30
0.0
 11
-2529.078161914999
 21
-1700.635882499998
 31
0.0
  0
LINE
  5
9B2
102
{ACAD_REACTORS
330
99B
102
}
330
A
100
AcDbEntity
  8
HEWI
100
AcDbLine
 10
-2524.328161914999
 20
-1772.710650499999
 30
0.0
 11
-2524.328161914999
 21
-1738.710650499999
 31
0.0
  0
LINE
  5
9B3
102
{ACAD_REACTORS
330
99B
102
}
330
A
100
AcDbEntity
  8
HEWI
100
AcDbLine
 10
-2490.828161914999
 20
-1773.710650499998
 30
0.0
 11
-2523.328161915
 21
-1773.710650499998
 31
0.0
  0
LINE
  5
9B4
102
{ACAD_REACTORS
330
99B
102
}
330
A
100
AcDbEntity
  8
HEWI
100
AcDbLine
 10
-2489.828161915
 20
-1772.710650499999
 30
0.0
 11
-2489.828161914999
 21
-1738.710650499999
 31
0.0
  0
LINE
  5
9B5
102
{ACAD_REACTORS
330
99B
102
}
330
A
100
AcDbEntity
  8
HEWI
100
AcDbLine
 10
-2524.328161914999
 20
-1738.710650499999
 30
0.0
 11
-2524.328161914999
 21
-1704.710650499998
 31
0.0
  0
LINE
  5
9B6
102
{ACAD_REACTORS
330
99B
102
}
330
A
100
AcDbEntity
  8
HEWI
100
AcDbLine
 10
-2523.328161914999
 20
-1703.710650499998
 30
0.0
 11
-2490.828161914999
 21
-1703.710650499998
 31
0.0
  0
LINE
  5
9B7
102
{ACAD_REACTORS
330
99B
102
}
330
A
100
AcDbEntity
  8
HEWI
100
AcDbLine
 10
-2489.828161914999
 20
-1738.710650499999
 30
0.0
 11
-2489.828161914999
 21
-1704.710650499998
 31
0.0
  0
LINE
  5
9B8
330
A
100
AcDbEntity
  8
HEWI
100
AcDbLine
 10
-2539.528159915
 20
-1800.077688499998
 30
0.0
 11
-2539.528159915
 21
-1800.077688499998
 31
0.0
  0
LINE
  5
9B9
330
A
100
AcDbEntity
  8
HEWI
100
AcDbLine
 10
-2551.553699914999
 20
-1798.527686499998
 30
0.0
 11
-2542.554269915
 21
-1798.527686499998
 31
0.0
  0
LINE
  5
9BA
330
A
100
AcDbEntity
  8
HEWI
100
AcDbLine
 10
-2552.778161915
 20
-1799.327686499999
 30
0.0
 11
-2541.378161914999
 21
-1799.327686499999
 31
0.0
  0
LINE
  5
9BB
330
A
100
AcDbEntity
  8
HEWI
100
AcDbLine
 10
-2567.078161914999
 20
-1701.366226499998
 30
0.0
 11
-2567.078161915
 21
-1776.130416499998
 31
0.0
  0
LINE
  5
9BC
330
A
100
AcDbEntity
  8
HEWI
100
AcDbLine
 10
-2565.078161915
 20
-1777.185382499999
 30
0.0
 11
-2565.078161914999
 21
-1700.635882499998
 31
0.0
  0
LINE
  5
9BD
330
A
100
AcDbEntity
  8
HEWI
100
AcDbLine
 10
-2565.078161914999
 20
-1700.435882499999
 30
0.0
 11
-2565.078161914999
 21
-1700.635882499998
 31
0.0
  0
ARC
  5
9BE
330
A
100
AcDbEntity
  8
HEWI
100
AcDbCircle
 10
-2541.378161914999
 20
-1798.527686499998
 30
0.0
 40
0.8
100
AcDbArc
 50
270.0
 51
294.98339499998
  0
ARC
  5
9BF
330
A
100
AcDbEntity
  8
HEWI
100
AcDbCircle
 10
-2552.778161915
 20
-1798.527686499998
 30
0.0
 40
0.8
100
AcDbArc
 50
244.3569869999984
 51
270.0
  0
ARC
  5
9C0
330
A
100
AcDbEntity
  8
HEWI
100
AcDbCircle
 10
2523.578161914999
 20
-1704.460650499999
 30
0.0
 40
1.0
210
0.0
220
0.0
230
-1.0
100
AcDbArc
 50
0.000000000000007
 51
90.0
  0
ARC
  5
9C1
330
A
100
AcDbEntity
  8
HEWI
100
AcDbCircle
 10
2523.578161914999
 20
-1772.960650499998
 30
0.0
 40
1.0
210
0.0
220
0.0
230
-1.0
100
AcDbArc
 50
270.0
 51
0.000000000000007
  0
ARC
  5
9C2
330
A
100
AcDbEntity
  8
HEWI
100
AcDbCircle
 10
2490.578161914999
 20
-1704.460650499999
 30
0.0
 40
1.0
210
0.0
220
0.0
230
-1.0
100
AcDbArc
 50
90.0
 51
179.9999999999999
  0
ARC
  5
9C3
330
A
100
AcDbEntity
  8
HEWI
100
AcDbCircle
 10
2490.578161915
 20
-1772.960650499998
 30
0.0
 40
1.0
210
0.0
220
0.0
230
-1.0
100
AcDbArc
 50
179.9999999999999
 51
270.0
  0
ARC
  5
9C4
102
{ACAD_REACTORS
330
99B
102
}
330
A
100
AcDbEntity
  8
HEWI
100
AcDbCircle
 10
-2523.328161915
 20
-1772.710650499999
 30
0.0
 40
1.0
100
AcDbArc
 50
180.0
 51
270.0
  0
ARC
  5
9C5
102
{ACAD_REACTORS
330
99B
102
}
330
A
100
AcDbEntity
  8
HEWI
100
AcDbCircle
 10
-2490.828161914999
 20
-1772.710650499999
 30
0.0
 40
1.0
100
AcDbArc
 50
270.0
 51
0.0000000000000325
  0
ARC
  5
9C6
102
{ACAD_REACTORS
330
99B
102
}
330
A
100
AcDbEntity
  8
HEWI
100
AcDbCircle
 10
-2523.328161914999
 20
-1704.710650499998
 30
0.0
 40
1.0
100
AcDbArc
 50
90.0
 51
180.0
  0
ARC
  5
9C7
102
{ACAD_REACTORS
330
99B
102
}
330
A
100
AcDbEntity
  8
HEWI
100
AcDbCircle
 10
-2490.828161914999
 20
-1704.710650499998
 30
0.0
 40
1.0
100
AcDbArc
 50
0.0000000000000325
 51
90.0
  0
ELLIPSE
  5
9C8
330
A
100
AcDbEntity
  8
HEWI
100
AcDbEllipse
 10
-2566.878161915
 20
-1776.130416499998
 30
0.0
 11
0.2
 21
-0.0000000000000001
 31
0.0
210
0.0
220
0.0
230
-1.0
 40
0.90136
 41
2.514698896745267
 42
3.141592653589792
  0
ELLIPSE
  5
9C9
330
A
100
AcDbEntity
  8
HEWI
100
AcDbEllipse
 10
-2527.278161914999
 20
-1776.130416499998
 30
0.0
 11
0.2
 21
-0.0000000000000001
 31
0.0
210
0.0
220
0.0
230
-1.0
 40
0.90136
 41
0.0
 42
0.6599300405254424
  0
SPLINE
  5
9CA
330
A
100
AcDbEntity
  8
HEWI
100
AcDbSpline
210
-0.0000000000000001
220
0.0000000000000013
230
1.0
 70
     8
 71
     3
 72
    10
 73
     6
 74
     0
 42
0.000000001
 43
0.0000000001
 40
0.0
 40
0.0
 40
0.0
 40
0.0
 40
0.0691533484577913
 40
0.5486690255593603
 40
1.0
 40
1.0
 40
1.0
 40
1.0
 10
-2566.323765030475
 20
-1700.656072941482
 30
-0.0000000000000002
 10
-2566.303861323186
 20
-1700.64543969675
 30
-0.0000000000000002
 10
-2566.140716150139
 20
-1700.564253120376
 30
-0.0000000000000002
 10
-2565.701739246452
 20
-1700.471277822979
 30
-0.0000000000000004
 10
-2565.293076136217
 20
-1700.441001539488
 30
-0.0000000000000004
 10
-2565.077047301267
 20
-1700.441994378129
 30
-0.0000000000000004
  0
SPLINE
  5
9CB
330
A
100
AcDbEntity
  8
HEWI
100
AcDbSpline
210
-0.0000000000000001
220
0.0000000000000013
230
1.0
 70
     8
 71
     3
 72
    10
 73
     6
 74
     0
 42
0.000000001
 43
0.0000000001
 40
0.0
 40
0.0
 40
0.0
 40
0.0
 40
0.0691533484577913
 40
0.5486690255593603
 40
1.0
 40
1.0
 40
1.0
 40
1.0
 10
-2566.323765030475
 20
-1700.656072941482
 30
-0.0000000000000002
 10
-2566.303861323186
 20
-1700.64543969675
 30
-0.0000000000000002
 10
-2566.140716150139
 20
-1700.564253120376
 30
-0.0000000000000002
 10
-2565.701739246452
 20
-1700.471277822979
 30
-0.0000000000000004
 10
-2565.293076136217
 20
-1700.441001539488
 30
-0.0000000000000004
 10
-2565.077047301267
 20
-1700.441994378129
 30
-0.0000000000000004
  0
SPLINE
  5
9CC
330
A
100
AcDbEntity
  8
HEWI
100
AcDbSpline
210
0.0
220
0.0
230
1.0
 70
     8
 71
     3
 72
    11
 73
     7
 74
     0
 42
0.000000001
 43
0.0000000001
 40
0.0
 40
0.0
 40
0.0
 40
0.0
 40
0.0085407042298158
 40
0.294495578516009
 40
0.6285837272446312
 40
1.0
 40
1.0
 40
1.0
 40
1.0
 10
-2567.075961864901
 20
-1701.365627321862
 30
-0.0000000000000002
 10
-2567.076710533942
 20
-1701.362986158452
 30
-0.0000000000000002
 10
-2567.101298057028
 20
-1701.272069866494
 30
-0.0000000000000002
 10
-2566.990146994954
 20
-1701.075473793568
 30
-0.0000000000000002
 10
-2566.765395821307
 20
-1700.85085546566
 30
-0.0000000000000002
 10
-2566.49235120798
 20
-1700.716120365514
 30
-0.0000000000000002
 10
-2566.323765030475
 20
-1700.656072941482
 30
-0.0000000000000002
  0
SPLINE
  5
9CD
330
A
100
AcDbEntity
  8
HEWI
100
AcDbSpline
210
0.0
220
0.0
230
1.0
 70
     8
 71
     3
 72
    12
 73
     8
 74
     0
 42
0.000000001
 43
0.0000000001
 40
0.0
 40
0.0
 40
0.0
 40
0.0
 40
0.129584674490289
 40
0.3660981216981058
 40
0.6122957521584437
 40
0.8793126725148667
 40
1.0
 40
1.0
 40
1.0
 40
1.0
 10
-2528.809580461421
 20
-1700.458699708415
 30
0.0
 10
-2528.683295268415
 20
-1700.461747544452
 30
0.0
 10
-2528.342837359996
 20
-1700.486301281964
 30
0.0
 10
-2527.833472267666
 20
-1700.62863980303
 30
0.0
 10
-2527.376896038981
 20
-1700.859722482057
 30
0.0
 10
-2527.110392385568
 20
-1701.102346571294
 30
0.0
 10
-2527.095489786629
 20
-1701.302580366158
 30
0.0
 10
-2527.101531257699
 20
-1701.368747844972
 30
0.0
  0
SPLINE
  5
9CE
330
A
100
AcDbEntity
  8
HEWI
100
AcDbSpline
210
0.0000000000000002
220
0.0000000000000002
230
1.0
 70
     8
 71
     3
 72
    16
 73
    12
 74
     0
 42
0.000000001
 43
0.0000000001
 40
0.0
 40
0.0
 40
0.0
 40
0.0
 40
0.1771404143545236
 40
0.1771404143545236
 40
0.3522186943510297
 40
0.3522186943510297
 40
0.539954319336339
 40
0.539954319336339
 40
0.7594025013289695
 40
0.7594025013289695
 40
1.0
 40
1.0
 40
1.0
 40
1.0
 10
-2565.078161733616
 20
-1777.185381714251
 30
-0.0000000000000004
 10
-2565.274513543366
 20
-1777.185381714251
 30
-0.0000000000000004
 10
-2565.473482123364
 20
-1777.166312719691
 30
-0.0000000000000004
 10
-2565.841561235668
 20
-1777.096876824742
 30
-0.0000000000000004
 10
-2566.015667942871
 20
-1777.046276359822
 30
-0.0000000000000004
 10
-2566.336785379914
 20
-1776.921587285821
 30
-0.0000000000000002
 10
-2566.484903642156
 20
-1776.84479339323
 30
-0.0000000000000002
 10
-2566.752818082072
 20
-1776.668325094368
 30
-0.0000000000000002
 10
-2566.867340043049
 20
-1776.564777176714
 30
-0.0000000000000002
 10
-2567.032449654786
 20
-1776.350058439585
 30
-0.0000000000000002
 10
-2567.078161733617
 20
-1776.236089374627
 30
-0.0000000000000002
 10
-2567.078161733617
 20
-1776.130416142662
 30
-0.0000000000000002
  0
SPLINE
  5
9CF
330
A
100
AcDbEntity
  8
HEWI
100
AcDbSpline
210
0.0000000000000002
220
0.0000000000000003
230
1.0
 70
     8
 71
     3
 72
    16
 73
    12
 74
     0
 42
0.000000001
 43
0.0000000001
 40
0.0
 40
0.0
 40
0.0
 40
0.0
 40
0.012771053008153
 40
0.012771053008153
 40
0.2987140812229396
 40
0.2987140812229396
 40
0.5432081856599547
 40
0.5432081856599547
 40
0.7705827780638374
 40
0.7705827780638374
 40
1.0
 40
1.0
 40
1.0
 40
1.0
 10
-2566.768701857323
 20
-1776.623767670548
 30
-0.0000000000000002
 10
-2566.765657929896
 20
-1776.628274861109
 30
-0.0000000000000002
 10
-2566.762553241621
 20
-1776.632779501318
 30
-0.0000000000000002
 10
-2566.688362319676
 20
-1776.738293999689
 30
-0.0000000000000002
 10
-2566.585334288089
 20
-1776.840139142983
 30
-0.0000000000000002
 10
-2566.344313081784
 20
-1777.013755090915
 30
-0.0000000000000002
 10
-2566.211109407301
 20
-1777.089320721957
 30
-0.0000000000000002
 10
-2565.922151643836
 20
-1777.212025835207
 30
-0.0000000000000004
 10
-2565.76549105802
 20
-1777.261873291523
 30
-0.0000000000000004
 10
-2565.434170859461
 20
-1777.330225816166
 30
-0.0000000000000004
 10
-2565.254964740236
 20
-1777.349040058274
 30
-0.0000000000000004
 10
-2565.078161733616
 20
-1777.349040058274
 30
-0.0000000000000004
  0
SPLINE
  5
9D0
330
A
100
AcDbEntity
  8
HEWI
100
AcDbSpline
210
0.0
220
0.0
230
1.0
 70
     8
 71
     3
 72
    16
 73
    12
 74
     0
 42
0.000000001
 43
0.0000000001
 40
0.0
 40
0.0
 40
0.0
 40
0.0
 40
0.1053123592843732
 40
0.1053123592843732
 40
0.3301327988397731
 40
0.3301327988397731
 40
0.6504275187068807
 40
0.6504275187068807
 40
0.9722491720568131
 40
0.9722491720568131
 40
1.0
 40
1.0
 40
1.0
 40
1.0
 10
-2529.078161733616
 20
-1777.349040058274
 30
0.0
 10
-2528.995388792598
 20
-1777.349040058274
 30
0.0
 10
-2528.912339959806
 20
-1777.345051065125
 30
0.0
 10
-2528.658265033355
 20
-1777.320754247798
 30
0.0
 10
-2528.488957020058
 20
-1777.286509038238
 30
0.0
 10
-2528.117633198831
 20
-1777.173913155506
 30
0.0
 10
-2527.923118819253
 20
-1777.081170886901
 30
0.0
 10
-2527.610661239221
 20
-1776.876861185607
 30
0.0
 10
-2527.487045898212
 20
-1776.76180447947
 30
0.0
 10
-2527.397334717258
 20
-1776.637987933088
 30
0.0
 10
-2527.390499023883
 20
-1776.628139527552
 30
0.0
 10
-2527.383954139022
 20
-1776.61828051265
 30
0.0
  0
SPLINE
  5
9D1
330
A
100
AcDbEntity
  8
HEWI
100
AcDbSpline
210
0.0
220
0.0
230
1.0
 70
     8
 71
     3
 72
    16
 73
    12
 74
     0
 42
0.000000001
 43
0.0000000001
 40
0.0
 40
0.0
 40
0.0
 40
0.0
 40
0.1945552639644179
 40
0.1945552639644179
 40
0.3878946385599321
 40
0.3878946385599321
 40
0.5892372746630514
 40
0.5892372746630514
 40
0.8080348914056751
 40
0.8080348914056751
 40
1.0
 40
1.0
 40
1.0
 40
1.0
 10
-2529.078161733616
 20
-1700.635882430695
 30
0.0
 10
-2528.869144525636
 20
-1700.635882430695
 30
0.0
 10
-2528.657316583144
 20
-1700.650398677755
 30
0.0
 10
-2528.264050029345
 20
-1700.704076716418
 30
0.0
 10
-2528.077309645127
 20
-1700.743646207994
 30
0.0
 10
-2527.741402711683
 20
-1700.840620355578
 30
0.0
 10
-2527.58973521246
 20
-1700.899800026977
 30
0.0
 10
-2527.333625764947
 20
-1701.030605700276
 30
0.0
 10
-2527.230838744867
 20
-1701.104551299157
 30
0.0
 10
-2527.108005592004
 20
-1701.241212518899
 30
0.0
 10
-2527.078161733616
 20
-1701.305572554328
 30
0.0
 10
-2527.078161733616
 20
-1701.366227385898
 30
0.0
  0
SPLINE
  5
9D2
330
A
100
AcDbEntity
  8
HEWI
100
AcDbSpline
210
0.0
220
0.0
230
1.0
 70
     8
 71
     3
 72
    16
 73
    12
 74
     0
 42
0.000000001
 43
0.0000000001
 40
0.0
 40
0.0
 40
0.0
 40
0.0
 40
0.2481016251448624
 40
0.2481016251448624
 40
0.4963851440995061
 40
0.4963851440995061
 40
0.7438538839225557
 40
0.7438538839225557
 40
0.9181884979193776
 40
0.9181884979193776
 40
1.0
 40
1.0
 40
1.0
 40
1.0
 10
-2527.078161733617
 20
-1776.130416142662
 30
0.0
 10
-2527.078161733617
 20
-1776.239404104677
 30
0.0
 10
-2527.126845230802
 20
-1776.357282138879
 30
0.0
 10
-2527.310180131673
 20
-1776.588655565106
 30
0.0
 10
-2527.447623412431
 20
-1776.705658612632
 30
0.0
 10
-2527.795037906464
 20
-1776.913380411302
 30
0.0
 10
-2528.011415461739
 20
-1777.007593539709
 30
0.0
 10
-2528.423780949607
 20
-1777.121930917285
 30
0.0
 10
-2528.611844046456
 20
-1777.156663810075
 30
0.0
 10
-2528.893944846786
 20
-1777.181331479265
 30
0.0
 10
-2528.986201998387
 20
-1777.185381714251
 30
0.0
 10
-2529.078161733616
 20
-1777.185381714251
 30
0.0
  0
SPLINE
  5
9D3
330
A
100
AcDbEntity
  8
HEWI
100
AcDbSpline
210
0.0
220
0.0
230
1.0
 70
     8
 71
     3
 72
     8
 73
     4
 74
     0
 42
0.000000001
 43
0.0000000001
 40
0.0
 40
0.0
 40
0.0
 40
0.0
 40
1.0
 40
1.0
 40
1.0
 40
1.0
 10
-2528.81932434755
 20
-1700.463988108392
 30
0.0
 10
-2528.905117549083
 20
-1700.458158710697
 30
0.0
 10
-2528.991907243582
 20
-1700.455141130154
 30
0.0
 10
-2529.078161733616
 20
-1700.455141130154
 30
0.0
  0
HATCH
  5
9D4
330
A
100
AcDbEntity
  8
0
 62
     7
100
AcDbHatch
 10
0.0
 20
0.0
 30
0.0
210
0.0
220
0.0
230
1.0
  2
SOLID
 70
     1
 71
     0
 91
        2
 92
        5
 93
        6
 72
     4
 94
        5
 73
     1
 74
     0
 95
       12
 96
        6
 40
0.0157553232654262
 40
0.0157553232654262
 40
0.0157553232654262
 40
0.0157553232654262
 40
0.0157553232654262
 40
0.0157553232654262
 40
1.0
 40
1.0
 40
1.0
 40
1.0
 40
1.0
 40
1.0
 10
-2507.504953606167
 20
-1736.946713700326
 42
1.0
 10
-2506.049532677081
 20
-1736.170299483333
 42
0.9529220753075458
 10
-2504.420871928219
 20
-1735.752586937123
 42
0.929383112961319
 10
-2502.729557934599
 20
-1735.752569983889
 42
0.929383112961319
 10
-2501.100926578694
 20
-1736.170249879963
 42
0.9529220753075458
 10
-2499.645560284242
 20
-1736.946634920081
 42
1.0
 97
        0
 72
     4
 94
        5
 73
     1
 74
     0
 95
       12
 96
        6
 40
0.0
 40
0.0
 40
0.0
 40
0.0
 40
0.0
 40
0.0
 40
0.0157553232654262
 40
0.0157553232654262
 40
0.0157553232654262
 40
0.0157553232654262
 40
0.0157553232654262
 40
0.0157553232654262
 10
-2499.645560284242
 20
-1736.946634920081
 42
1.0
 10
-2499.274697770506
 20
-1737.144476596576
 42
1.0
 10
-2498.916286451226
 20
-1737.365658558885
 42
1.0
 10
-2499.270804073897
 20
-1738.030216699705
 42
1.0
 10
-2499.627986478528
 20
-1737.806731085392
 42
1.0
 10
-2499.998848992266
 20
-1737.608889408897
 42
1.0
 97
        0
 72
     4
 94
        5
 73
     1
 74
     0
 95
       12
 96
        6
 40
0.0
 40
0.0
 40
0.0
 40
0.0
 40
0.0
 40
0.0
 40
1.0
 40
1.0
 40
1.0
 40
1.0
 40
1.0
 40
1.0
 10
-2499.998848992266
 20
-1737.608889408897
 42
1.0
 10
-2501.323372075873
 20
-1736.902304467826
 42
0.9529220753075458
 10
-2502.805552685217
 20
-1736.522159462356
 42
0.929383112961319
 10
-2504.344750195703
 20
-1736.522142509123
 42
0.929383112961319
 10
-2505.826901412091
 20
-1736.902254864456
 42
0.9529220753075458
 10
-2507.151369861062
 20
-1737.608810628653
 42
1.0
 97
        0
 72
     4
 94
        5
 73
     1
 74
     0
 95
       12
 96
        6
 40
0.5039695226751162
 40
0.5039695226751162
 40
0.5039695226751162
 40
0.5039695226751162
 40
0.5039695226751162
 40
0.5039695226751162
 40
1.0
 40
1.0
 40
1.0
 40
1.0
 40
1.0
 40
1.0
 10
-2507.151369861062
 20
-1737.608810628653
 42
1.0
 10
-2508.606354664706
 20
-1738.38665871586
 42
0.952754144170146
 10
-2510.235254018471
 20
-1738.805239169056
 42
0.92913121625522
 10
-2511.927090052282
 20
-1738.805222211226
 42
0.92913121625522
 10
-2513.556018798164
 20
-1738.386609103747
 42
0.952754144170146
 10
-2515.011058220068
 20
-1737.608731848408
 42
1.0
 97
        0
 72
     4
 94
        5
 73
     1
 74
     0
 95
       12
 96
        6
 40
0.4960304773248839
 40
0.4960304773248839
 40
0.4960304773248839
 40
0.4960304773248839
 40
0.4960304773248839
 40
0.4960304773248839
 40
0.5039695226751161
 40
0.5039695226751161
 40
0.5039695226751161
 40
0.5039695226751161
 40
0.5039695226751161
 40
0.5039695226751161
 10
-2515.011058220068
 20
-1737.608731848408
 42
1.0
 10
-2515.381744266058
 20
-1737.410559730385
 42
1.0
 10
-2515.739939365801
 20
-1737.189022976002
 42
1.0
 10
-2515.384823419715
 20
-1736.52476946125
 42
1.0
 10
-2515.027865483874
 20
-1736.748620362547
 42
1.0
 10
-2514.657179437883
 20
-1736.94679248057
 42
1.0
 97
        0
 72
     4
 94
        5
 73
     1
 74
     0
 95
       12
 96
        6
 40
0.0
 40
0.0
 40
0.0
 40
0.0
 40
0.0
 40
0.0
 40
0.4960304773248839
 40
0.4960304773248839
 40
0.4960304773248839
 40
0.4960304773248839
 40
0.4960304773248839
 40
0.4960304773248839
 10
-2514.657179437883
 20
-1736.94679248057
 42
1.0
 10
-2513.333162491939
 20
-1737.654623933402
 42
0.952754144170146
 10
-2511.850884174247
 20
-1738.035525836384
 42
0.92913121625522
 10
-2510.311332880181
 20
-1738.035508878553
 42
0.92913121625522
 10
-2508.829025170375
 20
-1737.654574321288
 42
0.952754144170146
 10
-2507.504953606167
 20
-1736.946713700326
 42
1.0
 97
        0
 97
        0
 92
        5
 93
        6
 72
     4
 94
        5
 73
     1
 74
     0
 95
       12
 96
        6
 40
0.0157553232654262
 40
0.0157553232654262
 40
0.0157553232654262
 40
0.0157553232654262
 40
0.0157553232654262
 40
0.0157553232654262
 40
1.0
 40
1.0
 40
1.0
 40
1.0
 40
1.0
 40
1.0
 10
-2507.504953606167
 20
-1740.074195823394
 42
1.0
 10
-2506.049532677081
 20
-1739.297781606399
 42
0.9529220753075458
 10
-2504.420871928219
 20
-1738.880069060191
 42
0.929383112961319
 10
-2502.729557934599
 20
-1738.880052106956
 42
0.929383112961319
 10
-2501.100926578695
 20
-1739.29773200303
 42
0.9529220753075458
 10
-2499.645560284242
 20
-1740.074117043149
 42
1.0
 97
        0
 72
     4
 94
        5
 73
     1
 74
     0
 95
       12
 96
        6
 40
0.0
 40
0.0
 40
0.0
 40
0.0
 40
0.0
 40
0.0
 40
0.0157553232654262
 40
0.0157553232654262
 40
0.0157553232654262
 40
0.0157553232654262
 40
0.0157553232654262
 40
0.0157553232654262
 10
-2499.645560284242
 20
-1740.074117043149
 42
1.0
 10
-2499.274697770506
 20
-1740.271958719642
 42
1.0
 10
-2498.916286451226
 20
-1740.493140681952
 42
1.0
 10
-2499.270804073897
 20
-1741.157698822772
 42
1.0
 10
-2499.627986478528
 20
-1740.934213208458
 42
1.0
 10
-2499.998848992266
 20
-1740.736371531965
 42
1.0
 97
        0
 72
     4
 94
        5
 73
     1
 74
     0
 95
       12
 96
        6
 40
0.0
 40
0.0
 40
0.0
 40
0.0
 40
0.0
 40
0.0
 40
1.0
 40
1.0
 40
1.0
 40
1.0
 40
1.0
 40
1.0
 10
-2499.998848992266
 20
-1740.736371531965
 42
1.0
 10
-2501.323372075873
 20
-1740.029786590892
 42
0.9529220753075458
 10
-2502.805552685217
 20
-1739.649641585423
 42
0.929383112961319
 10
-2504.344750195703
 20
-1739.649624632188
 42
0.929383112961319
 10
-2505.826901412091
 20
-1740.029736987523
 42
0.9529220753075458
 10
-2507.151369861062
 20
-1740.73629275172
 42
1.0
 97
        0
 72
     4
 94
        5
 73
     1
 74
     0
 95
       12
 96
        6
 40
0.5039695226751162
 40
0.5039695226751162
 40
0.5039695226751162
 40
0.5039695226751162
 40
0.5039695226751162
 40
0.5039695226751162
 40
1.0
 40
1.0
 40
1.0
 40
1.0
 40
1.0
 40
1.0
 10
-2507.151369861062
 20
-1740.73629275172
 42
1.0
 10
-2508.606354664706
 20
-1741.514140838928
 42
0.952754144170146
 10
-2510.235254018471
 20
-1741.932721292123
 42
0.92913121625522
 10
-2511.927090052282
 20
-1741.932704334293
 42
0.92913121625522
 10
-2513.556018798164
 20
-1741.514091226813
 42
0.952754144170146
 10
-2515.011058220068
 20
-1740.736213971475
 42
1.0
 97
        0
 72
     4
 94
        5
 73
     1
 74
     0
 95
       12
 96
        6
 40
0.4960304773248839
 40
0.4960304773248839
 40
0.4960304773248839
 40
0.4960304773248839
 40
0.4960304773248839
 40
0.4960304773248839
 40
0.5039695226751161
 40
0.5039695226751161
 40
0.5039695226751161
 40
0.5039695226751161
 40
0.5039695226751161
 40
0.5039695226751161
 10
-2515.011058220068
 20
-1740.736213971475
 42
1.0
 10
-2515.381744266058
 20
-1740.538041853453
 42
1.0
 10
-2515.739939365801
 20
-1740.316505099069
 42
1.0
 10
-2515.384823419715
 20
-1739.652251584318
 42
1.0
 10
-2515.027865483874
 20
-1739.876102485614
 42
1.0
 10
-2514.657179437883
 20
-1740.074274603637
 42
1.0
 97
        0
 72
     4
 94
        5
 73
     1
 74
     0
 95
       12
 96
        6
 40
0.0
 40
0.0
 40
0.0
 40
0.0
 40
0.0
 40
0.0
 40
0.4960304773248839
 40
0.4960304773248839
 40
0.4960304773248839
 40
0.4960304773248839
 40
0.4960304773248839
 40
0.4960304773248839
 10
-2514.657179437883
 20
-1740.074274603637
 42
1.0
 10
-2513.333162491939
 20
-1740.782106056469
 42
0.952754144170146
 10
-2511.850884174247
 20
-1741.16300795945
 42
0.92913121625522
 10
-2510.311332880181
 20
-1741.16299100162
 42
0.92913121625522
 10
-2508.829025170375
 20
-1740.782056444356
 42
0.952754144170146
 10
-2507.504953606167
 20
-1740.074195823394
 42
1.0
 97
        0
 97
        0
 75
     1
 76
     1
 47
0.1141113672883229
 98
        2
 10
-2503.824651165293
 20
-1736.478985026627
 10
-2503.02539237949
 20
-1739.674104472715
450
        0
451
        0
460
0.0
461
0.0
452
        0
462
1.0
453
        2
463
0.0
 63
     5
421
      255
463
1.0
 63
     2
421
 16776960
470
LINEAR
1001
GradientColor1ACI
1070
     5
1001
GradientColor2ACI
1070
     2
1001
ACAD
1010
0.0
1020
0.0
1030
0.0
  0
SPLINE
  5
9D5
102
{ACAD_REACTORS
330
99B
102
}
330
A
100
AcDbEntity
  8
HEWI
100
AcDbSpline
210
0.0000000000000001
220
0.0
230
1.0
 70
    12
 71
     5
 72
    22
 73
    16
 74
     0
 42
0.000000001
 43
0.0000000001
 40
0.0
 40
0.0
 40
0.0
 40
0.0
 40
0.0
 40
0.0
 40
0.4960304773248839
 40
0.4960304773248839
 40
0.4960304773248839
 40
0.4960304773248839
 40
0.4960304773248839
 40
0.5039695226751161
 40
0.5039695226751161
 40
0.5039695226751161
 40
0.5039695226751161
 40
0.5039695226751161
 40
1.0
 40
1.0
 40
1.0
 40
1.0
 40
1.0
 40
1.0
 10
-2507.504953606167
 20
-1736.946713700326
 30
-0.0000000000000004
 41
1.0
 10
-2508.829025170375
 20
-1737.654574321288
 30
-0.0000000000000002
 41
0.952754144170146
 10
-2510.311332880181
 20
-1738.035508878553
 30
-0.0000000000000002
 41
0.92913121625522
 10
-2511.850884174247
 20
-1738.035525836384
 30
0.0
 41
0.92913121625522
 10
-2513.333162491939
 20
-1737.654623933402
 30
0.0
 41
0.952754144170146
 10
-2514.657179437883
 20
-1736.94679248057
 30
0.0000000000000002
 41
1.0
 10
-2515.027865483874
 20
-1736.748620362547
 30
0.0000000000000002
 41
1.0
 10
-2515.384823419715
 20
-1736.52476946125
 30
0.0000000000000002
 41
1.0
 10
-2515.739939365801
 20
-1737.189022976002
 30
0.0000000000000002
 41
1.0
 10
-2515.381744266058
 20
-1737.410559730385
 30
0.0000000000000002
 41
1.0
 10
-2515.011058220068
 20
-1737.608731848408
 30
0.0000000000000002
 41
1.0
 10
-2513.556018798164
 20
-1738.386609103747
 30
0.0
 41
0.952754144170146
 10
-2511.927090052282
 20
-1738.805222211226
 30
0.0
 41
0.92913121625522
 10
-2510.235254018471
 20
-1738.805239169056
 30
-0.0000000000000002
 41
0.92913121625522
 10
-2508.606354664706
 20
-1738.38665871586
 30
-0.0000000000000002
 41
0.952754144170146
 10
-2507.151369861062
 20
-1737.608810628653
 30
-0.0000000000000004
 41
1.0
  0
SPLINE
  5
9D6
102
{ACAD_REACTORS
330
99B
102
}
330
A
100
AcDbEntity
  8
HEWI
100
AcDbSpline
210
-0.0000000000000001
220
-0.0000000000000003
230
1.0
 70
    12
 71
     5
 72
    17
 73
    11
 74
     0
 42
0.000000001
 43
0.0000000001
 40
0.0
 40
0.0
 40
0.0
 40
0.0
 40
0.0
 40
0.0
 40
0.0157553232654262
 40
0.0157553232654262
 40
0.0157553232654262
 40
0.0157553232654262
 40
0.0157553232654262
 40
1.0
 40
1.0
 40
1.0
 40
1.0
 40
1.0
 40
1.0
 10
-2499.998848992266
 20
-1737.608889408897
 30
0.0
 41
1.0
 10
-2499.627986478528
 20
-1737.806731085392
 30
0.0
 41
1.0
 10
-2499.270804073897
 20
-1738.030216699705
 30
0.0
 41
1.0
 10
-2498.916286451226
 20
-1737.365658558885
 30
0.0
 41
1.0
 10
-2499.274697770506
 20
-1737.144476596576
 30
0.0
 41
1.0
 10
-2499.645560284242
 20
-1736.946634920081
 30
0.0
 41
1.0
 10
-2501.100926578694
 20
-1736.170249879963
 30
0.0000000000000002
 41
0.9529220753075458
 10
-2502.729557934599
 20
-1735.752569983889
 30
0.0000000000000002
 41
0.929383112961319
 10
-2504.420871928219
 20
-1735.752586937123
 30
0.0000000000000004
 41
0.929383112961319
 10
-2506.049532677081
 20
-1736.170299483333
 30
-0.0000000000000004
 41
0.9529220753075458
 10
-2507.504953606167
 20
-1736.946713700326
 30
-0.0000000000000004
 41
1.0
  0
SPLINE
  5
9D7
102
{ACAD_REACTORS
330
99B
102
}
330
A
100
AcDbEntity
  8
HEWI
100
AcDbSpline
210
-0.0000000000000001
220
-0.0000000000000003
230
1.0
 70
    12
 71
     5
 72
    12
 73
     6
 74
     0
 42
0.000000001
 43
0.0000000001
 40
0.0
 40
0.0
 40
0.0
 40
0.0
 40
0.0
 40
0.0
 40
1.0
 40
1.0
 40
1.0
 40
1.0
 40
1.0
 40
1.0
 10
-2507.151369861062
 20
-1737.608810628653
 30
-0.0000000000000004
 41
1.0
 10
-2505.826901412091
 20
-1736.902254864456
 30
-0.0000000000000004
 41
0.9529220753075458
 10
-2504.344750195703
 20
-1736.522142509123
 30
0.0000000000000004
 41
0.929383112961319
 10
-2502.805552685217
 20
-1736.522159462356
 30
0.0000000000000002
 41
0.929383112961319
 10
-2501.323372075873
 20
-1736.902304467826
 30
0.0000000000000002
 41
0.9529220753075458
 10
-2499.998848992266
 20
-1737.608889408897
 30
0.0
 41
1.0
  0
SPLINE
  5
9D8
330
A
100
AcDbEntity
  8
HEWI
100
AcDbSpline
210
0.0
220
-0.0000000000000002
230
1.0
 70
     8
 71
     3
 72
    14
 73
    10
 74
     0
 42
0.000000001
 43
0.0000000001
 40
0.0
 40
0.0
 40
0.0
 40
0.0
 40
0.2499087050623483
 40
0.2499087050623483
 40
0.4999391367082322
 40
0.4999391367082322
 40
0.7499695683541161
 40
0.7499695683541161
 40
1.0
 40
1.0
 40
1.0
 40
1.0
 10
-2554.628129869211
 20
-1800.077667284307
 30
-0.0000000000000002
 10
-2554.634028909
 20
-1800.081190235329
 30
-0.0000000000000002
 10
-2553.781794977879
 20
-1799.525347387227
 30
-0.0000000000000002
 10
-2551.058221735118
 20
-1798.23823886424
 30
-0.0000000000000004
 10
-2549.122319121518
 20
-1797.542913817137
 30
0.0000000000000004
 10
-2545.062598136386
 20
-1797.537087720429
 30
0.0000000000000002
 10
-2543.127154217501
 20
-1798.225943149251
 30
0.0
 10
-2540.374952268863
 20
-1799.523728796893
 30
-0.0000000000000002
 10
-2539.528148336689
 20
-1800.07769531028
 30
-0.0000000000000002
 10
-2539.528159118229
 20
-1800.07768827061
 30
-0.0000000000000002
  0
SPLINE
  5
9D9
102
{ACAD_REACTORS
330
99B
102
}
330
A
100
AcDbEntity
  8
HEWI
100
AcDbSpline
210
0.0000000000000001
220
0.0
230
1.0
 70
    12
 71
     5
 72
    22
 73
    16
 74
     0
 42
0.000000001
 43
0.0000000001
 40
0.0
 40
0.0
 40
0.0
 40
0.0
 40
0.0
 40
0.0
 40
0.4960304773248839
 40
0.4960304773248839
 40
0.4960304773248839
 40
0.4960304773248839
 40
0.4960304773248839
 40
0.5039695226751161
 40
0.5039695226751161
 40
0.5039695226751161
 40
0.5039695226751161
 40
0.5039695226751161
 40
1.0
 40
1.0
 40
1.0
 40
1.0
 40
1.0
 40
1.0
 10
-2507.504953606167
 20
-1740.074195823394
 30
-0.0000000000000004
 41
1.0
 10
-2508.829025170375
 20
-1740.782056444356
 30
-0.0000000000000002
 41
0.952754144170146
 10
-2510.311332880181
 20
-1741.16299100162
 30
-0.0000000000000002
 41
0.92913121625522
 10
-2511.850884174247
 20
-1741.16300795945
 30
0.0
 41
0.92913121625522
 10
-2513.333162491939
 20
-1740.782106056469
 30
0.0
 41
0.952754144170146
 10
-2514.657179437883
 20
-1740.074274603637
 30
0.0000000000000002
 41
1.0
 10
-2515.027865483874
 20
-1739.876102485614
 30
0.0000000000000002
 41
1.0
 10
-2515.384823419715
 20
-1739.652251584318
 30
0.0000000000000002
 41
1.0
 10
-2515.739939365801
 20
-1740.316505099069
 30
0.0000000000000002
 41
1.0
 10
-2515.381744266058
 20
-1740.538041853453
 30
0.0000000000000002
 41
1.0
 10
-2515.011058220068
 20
-1740.736213971475
 30
0.0000000000000002
 41
1.0
 10
-2513.556018798164
 20
-1741.514091226813
 30
0.0
 41
0.952754144170146
 10
-2511.927090052282
 20
-1741.932704334293
 30
0.0
 41
0.92913121625522
 10
-2510.235254018471
 20
-1741.932721292123
 30
-0.0000000000000002
 41
0.92913121625522
 10
-2508.606354664706
 20
-1741.514140838928
 30
-0.0000000000000002
 41
0.952754144170146
 10
-2507.151369861062
 20
-1740.73629275172
 30
-0.0000000000000004
 41
1.0
  0
SPLINE
  5
9DA
102
{ACAD_REACTORS
330
99B
102
}
330
A
100
AcDbEntity
  8
HEWI
100
AcDbSpline
210
-0.0000000000000001
220
-0.0000000000000003
230
1.0
 70
    12
 71
     5
 72
    17
 73
    11
 74
     0
 42
0.000000001
 43
0.0000000001
 40
0.0
 40
0.0
 40
0.0
 40
0.0
 40
0.0
 40
0.0
 40
0.0157553232654262
 40
0.0157553232654262
 40
0.0157553232654262
 40
0.0157553232654262
 40
0.0157553232654262
 40
1.0
 40
1.0
 40
1.0
 40
1.0
 40
1.0
 40
1.0
 10
-2499.998848992266
 20
-1740.736371531965
 30
0.0
 41
1.0
 10
-2499.627986478528
 20
-1740.934213208458
 30
0.0
 41
1.0
 10
-2499.270804073897
 20
-1741.157698822772
 30
0.0
 41
1.0
 10
-2498.916286451226
 20
-1740.493140681952
 30
0.0
 41
1.0
 10
-2499.274697770506
 20
-1740.271958719642
 30
0.0
 41
1.0
 10
-2499.645560284242
 20
-1740.074117043149
 30
0.0
 41
1.0
 10
-2501.100926578695
 20
-1739.29773200303
 30
0.0000000000000002
 41
0.9529220753075458
 10
-2502.729557934599
 20
-1738.880052106956
 30
0.0000000000000002
 41
0.929383112961319
 10
-2504.420871928219
 20
-1738.880069060191
 30
0.0000000000000004
 41
0.929383112961319
 10
-2506.049532677081
 20
-1739.297781606399
 30
-0.0000000000000004
 41
0.9529220753075458
 10
-2507.504953606167
 20
-1740.074195823394
 30
-0.0000000000000004
 41
1.0
  0
SPLINE
  5
9DB
102
{ACAD_REACTORS
330
99B
102
}
330
A
100
AcDbEntity
  8
HEWI
100
AcDbSpline
210
-0.0000000000000001
220
-0.0000000000000006
230
1.0
 70
    12
 71
     5
 72
    12
 73
     6
 74
     0
 42
0.000000001
 43
0.0000000001
 40
0.0
 40
0.0
 40
0.0
 40
0.0
 40
0.0
 40
0.0
 40
1.0
 40
1.0
 40
1.0
 40
1.0
 40
1.0
 40
1.0
 10
-2507.151369861062
 20
-1740.73629275172
 30
-0.0000000000000004
 41
1.0
 10
-2505.826901412091
 20
-1740.029736987523
 30
-0.0000000000000004
 41
0.9529220753075458
 10
-2504.344750195703
 20
-1739.649624632188
 30
0.0000000000000004
 41
0.929383112961319
 10
-2502.805552685217
 20
-1739.649641585423
 30
0.0000000000000002
 41
0.929383112961319
 10
-2501.323372075873
 20
-1740.029786590892
 30
0.0000000000000002
 41
0.9529220753075458
 10
-2499.998848992266
 20
-1740.736371531965
 30
0.0
 41
1.0
  0
SPLINE
  5
9DC
330
A
100
AcDbEntity
  8
HEWI
100
AcDbSpline
210
0.0000000000000002
220
-0.0000000000000002
230
1.0
 70
     8
 71
     3
 72
    16
 73
    12
 74
     0
 42
0.000000001
 43
0.0000000001
 40
0.0
 40
0.0
 40
0.0
 40
0.0
 40
0.2318639328501264
 40
0.2318639328501264
 40
0.4638696371680758
 40
0.4638696371680758
 40
0.6950310216224952
 40
0.6950310216224952
 40
0.9111144293793211
 40
0.9111144293793211
 40
1.0
 40
1.0
 40
1.0
 40
1.0
 10
-2567.078161733616
 20
-1701.366227385898
 30
-0.0000000000000002
 10
-2567.078161733616
 20
-1701.293205623571
 30
-0.0000000000000002
 10
-2567.034580606988
 20
-1701.214576203931
 30
-0.0000000000000002
 10
-2566.868780229114
 20
-1701.060675577523
 30
-0.0000000000000002
 10
-2566.74411157733
 20
-1700.983210701432
 30
-0.0000000000000002
 10
-2566.430686824607
 20
-1700.845111091473
 30
-0.0000000000000002
 10
-2566.237127674142
 20
-1700.782423426673
 30
-0.0000000000000002
 10
-2565.821928947675
 20
-1700.690945040095
 30
-0.0000000000000004
 10
-2565.596522127992
 20
-1700.659072642421
 30
-0.0000000000000004
 10
-2565.271960893945
 20
-1700.638901986314
 30
-0.0000000000000004
 10
-2565.174913280184
 20
-1700.635882430695
 30
-0.0000000000000004
 10
-2565.078161733616
 20
-1700.635882430695
 30
-0.0000000000000004
  0
CIRCLE
  5
C1B
330
A
100
AcDbEntity
  8
0
  6
Continuous
100
AcDbCircle
 10
-1815.331045
 20
-1787.635219
 30
0.0
 40
12.5
  0
ENDSEC
  0
SECTION
  2
OBJECTS
  0
DICTIONARY
  5
19
330
0
100
AcDbDictionary
281
     1
  3
ACAD_CIP_PREVIOUS_PRODUCT_INFO
350
36C
  3
ACAD_COLOR
350
34B
  3
ACAD_DETAILVIEWSTYLE
350
364
  3
ACAD_GROUP
350
1A
  3
ACAD_LAYOUT
350
366
  3
ACAD_MATERIAL
350
319
  3
ACAD_MLEADERSTYLE
350
360
  3
ACAD_MLINESTYLE
350
1B
  3
ACAD_PLOTSETTINGS
350
367
  3
ACAD_PLOTSTYLENAME
350
317
  3
ACAD_SCALELIST
350
34E
  3
ACAD_SECTIONVIEWSTYLE
350
362
  3
ACAD_TABLESTYLE
350
34C
  3
ACAD_VISUALSTYLE
350
332
  3
ACDB_RECOMPOSE_DATA
350
D76
  3
AcDbVariableDictionary
350
509
  3
AcDsDecomposeData
350
D7C
  0
DICTIONARY
  5
372
330
2
100
AcDbDictionary
280
     1
281
     1
  3
ACAD_LAYERSTATES
360
373
  0
DICTIONARY
  5
65A
330
14
100
AcDbDictionary
280
     1
281
     1
  3
ADSK_XREC_LAYER_RECONCILED
360
65B
  0
DICTIONARY
  5
65C
330
1D
100
AcDbDictionary
280
     1
281
     1
  3
ADSK_XREC_LAYER_RECONCILED
360
65D
  0
DICTIONARY
  5
65E
330
36D
100
AcDbDictionary
280
     1
281
     1
  3
ADSK_XREC_LAYER_RECONCILED
360
65F
  0
XRECORD
  5
36C
102
{ACAD_REACTORS
330
19
102
}
330
19
100
AcDbXrecord
280
     1
300
ACDLT
300
2016
300
ACDLT_F_S
  0
DICTIONARY
  5
34B
102
{ACAD_REACTORS
330
19
102
}
330
19
100
AcDbDictionary
281
     1
  0
DICTIONARY
  5
364
102
{ACAD_REACTORS
330
19
102
}
330
19
100
AcDbDictionary
281
     1
  3
Imperial24
350
365
  0
DICTIONARY
  5
1A
102
{ACAD_REACTORS
330
19
102
}
330
19
100
AcDbDictionary
281
     1
  0
DICTIONARY
  5
366
102
{ACAD_REACTORS
330
19
102
}
330
19
100
AcDbDictionary
281
     1
  3
Layout1
350
369
  3
Model
350
368
  0
DICTIONARY
  5
319
102
{ACAD_REACTORS
330
19
102
}
330
19
100
AcDbDictionary
281
     1
  3
ByBlock
350
322
  3
ByLayer
350
31A
  3
Global
350
32A
  0
DICTIONARY
  5
360
102
{ACAD_REACTORS
330
19
102
}
330
19
100
AcDbDictionary
281
     1
  3
Standard
350
361
  0
DICTIONARY
  5
1B
102
{ACAD_REACTORS
330
19
102
}
330
19
100
AcDbDictionary
281
     1
  3
STANDARD
350
1C
  0
DICTIONARY
  5
367
102
{ACAD_REACTORS
330
19
102
}
330
19
100
AcDbDictionary
281
     1
  0
ACDBDICTIONARYWDFLT
  5
317
102
{ACAD_REACTORS
330
19
102
}
330
19
100
AcDbDictionary
281
     1
  3
Normal
350
318
100
AcDbDictionaryWithDefault
340
318
  0
DICTIONARY
  5
34E
102
{ACAD_REACTORS
330
19
102
}
330
19
100
AcDbDictionary
281
     1
  3
A0
350
34F
  3
A1
350
350
  3
A2
350
351
  3
A3
350
352
  3
A4
350
353
  3
A5
350
354
  3
A6
350
355
  3
A7
350
356
  3
A8
350
357
  3
A9
350
358
  3
B0
350
359
  3
B1
350
35A
  3
B2
350
35B
  3
B3
350
35C
  3
B4
350
35D
  3
B5
350
35E
  3
B6
350
35F
  0
DICTIONARY
  5
362
102
{ACAD_REACTORS
330
19
102
}
330
19
100
AcDbDictionary
281
     1
  3
Imperial24
350
363
  0
DICTIONARY
  5
34C
102
{ACAD_REACTORS
330
19
102
}
330
19
100
AcDbDictionary
281
     1
  3
Standard
350
34D
  0
DICTIONARY
  5
332
102
{ACAD_REACTORS
330
19
102
}
330
19
100
AcDbDictionary
281
     1
  3
2dWireframe
350
338
  3
Basic
350
337
  3
Brighten
350
33E
  3
ColorChange
350
342
  3
Conceptual
350
33B
  3
Dim
350
33D
  3
EdgeColorOff
350
34A
  3
Facepattern
350
341
  3
Flat
350
333
  3
FlatWithEdges
350
334
  3
Gouraud
350
335
  3
GouraudWithEdges
350
336
  3
Hidden
350
33A
  3
JitterOff
350
348
  3
Linepattern
350
340
  3
OverhangOff
350
349
  3
Realistic
350
33C
  3
Shaded
350
347
  3
Shaded with edges
350
346
  3
Shades of Gray
350
343
  3
Sketchy
350
344
  3
Thicken
350
33F
  3
Wireframe
350
339
  3
X-Ray
350
345
  0
XRECORD
  5
D76
102
{ACAD_REACTORS
330
19
102
}
330
19
100
AcDbXrecord
280
     1
 90
        1
330
34D
  0
DICTIONARY
  5
509
102
{ACAD_REACTORS
330
19
102
}
330
19
100
AcDbDictionary
281
     1
  3
CANNOSCALE
350
50F
  3
CMLEADERSTYLE
350
50B
  3
CTABLESTYLE
350
50A
  3
CVIEWDETAILSTYLE
350
50C
  3
CVIEWSECTIONSTYLE
350
50D
  3
LAYEREVAL
350
511
  3
LAYERNOTIFY
350
512
  3
LIGHTINGUNITS
350
510
  3
MSLTSCALE
350
50E
  0
DICTIONARY
  5
D7C
102
{ACAD_REACTORS
330
19
102
}
330
19
100
AcDbDictionary
281
     1
  3
AcDsRecords
350
D7E
  3
AcDsSchemas
350
D7D
1001
ACAD
1070
     2
  0
DICTIONARY
  5
373
102
{ACAD_REACTORS
330
372
102
}
330
372
100
AcDbDictionary
281
     1
  0
XRECORD
  5
65B
102
{ACAD_REACTORS
330
65A
102
}
330
65A
100
AcDbXrecord
280
     1
290
     1
  0
XRECORD
  5
65D
102
{ACAD_REACTORS
330
65C
102
}
330
65C
100
AcDbXrecord
280
     1
290
     1
  0
XRECORD
  5
65F
102
{ACAD_REACTORS
330
65E
102
}
330
65E
100
AcDbXrecord
280
     1
290
     1
  0
ACDBDETAILVIEWSTYLE
  5
365
102
{ACAD_XDICTIONARY
360
DB1
102
}
102
{ACAD_REACTORS
330
364
102
}
330
364
100
AcDbModelDocViewStyle
 70
     0
  3
Imperial24
290
     0
100
AcDbDetailViewStyle
 70
     0
 71
     0
 90
        3
 71
     1
340
17
 62
   256
 40
0.24
340
0
 62
   256
 40
0.24
300

 40
0.36
280
     3
 71
     2
340
13
 90
       25
 62
   256
 71
     3
340
17
 62
   256
 40
0.24
 90
        1
 40
0.75
 90
        1
300
%<\AcVar ViewType \f "%tc1">% %<\AcVar ViewDetailId>%\PVARIA %<\AcVar ViewScale \f "%sn">%
 71
     4
340
13
 90
       25
 62
   256
340
13
 90
       25
 62
   256
280
     0
  0
LAYOUT
  5
369
102
{ACAD_REACTORS
330
366
102
}
330
366
100
AcDbPlotSettings
  1

  2
\\srvadruck01\MFSA15
  4

  6

 40
0.0
 41
0.0
 42
0.0
 43
0.0
 44
0.0
 45
0.0
 46
0.0
 47
0.0
 48
0.0
 49
0.0
140
0.0
141
0.0
142
1.0
143
1.0
 70
   688
 72
     0
 73
     0
 74
     5
  7

 75
    16
147
1.0
 76
     0
 77
     2
 78
   300
148
0.0
149
0.0
100
AcDbLayout
  1
Layout1
 70
     0
 71
     1
 10
0.0
 20
0.0
 11
12.0
 21
9.0
 12
0.0
 22
0.0
 32
0.0
 14
1.000000000000000E+20
 24
1.000000000000000E+20
 34
1.000000000000000E+20
 15
-1.000000000000000E+20
 25
-1.000000000000000E+20
 35
-1.000000000000000E+20
146
0.0
 13
0.0
 23
0.0
 33
0.0
 16
1.0
 26
0.0
 36
0.0
 17
0.0
 27
1.0
 37
0.0
 76
     0
330
B
  0
LAYOUT
  5
368
102
{ACAD_REACTORS
330
366
102
}
330
366
100
AcDbPlotSettings
  1

  2
\\srvadruck01\MFSA15
  4

  6

 40
0.0
 41
0.0
 42
0.0
 43
0.0
 44
0.0
 45
0.0
 46
0.0
 47
0.0
 48
0.0
 49
0.0
140
0.0
141
0.0
142
1.0
143
1.0
 70
  1712
 72
     0
 73
     0
 74
     0
  7

 75
     0
147
1.0
 76
     0
 77
     2
 78
   300
148
0.0
149
0.0
100
AcDbLayout
  1
Model
 70
     1
 71
     0
 10
0.0
 20
0.0
 11
12.0
 21
9.0
 12
0.0
 22
0.0
 32
0.0
 14
0.0
 24
0.0
 34
0.0
 15
0.0
 25
0.0
 35
0.0
146
0.0
 13
0.0
 23
0.0
 33
0.0
 16
1.0
 26
0.0
 36
0.0
 17
0.0
 27
1.0
 37
0.0
 76
     0
330
A
331
15
  0
MATERIAL
  5
322
102
{ACAD_XDICTIONARY
360
323
102
}
102
{ACAD_REACTORS
330
319
102
}
330
319
100
AcDbMaterial
  1
ByBlock
 72
     0
 43
0.0208333333333333
 43
0.0
 43
0.0
 43
0.0
 43
0.0
 43
0.0208333333333333
 43
0.0
 43
0.0
 43
0.0
 43
0.0
 43
1.0
 43
0.0
 43
0.0
 43
0.0
 43
0.0
 43
1.0
 77
     0
 47
0.0208333333333333
 47
0.0
 47
0.0
 47
0.0
 47
0.0
 47
0.0208333333333333
 47
0.0
 47
0.0
 47
0.0
 47
0.0
 47
1.0
 47
0.0
 47
0.0
 47
0.0
 47
0.0
 47
1.0
171
     0
 49
0.0208333333333333
 49
0.0
 49
0.0
 49
0.0
 49
0.0
 49
0.0208333333333333
 49
0.0
 49
0.0
 49
0.0
 49
0.0
 49
1.0
 49
0.0
 49
0.0
 49
0.0
 49
0.0
 49
1.0
175
     0
142
0.0208333333333333
142
0.0
142
0.0
142
0.0
142
0.0
142
0.0208333333333333
142
0.0
142
0.0
142
0.0
142
0.0
142
1.0
142
0.0
142
0.0
142
0.0
142
0.0
142
1.0
179
     0
144
0.0208333333333333
144
0.0
144
0.0
144
0.0
144
0.0
144
0.0208333333333333
144
0.0
144
0.0
144
0.0
144
0.0
144
1.0
144
0.0
144
0.0
144
0.0
144
0.0
144
1.0
147
0.0208333333333333
147
0.0
147
0.0
147
0.0
147
0.0
147
0.0208333333333333
147
0.0
147
0.0
147
0.0
147
0.0
147
1.0
147
0.0
147
0.0
147
0.0
147
0.0
147
1.0
  0
MATERIAL
  5
31A
102
{ACAD_XDICTIONARY
360
31B
102
}
102
{ACAD_REACTORS
330
319
102
}
330
319
100
AcDbMaterial
  1
ByLayer
 72
     0
 43
0.0208333333333333
 43
0.0
 43
0.0
 43
0.0
 43
0.0
 43
0.0208333333333333
 43
0.0
 43
0.0
 43
0.0
 43
0.0
 43
1.0
 43
0.0
 43
0.0
 43
0.0
 43
0.0
 43
1.0
 77
     0
 47
0.0208333333333333
 47
0.0
 47
0.0
 47
0.0
 47
0.0
 47
0.0208333333333333
 47
0.0
 47
0.0
 47
0.0
 47
0.0
 47
1.0
 47
0.0
 47
0.0
 47
0.0
 47
0.0
 47
1.0
171
     0
 49
0.0208333333333333
 49
0.0
 49
0.0
 49
0.0
 49
0.0
 49
0.0208333333333333
 49
0.0
 49
0.0
 49
0.0
 49
0.0
 49
1.0
 49
0.0
 49
0.0
 49
0.0
 49
0.0
 49
1.0
175
     0
142
0.0208333333333333
142
0.0
142
0.0
142
0.0
142
0.0
142
0.0208333333333333
142
0.0
142
0.0
142
0.0
142
0.0
142
1.0
142
0.0
142
0.0
142
0.0
142
0.0
142
1.0
179
     0
144
0.0208333333333333
144
0.0
144
0.0
144
0.0
144
0.0
144
0.0208333333333333
144
0.0
144
0.0
144
0.0
144
0.0
144
1.0
144
0.0
144
0.0
144
0.0
144
0.0
144
1.0
147
0.0208333333333333
147
0.0
147
0.0
147
0.0
147
0.0
147
0.0208333333333333
147
0.0
147
0.0
147
0.0
147
0.0
147
1.0
147
0.0
147
0.0
147
0.0
147
0.0
147
1.0
  0
MATERIAL
  5
32A
102
{ACAD_XDICTIONARY
360
32B
102
}
102
{ACAD_REACTORS
330
319
102
}
330
319
100
AcDbMaterial
  1
Global
 72
     0
 43
0.0208333333333333
 43
0.0
 43
0.0
 43
0.0
 43
0.0
 43
0.0208333333333333
 43
0.0
 43
0.0
 43
0.0
 43
0.0
 43
1.0
 43
0.0
 43
0.0
 43
0.0
 43
0.0
 43
1.0
 77
     0
 47
0.0208333333333333
 47
0.0
 47
0.0
 47
0.0
 47
0.0
 47
0.0208333333333333
 47
0.0
 47
0.0
 47
0.0
 47
0.0
 47
1.0
 47
0.0
 47
0.0
 47
0.0
 47
0.0
 47
1.0
171
     0
 49
0.0208333333333333
 49
0.0
 49
0.0
 49
0.0
 49
0.0
 49
0.0208333333333333
 49
0.0
 49
0.0
 49
0.0
 49
0.0
 49
1.0
 49
0.0
 49
0.0
 49
0.0
 49
0.0
 49
1.0
175
     0
142
0.0208333333333333
142
0.0
142
0.0
142
0.0
142
0.0
142
0.0208333333333333
142
0.0
142
0.0
142
0.0
142
0.0
142
1.0
142
0.0
142
0.0
142
0.0
142
0.0
142
1.0
179
     0
144
0.0208333333333333
144
0.0
144
0.0
144
0.0
144
0.0
144
0.0208333333333333
144
0.0
144
0.0
144
0.0
144
0.0
144
1.0
144
0.0
144
0.0
144
0.0
144
0.0
144
1.0
147
0.0208333333333333
147
0.0
147
0.0
147
0.0
147
0.0
147
0.0208333333333333
147
0.0
147
0.0
147
0.0
147
0.0
147
1.0
147
0.0
147
0.0
147
0.0
147
0.0
147
1.0
  0
MLEADERSTYLE
  5
361
102
{ACAD_REACTORS
330
360
102
}
330
360
100
AcDbMLeaderStyle
179
     2
170
     2
171
     1
172
     0
 90
        2
 40
0.0
 41
0.0
173
     1
 91
-1056964608
340
11
 92
       -2
290
     1
 42
0.09
291
     1
 43
0.36
  3
Standard
 44
0.18
300

342
17
174
     1
178
     6
175
     1
176
     0
 93
-1056964608
 45
0.18
292
     0
297
     0
 46
0.18
 94
-1056964608
 47
1.0
 49
1.0
140
1.0
293
     1
141
0.0
294
     1
177
     0
142
1.0
295
     0
296
     0
143
0.125
271
     0
272
     9
273
     9
  0
MLINESTYLE
  5
1C
102
{ACAD_REACTORS
330
1B
102
}
330
1B
100
AcDbMlineStyle
  2
STANDARD
 70
     0
  3

 62
     0
 51
90.0
 52
90.0
 71
     2
 49
0.5
 62
   256
  6
BYLAYER
 49
-0.5
 62
   256
  6
BYLAYER
  0
ACDBPLACEHOLDER
  5
318
102
{ACAD_REACTORS
330
317
102
}
330
317
  0
SCALE
  5
34F
102
{ACAD_REACTORS
330
34E
102
}
330
34E
100
AcDbScale
 70
     0
300
1:1
140
1.0
141
1.0
290
     1
  0
SCALE
  5
350
102
{ACAD_REACTORS
330
34E
102
}
330
34E
100
AcDbScale
 70
     0
300
1/128" = 1'-0"
140
0.0078125
141
12.0
290
     0
  0
SCALE
  5
351
102
{ACAD_REACTORS
330
34E
102
}
330
34E
100
AcDbScale
 70
     0
300
1/64" = 1'-0"
140
0.015625
141
12.0
290
     0
  0
SCALE
  5
352
102
{ACAD_REACTORS
330
34E
102
}
330
34E
100
AcDbScale
 70
     0
300
1/32" = 1'-0"
140
0.03125
141
12.0
290
     0
  0
SCALE
  5
353
102
{ACAD_REACTORS
330
34E
102
}
330
34E
100
AcDbScale
 70
     0
300
1/16" = 1'-0"
140
0.0625
141
12.0
290
     0
  0
SCALE
  5
354
102
{ACAD_REACTORS
330
34E
102
}
330
34E
100
AcDbScale
 70
     0
300
3/32" = 1'-0"
140
0.09375
141
12.0
290
     0
  0
SCALE
  5
355
102
{ACAD_REACTORS
330
34E
102
}
330
34E
100
AcDbScale
 70
     0
300
1/8" = 1'-0"
140
0.125
141
12.0
290
     0
  0
SCALE
  5
356
102
{ACAD_REACTORS
330
34E
102
}
330
34E
100
AcDbScale
 70
     0
300
3/16" = 1'-0"
140
0.1875
141
12.0
290
     0
  0
SCALE
  5
357
102
{ACAD_REACTORS
330
34E
102
}
330
34E
100
AcDbScale
 70
     0
300
1/4" = 1'-0"
140
0.25
141
12.0
290
     0
  0
SCALE
  5
358
102
{ACAD_REACTORS
330
34E
102
}
330
34E
100
AcDbScale
 70
     0
300
3/8" = 1'-0"
140
0.375
141
12.0
290
     0
  0
SCALE
  5
359
102
{ACAD_REACTORS
330
34E
102
}
330
34E
100
AcDbScale
 70
     0
300
1/2" = 1'-0"
140
0.5
141
12.0
290
     0
  0
SCALE
  5
35A
102
{ACAD_REACTORS
330
34E
102
}
330
34E
100
AcDbScale
 70
     0
300
3/4" = 1'-0"
140
0.75
141
12.0
290
     0
  0
SCALE
  5
35B
102
{ACAD_REACTORS
330
34E
102
}
330
34E
100
AcDbScale
 70
     0
300
1" = 1'-0"
140
1.0
141
12.0
290
     0
  0
SCALE
  5
35C
102
{ACAD_REACTORS
330
34E
102
}
330
34E
100
AcDbScale
 70
     0
300
1-1/2" = 1'-0"
140
1.5
141
12.0
290
     0
  0
SCALE
  5
35D
102
{ACAD_REACTORS
330
34E
102
}
330
34E
100
AcDbScale
 70
     0
300
3" = 1'-0"
140
3.0
141
12.0
290
     0
  0
SCALE
  5
35E
102
{ACAD_REACTORS
330
34E
102
}
330
34E
100
AcDbScale
 70
     0
300
6" = 1'-0"
140
6.0
141
12.0
290
     0
  0
SCALE
  5
35F
102
{ACAD_REACTORS
330
34E
102
}
330
34E
100
AcDbScale
 70
     0
300
1'-0" = 1'-0"
140
12.0
141
12.0
290
     0
  0
ACDBSECTIONVIEWSTYLE
  5
363
102
{ACAD_XDICTIONARY
360
DAF
102
}
102
{ACAD_REACTORS
330
362
102
}
330
362
100
AcDbModelDocViewStyle
 70
     0
  3
Imperial24
290
     0
100
AcDbSectionViewStyle
 70
     0
 71
     0
 90
       78
 71
     1
340
17
 62
   256
 40
0.24
340
0
340
0
 62
   256
 40
0.24
300
I, O, Q, S, X, Z
 40
0.48
 90
        3
 40
0.18
 90
        1
 71
     2
340
13
 90
       25
 62
   256
340
13
 90
       50
 62
   256
 40
0.24
 40
0.0
 40
0.24
 71
     3
340
17
 62
   256
 40
0.24
 90
        1
 40
0.75
 90
        1
300
%<\AcVar ViewType \f "%tc1">% %<\AcVar ViewSectionStartId>%-%<\AcVar ViewSectionEndId>%\PVARIA %<\AcVar ViewScale \f "%sn">%
 71
     4
 62
   256
 62
   257
300
ANSI31
 40
1.0
 90
        0
290
     0
290
     0
 90
        6
 40
0.0
 40
1.570796326794896
 40
0.2617993877991494
 40
1.308996938995747
 40
-0.2617993877991494
 40
1.832595714594044
  0
TABLESTYLE
  5
34D
102
{ACAD_XDICTIONARY
360
513
102
}
102
{ACAD_REACTORS
330
34C
102
}
330
34C
100
AcDbTableStyle
280
     0
  3
Standard
 70
     0
 71
     0
 40
0.06
 41
0.06
280
     0
281
     0
  7
STANDARD
140
0.18
170
     2
 62
     0
 63
     7
283
     0
 90
      512
 91
        0
  1

274
    -2
284
     1
 64
     0
275
    -2
285
     1
 65
     0
276
    -2
286
     1
 66
     0
277
    -2
287
     1
 67
     0
278
    -2
288
     1
 68
     0
279
    -2
289
     1
 69
     0
  7
STANDARD
140
0.25
170
     5
 62
     0
 63
     7
283
     0
 90
      512
 91
        0
  1

274
    -2
284
     1
 64
     0
275
    -2
285
     1
 65
     0
276
    -2
286
     1
 66
     0
277
    -2
287
     1
 67
     0
278
    -2
288
     1
 68
     0
279
    -2
289
     1
 69
     0
  7
STANDARD
140
0.18
170
     5
 62
     0
 63
     7
283
     0
 90
      512
 91
        0
  1

274
    -2
284
     1
 64
     0
275
    -2
285
     1
 65
     0
276
    -2
286
     1
 66
     0
277
    -2
287
     1
 67
     0
278
    -2
288
     1
 68
     0
279
    -2
289
     1
 69
     0
  0
VISUALSTYLE
  5
338
102
{ACAD_XDICTIONARY
360
D89
102
}
102
{ACAD_REACTORS
330
332
102
}
330
332
100
AcDbVisualStyle
  2
2dWireframe
 70
     4
177
     2
291
     0
 71
     0
176
     1
 72
     2
176
     1
 73
     0
176
     1
 90
        0
176
     1
 40
0.6
176
     1
 41
30.0
176
     1
 63
     7
421
 16777215
176
     1
 74
     1
176
     1
 91
        4
176
     1
 64
     7
176
     1
 65
   257
176
     1
 75
     1
176
     1
175
     1
176
     1
 42
1.0
176
     1
 92
        0
176
     1
 66
   257
176
     1
 43
1.0
176
     1
 76
     1
176
     1
 77
     6
176
     1
 78
     2
176
     1
 67
     7
176
     1
 79
     5
176
     1
170
     0
176
     1
171
     0
176
     1
290
     0
176
     1
 93
        1
176
     1
 44
0.0
176
     1
173
     0
176
     1
1001
ACAD
1000
AcDbSavedByObjectVersion
1070
     0
  0
VISUALSTYLE
  5
337
102
{ACAD_XDICTIONARY
360
D87
102
}
102
{ACAD_REACTORS
330
332
102
}
330
332
100
AcDbVisualStyle
  2
Basic
 70
     7
177
     2
291
     1
 71
     1
176
     1
 72
     0
176
     1
 73
     1
176
     1
 90
        0
176
     1
 40
0.6
176
     1
 41
30.0
176
     1
 63
     7
421
 16777215
176
     1
 74
     0
176
     1
 91
        4
176
     1
 64
     7
176
     1
 65
   257
176
     1
 75
     1
176
     1
175
     1
176
     1
 42
1.0
176
     1
 92
        8
176
     1
 66
     7
176
     1
 43
1.0
176
     1
 76
     1
176
     1
 77
     6
176
     1
 78
     2
176
     1
 67
     7
176
     1
 79
     5
176
     1
170
     0
176
     1
171
     0
176
     1
290
     0
176
     1
 93
        1
176
     1
 44
0.0
176
     1
173
     0
176
     1
1001
ACAD
1000
AcDbSavedByObjectVersion
1070
     0
  0
VISUALSTYLE
  5
33E
102
{ACAD_XDICTIONARY
360
D95
102
}
102
{ACAD_REACTORS
330
332
102
}
330
332
100
AcDbVisualStyle
  2
Brighten
 70
    12
177
     2
291
     1
 71
     2
176
     1
 72
     2
176
     1
 73
     0
176
     1
 90
        0
176
     1
 40
0.6
176
     1
 41
30.0
176
     1
 63
     7
421
 16777215
176
     1
 74
     1
176
     1
 91
        4
176
     1
 64
     7
176
     1
 65
   257
176
     1
 75
     1
176
     1
175
     1
176
     1
 42
1.0
176
     1
 92
        8
176
     1
 66
     7
176
     1
 43
1.0
176
     1
 76
     1
176
     1
 77
     6
176
     1
 78
     2
176
     1
 67
     7
176
     1
 79
     5
176
     1
170
     0
176
     1
171
     0
176
     1
290
     0
176
     1
 93
        1
176
     1
 44
50.0
176
     1
173
     0
176
     1
1001
ACAD
1000
AcDbSavedByObjectVersion
1070
     0
  0
VISUALSTYLE
  5
342
102
{ACAD_XDICTIONARY
360
D9D
102
}
102
{ACAD_REACTORS
330
332
102
}
330
332
100
AcDbVisualStyle
  2
ColorChange
 70
    16
177
     2
291
     1
 71
     2
176
     1
 72
     2
176
     1
 73
     3
176
     1
 90
        0
176
     1
 40
0.6
176
     1
 41
30.0
176
     1
 63
     8
421
  8421504
176
     1
 74
     1
176
     1
 91
        4
176
     1
 64
     7
176
     1
 65
   257
176
     1
 75
     1
176
     1
175
     1
176
     1
 42
1.0
176
     1
 92
        8
176
     1
 66
     8
424
  8421504
176
     1
 43
1.0
176
     1
 76
     1
176
     1
 77
     6
176
     1
 78
     2
176
     1
 67
     7
176
     1
 79
     5
176
     1
170
     0
176
     1
171
     0
176
     1
290
     0
176
     1
 93
        1
176
     1
 44
0.0
176
     1
173
     0
176
     1
1001
ACAD
1000
AcDbSavedByObjectVersion
1070
     0
  0
VISUALSTYLE
  5
33B
102
{ACAD_XDICTIONARY
360
D8F
102
}
102
{ACAD_REACTORS
330
332
102
}
330
332
100
AcDbVisualStyle
  2
Conceptual
 70
     9
177
     2
291
     0
 71
     3
176
     1
 72
     2
176
     1
 73
     0
176
     1
 90
        0
176
     1
 40
0.6
176
     1
 41
30.0
176
     1
 63
     7
421
 16777215
176
     1
 74
     2
176
     1
 91
        2
176
     1
 64
     7
176
     1
 65
   257
176
     1
 75
     1
176
     1
175
     1
176
     1
 42
179.0
176
     1
 92
        8
176
     1
 66
     7
176
     1
 43
1.0
176
     1
 76
     1
176
     1
 77
     6
176
     1
 78
     2
176
     1
 67
     7
176
     1
 79
     3
176
     1
170
     0
176
     1
171
     0
176
     1
290
     0
176
     1
 93
        1
176
     1
 44
0.0
176
     1
173
     0
176
     1
1001
ACAD
1000
AcDbSavedByObjectVersion
1070
     0
  0
VISUALSTYLE
  5
33D
102
{ACAD_XDICTIONARY
360
D93
102
}
102
{ACAD_REACTORS
330
332
102
}
330
332
100
AcDbVisualStyle
  2
Dim
 70
    11
177
     2
291
     1
 71
     2
176
     1
 72
     2
176
     1
 73
     0
176
     1
 90
        0
176
     1
 40
0.6
176
     1
 41
30.0
176
     1
 63
     7
421
 16777215
176
     1
 74
     1
176
     1
 91
        4
176
     1
 64
     7
176
     1
 65
   257
176
     1
 75
     1
176
     1
175
     1
176
     1
 42
1.0
176
     1
 92
        8
176
     1
 66
     7
176
     1
 43
1.0
176
     1
 76
     1
176
     1
 77
     6
176
     1
 78
     2
176
     1
 67
     7
176
     1
 79
     5
176
     1
170
     0
176
     1
171
     0
176
     1
290
     0
176
     1
 93
        1
176
     1
 44
-50.0
176
     1
173
     0
176
     1
1001
ACAD
1000
AcDbSavedByObjectVersion
1070
     0
  0
VISUALSTYLE
  5
34A
102
{ACAD_XDICTIONARY
360
DAD
102
}
102
{ACAD_REACTORS
330
332
102
}
330
332
100
AcDbVisualStyle
  2
EdgeColorOff
 70
    22
177
     2
291
     1
 71
     2
176
     0
 72
     2
176
     0
 73
     0
176
     0
 90
        0
176
     0
 40
0.6
176
     0
 41
30.0
176
     0
 63
     7
421
 16777215
176
     0
 74
     1
176
     0
 91
        4
176
     0
 64
     7
176
     0
 65
   257
176
     0
 75
     1
176
     0
175
     1
176
     0
 42
1.0
176
     0
 92
        8
176
     2
 66
     7
176
     0
 43
1.0
176
     0
 76
     1
176
     0
 77
     6
176
     0
 78
     2
176
     0
 67
     7
176
     0
 79
     5
176
     0
170
     0
176
     0
171
     0
176
     0
290
     0
176
     0
 93
        1
176
     0
 44
0.0
176
     0
173
     0
176
     0
1001
ACAD
1000
AcDbSavedByObjectVersion
1070
     0
  0
VISUALSTYLE
  5
341
102
{ACAD_XDICTIONARY
360
D9B
102
}
102
{ACAD_REACTORS
330
332
102
}
330
332
100
AcDbVisualStyle
  2
Facepattern
 70
    15
177
     2
291
     1
 71
     2
176
     1
 72
     2
176
     1
 73
     0
176
     1
 90
        0
176
     1
 40
0.6
176
     1
 41
30.0
176
     1
 63
     7
421
 16777215
176
     1
 74
     1
176
     1
 91
        4
176
     1
 64
     7
176
     1
 65
   257
176
     1
 75
     1
176
     1
175
     1
176
     1
 42
1.0
176
     1
 92
        8
176
     1
 66
     7
176
     1
 43
1.0
176
     1
 76
     1
176
     1
 77
     6
176
     1
 78
     2
176
     1
 67
     7
176
     1
 79
     5
176
     1
170
     0
176
     1
171
     0
176
     1
290
     0
176
     1
 93
        1
176
     1
 44
0.0
176
     1
173
     0
176
     1
1001
ACAD
1000
AcDbSavedByObjectVersion
1070
     0
  0
VISUALSTYLE
  5
333
102
{ACAD_XDICTIONARY
360
D7F
102
}
102
{ACAD_REACTORS
330
332
102
}
330
332
100
AcDbVisualStyle
  2
Flat
 70
     0
177
     2
291
     1
 71
     2
176
     1
 72
     1
176
     1
 73
     1
176
     1
 90
        2
176
     1
 40
0.6
176
     1
 41
30.0
176
     1
 63
     7
421
 16777215
176
     1
 74
     0
176
     1
 91
        0
176
     1
 64
     7
176
     1
 65
   257
176
     1
 75
     1
176
     1
175
     1
176
     1
 42
1.0
176
     1
 92
        8
176
     1
 66
     7
176
     1
 43
1.0
176
     1
 76
     1
176
     1
 77
     6
176
     1
 78
     2
176
     1
 67
     7
176
     1
 79
     5
176
     1
170
     0
176
     1
171
     0
176
     1
290
     0
176
     1
 93
       13
176
     1
 44
0.0
176
     1
173
     0
176
     1
1001
ACAD
1000
AcDbSavedByObjectVersion
1070
     0
  0
VISUALSTYLE
  5
334
102
{ACAD_XDICTIONARY
360
D81
102
}
102
{ACAD_REACTORS
330
332
102
}
330
332
100
AcDbVisualStyle
  2
FlatWithEdges
 70
     1
177
     2
291
     1
 71
     2
176
     1
 72
     1
176
     1
 73
     1
176
     1
 90
        2
176
     1
 40
0.6
176
     1
 41
30.0
176
     1
 63
     7
421
 16777215
176
     1
 74
     1
176
     1
 91
        0
176
     1
 64
     7
176
     1
 65
   257
176
     1
 75
     1
176
     1
175
     1
176
     1
 42
1.0
176
     1
 92
        0
176
     1
 66
   257
176
     1
 43
1.0
176
     1
 76
     1
176
     1
 77
     6
176
     1
 78
     2
176
     1
 67
     7
176
     1
 79
     5
176
     1
170
     0
176
     1
171
     0
176
     1
290
     0
176
     1
 93
       13
176
     1
 44
0.0
176
     1
173
     0
176
     1
1001
ACAD
1000
AcDbSavedByObjectVersion
1070
     0
  0
VISUALSTYLE
  5
335
102
{ACAD_XDICTIONARY
360
D83
102
}
102
{ACAD_REACTORS
330
332
102
}
330
332
100
AcDbVisualStyle
  2
Gouraud
 70
     2
177
     2
291
     1
 71
     2
176
     1
 72
     2
176
     1
 73
     1
176
     1
 90
        2
176
     1
 40
0.6
176
     1
 41
30.0
176
     1
 63
     7
421
 16777215
176
     1
 74
     0
176
     1
 91
        0
176
     1
 64
     7
176
     1
 65
   257
176
     1
 75
     1
176
     1
175
     1
176
     1
 42
1.0
176
     1
 92
        0
176
     1
 66
     7
176
     1
 43
1.0
176
     1
 76
     1
176
     1
 77
     6
176
     1
 78
     2
176
     1
 67
     7
176
     1
 79
     5
176
     1
170
     0
176
     1
171
     0
176
     1
290
     0
176
     1
 93
       13
176
     1
 44
0.0
176
     1
173
     0
176
     1
1001
ACAD
1000
AcDbSavedByObjectVersion
1070
     0
  0
VISUALSTYLE
  5
336
102
{ACAD_XDICTIONARY
360
D85
102
}
102
{ACAD_REACTORS
330
332
102
}
330
332
100
AcDbVisualStyle
  2
GouraudWithEdges
 70
     3
177
     2
291
     1
 71
     2
176
     1
 72
     2
176
     1
 73
     1
176
     1
 90
        2
176
     1
 40
0.6
176
     1
 41
30.0
176
     1
 63
     7
421
 16777215
176
     1
 74
     1
176
     1
 91
        0
176
     1
 64
     7
176
     1
 65
   257
176
     1
 75
     1
176
     1
175
     1
176
     1
 42
1.0
176
     1
 92
        0
176
     1
 66
   257
176
     1
 43
1.0
176
     1
 76
     1
176
     1
 77
     6
176
     1
 78
     2
176
     1
 67
     7
176
     1
 79
     5
176
     1
170
     0
176
     1
171
     0
176
     1
290
     0
176
     1
 93
       13
176
     1
 44
0.0
176
     1
173
     0
176
     1
1001
ACAD
1000
AcDbSavedByObjectVersion
1070
     0
  0
VISUALSTYLE
  5
33A
102
{ACAD_XDICTIONARY
360
D8D
102
}
102
{ACAD_REACTORS
330
332
102
}
330
332
100
AcDbVisualStyle
  2
Hidden
 70
     6
177
     2
291
     0
 71
     1
176
     1
 72
     2
176
     1
 73
     2
176
     1
 90
        0
176
     1
 40
0.6
176
     1
 41
30.0
176
     1
 63
     7
421
 16777215
176
     1
 74
     2
176
     1
 91
        2
176
     1
 64
     7
176
     1
 65
   257
176
     1
 75
     2
176
     1
175
     1
176
     1
 42
40.0
176
     1
 92
        0
176
     1
 66
   257
176
     1
 43
1.0
176
     1
 76
     1
176
     1
 77
     6
176
     1
 78
     2
176
     1
 67
     7
176
     1
 79
     3
176
     1
170
     0
176
     1
171
     0
176
     1
290
     0
176
     1
 93
        1
176
     1
 44
0.0
176
     1
173
     0
176
     1
1001
ACAD
1000
AcDbSavedByObjectVersion
1070
     0
  0
VISUALSTYLE
  5
348
102
{ACAD_XDICTIONARY
360
DA9
102
}
102
{ACAD_REACTORS
330
332
102
}
330
332
100
AcDbVisualStyle
  2
JitterOff
 70
    20
177
     2
291
     1
 71
     2
176
     0
 72
     2
176
     0
 73
     0
176
     0
 90
        0
176
     0
 40
0.6
176
     0
 41
30.0
176
     0
 63
     7
421
 16777215
176
     0
 74
     1
176
     0
 91
        4
176
     0
 64
     7
176
     0
 65
   257
176
     0
 75
     1
176
     0
175
     1
176
     0
 42
1.0
176
     0
 92
       10
176
     2
 66
     7
176
     0
 43
1.0
176
     0
 76
     1
176
     0
 77
     6
176
     0
 78
     2
176
     0
 67
     7
176
     0
 79
     5
176
     0
170
     0
176
     0
171
     0
176
     0
290
     0
176
     0
 93
        1
176
     0
 44
0.0
176
     0
173
     0
176
     0
1001
ACAD
1000
AcDbSavedByObjectVersion
1070
     0
  0
VISUALSTYLE
  5
340
102
{ACAD_XDICTIONARY
360
D99
102
}
102
{ACAD_REACTORS
330
332
102
}
330
332
100
AcDbVisualStyle
  2
Linepattern
 70
    14
177
     2
291
     1
 71
     2
176
     1
 72
     2
176
     1
 73
     0
176
     1
 90
        0
176
     1
 40
0.6
176
     1
 41
30.0
176
     1
 63
     7
421
 16777215
176
     1
 74
     1
176
     1
 91
        4
176
     1
 64
     7
176
     1
 65
   257
176
     1
 75
     7
176
     1
175
     7
176
     1
 42
1.0
176
     1
 92
        8
176
     1
 66
     7
176
     1
 43
1.0
176
     1
 76
     1
176
     1
 77
     6
176
     1
 78
     2
176
     1
 67
     7
176
     1
 79
     5
176
     1
170
     0
176
     1
171
     0
176
     1
290
     0
176
     1
 93
        1
176
     1
 44
0.0
176
     1
173
     0
176
     1
1001
ACAD
1000
AcDbSavedByObjectVersion
1070
     0
  0
VISUALSTYLE
  5
349
102
{ACAD_XDICTIONARY
360
DAB
102
}
102
{ACAD_REACTORS
330
332
102
}
330
332
100
AcDbVisualStyle
  2
OverhangOff
 70
    21
177
     2
291
     1
 71
     2
176
     0
 72
     2
176
     0
 73
     0
176
     0
 90
        0
176
     0
 40
0.6
176
     0
 41
30.0
176
     0
 63
     7
421
 16777215
176
     0
 74
     1
176
     0
 91
        4
176
     0
 64
     7
176
     0
 65
   257
176
     0
 75
     1
176
     0
175
     1
176
     0
 42
1.0
176
     0
 92
        9
176
     2
 66
     7
176
     0
 43
1.0
176
     0
 76
     1
176
     0
 77
     6
176
     0
 78
     2
176
     0
 67
     7
176
     0
 79
     5
176
     0
170
     0
176
     0
171
     0
176
     0
290
     0
176
     0
 93
        1
176
     0
 44
0.0
176
     0
173
     0
176
     0
1001
ACAD
1000
AcDbSavedByObjectVersion
1070
     0
  0
VISUALSTYLE
  5
33C
102
{ACAD_XDICTIONARY
360
D91
102
}
102
{ACAD_REACTORS
330
332
102
}
330
332
100
AcDbVisualStyle
  2
Realistic
 70
     8
177
     2
291
     0
 71
     2
176
     1
 72
     3
176
     1
 73
     0
176
     1
 90
        2
176
     1
 40
0.6
176
     1
 41
30.0
176
     1
 63
     7
421
 16777215
176
     1
 74
     0
176
     1
 91
        0
176
     1
 64
     7
176
     1
 65
   257
176
     1
 75
     1
176
     1
175
     1
176
     1
 42
1.0
176
     1
 92
        8
176
     1
 66
   257
176
     1
 43
1.0
176
     1
 76
     1
176
     1
 77
     6
176
     1
 78
     2
176
     1
 67
     7
176
     1
 79
     3
176
     1
170
     0
176
     1
171
     0
176
     1
290
     0
176
     1
 93
       13
176
     1
 44
0.0
176
     1
173
     0
176
     1
1001
ACAD
1000
AcDbSavedByObjectVersion
1070
     0
  0
VISUALSTYLE
  5
347
102
{ACAD_XDICTIONARY
360
DA7
102
}
102
{ACAD_REACTORS
330
332
102
}
330
332
100
AcDbVisualStyle
  2
Shaded
 70
    27
177
     2
291
     0
 71
     2
176
     1
 72
     2
176
     1
 73
     1
176
     1
 90
        2
176
     1
 40
0.6
176
     1
 41
30.0
176
     1
 63
     7
421
 16777215
176
     1
 74
     0
176
     1
 91
        4
176
     1
 64
     7
176
     1
 65
   257
176
     1
 75
     1
176
     1
175
     1
176
     1
 42
1.0
176
     1
 92
        8
176
     1
 66
   257
176
     1
 43
1.0
176
     1
 76
     1
176
     1
 77
     6
176
     1
 78
     2
176
     1
 67
     8
425
  7895160
176
     1
 79
     3
176
     1
170
     0
176
     1
171
     0
176
     1
290
     0
176
     1
 93
        5
176
     1
 44
0.0
176
     1
173
     0
176
     1
1001
ACAD
1000
AcDbSavedByObjectVersion
1070
     0
  0
VISUALSTYLE
  5
346
102
{ACAD_XDICTIONARY
360
DA5
102
}
102
{ACAD_REACTORS
330
332
102
}
330
332
100
AcDbVisualStyle
  2
Shaded with edges
 70
    26
177
     2
291
     0
 71
     2
176
     1
 72
     2
176
     1
 73
     1
176
     1
 90
        2
176
     1
 40
0.6
176
     1
 41
30.0
176
     1
 63
     7
421
 16777215
176
     1
 74
     1
176
     1
 91
       10
176
     1
 64
     7
176
     1
 65
   257
176
     1
 75
     2
176
     1
175
     1
176
     1
 42
1.0
176
     1
 92
        8
176
     1
 66
   257
176
     1
 43
1.0
176
     1
 76
     1
176
     1
 77
     6
176
     1
 78
     2
176
     1
 67
     7
176
     1
 79
     3
176
     1
170
     0
176
     1
171
     0
176
     1
290
     0
176
     1
 93
        5
176
     1
 44
0.0
176
     1
173
     0
176
     1
1001
ACAD
1000
AcDbSavedByObjectVersion
1070
     0
  0
VISUALSTYLE
  5
343
102
{ACAD_XDICTIONARY
360
D9F
102
}
102
{ACAD_REACTORS
330
332
102
}
330
332
100
AcDbVisualStyle
  2
Shades of Gray
 70
    23
177
     2
291
     0
 71
     2
176
     1
 72
     2
176
     1
 73
     3
176
     1
 90
        0
176
     1
 40
0.6
176
     1
 41
30.0
176
     1
 63
     7
421
 16777215
176
     1
 74
     2
176
     1
 91
        2
176
     1
 64
     7
176
     1
 65
     7
176
     1
 75
     1
176
     1
175
     1
176
     1
 42
40.0
176
     1
 92
        8
176
     1
 66
     7
176
     1
 43
1.0
176
     1
 76
     1
176
     1
 77
     6
176
     1
 78
     2
176
     1
 67
     7
176
     1
 79
     3
176
     1
170
     0
176
     1
171
     0
176
     1
290
     0
176
     1
 93
        1
176
     1
 44
0.0
176
     1
173
     0
176
     1
1001
ACAD
1000
AcDbSavedByObjectVersion
1070
     0
  0
VISUALSTYLE
  5
344
102
{ACAD_XDICTIONARY
360
DA1
102
}
102
{ACAD_REACTORS
330
332
102
}
330
332
100
AcDbVisualStyle
  2
Sketchy
 70
    24
177
     2
291
     0
 71
     1
176
     1
 72
     2
176
     1
 73
     2
176
     1
 90
        0
176
     1
 40
0.6
176
     1
 41
30.0
176
     1
 63
     7
421
 16777215
176
     1
 74
     2
176
     1
 91
        2
176
     1
 64
     7
176
     1
 65
     7
176
     1
 75
     1
176
     1
175
     1
176
     1
 42
40.0
176
     1
 92
       11
176
     1
 66
     7
176
     1
 43
1.0
176
     1
 76
     1
176
     1
 77
     6
176
     1
 78
     2
176
     1
 67
     7
176
     1
 79
     6
176
     1
170
     0
176
     1
171
     0
176
     1
290
     0
176
     1
 93
        1
176
     1
 44
0.0
176
     1
173
     0
176
     1
1001
ACAD
1000
AcDbSavedByObjectVersion
1070
     0
  0
VISUALSTYLE
  5
33F
102
{ACAD_XDICTIONARY
360
D97
102
}
102
{ACAD_REACTORS
330
332
102
}
330
332
100
AcDbVisualStyle
  2
Thicken
 70
    13
177
     2
291
     1
 71
     2
176
     1
 72
     2
176
     1
 73
     0
176
     1
 90
        0
176
     1
 40
0.6
176
     1
 41
30.0
176
     1
 63
     7
421
 16777215
176
     1
 74
     1
176
     1
 91
        4
176
     1
 64
     7
176
     1
 65
   257
176
     1
 75
     1
176
     1
175
     1
176
     1
 42
1.0
176
     1
 92
       12
176
     1
 66
     7
176
     1
 43
1.0
176
     1
 76
     1
176
     1
 77
     6
176
     1
 78
     2
176
     1
 67
     7
176
     1
 79
     5
176
     1
170
     0
176
     1
171
     0
176
     1
290
     0
176
     1
 93
        1
176
     1
 44
0.0
176
     1
173
     0
176
     1
1001
ACAD
1000
AcDbSavedByObjectVersion
1070
     0
  0
VISUALSTYLE
  5
339
102
{ACAD_XDICTIONARY
360
D8B
102
}
102
{ACAD_REACTORS
330
332
102
}
330
332
100
AcDbVisualStyle
  2
Wireframe
 70
     5
177
     2
291
     0
 71
     0
176
     1
 72
     2
176
     1
 73
     0
176
     1
 90
        0
176
     1
 40
0.6
176
     1
 41
30.0
176
     1
 63
     7
421
 16777215
176
     1
 74
     1
176
     1
 91
        4
176
     1
 64
     7
176
     1
 65
   257
176
     1
 75
     1
176
     1
175
     1
176
     1
 42
1.0
176
     1
 92
        0
176
     1
 66
   257
176
     1
 43
1.0
176
     1
 76
     1
176
     1
 77
     6
176
     1
 78
     2
176
     1
 67
     7
176
     1
 79
     3
176
     1
170
     0
176
     1
171
     0
176
     1
290
     0
176
     1
 93
        1
176
     1
 44
0.0
176
     1
173
     0
176
     1
1001
ACAD
1000
AcDbSavedByObjectVersion
1070
     0
  0
VISUALSTYLE
  5
345
102
{ACAD_XDICTIONARY
360
DA3
102
}
102
{ACAD_REACTORS
330
332
102
}
330
332
100
AcDbVisualStyle
  2
X-Ray
 70
    25
177
     2
291
     0
 71
     2
176
     1
 72
     2
176
     1
 73
     1
176
     1
 90
        1
176
     1
 40
0.5
176
     1
 41
30.0
176
     1
 63
     7
421
 16777215
176
     1
 74
     1
176
     1
 91
        0
176
     1
 64
     7
176
     1
 65
   257
176
     1
 75
     1
176
     1
175
     1
176
     1
 42
1.0
176
     1
 92
        8
176
     1
 66
     7
176
     1
 43
1.0
176
     1
 76
     1
176
     1
 77
     6
176
     1
 78
     2
176
     1
 67
     7
176
     1
 79
     3
176
     1
170
     0
176
     1
171
     0
176
     1
290
     0
176
     1
 93
       13
176
     1
 44
0.0
176
     1
173
     0
176
     1
1001
ACAD
1000
AcDbSavedByObjectVersion
1070
     0
  0
DICTIONARYVAR
  5
50F
102
{ACAD_REACTORS
330
509
102
}
330
509
100
DictionaryVariables
280
     0
  1
1:1
  0
DICTIONARYVAR
  5
50B
102
{ACAD_REACTORS
330
509
102
}
330
509
100
DictionaryVariables
280
     0
  1
STANDARD
  0
DICTIONARYVAR
  5
50A
102
{ACAD_REACTORS
330
509
102
}
330
509
100
DictionaryVariables
280
     0
  1
STANDARD
  0
DICTIONARYVAR
  5
50C
102
{ACAD_REACTORS
330
509
102
}
330
509
100
DictionaryVariables
280
     0
  1
Imperial24
  0
DICTIONARYVAR
  5
50D
102
{ACAD_REACTORS
330
509
102
}
330
509
100
DictionaryVariables
280
     0
  1
Imperial24
  0
DICTIONARYVAR
  5
511
102
{ACAD_REACTORS
330
509
102
}
330
509
100
DictionaryVariables
280
     0
  1
1
  0
DICTIONARYVAR
  5
512
102
{ACAD_REACTORS
330
509
102
}
330
509
100
DictionaryVariables
280
     0
  1
15
  0
DICTIONARYVAR
  5
510
102
{ACAD_REACTORS
330
509
102
}
330
509
100
DictionaryVariables
280
     0
  1
0
  0
DICTIONARYVAR
  5
50E
102
{ACAD_REACTORS
330
509
102
}
330
509
100
DictionaryVariables
280
     0
  1
0
  0
DICTIONARY
  5
D7E
102
{ACAD_REACTORS
330
D7C
102
}
330
D7C
100
AcDbDictionary
281
     1
  0
DICTIONARY
  5
D7D
102
{ACAD_REACTORS
330
D7C
102
}
330
D7C
100
AcDbDictionary
281
     1
  3
8796087916912
350
D77
  3
8796087916928
350
D78
  3
8796087916944
350
D79
  3
8796087916960
350
D7A
  3
8796087916976
350
D7B
  0
DICTIONARY
  5
DB1
330
365
100
AcDbDictionary
280
     1
281
     1
  3
ACAD_XREC_ROUNDTRIP
360
DB2
  0
DICTIONARY
  5
323
330
322
100
AcDbDictionary
280
     1
281
     1
  3
BUMPTILE
360
325
  3
DIFFUSETILE
360
324
  3
OPACITYTILE
360
328
  3
REFLECTIONTILE
360
327
  3
REFRACTIONTILE
360
329
  3
SPECULARTILE
360
326
  0
DICTIONARY
  5
31B
330
31A
100
AcDbDictionary
280
     1
281
     1
  3
BUMPTILE
360
31D
  3
DIFFUSETILE
360
31C
  3
OPACITYTILE
360
320
  3
REFLECTIONTILE
360
31F
  3
REFRACTIONTILE
360
321
  3
SPECULARTILE
360
31E
  0
DICTIONARY
  5
32B
330
32A
100
AcDbDictionary
280
     1
281
     1
  3
BUMPTILE
360
32D
  3
DIFFUSETILE
360
32C
  3
OPACITYTILE
360
330
  3
REFLECTIONTILE
360
32F
  3
REFRACTIONTILE
360
331
  3
SPECULARTILE
360
32E
  0
DICTIONARY
  5
DAF
330
363
100
AcDbDictionary
280
     1
281
     1
  3
ACAD_XREC_ROUNDTRIP
360
DB0
  0
DICTIONARY
  5
513
330
34D
100
AcDbDictionary
280
     1
281
     1
  3
ACAD_ROUNDTRIP_2008_TABLESTYLE_CELLSTYLEMAP
360
D75
  0
DICTIONARY
  5
D89
330
338
100
AcDbDictionary
280
     1
281
     1
  3
ACAD_XREC_ROUNDTRIP
360
D8A
  0
DICTIONARY
  5
D87
330
337
100
AcDbDictionary
280
     1
281
     1
  3
ACAD_XREC_ROUNDTRIP
360
D88
  0
DICTIONARY
  5
D95
330
33E
100
AcDbDictionary
280
     1
281
     1
  3
ACAD_XREC_ROUNDTRIP
360
D96
  0
DICTIONARY
  5
D9D
330
342
100
AcDbDictionary
280
     1
281
     1
  3
ACAD_XREC_ROUNDTRIP
360
D9E
  0
DICTIONARY
  5
D8F
330
33B
100
AcDbDictionary
280
     1
281
     1
  3
ACAD_XREC_ROUNDTRIP
360
D90
  0
DICTIONARY
  5
D93
330
33D
100
AcDbDictionary
280
     1
281
     1
  3
ACAD_XREC_ROUNDTRIP
360
D94
  0
DICTIONARY
  5
DAD
330
34A
100
AcDbDictionary
280
     1
281
     1
  3
ACAD_XREC_ROUNDTRIP
360
DAE
  0
DICTIONARY
  5
D9B
330
341
100
AcDbDictionary
280
     1
281
     1
  3
ACAD_XREC_ROUNDTRIP
360
D9C
  0
DICTIONARY
  5
D7F
330
333
100
AcDbDictionary
280
     1
281
     1
  3
ACAD_XREC_ROUNDTRIP
360
D80
  0
DICTIONARY
  5
D81
330
334
100
AcDbDictionary
280
     1
281
     1
  3
ACAD_XREC_ROUNDTRIP
360
D82
  0
DICTIONARY
  5
D83
330
335
100
AcDbDictionary
280
     1
281
     1
  3
ACAD_XREC_ROUNDTRIP
360
D84
  0
DICTIONARY
  5
D85
330
336
100
AcDbDictionary
280
     1
281
     1
  3
ACAD_XREC_ROUNDTRIP
360
D86
  0
DICTIONARY
  5
D8D
330
33A
100
AcDbDictionary
280
     1
281
     1
  3
ACAD_XREC_ROUNDTRIP
360
D8E
  0
DICTIONARY
  5
DA9
330
348
100
AcDbDictionary
280
     1
281
     1
  3
ACAD_XREC_ROUNDTRIP
360
DAA
  0
DICTIONARY
  5
D99
330
340
100
AcDbDictionary
280
     1
281
     1
  3
ACAD_XREC_ROUNDTRIP
360
D9A
  0
DICTIONARY
  5
DAB
330
349
100
AcDbDictionary
280
     1
281
     1
  3
ACAD_XREC_ROUNDTRIP
360
DAC
  0
DICTIONARY
  5
D91
330
33C
100
AcDbDictionary
280
     1
281
     1
  3
ACAD_XREC_ROUNDTRIP
360
D92
  0
DICTIONARY
  5
DA7
330
347
100
AcDbDictionary
280
     1
281
     1
  3
ACAD_XREC_ROUNDTRIP
360
DA8
  0
DICTIONARY
  5
DA5
330
346
100
AcDbDictionary
280
     1
281
     1
  3
ACAD_XREC_ROUNDTRIP
360
DA6
  0
DICTIONARY
  5
D9F
330
343
100
AcDbDictionary
280
     1
281
     1
  3
ACAD_XREC_ROUNDTRIP
360
DA0
  0
DICTIONARY
  5
DA1
330
344
100
AcDbDictionary
280
     1
281
     1
  3
ACAD_XREC_ROUNDTRIP
360
DA2
  0
DICTIONARY
  5
D97
330
33F
100
AcDbDictionary
280
     1
281
     1
  3
ACAD_XREC_ROUNDTRIP
360
D98
  0
DICTIONARY
  5
D8B
330
339
100
AcDbDictionary
280
     1
281
     1
  3
ACAD_XREC_ROUNDTRIP
360
D8C
  0
DICTIONARY
  5
DA3
330
345
100
AcDbDictionary
280
     1
281
     1
  3
ACAD_XREC_ROUNDTRIP
360
DA4
  0
XRECORD
  5
D77
102
{ACAD_REACTORS
330
D7D
102
}
330
D7D
100
AcDbXrecord
280
     1
  1
AcDb_Thumbnail_Schema
102
{ATTRRECORD
341
D78
  2
AcDbDs::TreatedAsObjectData
280
     1
291
     1
102
ATTRRECORD}
102
{ATTRRECORD
341
D79
  2
AcDbDs::Legacy
280
     1
291
     1
102
ATTRRECORD}
  2
AcDbDs::ID
280
    10
 91
        8
102
{ATTRRECORD
341
D7A
  2
AcDs:Indexable
280
     1
291
     1
102
ATTRRECORD}
102
{ATTRRECORD
341
D7B
  2
AcDbDs::HandleAttribute
280
     7
282
     1
102
ATTRRECORD}
  2
Thumbnail_Data
280
    15
 91
        0
  0
XRECORD
  5
D78
102
{ACAD_REACTORS
330
D7D
102
}
330
D7D
100
AcDbXrecord
280
     1
  1
AcDbDs::TreatedAsObjectDataSchema
  2
AcDbDs::TreatedAsObjectData
280
     1
 91
        0
  0
XRECORD
  5
D79
102
{ACAD_REACTORS
330
D7D
102
}
330
D7D
100
AcDbXrecord
280
     1
  1
AcDbDs::LegacySchema
  2
AcDbDs::Legacy
280
     1
 91
        0
  0
XRECORD
  5
D7A
102
{ACAD_REACTORS
330
D7D
102
}
330
D7D
100
AcDbXrecord
280
     1
  1
AcDbDs::IndexedPropertySchema
  2
AcDs:Indexable
280
     1
 91
        0
  0
XRECORD
  5
D7B
102
{ACAD_REACTORS
330
D7D
102
}
330
D7D
100
AcDbXrecord
280
     1
  1
AcDbDs::HandleAttributeSchema
  2
AcDbDs::HandleAttribute
280
     7
 91
        1
284
     1
  0
XRECORD
  5
DB2
102
{ACAD_REACTORS
330
DB1
102
}
330
DB1
100
AcDbXrecord
280
     1
102
DISPLAYNAME
  1
Imperial24
102
FLAGS
 90
        0
  0
XRECORD
  5
325
102
{ACAD_REACTORS
330
323
102
}
330
323
100
AcDbXrecord
280
     1
270
     1
271
     1
  0
XRECORD
  5
324
102
{ACAD_REACTORS
330
323
102
}
330
323
100
AcDbXrecord
280
     1
270
     1
271
     1
  0
XRECORD
  5
328
102
{ACAD_REACTORS
330
323
102
}
330
323
100
AcDbXrecord
280
     1
270
     1
271
     1
  0
XRECORD
  5
327
102
{ACAD_REACTORS
330
323
102
}
330
323
100
AcDbXrecord
280
     1
270
     1
271
     1
  0
XRECORD
  5
329
102
{ACAD_REACTORS
330
323
102
}
330
323
100
AcDbXrecord
280
     1
270
     1
271
     1
  0
XRECORD
  5
326
102
{ACAD_REACTORS
330
323
102
}
330
323
100
AcDbXrecord
280
     1
270
     1
271
     1
  0
XRECORD
  5
31D
102
{ACAD_REACTORS
330
31B
102
}
330
31B
100
AcDbXrecord
280
     1
270
     1
271
     1
  0
XRECORD
  5
31C
102
{ACAD_REACTORS
330
31B
102
}
330
31B
100
AcDbXrecord
280
     1
270
     1
271
     1
  0
XRECORD
  5
320
102
{ACAD_REACTORS
330
31B
102
}
330
31B
100
AcDbXrecord
280
     1
270
     1
271
     1
  0
XRECORD
  5
31F
102
{ACAD_REACTORS
330
31B
102
}
330
31B
100
AcDbXrecord
280
     1
270
     1
271
     1
  0
XRECORD
  5
321
102
{ACAD_REACTORS
330
31B
102
}
330
31B
100
AcDbXrecord
280
     1
270
     1
271
     1
  0
XRECORD
  5
31E
102
{ACAD_REACTORS
330
31B
102
}
330
31B
100
AcDbXrecord
280
     1
270
     1
271
     1
  0
XRECORD
  5
32D
102
{ACAD_REACTORS
330
32B
102
}
330
32B
100
AcDbXrecord
280
     1
270
     1
271
     1
  0
XRECORD
  5
32C
102
{ACAD_REACTORS
330
32B
102
}
330
32B
100
AcDbXrecord
280
     1
270
     1
271
     1
  0
XRECORD
  5
330
102
{ACAD_REACTORS
330
32B
102
}
330
32B
100
AcDbXrecord
280
     1
270
     1
271
     1
  0
XRECORD
  5
32F
102
{ACAD_REACTORS
330
32B
102
}
330
32B
100
AcDbXrecord
280
     1
270
     1
271
     1
  0
XRECORD
  5
331
102
{ACAD_REACTORS
330
32B
102
}
330
32B
100
AcDbXrecord
280
     1
270
     1
271
     1
  0
XRECORD
  5
32E
102
{ACAD_REACTORS
330
32B
102
}
330
32B
100
AcDbXrecord
280
     1
270
     1
271
     1
  0
XRECORD
  5
DB0
102
{ACAD_REACTORS
330
DAF
102
}
330
DAF
100
AcDbXrecord
280
     1
102
DISPLAYNAME
  1
Imperial24
102
FLAGS
 90
        0
  0
CELLSTYLEMAP
  5
D75
102
{ACAD_REACTORS
330
513
102
}
330
513
100
AcDbCellStyleMap
 90
        3
300
CELLSTYLE
  1
TABLEFORMAT_BEGIN
 90
        5
170
     1
 91
        0
 92
    32768
 62
   257
 93
        1
300
CONTENTFORMAT
  1
CONTENTFORMAT_BEGIN
 90
        0
 91
        0
 92
      512
 93
        0
300

 40
0.0
140
1.0
 94
        5
 62
     0
340
17
144
0.25
309
CONTENTFORMAT_END
171
     1
301
MARGIN
  1
CELLMARGIN_BEGIN
 40
0.06
 40
0.06
 40
0.06
 40
0.06
 40
0.18
 40
0.18
309
CELLMARGIN_END
 94
        6
 95
        1
302
GRIDFORMAT
  1
GRIDFORMAT_BEGIN
 90
        0
 91
        1
 62
     0
 92
       -2
340
0
 93
        0
 40
0.045
309
GRIDFORMAT_END
 95
        2
302
GRIDFORMAT
  1
GRIDFORMAT_BEGIN
 90
        0
 91
        1
 62
     0
 92
       -2
340
0
 93
        0
 40
0.045
309
GRIDFORMAT_END
 95
        4
302
GRIDFORMAT
  1
GRIDFORMAT_BEGIN
 90
        0
 91
        1
 62
     0
 92
       -2
340
0
 93
        0
 40
0.045
309
GRIDFORMAT_END
 95
        8
302
GRIDFORMAT
  1
GRIDFORMAT_BEGIN
 90
        0
 91
        1
 62
     0
 92
       -2
340
0
 93
        0
 40
0.045
309
GRIDFORMAT_END
 95
       16
302
GRIDFORMAT
  1
GRIDFORMAT_BEGIN
 90
        0
 91
        1
 62
     0
 92
       -2
340
0
 93
        0
 40
0.045
309
GRIDFORMAT_END
 95
       32
302
GRIDFORMAT
  1
GRIDFORMAT_BEGIN
 90
        0
 91
        1
 62
     0
 92
       -2
340
0
 93
        0
 40
0.045
309
GRIDFORMAT_END
309
TABLEFORMAT_END
  1
CELLSTYLE_BEGIN
 90
        1
 91
        1
300
_TITLE
309
CELLSTYLE_END
300
CELLSTYLE
  1
TABLEFORMAT_BEGIN
 90
        5
170
     1
 91
        0
 92
        0
 62
   257
 93
        1
300
CONTENTFORMAT
  1
CONTENTFORMAT_BEGIN
 90
        0
 91
        0
 92
      512
 93
        0
300

 40
0.0
140
1.0
 94
        5
 62
     0
340
17
144
0.18
309
CONTENTFORMAT_END
171
     1
301
MARGIN
  1
CELLMARGIN_BEGIN
 40
0.06
 40
0.06
 40
0.06
 40
0.06
 40
0.18
 40
0.18
309
CELLMARGIN_END
 94
        6
 95
        1
302
GRIDFORMAT
  1
GRIDFORMAT_BEGIN
 90
        0
 91
        1
 62
     0
 92
       -2
340
0
 93
        0
 40
0.045
309
GRIDFORMAT_END
 95
        2
302
GRIDFORMAT
  1
GRIDFORMAT_BEGIN
 90
        0
 91
        1
 62
     0
 92
       -2
340
0
 93
        0
 40
0.045
309
GRIDFORMAT_END
 95
        4
302
GRIDFORMAT
  1
GRIDFORMAT_BEGIN
 90
        0
 91
        1
 62
     0
 92
       -2
340
0
 93
        0
 40
0.045
309
GRIDFORMAT_END
 95
        8
302
GRIDFORMAT
  1
GRIDFORMAT_BEGIN
 90
        0
 91
        1
 62
     0
 92
       -2
340
0
 93
        0
 40
0.045
309
GRIDFORMAT_END
 95
       16
302
GRIDFORMAT
  1
GRIDFORMAT_BEGIN
 90
        0
 91
        1
 62
     0
 92
       -2
340
0
 93
        0
 40
0.045
309
GRIDFORMAT_END
 95
       32
302
GRIDFORMAT
  1
GRIDFORMAT_BEGIN
 90
        0
 91
        1
 62
     0
 92
       -2
340
0
 93
        0
 40
0.045
309
GRIDFORMAT_END
309
TABLEFORMAT_END
  1
CELLSTYLE_BEGIN
 90
        2
 91
        1
300
_HEADER
309
CELLSTYLE_END
300
CELLSTYLE
  1
TABLEFORMAT_BEGIN
 90
        5
170
     1
 91
        0
 92
        0
 62
   257
 93
        1
300
CONTENTFORMAT
  1
CONTENTFORMAT_BEGIN
 90
        0
 91
        0
 92
      512
 93
        0
300

 40
0.0
140
1.0
 94
        2
 62
     0
340
17
144
0.18
309
CONTENTFORMAT_END
171
     1
301
MARGIN
  1
CELLMARGIN_BEGIN
 40
0.06
 40
0.06
 40
0.06
 40
0.06
 40
0.18
 40
0.18
309
CELLMARGIN_END
 94
        6
 95
        1
302
GRIDFORMAT
  1
GRIDFORMAT_BEGIN
 90
        0
 91
        1
 62
     0
 92
       -2
340
0
 93
        0
 40
0.045
309
GRIDFORMAT_END
 95
        2
302
GRIDFORMAT
  1
GRIDFORMAT_BEGIN
 90
        0
 91
        1
 62
     0
 92
       -2
340
0
 93
        0
 40
0.045
309
GRIDFORMAT_END
 95
        4
302
GRIDFORMAT
  1
GRIDFORMAT_BEGIN
 90
        0
 91
        1
 62
     0
 92
       -2
340
0
 93
        0
 40
0.045
309
GRIDFORMAT_END
 95
        8
302
GRIDFORMAT
  1
GRIDFORMAT_BEGIN
 90
        0
 91
        1
 62
     0
 92
       -2
340
0
 93
        0
 40
0.045
309
GRIDFORMAT_END
 95
       16
302
GRIDFORMAT
  1
GRIDFORMAT_BEGIN
 90
        0
 91
        1
 62
     0
 92
       -2
340
0
 93
        0
 40
0.045
309
GRIDFORMAT_END
 95
       32
302
GRIDFORMAT
  1
GRIDFORMAT_BEGIN
 90
        0
 91
        1
 62
     0
 92
       -2
340
0
 93
        0
 40
0.045
309
GRIDFORMAT_END
309
TABLEFORMAT_END
  1
CELLSTYLE_BEGIN
 90
        3
 91
        2
300
_DATA
309
CELLSTYLE_END
  0
XRECORD
  5
D8A
102
{ACAD_REACTORS
330
D89
102
}
330
D89
100
AcDbXrecord
280
     1
102
RTVSPost2010Prop28
280
     1
102
RTVSPost2010PropOp28
 70
     1
102
RTVSPost2010Prop29
280
     1
102
RTVSPost2010PropOp29
 70
     1
102
RTVSPost2010Prop30
280
     0
102
RTVSPost2010PropOp30
 70
     1
102
RTVSPost2010Prop31
280
     0
102
RTVSPost2010PropOp31
 70
     1
102
RTVSPost2010Prop32
280
     0
102
RTVSPost2010PropOp32
 70
     1
102
RTVSPost2010Prop33
280
     0
102
RTVSPost2010PropOp33
 70
     1
102
RTVSPost2010Prop34
280
     0
102
RTVSPost2010PropOp34
 70
     1
102
RTVSPost2010Prop35
280
     0
102
RTVSPost2010PropOp35
 70
     1
102
RTVSPost2010Prop36
280
     0
102
RTVSPost2010PropOp36
 70
     1
102
RTVSPost2010Prop37
 90
       50
102
RTVSPost2010PropOp37
 70
     1
102
RTVSPost2010Prop38
140
0.0
102
RTVSPost2010PropOp38
 70
     1
102
RTVSPost2010Prop39
140
1.0
102
RTVSPost2010PropOp39
 70
     1
102
RTVSPost2010Prop40
 90
        0
102
RTVSPost2010PropOp40
 70
     1
102
RTVSPost2010Prop41ColorIndex
 90
       18
102
RTVSPost2010Prop41ColorRGB
 90
        0
102
RTVSPost2010PropOp41
 70
     1
102
RTVSPost2010Prop42
 90
       50
102
RTVSPost2010PropOp42
 70
     1
102
RTVSPost2010Prop43
 90
        3
102
RTVSPost2010PropOp43
 70
     1
102
RTVSPost2010Prop44ColorIndex
 90
        5
102
RTVSPost2010Prop44ColorRGB
 90
      255
102
RTVSPost2010PropOp44
 70
     1
102
RTVSPost2010Prop45
280
     0
102
RTVSPost2010PropOp45
 70
     1
102
RTVSPost2010Prop46
 90
       50
102
RTVSPost2010PropOp46
 70
     1
102
RTVSPost2010Prop47
 90
       50
102
RTVSPost2010PropOp47
 70
     1
102
RTVSPost2010Prop48
 90
       50
102
RTVSPost2010PropOp48
 70
     1
102
RTVSPost2010Prop49
280
     0
102
RTVSPost2010PropOp49
 70
     1
102
RTVSPost2010Prop50
 90
       50
102
RTVSPost2010PropOp50
 70
     1
102
RTVSPost2010Prop51ColorIndex
 90
      256
102
RTVSPost2010Prop51ColorRGB
 90
-16777216
102
RTVSPost2010PropOp51
 70
     0
102
RTVSPost2010Prop52
140
1.0
102
RTVSPost2010PropOp52
 70
     0
102
RTVSPost2010Prop53
 90
        2
102
RTVSPost2010PropOp53
 70
     1
102
RTVSPost2010Prop54
  1
strokes_ogs.tif
102
RTVSPost2010PropOp54
 70
     1
102
RTVSPost2010Prop55
280
     0
102
RTVSPost2010PropOp55
 70
     1
102
RTVSPost2010Prop56
140
1.0
102
RTVSPost2010PropOp56
 70
     1
102
RTVSPost2010Prop57
140
1.0
102
RTVSPost2010PropOp57
 70
     1
  0
XRECORD
  5
D88
102
{ACAD_REACTORS
330
D87
102
}
330
D87
100
AcDbXrecord
280
     1
102
RTVSPost2010Prop28
280
     0
102
RTVSPost2010PropOp28
 70
     1
102
RTVSPost2010Prop29
280
     1
102
RTVSPost2010PropOp29
 70
     1
102
RTVSPost2010Prop30
280
     1
102
RTVSPost2010PropOp30
 70
     1
102
RTVSPost2010Prop31
280
     0
102
RTVSPost2010PropOp31
 70
     1
102
RTVSPost2010Prop32
280
     0
102
RTVSPost2010PropOp32
 70
     1
102
RTVSPost2010Prop33
280
     0
102
RTVSPost2010PropOp33
 70
     1
102
RTVSPost2010Prop34
280
     0
102
RTVSPost2010PropOp34
 70
     1
102
RTVSPost2010Prop35
280
     0
102
RTVSPost2010PropOp35
 70
     1
102
RTVSPost2010Prop36
280
     0
102
RTVSPost2010PropOp36
 70
     1
102
RTVSPost2010Prop37
 90
       50
102
RTVSPost2010PropOp37
 70
     1
102
RTVSPost2010Prop38
140
0.0
102
RTVSPost2010PropOp38
 70
     1
102
RTVSPost2010Prop39
140
1.0
102
RTVSPost2010PropOp39
 70
     1
102
RTVSPost2010Prop40
 90
        0
102
RTVSPost2010PropOp40
 70
     1
102
RTVSPost2010Prop41ColorIndex
 90
       18
102
RTVSPost2010Prop41ColorRGB
 90
        0
102
RTVSPost2010PropOp41
 70
     1
102
RTVSPost2010Prop42
 90
       50
102
RTVSPost2010PropOp42
 70
     1
102
RTVSPost2010Prop43
 90
        3
102
RTVSPost2010PropOp43
 70
     1
102
RTVSPost2010Prop44ColorIndex
 90
        5
102
RTVSPost2010Prop44ColorRGB
 90
      255
102
RTVSPost2010PropOp44
 70
     1
102
RTVSPost2010Prop45
280
     0
102
RTVSPost2010PropOp45
 70
     1
102
RTVSPost2010Prop46
 90
       50
102
RTVSPost2010PropOp46
 70
     1
102
RTVSPost2010Prop47
 90
       50
102
RTVSPost2010PropOp47
 70
     1
102
RTVSPost2010Prop48
 90
       50
102
RTVSPost2010PropOp48
 70
     1
102
RTVSPost2010Prop49
280
     0
102
RTVSPost2010PropOp49
 70
     1
102
RTVSPost2010Prop50
 90
       50
102
RTVSPost2010PropOp50
 70
     1
102
RTVSPost2010Prop51ColorIndex
 90
      256
102
RTVSPost2010Prop51ColorRGB
 90
-16777216
102
RTVSPost2010PropOp51
 70
     0
102
RTVSPost2010Prop52
140
1.0
102
RTVSPost2010PropOp52
 70
     0
102
RTVSPost2010Prop53
 90
        2
102
RTVSPost2010PropOp53
 70
     1
102
RTVSPost2010Prop54
  1
strokes_ogs.tif
102
RTVSPost2010PropOp54
 70
     1
102
RTVSPost2010Prop55
280
     0
102
RTVSPost2010PropOp55
 70
     1
102
RTVSPost2010Prop56
140
1.0
102
RTVSPost2010PropOp56
 70
     1
102
RTVSPost2010Prop57
140
1.0
102
RTVSPost2010PropOp57
 70
     1
  0
XRECORD
  5
D96
102
{ACAD_REACTORS
330
D95
102
}
330
D95
100
AcDbXrecord
280
     1
102
RTVSPost2010Prop28
280
     0
102
RTVSPost2010PropOp28
 70
     1
102
RTVSPost2010Prop29
280
     1
102
RTVSPost2010PropOp29
 70
     1
102
RTVSPost2010Prop30
280
     1
102
RTVSPost2010PropOp30
 70
     1
102
RTVSPost2010Prop31
280
     0
102
RTVSPost2010PropOp31
 70
     1
102
RTVSPost2010Prop32
280
     0
102
RTVSPost2010PropOp32
 70
     1
102
RTVSPost2010Prop33
280
     0
102
RTVSPost2010PropOp33
 70
     1
102
RTVSPost2010Prop34
280
     0
102
RTVSPost2010PropOp34
 70
     1
102
RTVSPost2010Prop35
280
     0
102
RTVSPost2010PropOp35
 70
     1
102
RTVSPost2010Prop36
280
     0
102
RTVSPost2010PropOp36
 70
     1
102
RTVSPost2010Prop37
 90
       50
102
RTVSPost2010PropOp37
 70
     1
102
RTVSPost2010Prop38
140
0.0
102
RTVSPost2010PropOp38
 70
     1
102
RTVSPost2010Prop39
140
1.0
102
RTVSPost2010PropOp39
 70
     1
102
RTVSPost2010Prop40
 90
        0
102
RTVSPost2010PropOp40
 70
     1
102
RTVSPost2010Prop41ColorIndex
 90
       18
102
RTVSPost2010Prop41ColorRGB
 90
        0
102
RTVSPost2010PropOp41
 70
     1
102
RTVSPost2010Prop42
 90
       50
102
RTVSPost2010PropOp42
 70
     1
102
RTVSPost2010Prop43
 90
        3
102
RTVSPost2010PropOp43
 70
     1
102
RTVSPost2010Prop44ColorIndex
 90
        5
102
RTVSPost2010Prop44ColorRGB
 90
      255
102
RTVSPost2010PropOp44
 70
     1
102
RTVSPost2010Prop45
280
     0
102
RTVSPost2010PropOp45
 70
     1
102
RTVSPost2010Prop46
 90
       50
102
RTVSPost2010PropOp46
 70
     1
102
RTVSPost2010Prop47
 90
       50
102
RTVSPost2010PropOp47
 70
     1
102
RTVSPost2010Prop48
 90
       50
102
RTVSPost2010PropOp48
 70
     1
102
RTVSPost2010Prop49
280
     0
102
RTVSPost2010PropOp49
 70
     1
102
RTVSPost2010Prop50
 90
       50
102
RTVSPost2010PropOp50
 70
     1
102
RTVSPost2010Prop51ColorIndex
 90
      256
102
RTVSPost2010Prop51ColorRGB
 90
-16777216
102
RTVSPost2010PropOp51
 70
     0
102
RTVSPost2010Prop52
140
1.0
102
RTVSPost2010PropOp52
 70
     0
102
RTVSPost2010Prop53
 90
        2
102
RTVSPost2010PropOp53
 70
     1
102
RTVSPost2010Prop54
  1
strokes_ogs.tif
102
RTVSPost2010PropOp54
 70
     1
102
RTVSPost2010Prop55
280
     0
102
RTVSPost2010PropOp55
 70
     1
102
RTVSPost2010Prop56
140
1.0
102
RTVSPost2010PropOp56
 70
     1
102
RTVSPost2010Prop57
140
1.0
102
RTVSPost2010PropOp57
 70
     1
  0
XRECORD
  5
D9E
102
{ACAD_REACTORS
330
D9D
102
}
330
D9D
100
AcDbXrecord
280
     1
102
RTVSPost2010Prop28
280
     0
102
RTVSPost2010PropOp28
 70
     1
102
RTVSPost2010Prop29
280
     1
102
RTVSPost2010PropOp29
 70
     1
102
RTVSPost2010Prop30
280
     1
102
RTVSPost2010PropOp30
 70
     1
102
RTVSPost2010Prop31
280
     0
102
RTVSPost2010PropOp31
 70
     1
102
RTVSPost2010Prop32
280
     0
102
RTVSPost2010PropOp32
 70
     1
102
RTVSPost2010Prop33
280
     0
102
RTVSPost2010PropOp33
 70
     1
102
RTVSPost2010Prop34
280
     0
102
RTVSPost2010PropOp34
 70
     1
102
RTVSPost2010Prop35
280
     0
102
RTVSPost2010PropOp35
 70
     1
102
RTVSPost2010Prop36
280
     0
102
RTVSPost2010PropOp36
 70
     1
102
RTVSPost2010Prop37
 90
       50
102
RTVSPost2010PropOp37
 70
     1
102
RTVSPost2010Prop38
140
0.0
102
RTVSPost2010PropOp38
 70
     1
102
RTVSPost2010Prop39
140
1.0
102
RTVSPost2010PropOp39
 70
     1
102
RTVSPost2010Prop40
 90
        0
102
RTVSPost2010PropOp40
 70
     1
102
RTVSPost2010Prop41ColorIndex
 90
       18
102
RTVSPost2010Prop41ColorRGB
 90
        0
102
RTVSPost2010PropOp41
 70
     1
102
RTVSPost2010Prop42
 90
       50
102
RTVSPost2010PropOp42
 70
     1
102
RTVSPost2010Prop43
 90
        3
102
RTVSPost2010PropOp43
 70
     1
102
RTVSPost2010Prop44ColorIndex
 90
        5
102
RTVSPost2010Prop44ColorRGB
 90
      255
102
RTVSPost2010PropOp44
 70
     1
102
RTVSPost2010Prop45
280
     0
102
RTVSPost2010PropOp45
 70
     1
102
RTVSPost2010Prop46
 90
       50
102
RTVSPost2010PropOp46
 70
     1
102
RTVSPost2010Prop47
 90
       50
102
RTVSPost2010PropOp47
 70
     1
102
RTVSPost2010Prop48
 90
       50
102
RTVSPost2010PropOp48
 70
     1
102
RTVSPost2010Prop49
280
     0
102
RTVSPost2010PropOp49
 70
     1
102
RTVSPost2010Prop50
 90
       50
102
RTVSPost2010PropOp50
 70
     1
102
RTVSPost2010Prop51ColorIndex
 90
      256
102
RTVSPost2010Prop51ColorRGB
 90
-16777216
102
RTVSPost2010PropOp51
 70
     0
102
RTVSPost2010Prop52
140
1.0
102
RTVSPost2010PropOp52
 70
     0
102
RTVSPost2010Prop53
 90
        2
102
RTVSPost2010PropOp53
 70
     1
102
RTVSPost2010Prop54
  1
strokes_ogs.tif
102
RTVSPost2010PropOp54
 70
     1
102
RTVSPost2010Prop55
280
     0
102
RTVSPost2010PropOp55
 70
     1
102
RTVSPost2010Prop56
140
1.0
102
RTVSPost2010PropOp56
 70
     1
102
RTVSPost2010Prop57
140
1.0
102
RTVSPost2010PropOp57
 70
     1
  0
XRECORD
  5
D90
102
{ACAD_REACTORS
330
D8F
102
}
330
D8F
100
AcDbXrecord
280
     1
102
RTVSPost2010Prop28
280
     0
102
RTVSPost2010PropOp28
 70
     1
102
RTVSPost2010Prop29
280
     1
102
RTVSPost2010PropOp29
 70
     1
102
RTVSPost2010Prop30
280
     1
102
RTVSPost2010PropOp30
 70
     1
102
RTVSPost2010Prop31
280
     0
102
RTVSPost2010PropOp31
 70
     1
102
RTVSPost2010Prop32
280
     0
102
RTVSPost2010PropOp32
 70
     1
102
RTVSPost2010Prop33
280
     0
102
RTVSPost2010PropOp33
 70
     1
102
RTVSPost2010Prop34
280
     0
102
RTVSPost2010PropOp34
 70
     1
102
RTVSPost2010Prop35
280
     0
102
RTVSPost2010PropOp35
 70
     1
102
RTVSPost2010Prop36
280
     0
102
RTVSPost2010PropOp36
 70
     1
102
RTVSPost2010Prop37
 90
       50
102
RTVSPost2010PropOp37
 70
     1
102
RTVSPost2010Prop38
140
0.0
102
RTVSPost2010PropOp38
 70
     1
102
RTVSPost2010Prop39
140
1.0
102
RTVSPost2010PropOp39
 70
     1
102
RTVSPost2010Prop40
 90
        0
102
RTVSPost2010PropOp40
 70
     1
102
RTVSPost2010Prop41ColorIndex
 90
       18
102
RTVSPost2010Prop41ColorRGB
 90
        0
102
RTVSPost2010PropOp41
 70
     1
102
RTVSPost2010Prop42
 90
       50
102
RTVSPost2010PropOp42
 70
     1
102
RTVSPost2010Prop43
 90
        3
102
RTVSPost2010PropOp43
 70
     1
102
RTVSPost2010Prop44ColorIndex
 90
        5
102
RTVSPost2010Prop44ColorRGB
 90
      255
102
RTVSPost2010PropOp44
 70
     1
102
RTVSPost2010Prop45
280
     0
102
RTVSPost2010PropOp45
 70
     1
102
RTVSPost2010Prop46
 90
       50
102
RTVSPost2010PropOp46
 70
     1
102
RTVSPost2010Prop47
 90
       50
102
RTVSPost2010PropOp47
 70
     1
102
RTVSPost2010Prop48
 90
       50
102
RTVSPost2010PropOp48
 70
     1
102
RTVSPost2010Prop49
280
     0
102
RTVSPost2010PropOp49
 70
     1
102
RTVSPost2010Prop50
 90
       50
102
RTVSPost2010PropOp50
 70
     1
102
RTVSPost2010Prop51ColorIndex
 90
      256
102
RTVSPost2010Prop51ColorRGB
 90
-16777216
102
RTVSPost2010PropOp51
 70
     0
102
RTVSPost2010Prop52
140
1.0
102
RTVSPost2010PropOp52
 70
     0
102
RTVSPost2010Prop53
 90
        2
102
RTVSPost2010PropOp53
 70
     1
102
RTVSPost2010Prop54
  1
strokes_ogs.tif
102
RTVSPost2010PropOp54
 70
     1
102
RTVSPost2010Prop55
280
     0
102
RTVSPost2010PropOp55
 70
     1
102
RTVSPost2010Prop56
140
1.0
102
RTVSPost2010PropOp56
 70
     1
102
RTVSPost2010Prop57
140
1.0
102
RTVSPost2010PropOp57
 70
     1
  0
XRECORD
  5
D94
102
{ACAD_REACTORS
330
D93
102
}
330
D93
100
AcDbXrecord
280
     1
102
RTVSPost2010Prop28
280
     0
102
RTVSPost2010PropOp28
 70
     1
102
RTVSPost2010Prop29
280
     1
102
RTVSPost2010PropOp29
 70
     1
102
RTVSPost2010Prop30
280
     1
102
RTVSPost2010PropOp30
 70
     1
102
RTVSPost2010Prop31
280
     0
102
RTVSPost2010PropOp31
 70
     1
102
RTVSPost2010Prop32
280
     0
102
RTVSPost2010PropOp32
 70
     1
102
RTVSPost2010Prop33
280
     0
102
RTVSPost2010PropOp33
 70
     1
102
RTVSPost2010Prop34
280
     0
102
RTVSPost2010PropOp34
 70
     1
102
RTVSPost2010Prop35
280
     0
102
RTVSPost2010PropOp35
 70
     1
102
RTVSPost2010Prop36
280
     0
102
RTVSPost2010PropOp36
 70
     1
102
RTVSPost2010Prop37
 90
       50
102
RTVSPost2010PropOp37
 70
     1
102
RTVSPost2010Prop38
140
0.0
102
RTVSPost2010PropOp38
 70
     1
102
RTVSPost2010Prop39
140
1.0
102
RTVSPost2010PropOp39
 70
     1
102
RTVSPost2010Prop40
 90
        0
102
RTVSPost2010PropOp40
 70
     1
102
RTVSPost2010Prop41ColorIndex
 90
       18
102
RTVSPost2010Prop41ColorRGB
 90
        0
102
RTVSPost2010PropOp41
 70
     1
102
RTVSPost2010Prop42
 90
       50
102
RTVSPost2010PropOp42
 70
     1
102
RTVSPost2010Prop43
 90
        3
102
RTVSPost2010PropOp43
 70
     1
102
RTVSPost2010Prop44ColorIndex
 90
        5
102
RTVSPost2010Prop44ColorRGB
 90
      255
102
RTVSPost2010PropOp44
 70
     1
102
RTVSPost2010Prop45
280
     0
102
RTVSPost2010PropOp45
 70
     1
102
RTVSPost2010Prop46
 90
       50
102
RTVSPost2010PropOp46
 70
     1
102
RTVSPost2010Prop47
 90
       50
102
RTVSPost2010PropOp47
 70
     1
102
RTVSPost2010Prop48
 90
       50
102
RTVSPost2010PropOp48
 70
     1
102
RTVSPost2010Prop49
280
     0
102
RTVSPost2010PropOp49
 70
     1
102
RTVSPost2010Prop50
 90
       50
102
RTVSPost2010PropOp50
 70
     1
102
RTVSPost2010Prop51ColorIndex
 90
      256
102
RTVSPost2010Prop51ColorRGB
 90
-16777216
102
RTVSPost2010PropOp51
 70
     0
102
RTVSPost2010Prop52
140
1.0
102
RTVSPost2010PropOp52
 70
     0
102
RTVSPost2010Prop53
 90
        2
102
RTVSPost2010PropOp53
 70
     1
102
RTVSPost2010Prop54
  1
strokes_ogs.tif
102
RTVSPost2010PropOp54
 70
     1
102
RTVSPost2010Prop55
280
     0
102
RTVSPost2010PropOp55
 70
     1
102
RTVSPost2010Prop56
140
1.0
102
RTVSPost2010PropOp56
 70
     1
102
RTVSPost2010Prop57
140
1.0
102
RTVSPost2010PropOp57
 70
     1
  0
XRECORD
  5
DAE
102
{ACAD_REACTORS
330
DAD
102
}
330
DAD
100
AcDbXrecord
280
     1
102
RTVSPost2010Prop28
280
     0
102
RTVSPost2010PropOp28
 70
     1
102
RTVSPost2010Prop29
280
     1
102
RTVSPost2010PropOp29
 70
     1
102
RTVSPost2010Prop30
280
     1
102
RTVSPost2010PropOp30
 70
     1
102
RTVSPost2010Prop31
280
     0
102
RTVSPost2010PropOp31
 70
     1
102
RTVSPost2010Prop32
280
     0
102
RTVSPost2010PropOp32
 70
     1
102
RTVSPost2010Prop33
280
     0
102
RTVSPost2010PropOp33
 70
     1
102
RTVSPost2010Prop34
280
     0
102
RTVSPost2010PropOp34
 70
     1
102
RTVSPost2010Prop35
280
     0
102
RTVSPost2010PropOp35
 70
     1
102
RTVSPost2010Prop36
280
     0
102
RTVSPost2010PropOp36
 70
     1
102
RTVSPost2010Prop37
 90
       50
102
RTVSPost2010PropOp37
 70
     0
102
RTVSPost2010Prop38
140
0.0
102
RTVSPost2010PropOp38
 70
     0
102
RTVSPost2010Prop39
140
1.0
102
RTVSPost2010PropOp39
 70
     0
102
RTVSPost2010Prop40
 90
        0
102
RTVSPost2010PropOp40
 70
     0
102
RTVSPost2010Prop41ColorIndex
 90
       18
102
RTVSPost2010Prop41ColorRGB
 90
        0
102
RTVSPost2010PropOp41
 70
     0
102
RTVSPost2010Prop42
 90
       50
102
RTVSPost2010PropOp42
 70
     0
102
RTVSPost2010Prop43
 90
        3
102
RTVSPost2010PropOp43
 70
     0
102
RTVSPost2010Prop44ColorIndex
 90
        5
102
RTVSPost2010Prop44ColorRGB
 90
      255
102
RTVSPost2010PropOp44
 70
     0
102
RTVSPost2010Prop45
280
     0
102
RTVSPost2010PropOp45
 70
     1
102
RTVSPost2010Prop46
 90
       50
102
RTVSPost2010PropOp46
 70
     0
102
RTVSPost2010Prop47
 90
       50
102
RTVSPost2010PropOp47
 70
     0
102
RTVSPost2010Prop48
 90
       50
102
RTVSPost2010PropOp48
 70
     0
102
RTVSPost2010Prop49
280
     0
102
RTVSPost2010PropOp49
 70
     1
102
RTVSPost2010Prop50
 90
       50
102
RTVSPost2010PropOp50
 70
     0
102
RTVSPost2010Prop51ColorIndex
 90
      256
102
RTVSPost2010Prop51ColorRGB
 90
-16777216
102
RTVSPost2010PropOp51
 70
     0
102
RTVSPost2010Prop52
140
1.0
102
RTVSPost2010PropOp52
 70
     0
102
RTVSPost2010Prop53
 90
        2
102
RTVSPost2010PropOp53
 70
     0
102
RTVSPost2010Prop54
  1
strokes_ogs.tif
102
RTVSPost2010PropOp54
 70
     0
102
RTVSPost2010Prop55
280
     0
102
RTVSPost2010PropOp55
 70
     1
102
RTVSPost2010Prop56
140
1.0
102
RTVSPost2010PropOp56
 70
     0
102
RTVSPost2010Prop57
140
1.0
102
RTVSPost2010PropOp57
 70
     0
  0
XRECORD
  5
D9C
102
{ACAD_REACTORS
330
D9B
102
}
330
D9B
100
AcDbXrecord
280
     1
102
RTVSPost2010Prop28
280
     0
102
RTVSPost2010PropOp28
 70
     1
102
RTVSPost2010Prop29
280
     1
102
RTVSPost2010PropOp29
 70
     1
102
RTVSPost2010Prop30
280
     1
102
RTVSPost2010PropOp30
 70
     1
102
RTVSPost2010Prop31
280
     0
102
RTVSPost2010PropOp31
 70
     1
102
RTVSPost2010Prop32
280
     0
102
RTVSPost2010PropOp32
 70
     1
102
RTVSPost2010Prop33
280
     0
102
RTVSPost2010PropOp33
 70
     1
102
RTVSPost2010Prop34
280
     0
102
RTVSPost2010PropOp34
 70
     1
102
RTVSPost2010Prop35
280
     0
102
RTVSPost2010PropOp35
 70
     1
102
RTVSPost2010Prop36
280
     0
102
RTVSPost2010PropOp36
 70
     1
102
RTVSPost2010Prop37
 90
       50
102
RTVSPost2010PropOp37
 70
     1
102
RTVSPost2010Prop38
140
0.0
102
RTVSPost2010PropOp38
 70
     1
102
RTVSPost2010Prop39
140
1.0
102
RTVSPost2010PropOp39
 70
     1
102
RTVSPost2010Prop40
 90
        0
102
RTVSPost2010PropOp40
 70
     1
102
RTVSPost2010Prop41ColorIndex
 90
       18
102
RTVSPost2010Prop41ColorRGB
 90
        0
102
RTVSPost2010PropOp41
 70
     1
102
RTVSPost2010Prop42
 90
       50
102
RTVSPost2010PropOp42
 70
     1
102
RTVSPost2010Prop43
 90
        3
102
RTVSPost2010PropOp43
 70
     1
102
RTVSPost2010Prop44ColorIndex
 90
        5
102
RTVSPost2010Prop44ColorRGB
 90
      255
102
RTVSPost2010PropOp44
 70
     1
102
RTVSPost2010Prop45
280
     0
102
RTVSPost2010PropOp45
 70
     1
102
RTVSPost2010Prop46
 90
       50
102
RTVSPost2010PropOp46
 70
     1
102
RTVSPost2010Prop47
 90
       50
102
RTVSPost2010PropOp47
 70
     1
102
RTVSPost2010Prop48
 90
       50
102
RTVSPost2010PropOp48
 70
     1
102
RTVSPost2010Prop49
280
     0
102
RTVSPost2010PropOp49
 70
     1
102
RTVSPost2010Prop50
 90
       50
102
RTVSPost2010PropOp50
 70
     1
102
RTVSPost2010Prop51ColorIndex
 90
      256
102
RTVSPost2010Prop51ColorRGB
 90
-16777216
102
RTVSPost2010PropOp51
 70
     0
102
RTVSPost2010Prop52
140
1.0
102
RTVSPost2010PropOp52
 70
     0
102
RTVSPost2010Prop53
 90
        2
102
RTVSPost2010PropOp53
 70
     1
102
RTVSPost2010Prop54
  1
strokes_ogs.tif
102
RTVSPost2010PropOp54
 70
     1
102
RTVSPost2010Prop55
280
     0
102
RTVSPost2010PropOp55
 70
     1
102
RTVSPost2010Prop56
140
1.0
102
RTVSPost2010PropOp56
 70
     1
102
RTVSPost2010Prop57
140
1.0
102
RTVSPost2010PropOp57
 70
     1
  0
XRECORD
  5
D80
102
{ACAD_REACTORS
330
D7F
102
}
330
D7F
100
AcDbXrecord
280
     1
102
RTVSPost2010Prop28
280
     0
102
RTVSPost2010PropOp28
 70
     1
102
RTVSPost2010Prop29
280
     1
102
RTVSPost2010PropOp29
 70
     1
102
RTVSPost2010Prop30
280
     1
102
RTVSPost2010PropOp30
 70
     1
102
RTVSPost2010Prop31
280
     0
102
RTVSPost2010PropOp31
 70
     1
102
RTVSPost2010Prop32
280
     0
102
RTVSPost2010PropOp32
 70
     1
102
RTVSPost2010Prop33
280
     0
102
RTVSPost2010PropOp33
 70
     1
102
RTVSPost2010Prop34
280
     0
102
RTVSPost2010PropOp34
 70
     1
102
RTVSPost2010Prop35
280
     0
102
RTVSPost2010PropOp35
 70
     1
102
RTVSPost2010Prop36
280
     0
102
RTVSPost2010PropOp36
 70
     1
102
RTVSPost2010Prop37
 90
       50
102
RTVSPost2010PropOp37
 70
     1
102
RTVSPost2010Prop38
140
0.0
102
RTVSPost2010PropOp38
 70
     1
102
RTVSPost2010Prop39
140
1.0
102
RTVSPost2010PropOp39
 70
     1
102
RTVSPost2010Prop40
 90
        0
102
RTVSPost2010PropOp40
 70
     1
102
RTVSPost2010Prop41ColorIndex
 90
       18
102
RTVSPost2010Prop41ColorRGB
 90
        0
102
RTVSPost2010PropOp41
 70
     1
102
RTVSPost2010Prop42
 90
       50
102
RTVSPost2010PropOp42
 70
     1
102
RTVSPost2010Prop43
 90
        3
102
RTVSPost2010PropOp43
 70
     1
102
RTVSPost2010Prop44ColorIndex
 90
        5
102
RTVSPost2010Prop44ColorRGB
 90
      255
102
RTVSPost2010PropOp44
 70
     1
102
RTVSPost2010Prop45
280
     0
102
RTVSPost2010PropOp45
 70
     1
102
RTVSPost2010Prop46
 90
       50
102
RTVSPost2010PropOp46
 70
     1
102
RTVSPost2010Prop47
 90
       50
102
RTVSPost2010PropOp47
 70
     1
102
RTVSPost2010Prop48
 90
       50
102
RTVSPost2010PropOp48
 70
     1
102
RTVSPost2010Prop49
280
     0
102
RTVSPost2010PropOp49
 70
     1
102
RTVSPost2010Prop50
 90
       50
102
RTVSPost2010PropOp50
 70
     1
102
RTVSPost2010Prop51ColorIndex
 90
      256
102
RTVSPost2010Prop51ColorRGB
 90
-16777216
102
RTVSPost2010PropOp51
 70
     0
102
RTVSPost2010Prop52
140
1.0
102
RTVSPost2010PropOp52
 70
     0
102
RTVSPost2010Prop53
 90
        2
102
RTVSPost2010PropOp53
 70
     1
102
RTVSPost2010Prop54
  1
strokes_ogs.tif
102
RTVSPost2010PropOp54
 70
     1
102
RTVSPost2010Prop55
280
     0
102
RTVSPost2010PropOp55
 70
     1
102
RTVSPost2010Prop56
140
1.0
102
RTVSPost2010PropOp56
 70
     1
102
RTVSPost2010Prop57
140
1.0
102
RTVSPost2010PropOp57
 70
     1
  0
XRECORD
  5
D82
102
{ACAD_REACTORS
330
D81
102
}
330
D81
100
AcDbXrecord
280
     1
102
RTVSPost2010Prop28
280
     0
102
RTVSPost2010PropOp28
 70
     1
102
RTVSPost2010Prop29
280
     1
102
RTVSPost2010PropOp29
 70
     1
102
RTVSPost2010Prop30
280
     1
102
RTVSPost2010PropOp30
 70
     1
102
RTVSPost2010Prop31
280
     0
102
RTVSPost2010PropOp31
 70
     1
102
RTVSPost2010Prop32
280
     0
102
RTVSPost2010PropOp32
 70
     1
102
RTVSPost2010Prop33
280
     0
102
RTVSPost2010PropOp33
 70
     1
102
RTVSPost2010Prop34
280
     0
102
RTVSPost2010PropOp34
 70
     1
102
RTVSPost2010Prop35
280
     0
102
RTVSPost2010PropOp35
 70
     1
102
RTVSPost2010Prop36
280
     0
102
RTVSPost2010PropOp36
 70
     1
102
RTVSPost2010Prop37
 90
       50
102
RTVSPost2010PropOp37
 70
     1
102
RTVSPost2010Prop38
140
0.0
102
RTVSPost2010PropOp38
 70
     1
102
RTVSPost2010Prop39
140
1.0
102
RTVSPost2010PropOp39
 70
     1
102
RTVSPost2010Prop40
 90
        0
102
RTVSPost2010PropOp40
 70
     1
102
RTVSPost2010Prop41ColorIndex
 90
       18
102
RTVSPost2010Prop41ColorRGB
 90
        0
102
RTVSPost2010PropOp41
 70
     1
102
RTVSPost2010Prop42
 90
       50
102
RTVSPost2010PropOp42
 70
     1
102
RTVSPost2010Prop43
 90
        3
102
RTVSPost2010PropOp43
 70
     1
102
RTVSPost2010Prop44ColorIndex
 90
        5
102
RTVSPost2010Prop44ColorRGB
 90
      255
102
RTVSPost2010PropOp44
 70
     1
102
RTVSPost2010Prop45
280
     0
102
RTVSPost2010PropOp45
 70
     1
102
RTVSPost2010Prop46
 90
       50
102
RTVSPost2010PropOp46
 70
     1
102
RTVSPost2010Prop47
 90
       50
102
RTVSPost2010PropOp47
 70
     1
102
RTVSPost2010Prop48
 90
       50
102
RTVSPost2010PropOp48
 70
     1
102
RTVSPost2010Prop49
280
     0
102
RTVSPost2010PropOp49
 70
     1
102
RTVSPost2010Prop50
 90
       50
102
RTVSPost2010PropOp50
 70
     1
102
RTVSPost2010Prop51ColorIndex
 90
      256
102
RTVSPost2010Prop51ColorRGB
 90
-16777216
102
RTVSPost2010PropOp51
 70
     0
102
RTVSPost2010Prop52
140
1.0
102
RTVSPost2010PropOp52
 70
     0
102
RTVSPost2010Prop53
 90
        2
102
RTVSPost2010PropOp53
 70
     1
102
RTVSPost2010Prop54
  1
strokes_ogs.tif
102
RTVSPost2010PropOp54
 70
     1
102
RTVSPost2010Prop55
280
     0
102
RTVSPost2010PropOp55
 70
     1
102
RTVSPost2010Prop56
140
1.0
102
RTVSPost2010PropOp56
 70
     1
102
RTVSPost2010Prop57
140
1.0
102
RTVSPost2010PropOp57
 70
     1
  0
XRECORD
  5
D84
102
{ACAD_REACTORS
330
D83
102
}
330
D83
100
AcDbXrecord
280
     1
102
RTVSPost2010Prop28
280
     0
102
RTVSPost2010PropOp28
 70
     1
102
RTVSPost2010Prop29
280
     1
102
RTVSPost2010PropOp29
 70
     1
102
RTVSPost2010Prop30
280
     1
102
RTVSPost2010PropOp30
 70
     1
102
RTVSPost2010Prop31
280
     0
102
RTVSPost2010PropOp31
 70
     1
102
RTVSPost2010Prop32
280
     0
102
RTVSPost2010PropOp32
 70
     1
102
RTVSPost2010Prop33
280
     0
102
RTVSPost2010PropOp33
 70
     1
102
RTVSPost2010Prop34
280
     0
102
RTVSPost2010PropOp34
 70
     1
102
RTVSPost2010Prop35
280
     0
102
RTVSPost2010PropOp35
 70
     1
102
RTVSPost2010Prop36
280
     0
102
RTVSPost2010PropOp36
 70
     1
102
RTVSPost2010Prop37
 90
       50
102
RTVSPost2010PropOp37
 70
     1
102
RTVSPost2010Prop38
140
0.0
102
RTVSPost2010PropOp38
 70
     1
102
RTVSPost2010Prop39
140
1.0
102
RTVSPost2010PropOp39
 70
     1
102
RTVSPost2010Prop40
 90
        0
102
RTVSPost2010PropOp40
 70
     1
102
RTVSPost2010Prop41ColorIndex
 90
       18
102
RTVSPost2010Prop41ColorRGB
 90
        0
102
RTVSPost2010PropOp41
 70
     1
102
RTVSPost2010Prop42
 90
       50
102
RTVSPost2010PropOp42
 70
     1
102
RTVSPost2010Prop43
 90
        3
102
RTVSPost2010PropOp43
 70
     1
102
RTVSPost2010Prop44ColorIndex
 90
        5
102
RTVSPost2010Prop44ColorRGB
 90
      255
102
RTVSPost2010PropOp44
 70
     1
102
RTVSPost2010Prop45
280
     0
102
RTVSPost2010PropOp45
 70
     1
102
RTVSPost2010Prop46
 90
       50
102
RTVSPost2010PropOp46
 70
     1
102
RTVSPost2010Prop47
 90
       50
102
RTVSPost2010PropOp47
 70
     1
102
RTVSPost2010Prop48
 90
       50
102
RTVSPost2010PropOp48
 70
     1
102
RTVSPost2010Prop49
280
     0
102
RTVSPost2010PropOp49
 70
     1
102
RTVSPost2010Prop50
 90
       50
102
RTVSPost2010PropOp50
 70
     1
102
RTVSPost2010Prop51ColorIndex
 90
      256
102
RTVSPost2010Prop51ColorRGB
 90
-16777216
102
RTVSPost2010PropOp51
 70
     0
102
RTVSPost2010Prop52
140
1.0
102
RTVSPost2010PropOp52
 70
     0
102
RTVSPost2010Prop53
 90
        2
102
RTVSPost2010PropOp53
 70
     1
102
RTVSPost2010Prop54
  1
strokes_ogs.tif
102
RTVSPost2010PropOp54
 70
     1
102
RTVSPost2010Prop55
280
     0
102
RTVSPost2010PropOp55
 70
     1
102
RTVSPost2010Prop56
140
1.0
102
RTVSPost2010PropOp56
 70
     1
102
RTVSPost2010Prop57
140
1.0
102
RTVSPost2010PropOp57
 70
     1
  0
XRECORD
  5
D86
102
{ACAD_REACTORS
330
D85
102
}
330
D85
100
AcDbXrecord
280
     1
102
RTVSPost2010Prop28
280
     0
102
RTVSPost2010PropOp28
 70
     1
102
RTVSPost2010Prop29
280
     1
102
RTVSPost2010PropOp29
 70
     1
102
RTVSPost2010Prop30
280
     1
102
RTVSPost2010PropOp30
 70
     1
102
RTVSPost2010Prop31
280
     0
102
RTVSPost2010PropOp31
 70
     1
102
RTVSPost2010Prop32
280
     0
102
RTVSPost2010PropOp32
 70
     1
102
RTVSPost2010Prop33
280
     0
102
RTVSPost2010PropOp33
 70
     1
102
RTVSPost2010Prop34
280
     0
102
RTVSPost2010PropOp34
 70
     1
102
RTVSPost2010Prop35
280
     0
102
RTVSPost2010PropOp35
 70
     1
102
RTVSPost2010Prop36
280
     0
102
RTVSPost2010PropOp36
 70
     1
102
RTVSPost2010Prop37
 90
       50
102
RTVSPost2010PropOp37
 70
     1
102
RTVSPost2010Prop38
140
0.0
102
RTVSPost2010PropOp38
 70
     1
102
RTVSPost2010Prop39
140
1.0
102
RTVSPost2010PropOp39
 70
     1
102
RTVSPost2010Prop40
 90
        0
102
RTVSPost2010PropOp40
 70
     1
102
RTVSPost2010Prop41ColorIndex
 90
       18
102
RTVSPost2010Prop41ColorRGB
 90
        0
102
RTVSPost2010PropOp41
 70
     1
102
RTVSPost2010Prop42
 90
       50
102
RTVSPost2010PropOp42
 70
     1
102
RTVSPost2010Prop43
 90
        3
102
RTVSPost2010PropOp43
 70
     1
102
RTVSPost2010Prop44ColorIndex
 90
        5
102
RTVSPost2010Prop44ColorRGB
 90
      255
102
RTVSPost2010PropOp44
 70
     1
102
RTVSPost2010Prop45
280
     0
102
RTVSPost2010PropOp45
 70
     1
102
RTVSPost2010Prop46
 90
       50
102
RTVSPost2010PropOp46
 70
     1
102
RTVSPost2010Prop47
 90
       50
102
RTVSPost2010PropOp47
 70
     1
102
RTVSPost2010Prop48
 90
       50
102
RTVSPost2010PropOp48
 70
     1
102
RTVSPost2010Prop49
280
     0
102
RTVSPost2010PropOp49
 70
     1
102
RTVSPost2010Prop50
 90
       50
102
RTVSPost2010PropOp50
 70
     1
102
RTVSPost2010Prop51ColorIndex
 90
      256
102
RTVSPost2010Prop51ColorRGB
 90
-16777216
102
RTVSPost2010PropOp51
 70
     0
102
RTVSPost2010Prop52
140
1.0
102
RTVSPost2010PropOp52
 70
     0
102
RTVSPost2010Prop53
 90
        2
102
RTVSPost2010PropOp53
 70
     1
102
RTVSPost2010Prop54
  1
strokes_ogs.tif
102
RTVSPost2010PropOp54
 70
     1
102
RTVSPost2010Prop55
280
     0
102
RTVSPost2010PropOp55
 70
     1
102
RTVSPost2010Prop56
140
1.0
102
RTVSPost2010PropOp56
 70
     1
102
RTVSPost2010Prop57
140
1.0
102
RTVSPost2010PropOp57
 70
     1
  0
XRECORD
  5
D8E
102
{ACAD_REACTORS
330
D8D
102
}
330
D8D
100
AcDbXrecord
280
     1
102
RTVSPost2010Prop28
280
     0
102
RTVSPost2010PropOp28
 70
     1
102
RTVSPost2010Prop29
280
     1
102
RTVSPost2010PropOp29
 70
     1
102
RTVSPost2010Prop30
280
     1
102
RTVSPost2010PropOp30
 70
     1
102
RTVSPost2010Prop31
280
     0
102
RTVSPost2010PropOp31
 70
     1
102
RTVSPost2010Prop32
280
     0
102
RTVSPost2010PropOp32
 70
     1
102
RTVSPost2010Prop33
280
     0
102
RTVSPost2010PropOp33
 70
     1
102
RTVSPost2010Prop34
280
     0
102
RTVSPost2010PropOp34
 70
     1
102
RTVSPost2010Prop35
280
     0
102
RTVSPost2010PropOp35
 70
     1
102
RTVSPost2010Prop36
280
     0
102
RTVSPost2010PropOp36
 70
     1
102
RTVSPost2010Prop37
 90
       50
102
RTVSPost2010PropOp37
 70
     1
102
RTVSPost2010Prop38
140
0.0
102
RTVSPost2010PropOp38
 70
     1
102
RTVSPost2010Prop39
140
1.0
102
RTVSPost2010PropOp39
 70
     1
102
RTVSPost2010Prop40
 90
        0
102
RTVSPost2010PropOp40
 70
     1
102
RTVSPost2010Prop41ColorIndex
 90
       18
102
RTVSPost2010Prop41ColorRGB
 90
        0
102
RTVSPost2010PropOp41
 70
     1
102
RTVSPost2010Prop42
 90
       50
102
RTVSPost2010PropOp42
 70
     1
102
RTVSPost2010Prop43
 90
        3
102
RTVSPost2010PropOp43
 70
     1
102
RTVSPost2010Prop44ColorIndex
 90
        5
102
RTVSPost2010Prop44ColorRGB
 90
      255
102
RTVSPost2010PropOp44
 70
     1
102
RTVSPost2010Prop45
280
     0
102
RTVSPost2010PropOp45
 70
     1
102
RTVSPost2010Prop46
 90
       50
102
RTVSPost2010PropOp46
 70
     1
102
RTVSPost2010Prop47
 90
       50
102
RTVSPost2010PropOp47
 70
     1
102
RTVSPost2010Prop48
 90
       50
102
RTVSPost2010PropOp48
 70
     1
102
RTVSPost2010Prop49
280
     0
102
RTVSPost2010PropOp49
 70
     1
102
RTVSPost2010Prop50
 90
       50
102
RTVSPost2010PropOp50
 70
     1
102
RTVSPost2010Prop51ColorIndex
 90
      256
102
RTVSPost2010Prop51ColorRGB
 90
-16777216
102
RTVSPost2010PropOp51
 70
     0
102
RTVSPost2010Prop52
140
1.0
102
RTVSPost2010PropOp52
 70
     0
102
RTVSPost2010Prop53
 90
        2
102
RTVSPost2010PropOp53
 70
     1
102
RTVSPost2010Prop54
  1
strokes_ogs.tif
102
RTVSPost2010PropOp54
 70
     1
102
RTVSPost2010Prop55
280
     0
102
RTVSPost2010PropOp55
 70
     1
102
RTVSPost2010Prop56
140
1.0
102
RTVSPost2010PropOp56
 70
     1
102
RTVSPost2010Prop57
140
1.0
102
RTVSPost2010PropOp57
 70
     1
  0
XRECORD
  5
DAA
102
{ACAD_REACTORS
330
DA9
102
}
330
DA9
100
AcDbXrecord
280
     1
102
RTVSPost2010Prop28
280
     0
102
RTVSPost2010PropOp28
 70
     1
102
RTVSPost2010Prop29
280
     1
102
RTVSPost2010PropOp29
 70
     1
102
RTVSPost2010Prop30
280
     1
102
RTVSPost2010PropOp30
 70
     1
102
RTVSPost2010Prop31
280
     0
102
RTVSPost2010PropOp31
 70
     1
102
RTVSPost2010Prop32
280
     0
102
RTVSPost2010PropOp32
 70
     1
102
RTVSPost2010Prop33
280
     0
102
RTVSPost2010PropOp33
 70
     1
102
RTVSPost2010Prop34
280
     0
102
RTVSPost2010PropOp34
 70
     1
102
RTVSPost2010Prop35
280
     0
102
RTVSPost2010PropOp35
 70
     1
102
RTVSPost2010Prop36
280
     0
102
RTVSPost2010PropOp36
 70
     1
102
RTVSPost2010Prop37
 90
       50
102
RTVSPost2010PropOp37
 70
     0
102
RTVSPost2010Prop38
140
0.0
102
RTVSPost2010PropOp38
 70
     0
102
RTVSPost2010Prop39
140
1.0
102
RTVSPost2010PropOp39
 70
     0
102
RTVSPost2010Prop40
 90
        0
102
RTVSPost2010PropOp40
 70
     0
102
RTVSPost2010Prop41ColorIndex
 90
       18
102
RTVSPost2010Prop41ColorRGB
 90
        0
102
RTVSPost2010PropOp41
 70
     0
102
RTVSPost2010Prop42
 90
       50
102
RTVSPost2010PropOp42
 70
     0
102
RTVSPost2010Prop43
 90
        3
102
RTVSPost2010PropOp43
 70
     0
102
RTVSPost2010Prop44ColorIndex
 90
        5
102
RTVSPost2010Prop44ColorRGB
 90
      255
102
RTVSPost2010PropOp44
 70
     0
102
RTVSPost2010Prop45
280
     0
102
RTVSPost2010PropOp45
 70
     1
102
RTVSPost2010Prop46
 90
       50
102
RTVSPost2010PropOp46
 70
     0
102
RTVSPost2010Prop47
 90
       50
102
RTVSPost2010PropOp47
 70
     0
102
RTVSPost2010Prop48
 90
       50
102
RTVSPost2010PropOp48
 70
     0
102
RTVSPost2010Prop49
280
     0
102
RTVSPost2010PropOp49
 70
     1
102
RTVSPost2010Prop50
 90
       50
102
RTVSPost2010PropOp50
 70
     0
102
RTVSPost2010Prop51ColorIndex
 90
      256
102
RTVSPost2010Prop51ColorRGB
 90
-16777216
102
RTVSPost2010PropOp51
 70
     0
102
RTVSPost2010Prop52
140
1.0
102
RTVSPost2010PropOp52
 70
     0
102
RTVSPost2010Prop53
 90
        2
102
RTVSPost2010PropOp53
 70
     0
102
RTVSPost2010Prop54
  1
strokes_ogs.tif
102
RTVSPost2010PropOp54
 70
     0
102
RTVSPost2010Prop55
280
     0
102
RTVSPost2010PropOp55
 70
     1
102
RTVSPost2010Prop56
140
1.0
102
RTVSPost2010PropOp56
 70
     0
102
RTVSPost2010Prop57
140
1.0
102
RTVSPost2010PropOp57
 70
     0
  0
XRECORD
  5
D9A
102
{ACAD_REACTORS
330
D99
102
}
330
D99
100
AcDbXrecord
280
     1
102
RTVSPost2010Prop28
280
     0
102
RTVSPost2010PropOp28
 70
     1
102
RTVSPost2010Prop29
280
     1
102
RTVSPost2010PropOp29
 70
     1
102
RTVSPost2010Prop30
280
     1
102
RTVSPost2010PropOp30
 70
     1
102
RTVSPost2010Prop31
280
     0
102
RTVSPost2010PropOp31
 70
     1
102
RTVSPost2010Prop32
280
     0
102
RTVSPost2010PropOp32
 70
     1
102
RTVSPost2010Prop33
280
     0
102
RTVSPost2010PropOp33
 70
     1
102
RTVSPost2010Prop34
280
     0
102
RTVSPost2010PropOp34
 70
     1
102
RTVSPost2010Prop35
280
     0
102
RTVSPost2010PropOp35
 70
     1
102
RTVSPost2010Prop36
280
     0
102
RTVSPost2010PropOp36
 70
     1
102
RTVSPost2010Prop37
 90
       50
102
RTVSPost2010PropOp37
 70
     1
102
RTVSPost2010Prop38
140
0.0
102
RTVSPost2010PropOp38
 70
     1
102
RTVSPost2010Prop39
140
1.0
102
RTVSPost2010PropOp39
 70
     1
102
RTVSPost2010Prop40
 90
        0
102
RTVSPost2010PropOp40
 70
     1
102
RTVSPost2010Prop41ColorIndex
 90
       18
102
RTVSPost2010Prop41ColorRGB
 90
        0
102
RTVSPost2010PropOp41
 70
     1
102
RTVSPost2010Prop42
 90
       50
102
RTVSPost2010PropOp42
 70
     1
102
RTVSPost2010Prop43
 90
        3
102
RTVSPost2010PropOp43
 70
     1
102
RTVSPost2010Prop44ColorIndex
 90
        5
102
RTVSPost2010Prop44ColorRGB
 90
      255
102
RTVSPost2010PropOp44
 70
     1
102
RTVSPost2010Prop45
280
     0
102
RTVSPost2010PropOp45
 70
     1
102
RTVSPost2010Prop46
 90
       50
102
RTVSPost2010PropOp46
 70
     1
102
RTVSPost2010Prop47
 90
       50
102
RTVSPost2010PropOp47
 70
     1
102
RTVSPost2010Prop48
 90
       50
102
RTVSPost2010PropOp48
 70
     1
102
RTVSPost2010Prop49
280
     0
102
RTVSPost2010PropOp49
 70
     1
102
RTVSPost2010Prop50
 90
       50
102
RTVSPost2010PropOp50
 70
     1
102
RTVSPost2010Prop51ColorIndex
 90
      256
102
RTVSPost2010Prop51ColorRGB
 90
-16777216
102
RTVSPost2010PropOp51
 70
     0
102
RTVSPost2010Prop52
140
1.0
102
RTVSPost2010PropOp52
 70
     0
102
RTVSPost2010Prop53
 90
        2
102
RTVSPost2010PropOp53
 70
     1
102
RTVSPost2010Prop54
  1
strokes_ogs.tif
102
RTVSPost2010PropOp54
 70
     1
102
RTVSPost2010Prop55
280
     0
102
RTVSPost2010PropOp55
 70
     1
102
RTVSPost2010Prop56
140
1.0
102
RTVSPost2010PropOp56
 70
     1
102
RTVSPost2010Prop57
140
1.0
102
RTVSPost2010PropOp57
 70
     1
  0
XRECORD
  5
DAC
102
{ACAD_REACTORS
330
DAB
102
}
330
DAB
100
AcDbXrecord
280
     1
102
RTVSPost2010Prop28
280
     0
102
RTVSPost2010PropOp28
 70
     1
102
RTVSPost2010Prop29
280
     1
102
RTVSPost2010PropOp29
 70
     1
102
RTVSPost2010Prop30
280
     1
102
RTVSPost2010PropOp30
 70
     1
102
RTVSPost2010Prop31
280
     0
102
RTVSPost2010PropOp31
 70
     1
102
RTVSPost2010Prop32
280
     0
102
RTVSPost2010PropOp32
 70
     1
102
RTVSPost2010Prop33
280
     0
102
RTVSPost2010PropOp33
 70
     1
102
RTVSPost2010Prop34
280
     0
102
RTVSPost2010PropOp34
 70
     1
102
RTVSPost2010Prop35
280
     0
102
RTVSPost2010PropOp35
 70
     1
102
RTVSPost2010Prop36
280
     0
102
RTVSPost2010PropOp36
 70
     1
102
RTVSPost2010Prop37
 90
       50
102
RTVSPost2010PropOp37
 70
     0
102
RTVSPost2010Prop38
140
0.0
102
RTVSPost2010PropOp38
 70
     0
102
RTVSPost2010Prop39
140
1.0
102
RTVSPost2010PropOp39
 70
     0
102
RTVSPost2010Prop40
 90
        0
102
RTVSPost2010PropOp40
 70
     0
102
RTVSPost2010Prop41ColorIndex
 90
       18
102
RTVSPost2010Prop41ColorRGB
 90
        0
102
RTVSPost2010PropOp41
 70
     0
102
RTVSPost2010Prop42
 90
       50
102
RTVSPost2010PropOp42
 70
     0
102
RTVSPost2010Prop43
 90
        3
102
RTVSPost2010PropOp43
 70
     0
102
RTVSPost2010Prop44ColorIndex
 90
        5
102
RTVSPost2010Prop44ColorRGB
 90
      255
102
RTVSPost2010PropOp44
 70
     0
102
RTVSPost2010Prop45
280
     0
102
RTVSPost2010PropOp45
 70
     1
102
RTVSPost2010Prop46
 90
       50
102
RTVSPost2010PropOp46
 70
     0
102
RTVSPost2010Prop47
 90
       50
102
RTVSPost2010PropOp47
 70
     0
102
RTVSPost2010Prop48
 90
       50
102
RTVSPost2010PropOp48
 70
     0
102
RTVSPost2010Prop49
280
     0
102
RTVSPost2010PropOp49
 70
     1
102
RTVSPost2010Prop50
 90
       50
102
RTVSPost2010PropOp50
 70
     0
102
RTVSPost2010Prop51ColorIndex
 90
      256
102
RTVSPost2010Prop51ColorRGB
 90
-16777216
102
RTVSPost2010PropOp51
 70
     0
102
RTVSPost2010Prop52
140
1.0
102
RTVSPost2010PropOp52
 70
     0
102
RTVSPost2010Prop53
 90
        2
102
RTVSPost2010PropOp53
 70
     0
102
RTVSPost2010Prop54
  1
strokes_ogs.tif
102
RTVSPost2010PropOp54
 70
     0
102
RTVSPost2010Prop55
280
     0
102
RTVSPost2010PropOp55
 70
     1
102
RTVSPost2010Prop56
140
1.0
102
RTVSPost2010PropOp56
 70
     0
102
RTVSPost2010Prop57
140
1.0
102
RTVSPost2010PropOp57
 70
     0
  0
XRECORD
  5
D92
102
{ACAD_REACTORS
330
D91
102
}
330
D91
100
AcDbXrecord
280
     1
102
RTVSPost2010Prop28
280
     0
102
RTVSPost2010PropOp28
 70
     1
102
RTVSPost2010Prop29
280
     1
102
RTVSPost2010PropOp29
 70
     1
102
RTVSPost2010Prop30
280
     1
102
RTVSPost2010PropOp30
 70
     1
102
RTVSPost2010Prop31
280
     0
102
RTVSPost2010PropOp31
 70
     1
102
RTVSPost2010Prop32
280
     0
102
RTVSPost2010PropOp32
 70
     1
102
RTVSPost2010Prop33
280
     0
102
RTVSPost2010PropOp33
 70
     1
102
RTVSPost2010Prop34
280
     0
102
RTVSPost2010PropOp34
 70
     1
102
RTVSPost2010Prop35
280
     0
102
RTVSPost2010PropOp35
 70
     1
102
RTVSPost2010Prop36
280
     0
102
RTVSPost2010PropOp36
 70
     1
102
RTVSPost2010Prop37
 90
       50
102
RTVSPost2010PropOp37
 70
     1
102
RTVSPost2010Prop38
140
0.0
102
RTVSPost2010PropOp38
 70
     1
102
RTVSPost2010Prop39
140
1.0
102
RTVSPost2010PropOp39
 70
     1
102
RTVSPost2010Prop40
 90
        0
102
RTVSPost2010PropOp40
 70
     1
102
RTVSPost2010Prop41ColorIndex
 90
       18
102
RTVSPost2010Prop41ColorRGB
 90
        0
102
RTVSPost2010PropOp41
 70
     1
102
RTVSPost2010Prop42
 90
       50
102
RTVSPost2010PropOp42
 70
     1
102
RTVSPost2010Prop43
 90
        3
102
RTVSPost2010PropOp43
 70
     1
102
RTVSPost2010Prop44ColorIndex
 90
        5
102
RTVSPost2010Prop44ColorRGB
 90
      255
102
RTVSPost2010PropOp44
 70
     1
102
RTVSPost2010Prop45
280
     0
102
RTVSPost2010PropOp45
 70
     1
102
RTVSPost2010Prop46
 90
       50
102
RTVSPost2010PropOp46
 70
     1
102
RTVSPost2010Prop47
 90
       50
102
RTVSPost2010PropOp47
 70
     1
102
RTVSPost2010Prop48
 90
       50
102
RTVSPost2010PropOp48
 70
     1
102
RTVSPost2010Prop49
280
     0
102
RTVSPost2010PropOp49
 70
     1
102
RTVSPost2010Prop50
 90
       50
102
RTVSPost2010PropOp50
 70
     1
102
RTVSPost2010Prop51ColorIndex
 90
      256
102
RTVSPost2010Prop51ColorRGB
 90
-16777216
102
RTVSPost2010PropOp51
 70
     0
102
RTVSPost2010Prop52
140
1.0
102
RTVSPost2010PropOp52
 70
     0
102
RTVSPost2010Prop53
 90
        2
102
RTVSPost2010PropOp53
 70
     1
102
RTVSPost2010Prop54
  1
strokes_ogs.tif
102
RTVSPost2010PropOp54
 70
     1
102
RTVSPost2010Prop55
280
     0
102
RTVSPost2010PropOp55
 70
     1
102
RTVSPost2010Prop56
140
1.0
102
RTVSPost2010PropOp56
 70
     1
102
RTVSPost2010Prop57
140
1.0
102
RTVSPost2010PropOp57
 70
     1
  0
XRECORD
  5
DA8
102
{ACAD_REACTORS
330
DA7
102
}
330
DA7
100
AcDbXrecord
280
     1
102
RTVSPost2010Prop28
280
     0
102
RTVSPost2010PropOp28
 70
     1
102
RTVSPost2010Prop29
280
     1
102
RTVSPost2010PropOp29
 70
     1
102
RTVSPost2010Prop30
280
     1
102
RTVSPost2010PropOp30
 70
     1
102
RTVSPost2010Prop31
280
     0
102
RTVSPost2010PropOp31
 70
     1
102
RTVSPost2010Prop32
280
     0
102
RTVSPost2010PropOp32
 70
     1
102
RTVSPost2010Prop33
280
     0
102
RTVSPost2010PropOp33
 70
     1
102
RTVSPost2010Prop34
280
     0
102
RTVSPost2010PropOp34
 70
     1
102
RTVSPost2010Prop35
280
     0
102
RTVSPost2010PropOp35
 70
     1
102
RTVSPost2010Prop36
280
     0
102
RTVSPost2010PropOp36
 70
     1
102
RTVSPost2010Prop37
 90
       50
102
RTVSPost2010PropOp37
 70
     1
102
RTVSPost2010Prop38
140
0.0
102
RTVSPost2010PropOp38
 70
     1
102
RTVSPost2010Prop39
140
1.0
102
RTVSPost2010PropOp39
 70
     1
102
RTVSPost2010Prop40
 90
        0
102
RTVSPost2010PropOp40
 70
     1
102
RTVSPost2010Prop41ColorIndex
 90
       18
102
RTVSPost2010Prop41ColorRGB
 90
        0
102
RTVSPost2010PropOp41
 70
     1
102
RTVSPost2010Prop42
 90
       50
102
RTVSPost2010PropOp42
 70
     1
102
RTVSPost2010Prop43
 90
        3
102
RTVSPost2010PropOp43
 70
     1
102
RTVSPost2010Prop44ColorIndex
 90
        5
102
RTVSPost2010Prop44ColorRGB
 90
      255
102
RTVSPost2010PropOp44
 70
     1
102
RTVSPost2010Prop45
280
     0
102
RTVSPost2010PropOp45
 70
     1
102
RTVSPost2010Prop46
 90
       50
102
RTVSPost2010PropOp46
 70
     1
102
RTVSPost2010Prop47
 90
       50
102
RTVSPost2010PropOp47
 70
     1
102
RTVSPost2010Prop48
 90
       50
102
RTVSPost2010PropOp48
 70
     1
102
RTVSPost2010Prop49
280
     0
102
RTVSPost2010PropOp49
 70
     1
102
RTVSPost2010Prop50
 90
       50
102
RTVSPost2010PropOp50
 70
     1
102
RTVSPost2010Prop51ColorIndex
 90
      256
102
RTVSPost2010Prop51ColorRGB
 90
-16777216
102
RTVSPost2010PropOp51
 70
     0
102
RTVSPost2010Prop52
140
1.0
102
RTVSPost2010PropOp52
 70
     0
102
RTVSPost2010Prop53
 90
        2
102
RTVSPost2010PropOp53
 70
     1
102
RTVSPost2010Prop54
  1
strokes_ogs.tif
102
RTVSPost2010PropOp54
 70
     1
102
RTVSPost2010Prop55
280
     0
102
RTVSPost2010PropOp55
 70
     1
102
RTVSPost2010Prop56
140
1.0
102
RTVSPost2010PropOp56
 70
     1
102
RTVSPost2010Prop57
140
1.0
102
RTVSPost2010PropOp57
 70
     1
  0
XRECORD
  5
DA6
102
{ACAD_REACTORS
330
DA5
102
}
330
DA5
100
AcDbXrecord
280
     1
102
RTVSPost2010Prop28
280
     0
102
RTVSPost2010PropOp28
 70
     1
102
RTVSPost2010Prop29
280
     1
102
RTVSPost2010PropOp29
 70
     1
102
RTVSPost2010Prop30
280
     1
102
RTVSPost2010PropOp30
 70
     1
102
RTVSPost2010Prop31
280
     0
102
RTVSPost2010PropOp31
 70
     1
102
RTVSPost2010Prop32
280
     0
102
RTVSPost2010PropOp32
 70
     1
102
RTVSPost2010Prop33
280
     0
102
RTVSPost2010PropOp33
 70
     1
102
RTVSPost2010Prop34
280
     0
102
RTVSPost2010PropOp34
 70
     1
102
RTVSPost2010Prop35
280
     0
102
RTVSPost2010PropOp35
 70
     1
102
RTVSPost2010Prop36
280
     0
102
RTVSPost2010PropOp36
 70
     1
102
RTVSPost2010Prop37
 90
       50
102
RTVSPost2010PropOp37
 70
     1
102
RTVSPost2010Prop38
140
0.0
102
RTVSPost2010PropOp38
 70
     1
102
RTVSPost2010Prop39
140
1.0
102
RTVSPost2010PropOp39
 70
     1
102
RTVSPost2010Prop40
 90
        0
102
RTVSPost2010PropOp40
 70
     1
102
RTVSPost2010Prop41ColorIndex
 90
       18
102
RTVSPost2010Prop41ColorRGB
 90
        0
102
RTVSPost2010PropOp41
 70
     1
102
RTVSPost2010Prop42
 90
       50
102
RTVSPost2010PropOp42
 70
     1
102
RTVSPost2010Prop43
 90
        3
102
RTVSPost2010PropOp43
 70
     1
102
RTVSPost2010Prop44ColorIndex
 90
        5
102
RTVSPost2010Prop44ColorRGB
 90
      255
102
RTVSPost2010PropOp44
 70
     1
102
RTVSPost2010Prop45
280
     0
102
RTVSPost2010PropOp45
 70
     1
102
RTVSPost2010Prop46
 90
       50
102
RTVSPost2010PropOp46
 70
     1
102
RTVSPost2010Prop47
 90
       50
102
RTVSPost2010PropOp47
 70
     1
102
RTVSPost2010Prop48
 90
       50
102
RTVSPost2010PropOp48
 70
     1
102
RTVSPost2010Prop49
280
     0
102
RTVSPost2010PropOp49
 70
     1
102
RTVSPost2010Prop50
 90
       50
102
RTVSPost2010PropOp50
 70
     1
102
RTVSPost2010Prop51ColorIndex
 90
      256
102
RTVSPost2010Prop51ColorRGB
 90
-16777216
102
RTVSPost2010PropOp51
 70
     0
102
RTVSPost2010Prop52
140
1.0
102
RTVSPost2010PropOp52
 70
     0
102
RTVSPost2010Prop53
 90
        2
102
RTVSPost2010PropOp53
 70
     1
102
RTVSPost2010Prop54
  1
strokes_ogs.tif
102
RTVSPost2010PropOp54
 70
     1
102
RTVSPost2010Prop55
280
     0
102
RTVSPost2010PropOp55
 70
     1
102
RTVSPost2010Prop56
140
1.0
102
RTVSPost2010PropOp56
 70
     1
102
RTVSPost2010Prop57
140
1.0
102
RTVSPost2010PropOp57
 70
     1
  0
XRECORD
  5
DA0
102
{ACAD_REACTORS
330
D9F
102
}
330
D9F
100
AcDbXrecord
280
     1
102
RTVSPost2010Prop28
280
     0
102
RTVSPost2010PropOp28
 70
     1
102
RTVSPost2010Prop29
280
     1
102
RTVSPost2010PropOp29
 70
     1
102
RTVSPost2010Prop30
280
     1
102
RTVSPost2010PropOp30
 70
     1
102
RTVSPost2010Prop31
280
     0
102
RTVSPost2010PropOp31
 70
     1
102
RTVSPost2010Prop32
280
     0
102
RTVSPost2010PropOp32
 70
     1
102
RTVSPost2010Prop33
280
     0
102
RTVSPost2010PropOp33
 70
     1
102
RTVSPost2010Prop34
280
     0
102
RTVSPost2010PropOp34
 70
     1
102
RTVSPost2010Prop35
280
     0
102
RTVSPost2010PropOp35
 70
     1
102
RTVSPost2010Prop36
280
     0
102
RTVSPost2010PropOp36
 70
     1
102
RTVSPost2010Prop37
 90
       50
102
RTVSPost2010PropOp37
 70
     1
102
RTVSPost2010Prop38
140
0.0
102
RTVSPost2010PropOp38
 70
     1
102
RTVSPost2010Prop39
140
1.0
102
RTVSPost2010PropOp39
 70
     1
102
RTVSPost2010Prop40
 90
        0
102
RTVSPost2010PropOp40
 70
     1
102
RTVSPost2010Prop41ColorIndex
 90
       18
102
RTVSPost2010Prop41ColorRGB
 90
        0
102
RTVSPost2010PropOp41
 70
     1
102
RTVSPost2010Prop42
 90
       50
102
RTVSPost2010PropOp42
 70
     1
102
RTVSPost2010Prop43
 90
        3
102
RTVSPost2010PropOp43
 70
     1
102
RTVSPost2010Prop44ColorIndex
 90
        5
102
RTVSPost2010Prop44ColorRGB
 90
      255
102
RTVSPost2010PropOp44
 70
     1
102
RTVSPost2010Prop45
280
     0
102
RTVSPost2010PropOp45
 70
     1
102
RTVSPost2010Prop46
 90
       50
102
RTVSPost2010PropOp46
 70
     1
102
RTVSPost2010Prop47
 90
       50
102
RTVSPost2010PropOp47
 70
     1
102
RTVSPost2010Prop48
 90
       50
102
RTVSPost2010PropOp48
 70
     1
102
RTVSPost2010Prop49
280
     0
102
RTVSPost2010PropOp49
 70
     1
102
RTVSPost2010Prop50
 90
       50
102
RTVSPost2010PropOp50
 70
     1
102
RTVSPost2010Prop51ColorIndex
 90
      256
102
RTVSPost2010Prop51ColorRGB
 90
-16777216
102
RTVSPost2010PropOp51
 70
     0
102
RTVSPost2010Prop52
140
1.0
102
RTVSPost2010PropOp52
 70
     0
102
RTVSPost2010Prop53
 90
        2
102
RTVSPost2010PropOp53
 70
     1
102
RTVSPost2010Prop54
  1
strokes_ogs.tif
102
RTVSPost2010PropOp54
 70
     1
102
RTVSPost2010Prop55
280
     0
102
RTVSPost2010PropOp55
 70
     1
102
RTVSPost2010Prop56
140
1.0
102
RTVSPost2010PropOp56
 70
     1
102
RTVSPost2010Prop57
140
1.0
102
RTVSPost2010PropOp57
 70
     1
  0
XRECORD
  5
DA2
102
{ACAD_REACTORS
330
DA1
102
}
330
DA1
100
AcDbXrecord
280
     1
102
RTVSPost2010Prop28
280
     0
102
RTVSPost2010PropOp28
 70
     1
102
RTVSPost2010Prop29
280
     1
102
RTVSPost2010PropOp29
 70
     1
102
RTVSPost2010Prop30
280
     1
102
RTVSPost2010PropOp30
 70
     1
102
RTVSPost2010Prop31
280
     0
102
RTVSPost2010PropOp31
 70
     1
102
RTVSPost2010Prop32
280
     0
102
RTVSPost2010PropOp32
 70
     1
102
RTVSPost2010Prop33
280
     0
102
RTVSPost2010PropOp33
 70
     1
102
RTVSPost2010Prop34
280
     0
102
RTVSPost2010PropOp34
 70
     1
102
RTVSPost2010Prop35
280
     0
102
RTVSPost2010PropOp35
 70
     1
102
RTVSPost2010Prop36
280
     0
102
RTVSPost2010PropOp36
 70
     1
102
RTVSPost2010Prop37
 90
       50
102
RTVSPost2010PropOp37
 70
     1
102
RTVSPost2010Prop38
140
0.0
102
RTVSPost2010PropOp38
 70
     1
102
RTVSPost2010Prop39
140
1.0
102
RTVSPost2010PropOp39
 70
     1
102
RTVSPost2010Prop40
 90
        0
102
RTVSPost2010PropOp40
 70
     1
102
RTVSPost2010Prop41ColorIndex
 90
       18
102
RTVSPost2010Prop41ColorRGB
 90
        0
102
RTVSPost2010PropOp41
 70
     1
102
RTVSPost2010Prop42
 90
       50
102
RTVSPost2010PropOp42
 70
     1
102
RTVSPost2010Prop43
 90
        3
102
RTVSPost2010PropOp43
 70
     1
102
RTVSPost2010Prop44ColorIndex
 90
        5
102
RTVSPost2010Prop44ColorRGB
 90
      255
102
RTVSPost2010PropOp44
 70
     1
102
RTVSPost2010Prop45
280
     0
102
RTVSPost2010PropOp45
 70
     1
102
RTVSPost2010Prop46
 90
       50
102
RTVSPost2010PropOp46
 70
     1
102
RTVSPost2010Prop47
 90
       50
102
RTVSPost2010PropOp47
 70
     1
102
RTVSPost2010Prop48
 90
       50
102
RTVSPost2010PropOp48
 70
     1
102
RTVSPost2010Prop49
280
     0
102
RTVSPost2010PropOp49
 70
     1
102
RTVSPost2010Prop50
 90
       50
102
RTVSPost2010PropOp50
 70
     1
102
RTVSPost2010Prop51ColorIndex
 90
      256
102
RTVSPost2010Prop51ColorRGB
 90
-16777216
102
RTVSPost2010PropOp51
 70
     0
102
RTVSPost2010Prop52
140
1.0
102
RTVSPost2010PropOp52
 70
     0
102
RTVSPost2010Prop53
 90
        2
102
RTVSPost2010PropOp53
 70
     1
102
RTVSPost2010Prop54
  1
strokes_ogs.tif
102
RTVSPost2010PropOp54
 70
     1
102
RTVSPost2010Prop55
280
     0
102
RTVSPost2010PropOp55
 70
     1
102
RTVSPost2010Prop56
140
1.0
102
RTVSPost2010PropOp56
 70
     1
102
RTVSPost2010Prop57
140
1.0
102
RTVSPost2010PropOp57
 70
     1
  0
XRECORD
  5
D98
102
{ACAD_REACTORS
330
D97
102
}
330
D97
100
AcDbXrecord
280
     1
102
RTVSPost2010Prop28
280
     0
102
RTVSPost2010PropOp28
 70
     1
102
RTVSPost2010Prop29
280
     1
102
RTVSPost2010PropOp29
 70
     1
102
RTVSPost2010Prop30
280
     1
102
RTVSPost2010PropOp30
 70
     1
102
RTVSPost2010Prop31
280
     0
102
RTVSPost2010PropOp31
 70
     1
102
RTVSPost2010Prop32
280
     0
102
RTVSPost2010PropOp32
 70
     1
102
RTVSPost2010Prop33
280
     0
102
RTVSPost2010PropOp33
 70
     1
102
RTVSPost2010Prop34
280
     0
102
RTVSPost2010PropOp34
 70
     1
102
RTVSPost2010Prop35
280
     0
102
RTVSPost2010PropOp35
 70
     1
102
RTVSPost2010Prop36
280
     0
102
RTVSPost2010PropOp36
 70
     1
102
RTVSPost2010Prop37
 90
       50
102
RTVSPost2010PropOp37
 70
     1
102
RTVSPost2010Prop38
140
0.0
102
RTVSPost2010PropOp38
 70
     1
102
RTVSPost2010Prop39
140
1.0
102
RTVSPost2010PropOp39
 70
     1
102
RTVSPost2010Prop40
 90
        0
102
RTVSPost2010PropOp40
 70
     1
102
RTVSPost2010Prop41ColorIndex
 90
       18
102
RTVSPost2010Prop41ColorRGB
 90
        0
102
RTVSPost2010PropOp41
 70
     1
102
RTVSPost2010Prop42
 90
       50
102
RTVSPost2010PropOp42
 70
     1
102
RTVSPost2010Prop43
 90
        3
102
RTVSPost2010PropOp43
 70
     1
102
RTVSPost2010Prop44ColorIndex
 90
        5
102
RTVSPost2010Prop44ColorRGB
 90
      255
102
RTVSPost2010PropOp44
 70
     1
102
RTVSPost2010Prop45
280
     0
102
RTVSPost2010PropOp45
 70
     1
102
RTVSPost2010Prop46
 90
       50
102
RTVSPost2010PropOp46
 70
     1
102
RTVSPost2010Prop47
 90
       50
102
RTVSPost2010PropOp47
 70
     1
102
RTVSPost2010Prop48
 90
       50
102
RTVSPost2010PropOp48
 70
     1
102
RTVSPost2010Prop49
280
     0
102
RTVSPost2010PropOp49
 70
     1
102
RTVSPost2010Prop50
 90
       50
102
RTVSPost2010PropOp50
 70
     1
102
RTVSPost2010Prop51ColorIndex
 90
      256
102
RTVSPost2010Prop51ColorRGB
 90
-16777216
102
RTVSPost2010PropOp51
 70
     0
102
RTVSPost2010Prop52
140
1.0
102
RTVSPost2010PropOp52
 70
     0
102
RTVSPost2010Prop53
 90
        2
102
RTVSPost2010PropOp53
 70
     1
102
RTVSPost2010Prop54
  1
strokes_ogs.tif
102
RTVSPost2010PropOp54
 70
     1
102
RTVSPost2010Prop55
280
     0
102
RTVSPost2010PropOp55
 70
     1
102
RTVSPost2010Prop56
140
1.0
102
RTVSPost2010PropOp56
 70
     1
102
RTVSPost2010Prop57
140
1.0
102
RTVSPost2010PropOp57
 70
     1
  0
XRECORD
  5
D8C
102
{ACAD_REACTORS
330
D8B
102
}
330
D8B
100
AcDbXrecord
280
     1
102
RTVSPost2010Prop28
280
     0
102
RTVSPost2010PropOp28
 70
     1
102
RTVSPost2010Prop29
280
     1
102
RTVSPost2010PropOp29
 70
     1
102
RTVSPost2010Prop30
280
     1
102
RTVSPost2010PropOp30
 70
     1
102
RTVSPost2010Prop31
280
     0
102
RTVSPost2010PropOp31
 70
     1
102
RTVSPost2010Prop32
280
     0
102
RTVSPost2010PropOp32
 70
     1
102
RTVSPost2010Prop33
280
     0
102
RTVSPost2010PropOp33
 70
     1
102
RTVSPost2010Prop34
280
     0
102
RTVSPost2010PropOp34
 70
     1
102
RTVSPost2010Prop35
280
     0
102
RTVSPost2010PropOp35
 70
     1
102
RTVSPost2010Prop36
280
     0
102
RTVSPost2010PropOp36
 70
     1
102
RTVSPost2010Prop37
 90
       50
102
RTVSPost2010PropOp37
 70
     1
102
RTVSPost2010Prop38
140
0.0
102
RTVSPost2010PropOp38
 70
     1
102
RTVSPost2010Prop39
140
1.0
102
RTVSPost2010PropOp39
 70
     1
102
RTVSPost2010Prop40
 90
        0
102
RTVSPost2010PropOp40
 70
     1
102
RTVSPost2010Prop41ColorIndex
 90
       18
102
RTVSPost2010Prop41ColorRGB
 90
        0
102
RTVSPost2010PropOp41
 70
     1
102
RTVSPost2010Prop42
 90
       50
102
RTVSPost2010PropOp42
 70
     1
102
RTVSPost2010Prop43
 90
        3
102
RTVSPost2010PropOp43
 70
     1
102
RTVSPost2010Prop44ColorIndex
 90
        5
102
RTVSPost2010Prop44ColorRGB
 90
      255
102
RTVSPost2010PropOp44
 70
     1
102
RTVSPost2010Prop45
280
     0
102
RTVSPost2010PropOp45
 70
     1
102
RTVSPost2010Prop46
 90
       50
102
RTVSPost2010PropOp46
 70
     1
102
RTVSPost2010Prop47
 90
       50
102
RTVSPost2010PropOp47
 70
     1
102
RTVSPost2010Prop48
 90
       50
102
RTVSPost2010PropOp48
 70
     1
102
RTVSPost2010Prop49
280
     0
102
RTVSPost2010PropOp49
 70
     1
102
RTVSPost2010Prop50
 90
       50
102
RTVSPost2010PropOp50
 70
     1
102
RTVSPost2010Prop51ColorIndex
 90
      256
102
RTVSPost2010Prop51ColorRGB
 90
-16777216
102
RTVSPost2010PropOp51
 70
     0
102
RTVSPost2010Prop52
140
1.0
102
RTVSPost2010PropOp52
 70
     0
102
RTVSPost2010Prop53
 90
        2
102
RTVSPost2010PropOp53
 70
     1
102
RTVSPost2010Prop54
  1
strokes_ogs.tif
102
RTVSPost2010PropOp54
 70
     1
102
RTVSPost2010Prop55
280
     0
102
RTVSPost2010PropOp55
 70
     1
102
RTVSPost2010Prop56
140
1.0
102
RTVSPost2010PropOp56
 70
     1
102
RTVSPost2010Prop57
140
1.0
102
RTVSPost2010PropOp57
 70
     1
  0
XRECORD
  5
DA4
102
{ACAD_REACTORS
330
DA3
102
}
330
DA3
100
AcDbXrecord
280
     1
102
RTVSPost2010Prop28
280
     0
102
RTVSPost2010PropOp28
 70
     1
102
RTVSPost2010Prop29
280
     1
102
RTVSPost2010PropOp29
 70
     1
102
RTVSPost2010Prop30
280
     1
102
RTVSPost2010PropOp30
 70
     1
102
RTVSPost2010Prop31
280
     0
102
RTVSPost2010PropOp31
 70
     1
102
RTVSPost2010Prop32
280
     0
102
RTVSPost2010PropOp32
 70
     1
102
RTVSPost2010Prop33
280
     0
102
RTVSPost2010PropOp33
 70
     1
102
RTVSPost2010Prop34
280
     0
102
RTVSPost2010PropOp34
 70
     1
102
RTVSPost2010Prop35
280
     0
102
RTVSPost2010PropOp35
 70
     1
102
RTVSPost2010Prop36
280
     0
102
RTVSPost2010PropOp36
 70
     1
102
RTVSPost2010Prop37
 90
       50
102
RTVSPost2010PropOp37
 70
     1
102
RTVSPost2010Prop38
140
0.0
102
RTVSPost2010PropOp38
 70
     1
102
RTVSPost2010Prop39
140
1.0
102
RTVSPost2010PropOp39
 70
     1
102
RTVSPost2010Prop40
 90
        0
102
RTVSPost2010PropOp40
 70
     1
102
RTVSPost2010Prop41ColorIndex
 90
       18
102
RTVSPost2010Prop41ColorRGB
 90
        0
102
RTVSPost2010PropOp41
 70
     1
102
RTVSPost2010Prop42
 90
       50
102
RTVSPost2010PropOp42
 70
     1
102
RTVSPost2010Prop43
 90
        3
102
RTVSPost2010PropOp43
 70
     1
102
RTVSPost2010Prop44ColorIndex
 90
        5
102
RTVSPost2010Prop44ColorRGB
 90
      255
102
RTVSPost2010PropOp44
 70
     1
102
RTVSPost2010Prop45
280
     0
102
RTVSPost2010PropOp45
 70
     1
102
RTVSPost2010Prop46
 90
       50
102
RTVSPost2010PropOp46
 70
     1
102
RTVSPost2010Prop47
 90
       50
102
RTVSPost2010PropOp47
 70
     1
102
RTVSPost2010Prop48
 90
       50
102
RTVSPost2010PropOp48
 70
     1
102
RTVSPost2010Prop49
280
     0
102
RTVSPost2010PropOp49
 70
     1
102
RTVSPost2010Prop50
 90
       50
102
RTVSPost2010PropOp50
 70
     1
102
RTVSPost2010Prop51ColorIndex
 90
      256
102
RTVSPost2010Prop51ColorRGB
 90
-16777216
102
RTVSPost2010PropOp51
 70
     0
102
RTVSPost2010Prop52
140
1.0
102
RTVSPost2010PropOp52
 70
     0
102
RTVSPost2010Prop53
 90
        2
102
RTVSPost2010PropOp53
 70
     1
102
RTVSPost2010Prop54
  1
strokes_ogs.tif
102
RTVSPost2010PropOp54
 70
     1
102
RTVSPost2010Prop55
280
     0
102
RTVSPost2010PropOp55
 70
     1
102
RTVSPost2010Prop56
140
1.0
102
RTVSPost2010PropOp56
 70
     1
102
RTVSPost2010Prop57
140
1.0
102
RTVSPost2010PropOp57
 70
     1
  0
ENDSEC
  0
EOF
