  0
SECTION
  2
HEADER
  9
$ACADVER
  1
AC1024
  9
$ACADMAINTVER
 70
   205
  9
$DWGCODEPAGE
  3
ANSI_1252
  9
$LASTSAVEDBY
  1
kaschu
  9
$INSBASE
 10
0.0
 20
0.0
 30
0.0
  9
$EXTMIN
 10
-2958.778157914999
 20
-3414.670706478039
 30
-0.0000000000000004
  9
$EXTMAX
 10
-396.6926413801666
 20
-1333.240967197846
 30
0.0000000000000003
  9
$LIMMIN
 10
0.0
 20
0.0
  9
$LIMMAX
 10
0.0
 20
0.0
  9
$ORTHOMODE
 70
     1
  9
$REGENMODE
 70
     1
  9
$FILLMODE
 70
     1
  9
$QTEXTMODE
 70
     0
  9
$MIRRTEXT
 70
     1
  9
$LTSCALE
 40
1.0
  9
$ATTMODE
 70
     1
  9
$TEXTSIZE
 40
0.0
  9
$TRACEWID
 40
0.05
  9
$TEXTSTYLE
  7
STANDARD
  9
$CLAYER
  8
0
  9
$CELTYPE
  6
CONTINUOUS
  9
$CECOLOR
 62
   256
  9
$CELTSCALE
 40
1.0
  9
$DISPSILH
 70
     0
  9
$DIMSCALE
 40
1.0
  9
$DIMASZ
 40
0.18
  9
$DIMEXO
 40
0.0625
  9
$DIMDLI
 40
0.38
  9
$DIMRND
 40
0.0
  9
$DIMDLE
 40
0.0
  9
$DIMEXE
 40
0.18
  9
$DIMTP
 40
0.0
  9
$DIMTM
 40
0.0
  9
$DIMTXT
 40
0.18
  9
$DIMCEN
 40
0.09
  9
$DIMTSZ
 40
0.0
  9
$DIMTOL
 70
     0
  9
$DIMLIM
 70
     0
  9
$DIMTIH
 70
     1
  9
$DIMTOH
 70
     1
  9
$DIMSE1
 70
     0
  9
$DIMSE2
 70
     0
  9
$DIMTAD
 70
     0
  9
$DIMZIN
 70
     0
  9
$DIMBLK
  1

  9
$DIMASO
 70
     1
  9
$DIMSHO
 70
     1
  9
$DIMPOST
  1

  9
$DIMAPOST
  1

  9
$DIMALT
 70
     0
  9
$DIMALTD
 70
     2
  9
$DIMALTF
 40
25.4
  9
$DIMLFAC
 40
1.0
  9
$DIMTOFL
 70
     0
  9
$DIMTVP
 40
0.0
  9
$DIMTIX
 70
     0
  9
$DIMSOXD
 70
     0
  9
$DIMSAH
 70
     0
  9
$DIMBLK1
  1

  9
$DIMBLK2
  1

  9
$DIMSTYLE
  2
STANDARD
  9
$DIMCLRD
 70
     0
  9
$DIMCLRE
 70
     0
  9
$DIMCLRT
 70
     0
  9
$DIMTFAC
 40
1.0
  9
$DIMGAP
 40
0.09
  9
$DIMJUST
 70
     0
  9
$DIMSD1
 70
     0
  9
$DIMSD2
 70
     0
  9
$DIMTOLJ
 70
     1
  9
$DIMTZIN
 70
     0
  9
$DIMALTZ
 70
     0
  9
$DIMALTTZ
 70
     0
  9
$DIMUPT
 70
     0
  9
$DIMDEC
 70
     4
  9
$DIMTDEC
 70
     4
  9
$DIMALTU
 70
     2
  9
$DIMALTTD
 70
     2
  9
$DIMTXSTY
  7
STANDARD
  9
$DIMAUNIT
 70
     0
  9
$DIMADEC
 70
     0
  9
$DIMALTRND
 40
0.0
  9
$DIMAZIN
 70
     0
  9
$DIMDSEP
 70
    46
  9
$DIMATFIT
 70
     3
  9
$DIMFRAC
 70
     0
  9
$DIMLDRBLK
  1

  9
$DIMLUNIT
 70
     2
  9
$DIMLWD
 70
    -2
  9
$DIMLWE
 70
    -2
  9
$DIMTMOVE
 70
     0
  9
$DIMFXL
 40
1.0
  9
$DIMFXLON
 70
     0
  9
$DIMJOGANG
 40
0.7853981633974483
  9
$DIMTFILL
 70
     0
  9
$DIMTFILLCLR
 70
     0
  9
$DIMARCSYM
 70
     0
  9
$DIMLTYPE
  6

  9
$DIMLTEX1
  6

  9
$DIMLTEX2
  6

  9
$DIMTXTDIRECTION
 70
     0
  9
$LUNITS
 70
     2
  9
$LUPREC
 70
     4
  9
$SKETCHINC
 40
0.1
  9
$FILLETRAD
 40
0.0
  9
$AUNITS
 70
     0
  9
$AUPREC
 70
     0
  9
$MENU
  1
acad
  9
$ELEVATION
 40
0.0
  9
$PELEVATION
 40
0.0
  9
$THICKNESS
 40
0.0
  9
$LIMCHECK
 70
     0
  9
$CHAMFERA
 40
0.0
  9
$CHAMFERB
 40
0.0
  9
$CHAMFERC
 40
0.0
  9
$CHAMFERD
 40
0.0
  9
$SKPOLY
 70
     0
  9
$TDCREATE
 40
2305824.133323553
  9
$TDUCREATE
 40
2305824.091656887
  9
$TDUPDATE
 40
2458501.653017049
  9
$TDUUPDATE
 40
2458501.611350382
  9
$TDINDWG
 40
0.0384833796
  9
$TDUSRTIMER
 40
0.0384832870
  9
$USRTIMER
 70
     1
  9
$ANGBASE
 50
0.0
  9
$ANGDIR
 70
     0
  9
$PDMODE
 70
     0
  9
$PDSIZE
 40
0.0
  9
$PLINEWID
 40
0.0
  9
$SPLFRAME
 70
     0
  9
$SPLINETYPE
 70
     6
  9
$SPLINESEGS
 70
     8
  9
$HANDSEED
  5
134F
  9
$SURFTAB1
 70
     6
  9
$SURFTAB2
 70
     6
  9
$SURFTYPE
 70
     6
  9
$SURFU
 70
     6
  9
$SURFV
 70
     6
  9
$UCSBASE
  2

  9
$UCSNAME
  2

  9
$UCSORG
 10
0.0
 20
0.0
 30
0.0
  9
$UCSXDIR
 10
1.0
 20
0.0
 30
0.0
  9
$UCSYDIR
 10
0.0
 20
1.0
 30
0.0
  9
$UCSORTHOREF
  2

  9
$UCSORTHOVIEW
 70
     0
  9
$UCSORGTOP
 10
0.0
 20
0.0
 30
0.0
  9
$UCSORGBOTTOM
 10
0.0
 20
0.0
 30
0.0
  9
$UCSORGLEFT
 10
0.0
 20
0.0
 30
0.0
  9
$UCSORGRIGHT
 10
0.0
 20
0.0
 30
0.0
  9
$UCSORGFRONT
 10
0.0
 20
0.0
 30
0.0
  9
$UCSORGBACK
 10
0.0
 20
0.0
 30
0.0
  9
$PUCSBASE
  2

  9
$PUCSNAME
  2

  9
$PUCSORG
 10
0.0
 20
0.0
 30
0.0
  9
$PUCSXDIR
 10
1.0
 20
0.0
 30
0.0
  9
$PUCSYDIR
 10
0.0
 20
1.0
 30
0.0
  9
$PUCSORTHOREF
  2

  9
$PUCSORTHOVIEW
 70
     0
  9
$PUCSORGTOP
 10
0.0
 20
0.0
 30
0.0
  9
$PUCSORGBOTTOM
 10
0.0
 20
0.0
 30
0.0
  9
$PUCSORGLEFT
 10
0.0
 20
0.0
 30
0.0
  9
$PUCSORGRIGHT
 10
0.0
 20
0.0
 30
0.0
  9
$PUCSORGFRONT
 10
0.0
 20
0.0
 30
0.0
  9
$PUCSORGBACK
 10
0.0
 20
0.0
 30
0.0
  9
$USERI1
 70
     0
  9
$USERI2
 70
     0
  9
$USERI3
 70
     0
  9
$USERI4
 70
     0
  9
$USERI5
 70
     0
  9
$USERR1
 40
0.0
  9
$USERR2
 40
0.0
  9
$USERR3
 40
0.0
  9
$USERR4
 40
0.0
  9
$USERR5
 40
0.0
  9
$WORLDVIEW
 70
     1
  9
$SHADEDGE
 70
     3
  9
$SHADEDIF
 70
    70
  9
$TILEMODE
 70
     1
  9
$MAXACTVP
 70
    16
  9
$PINSBASE
 10
0.0
 20
0.0
 30
0.0
  9
$PLIMCHECK
 70
     0
  9
$PEXTMIN
 10
1.000000000000000E+20
 20
1.000000000000000E+20
 30
1.000000000000000E+20
  9
$PEXTMAX
 10
-1.000000000000000E+20
 20
-1.000000000000000E+20
 30
-1.000000000000000E+20
  9
$PLIMMIN
 10
0.0
 20
0.0
  9
$PLIMMAX
 10
12.0
 20
9.0
  9
$UNITMODE
 70
     0
  9
$VISRETAIN
 70
     0
  9
$PLINEGEN
 70
     1
  9
$PSLTSCALE
 70
     0
  9
$TREEDEPTH
 70
  3020
  9
$CMLSTYLE
  2
STANDARD
  9
$CMLJUST
 70
     0
  9
$CMLSCALE
 40
1.0
  9
$PROXYGRAPHICS
 70
     1
  9
$MEASUREMENT
 70
     0
  9
$CELWEIGHT
370
    -1
  9
$ENDCAPS
280
     0
  9
$JOINSTYLE
280
     0
  9
$LWDISPLAY
290
     0
  9
$INSUNITS
 70
     0
  9
$HYPERLINKBASE
  1

  9
$STYLESHEET
  1

  9
$XEDIT
290
     1
  9
$CEPSNTYPE
380
     0
  9
$PSTYLEMODE
290
     1
  9
$FINGERPRINTGUID
  2
{5243222F-CC4B-4302-8C19-076DE45F7F99}
  9
$VERSIONGUID
  2
{873F33DB-CBA0-4D5B-9F0C-B2F0843813BF}
  9
$EXTNAMES
290
     1
  9
$PSVPSCALE
 40
0.0
  9
$OLESTARTUP
290
     0
  9
$SORTENTS
280
   127
  9
$INDEXCTL
280
     0
  9
$HIDETEXT
280
     0
  9
$XCLIPFRAME
280
     2
  9
$HALOGAP
280
     0
  9
$OBSCOLOR
 70
   257
  9
$OBSLTYPE
280
     0
  9
$INTERSECTIONDISPLAY
280
     0
  9
$INTERSECTIONCOLOR
 70
   257
  9
$DIMASSOC
280
     1
  9
$PROJECTNAME
  1

  9
$CAMERADISPLAY
290
     0
  9
$LENSLENGTH
 40
50.0
  9
$CAMERAHEIGHT
 40
0.0
  9
$STEPSPERSEC
 40
2.0
  9
$STEPSIZE
 40
6.0
  9
$3DDWFPREC
 40
2.0
  9
$PSOLWIDTH
 40
0.25
  9
$PSOLHEIGHT
 40
4.0
  9
$LOFTANG1
 40
1.570796326794896
  9
$LOFTANG2
 40
1.570796326794896
  9
$LOFTMAG1
 40
0.0
  9
$LOFTMAG2
 40
0.0
  9
$LOFTPARAM
 70
     7
  9
$LOFTNORMALS
280
     1
  9
$LATITUDE
 40
37.795
  9
$LONGITUDE
 40
-122.394
  9
$NORTHDIRECTION
 40
0.0
  9
$TIMEZONE
 70
 -8000
  9
$LIGHTGLYPHDISPLAY
280
     1
  9
$TILEMODELIGHTSYNCH
280
     1
  9
$CMATERIAL
347
31A
  9
$SOLIDHIST
280
     0
  9
$SHOWHIST
280
     1
  9
$DWFFRAME
280
     2
  9
$DGNFRAME
280
     0
  9
$REALWORLDSCALE
290
     1
  9
$INTERFERECOLOR
 62
     1
  9
$INTERFEREOBJVS
345
33C
  9
$INTERFEREVPVS
346
339
  9
$CSHADOW
280
     0
  9
$SHADOWPLANELOCATION
 40
0.0
  0
ENDSEC
  0
SECTION
  2
CLASSES
  0
CLASS
  1
IMAGE
  2
AcDbRasterImage
  3
ISM
 90
     2175
 91
        0
280
     0
281
     1
  0
CLASS
  1
DICTIONARYVAR
  2
AcDbDictionaryVar
  3
ObjectDBX Classes
 90
        0
 91
        9
280
     0
281
     0
  0
CLASS
  1
RASTERVARIABLES
  2
AcDbRasterVariables
  3
ISM
 90
        0
 91
        0
280
     0
281
     0
  0
CLASS
  1
IMAGEDEF
  2
AcDbRasterImageDef
  3
ISM
 90
        0
 91
        0
280
     0
281
     0
  0
CLASS
  1
IMAGEDEF_REACTOR
  2
AcDbRasterImageDefReactor
  3
ISM
 90
        1
 91
        0
280
     0
281
     0
  0
CLASS
  1
IDBUFFER
  2
AcDbIdBuffer
  3
ObjectDBX Classes
 90
        0
 91
        0
280
     0
281
     0
  0
CLASS
  1
SPATIAL_FILTER
  2
AcDbSpatialFilter
  3
ObjectDBX Classes
 90
        0
 91
        0
280
     0
281
     0
  0
CLASS
  1
SORTENTSTABLE
  2
AcDbSortentsTable
  3
ObjectDBX Classes
 90
        0
 91
        0
280
     0
281
     0
  0
CLASS
  1
LAYER_INDEX
  2
AcDbLayerIndex
  3
ObjectDBX Classes
 90
        0
 91
        0
280
     0
281
     0
  0
CLASS
  1
SPATIAL_INDEX
  2
AcDbSpatialIndex
  3
ObjectDBX Classes
 90
        0
 91
        0
280
     0
281
     0
  0
CLASS
  1
OBJECT_PTR
  2
CAseDLPNTableRecord
  3
"ASE-LPNTableRecord"
 90
        0
 91
        0
280
     0
281
     0
  0
CLASS
  1
PLOTSETTINGS
  2
AcDbPlotSettings
  3
ObjectDBX Classes
 90
        0
 91
        0
280
     0
281
     0
  0
CLASS
  1
ACDBDICTIONARYWDFLT
  2
AcDbDictionaryWithDefault
  3
ObjectDBX Classes
 90
        0
 91
        1
280
     0
281
     0
  0
CLASS
  1
WIPEOUT
  2
AcDbWipeout
  3
WipeOut|Product Desc: Object Enabler for WipeOut entity | Company: Autodesk, Inc. | WEB Address: www.autodesk.com
 90
     2175
 91
        0
280
     0
281
     1
  0
CLASS
  1
WIPEOUTVARIABLES
  2
AcDbWipeoutVariables
  3
"WipeOut|Product Desc:     WipeOut Dbx Application|Company:          Autodesk, Inc.|WEB Address:      www.autodesk.com"
 90
        0
 91
        0
280
     0
281
     0
  0
CLASS
  1
RTEXT
  2
RText
  3
RText|AutoCAD Express Tool|expresstools@autodesk.com
 90
        0
 91
        0
280
     0
281
     1
  0
CLASS
  1
ARCALIGNEDTEXT
  2
AcDbArcAlignedText
  3
ATEXT|AutoCAD Express Tool|expresstools@autodesk.com
 90
        0
 91
        0
280
     0
281
     1
  0
CLASS
  1
MATERIAL
  2
AcDbMaterial
  3
ObjectDBX Classes
 90
     1153
 91
        3
280
     0
281
     0
  0
CLASS
  1
VISUALSTYLE
  2
AcDbVisualStyle
  3
ObjectDBX Classes
 90
     4095
 91
       24
280
     0
281
     0
  0
CLASS
  1
TABLESTYLE
  2
AcDbTableStyle
  3
ObjectDBX Classes
 90
     4095
 91
        1
280
     0
281
     0
  0
CLASS
  1
SCALE
  2
AcDbScale
  3
ObjectDBX Classes
 90
     1153
 91
       17
280
     0
281
     0
  0
CLASS
  1
MLEADERSTYLE
  2
AcDbMLeaderStyle
  3
ACDB_MLEADERSTYLE_CLASS
 90
     4095
 91
        1
280
     0
281
     0
  0
CLASS
  1
ACDBSECTIONVIEWSTYLE
  2
AcDbSectionViewStyle
  3
ObjectDBX Classes
 90
     1025
 91
        2
280
     0
281
     0
  0
CLASS
  1
ACDBDETAILVIEWSTYLE
  2
AcDbDetailViewStyle
  3
ObjectDBX Classes
 90
     1025
 91
        2
280
     0
281
     0
  0
CLASS
  1
CELLSTYLEMAP
  2
AcDbCellStyleMap
  3
ObjectDBX Classes
 90
     1152
 91
       11
280
     0
281
     0
  0
ENDSEC
  0
SECTION
  2
TABLES
  0
TABLE
  2
VPORT
  5
7
330
0
100
AcDbSymbolTable
 70
     1
  0
VPORT
  5
15
330
7
100
AcDbSymbolTableRecord
100
AcDbViewportTableRecord
  2
*ACTIVE
 70
     0
 10
0.0
 20
0.0
 11
1.0
 21
1.0
 12
-1141.865034303515
 22
-2288.22518740405
 13
0.0
 23
0.0
 14
1.0
 24
1.0
 15
0.0
 25
0.0
 16
0.0
 26
0.0
 36
1.0
 17
0.0
 27
0.0
 37
0.0
 40
2711.176924079178
 41
2.268225584594222
 42
50.0
 43
0.0
 44
0.0
 50
0.0
 51
0.0
 71
     0
 72
   100
 73
     1
 74
     1
 75
     0
 76
     0
 77
     0
 78
     0
281
     0
 65
     1
110
0.0
120
0.0
130
0.0
111
1.0
121
0.0
131
0.0
112
0.0
122
1.0
132
0.0
 79
     0
146
0.0
348
338
 60
     3
 61
     5
292
     1
282
     1
141
0.0
142
0.0
 63
   250
421
  3355443
1001
ACAD_NAV_VCDISPLAY
1070
     3
  0
ENDTAB
  0
TABLE
  2
LTYPE
  5
4
330
0
100
AcDbSymbolTable
 70
     4
  0
LTYPE
  5
11
330
4
100
AcDbSymbolTableRecord
100
AcDbLinetypeTableRecord
  2
BYBLOCK
 70
     0
  3

 72
    65
 73
     0
 40
0.0
  0
LTYPE
  5
12
330
4
100
AcDbSymbolTableRecord
100
AcDbLinetypeTableRecord
  2
BYLAYER
 70
     0
  3

 72
    65
 73
     0
 40
0.0
  0
LTYPE
  5
13
330
4
100
AcDbSymbolTableRecord
100
AcDbLinetypeTableRecord
  2
CONTINUOUS
 70
     0
  3
Solid line
 72
    65
 73
     0
 40
0.0
  0
LTYPE
  5
1E
330
4
100
AcDbSymbolTableRecord
100
AcDbLinetypeTableRecord
  2
STANDARD
 70
     0
  3

 72
    65
 73
     0
 40
0.0
  0
LTYPE
  5
E65
330
4
100
AcDbSymbolTableRecord
100
AcDbLinetypeTableRecord
  2
CUSTOM
 70
     0
  3

 72
    65
 73
     0
 40
0.0
  0
ENDTAB
  0
TABLE
  2
LAYER
  5
2
102
{ACAD_XDICTIONARY
360
372
102
}
330
0
100
AcDbSymbolTable
 70
     4
  0
LAYER
  5
14
102
{ACAD_XDICTIONARY
360
65A
102
}
330
2
100
AcDbSymbolTableRecord
100
AcDbLayerTableRecord
  2
0
 70
     0
 62
     7
  6
CONTINUOUS
370
    -3
390
318
347
32A
  0
LAYER
  5
1D
102
{ACAD_XDICTIONARY
360
65C
102
}
330
2
100
AcDbSymbolTableRecord
100
AcDbLayerTableRecord
  2
BEMA_UNG
 70
     0
 62
   171
  6
CONTINUOUS
370
    -3
390
318
347
32A
  0
LAYER
  5
36D
102
{ACAD_XDICTIONARY
360
65E
102
}
330
2
100
AcDbSymbolTableRecord
100
AcDbLayerTableRecord
  2
HEWI
 70
     0
 62
     7
  6
CONTINUOUS
370
     9
390
318
347
32A
1001
AcAecLayerStandard
1000

1000

1001
AcCmTransparency
1071
        0
  0
LAYER
  5
554
330
2
100
AcDbSymbolTableRecord
100
AcDbLayerTableRecord
  2
Defpoints
 70
     0
 62
     7
  6
CONTINUOUS
290
     0
370
    -3
390
318
347
32A
  0
ENDTAB
  0
TABLE
  2
STYLE
  5
3
330
0
100
AcDbSymbolTable
 70
     1
  0
STYLE
  5
17
330
3
100
AcDbSymbolTableRecord
100
AcDbTextStyleTableRecord
  2
STANDARD
 70
     0
 40
0.0
 41
1.0
 50
0.0
 71
     0
 42
0.0
  3
txt
  4

  0
ENDTAB
  0
TABLE
  2
VIEW
  5
5
330
0
100
AcDbSymbolTable
 70
     2
  0
ENDTAB
  0
TABLE
  2
UCS
  5
6
330
0
100
AcDbSymbolTable
 70
     0
  0
ENDTAB
  0
TABLE
  2
APPID
  5
8
330
0
100
AcDbSymbolTable
 70
     8
  0
APPID
  5
16
330
8
100
AcDbSymbolTableRecord
100
AcDbRegAppTableRecord
  2
ACAD
 70
     0
  0
APPID
  5
36E
330
8
100
AcDbSymbolTableRecord
100
AcDbRegAppTableRecord
  2
ACAD_NAV_VCDISPLAY
 70
     0
  0
APPID
  5
36F
330
8
100
AcDbSymbolTableRecord
100
AcDbRegAppTableRecord
  2
AcAecLayerStandard
 70
     0
  0
APPID
  5
370
330
8
100
AcDbSymbolTableRecord
100
AcDbRegAppTableRecord
  2
AcCmTransparency
 70
     0
  0
APPID
  5
371
330
8
100
AcDbSymbolTableRecord
100
AcDbRegAppTableRecord
  2
ACAD_PSEXT
 70
     0
  0
APPID
  5
484
330
8
100
AcDbSymbolTableRecord
100
AcDbRegAppTableRecord
  2
ACAD_EXEMPT_FROM_CAD_STANDARDS
 70
     0
  0
APPID
  5
781
330
8
100
AcDbSymbolTableRecord
100
AcDbRegAppTableRecord
  2
GradientColor1ACI
 70
     0
  0
APPID
  5
782
330
8
100
AcDbSymbolTableRecord
100
AcDbRegAppTableRecord
  2
GradientColor2ACI
 70
     0
  0
ENDTAB
  0
TABLE
  2
DIMSTYLE
  5
9
330
0
100
AcDbSymbolTable
 70
     3
100
AcDbDimStyleTable
 71
     1
340
18
  0
DIMSTYLE
105
18
330
9
100
AcDbSymbolTableRecord
100
AcDbDimStyleTableRecord
  2
STANDARD
 70
     0
340
17
  0
DIMSTYLE
105
E66
330
9
100
AcDbSymbolTableRecord
100
AcDbDimStyleTableRecord
  2
ISO-25
 70
     0
 41
2.5
 42
0.625
 43
3.75
 44
1.25
 73
     0
 74
     0
 77
     1
 78
     8
140
2.5
141
2.5
143
0.03937007874016
147
0.625
171
     3
172
     1
271
     2
272
     2
274
     3
278
    44
283
     0
284
     8
340
17
  0
ENDTAB
  0
TABLE
  2
BLOCK_RECORD
  5
1
330
0
100
AcDbSymbolTable
 70
    14
  0
BLOCK_RECORD
  5
A
330
1
100
AcDbSymbolTableRecord
100
AcDbBlockTableRecord
  2
*MODEL_SPACE
340
368
 70
     0
280
     1
281
     0
  0
BLOCK_RECORD
  5
B
330
1
100
AcDbSymbolTableRecord
100
AcDbBlockTableRecord
  2
*PAPER_SPACE
340
369
 70
     0
280
     1
281
     0
  0
BLOCK_RECORD
  5
555
330
1
100
AcDbSymbolTableRecord
100
AcDbBlockTableRecord
  2
*D0
340
0
 70
     0
280
     1
281
     0
  0
BLOCK_RECORD
  5
98E
330
1
100
AcDbSymbolTableRecord
100
AcDbBlockTableRecord
  2
*D1
340
0
 70
     0
280
     1
281
     0
  0
BLOCK_RECORD
  5
A6E
330
1
100
AcDbSymbolTableRecord
100
AcDbBlockTableRecord
  2
*D2
340
0
 70
     0
280
     1
281
     0
  0
BLOCK_RECORD
  5
A7C
330
1
100
AcDbSymbolTableRecord
100
AcDbBlockTableRecord
  2
*D3
340
0
 70
     0
280
     1
281
     0
  0
BLOCK_RECORD
  5
C1D
330
1
100
AcDbSymbolTableRecord
100
AcDbBlockTableRecord
  2
*D4
340
0
 70
     0
280
     1
281
     0
  0
BLOCK_RECORD
  5
CC8
330
1
100
AcDbSymbolTableRecord
100
AcDbBlockTableRecord
  2
*D5
340
0
 70
     0
280
     1
281
     0
  0
BLOCK_RECORD
  5
E58
330
1
100
AcDbSymbolTableRecord
100
AcDbBlockTableRecord
  2
*D6
340
0
 70
     0
280
     1
281
     0
  0
BLOCK_RECORD
  5
F3D
330
1
100
AcDbSymbolTableRecord
100
AcDbBlockTableRecord
  2
*D8
340
0
 70
     0
280
     1
281
     0
  0
BLOCK_RECORD
  5
1057
330
1
100
AcDbSymbolTableRecord
100
AcDbBlockTableRecord
  2
*D10
340
0
 70
     0
280
     1
281
     0
  0
BLOCK_RECORD
  5
11B3
330
1
100
AcDbSymbolTableRecord
100
AcDbBlockTableRecord
  2
*D12
340
0
 70
     0
280
     1
281
     0
  0
BLOCK_RECORD
  5
1269
330
1
100
AcDbSymbolTableRecord
100
AcDbBlockTableRecord
  2
*D13
340
0
 70
     0
280
     1
281
     0
  0
ENDTAB
  0
ENDSEC
  0
SECTION
  2
BLOCKS
  0
BLOCK
  5
D
330
A
100
AcDbEntity
  8
0
100
AcDbBlockBegin
  2
*MODEL_SPACE
 70
     0
 10
0.0
 20
0.0
 30
0.0
  3
*MODEL_SPACE
  1

  0
ENDBLK
  5
E
330
A
100
AcDbEntity
  8
0
100
AcDbBlockEnd
  0
BLOCK
  5
F
330
B
100
AcDbEntity
 67
     1
  8
0
100
AcDbBlockBegin
  2
*PAPER_SPACE
 70
     0
 10
0.0
 20
0.0
 30
0.0
  3
*PAPER_SPACE
  1

  0
ENDBLK
  5
10
330
B
100
AcDbEntity
 67
     1
  8
0
100
AcDbBlockEnd
  0
BLOCK
  5
556
330
555
100
AcDbEntity
  8
0
100
AcDbBlockBegin
  2
*D0
 70
     1
 10
0.0
 20
0.0
 30
0.0
  3
*D0
  1

  0
LINE
  5
558
330
555
100
AcDbEntity
  8
0
  6
Continuous
 62
     0
440
 16777216
370
    -2
100
AcDbLine
 10
-1571.884155084999
 20
-1674.538160844551
 30
0.0
 11
-1571.884155084999
 21
-1948.499022356918
 31
0.0
  0
LINE
  5
559
330
555
100
AcDbEntity
  8
0
  6
Continuous
 62
     0
440
 16777216
370
    -2
100
AcDbLine
 10
-871.8841930849997
 20
-1674.538160844551
 30
0.0
 11
-871.8841930849997
 21
-1948.499022356918
 31
0.0
  0
LINE
  5
55A
330
555
100
AcDbEntity
  8
0
  6
Continuous
 62
     0
440
 16777216
370
    -2
100
AcDbLine
 10
-1571.704155084999
 20
-1948.319022356918
 30
0.0
 11
-1222.514174084999
 21
-1948.319022356918
 31
0.0
  0
LINE
  5
55B
330
555
100
AcDbEntity
  8
0
  6
Continuous
 62
     0
440
 16777216
370
    -2
100
AcDbLine
 10
-872.0641930849996
 20
-1948.319022356918
 30
0.0
 11
-1221.254174084999
 21
-1948.319022356918
 31
0.0
  0
SOLID
  5
55C
330
555
100
AcDbEntity
  8
0
  6
Continuous
 62
     0
440
 16777216
100
AcDbTrace
 10
-1571.704155084999
 20
-1948.289022356918
 30
0.0
 11
-1571.704155084999
 21
-1948.349022356918
 31
0.0
 12
-1571.884155084999
 22
-1948.319022356918
 32
0.0
 13
-1571.884155084999
 23
-1948.319022356918
 33
0.0
  0
SOLID
  5
55D
330
555
100
AcDbEntity
  8
0
  6
Continuous
 62
     0
440
 16777216
100
AcDbTrace
 10
-872.0641930849996
 20
-1948.289022356918
 30
0.0
 11
-872.0641930849996
 21
-1948.349022356918
 31
0.0
 12
-871.8841930849997
 22
-1948.319022356918
 32
0.0
 13
-871.8841930849997
 23
-1948.319022356918
 33
0.0
  0
MTEXT
  5
55E
330
555
100
AcDbEntity
  8
0
  6
Continuous
 62
     0
440
 16777216
100
AcDbMText
 10
-1221.884174084999
 20
-1948.319022356918
 30
0.0
 40
0.18
 41
0.0
 46
0.0
 71
     5
 72
     1
  1
\A1;700.0000
 73
     1
 44
1.0
  0
POINT
  5
55F
330
555
100
AcDbEntity
  8
Defpoints
  6
Continuous
 62
     0
440
 16777216
100
AcDbPoint
 10
-1571.884155084999
 20
-1674.475660844551
 30
0.0
  0
POINT
  5
560
330
555
100
AcDbEntity
  8
Defpoints
  6
Continuous
 62
     0
440
 16777216
100
AcDbPoint
 10
-871.8841930849997
 20
-1674.475660844551
 30
0.0
  0
POINT
  5
561
330
555
100
AcDbEntity
  8
Defpoints
  6
Continuous
 62
     0
440
 16777216
100
AcDbPoint
 10
-871.8841930849997
 20
-1948.319022356918
 30
0.0
  0
ENDBLK
  5
557
330
555
100
AcDbEntity
  8
0
100
AcDbBlockEnd
  0
BLOCK
  5
98F
330
98E
100
AcDbEntity
  8
0
100
AcDbBlockBegin
  2
*D1
 70
     1
 10
0.0
 20
0.0
 30
0.0
  3
*D1
  1

  0
LINE
  5
991
330
98E
100
AcDbEntity
  8
0
  6
Continuous
 62
     0
440
 16777216
370
    -2
100
AcDbLine
 10
-671.8841930849996
 20
-1685.2228015
 30
0.0
 11
-671.8841930849996
 21
-1441.684931733702
 31
0.0
  0
LINE
  5
992
330
98E
100
AcDbEntity
  8
0
  6
Continuous
 62
     0
440
 16777216
370
    -2
100
AcDbLine
 10
-1571.884155084999
 20
-1685.2228015
 30
0.0
 11
-1571.884155084999
 21
-1441.684931733702
 31
0.0
  0
LINE
  5
993
330
98E
100
AcDbEntity
  8
0
  6
Continuous
 62
     0
440
 16777216
370
    -2
100
AcDbLine
 10
-672.0641930849994
 20
-1441.864931733702
 30
0.0
 11
-1121.254174084999
 21
-1441.864931733702
 31
0.0
  0
LINE
  5
994
330
98E
100
AcDbEntity
  8
0
  6
Continuous
 62
     0
440
 16777216
370
    -2
100
AcDbLine
 10
-1571.704155084999
 20
-1441.864931733702
 30
0.0
 11
-1122.514174084999
 21
-1441.864931733702
 31
0.0
  0
SOLID
  5
995
330
98E
100
AcDbEntity
  8
0
  6
Continuous
 62
     0
440
 16777216
100
AcDbTrace
 10
-672.0641930849994
 20
-1441.834931733702
 30
0.0
 11
-672.0641930849994
 21
-1441.894931733702
 31
0.0
 12
-671.8841930849996
 22
-1441.864931733702
 32
0.0
 13
-671.8841930849996
 23
-1441.864931733702
 33
0.0
  0
SOLID
  5
996
330
98E
100
AcDbEntity
  8
0
  6
Continuous
 62
     0
440
 16777216
100
AcDbTrace
 10
-1571.704155084999
 20
-1441.834931733702
 30
0.0
 11
-1571.704155084999
 21
-1441.894931733702
 31
0.0
 12
-1571.884155084999
 22
-1441.864931733702
 32
0.0
 13
-1571.884155084999
 23
-1441.864931733702
 33
0.0
  0
MTEXT
  5
997
330
98E
100
AcDbEntity
  8
0
  6
Continuous
 62
     0
440
 16777216
100
AcDbMText
 10
-1121.884174084999
 20
-1441.864931733702
 30
0.0
 40
0.18
 41
0.0
 46
0.0
 71
     5
 72
     1
  1
\A1;900.0000
 73
     1
 44
1.0
  0
POINT
  5
998
330
98E
100
AcDbEntity
  8
Defpoints
  6
Continuous
 62
     0
440
 16777216
100
AcDbPoint
 10
-671.8841930849996
 20
-1685.2853015
 30
0.0
  0
POINT
  5
999
330
98E
100
AcDbEntity
  8
Defpoints
  6
Continuous
 62
     0
440
 16777216
100
AcDbPoint
 10
-1571.884155084999
 20
-1685.2853015
 30
0.0
  0
POINT
  5
99A
330
98E
100
AcDbEntity
  8
Defpoints
  6
Continuous
 62
     0
440
 16777216
100
AcDbPoint
 10
-1571.884155084999
 20
-1441.864931733702
 30
0.0
  0
ENDBLK
  5
990
330
98E
100
AcDbEntity
  8
0
100
AcDbBlockEnd
  0
BLOCK
  5
A6F
330
A6E
100
AcDbEntity
  8
0
100
AcDbBlockBegin
  2
*D2
 70
     1
 10
0.0
 20
0.0
 30
0.0
  3
*D2
  1

  0
LINE
  5
A71
330
A6E
100
AcDbEntity
  8
0
  6
Continuous
 62
     0
440
 16777216
370
    -2
100
AcDbLine
 10
-2908.778157915
 20
-1685.222801499997
 30
0.0
 11
-2908.778157915
 21
-1630.55362026492
 31
0.0
  0
LINE
  5
A72
330
A6E
100
AcDbEntity
  8
0
  6
Continuous
 62
     0
440
 16777216
370
    -2
100
AcDbLine
 10
-2058.778195915
 20
-1685.2228015
 30
0.0
 11
-2058.778195915
 21
-1630.55362026492
 31
0.0
  0
LINE
  5
A73
330
A6E
100
AcDbEntity
  8
0
  6
Continuous
 62
     0
440
 16777216
370
    -2
100
AcDbLine
 10
-2908.598157915
 20
-1630.73362026492
 30
0.0
 11
-2484.423176915
 21
-1630.73362026492
 31
0.0
  0
LINE
  5
A74
330
A6E
100
AcDbEntity
  8
0
  6
Continuous
 62
     0
440
 16777216
370
    -2
100
AcDbLine
 10
-2058.958195915
 20
-1630.73362026492
 30
0.0
 11
-2483.133176915
 21
-1630.73362026492
 31
0.0
  0
SOLID
  5
A75
330
A6E
100
AcDbEntity
  8
0
  6
Continuous
 62
     0
440
 16777216
100
AcDbTrace
 10
-2908.598157915
 20
-1630.70362026492
 30
0.0
 11
-2908.598157915
 21
-1630.76362026492
 31
0.0
 12
-2908.778157915
 22
-1630.73362026492
 32
0.0
 13
-2908.778157915
 23
-1630.73362026492
 33
0.0
  0
SOLID
  5
A76
330
A6E
100
AcDbEntity
  8
0
  6
Continuous
 62
     0
440
 16777216
100
AcDbTrace
 10
-2058.958195915
 20
-1630.70362026492
 30
0.0
 11
-2058.958195915
 21
-1630.76362026492
 31
0.0
 12
-2058.778195915
 22
-1630.73362026492
 32
0.0
 13
-2058.778195915
 23
-1630.73362026492
 33
0.0
  0
MTEXT
  5
A77
330
A6E
100
AcDbEntity
  8
0
  6
Continuous
 62
     0
440
 16777216
100
AcDbMText
 10
-2483.778176915
 20
-1630.73362026492
 30
0.0
 40
0.18
 41
0.0
 46
0.0
 71
     5
 72
     1
  1
\A1;850.0000
 73
     1
 44
1.0
  0
POINT
  5
A78
330
A6E
100
AcDbEntity
  8
Defpoints
  6
Continuous
 62
     0
440
 16777216
100
AcDbPoint
 10
-2908.778157915
 20
-1685.285301499998
 30
0.0
  0
POINT
  5
A79
330
A6E
100
AcDbEntity
  8
Defpoints
  6
Continuous
 62
     0
440
 16777216
100
AcDbPoint
 10
-2058.778195915
 20
-1685.285301499999
 30
0.0
  0
POINT
  5
A7A
330
A6E
100
AcDbEntity
  8
Defpoints
  6
Continuous
 62
     0
440
 16777216
100
AcDbPoint
 10
-2058.778195915
 20
-1630.73362026492
 30
0.0
  0
ENDBLK
  5
A70
330
A6E
100
AcDbEntity
  8
0
100
AcDbBlockEnd
  0
BLOCK
  5
A7D
330
A7C
100
AcDbEntity
  8
0
100
AcDbBlockBegin
  2
*D3
 70
     1
 10
0.0
 20
0.0
 30
0.0
  3
*D3
  1

  0
LINE
  5
A7F
330
A7C
100
AcDbEntity
  8
0
  6
Continuous
 62
     0
440
 16777216
370
    -2
100
AcDbLine
 10
-1815.2686755
 20
-2151.908141157238
 30
0.0
 11
-1613.942976005732
 21
-2151.908141157238
 31
0.0
  0
LINE
  5
A80
330
A7C
100
AcDbEntity
  8
0
  6
Continuous
 62
     0
440
 16777216
370
    -2
100
AcDbLine
 10
-1816.940846352067
 20
-3048.908139157238
 30
0.0
 11
-1613.942976005732
 21
-3048.908139157238
 31
0.0
  0
LINE
  5
A81
330
A7C
100
AcDbEntity
  8
0
  6
Continuous
 62
     0
440
 16777216
370
    -2
100
AcDbLine
 10
-1614.122976005732
 20
-2152.088141157238
 30
0.0
 11
-1614.122976005732
 21
-2600.228140157238
 31
0.0
  0
LINE
  5
A82
330
A7C
100
AcDbEntity
  8
0
  6
Continuous
 62
     0
440
 16777216
370
    -2
100
AcDbLine
 10
-1614.122976005732
 20
-3048.728139157239
 30
0.0
 11
-1614.122976005732
 21
-2600.588140157238
 31
0.0
  0
SOLID
  5
A83
330
A7C
100
AcDbEntity
  8
0
  6
Continuous
 62
     0
440
 16777216
100
AcDbTrace
 10
-1614.152976005732
 20
-2152.088141157238
 30
0.0
 11
-1614.092976005732
 21
-2152.088141157238
 31
0.0
 12
-1614.122976005732
 22
-2151.908141157238
 32
0.0
 13
-1614.122976005732
 23
-2151.908141157238
 33
0.0
  0
SOLID
  5
A84
330
A7C
100
AcDbEntity
  8
0
  6
Continuous
 62
     0
440
 16777216
100
AcDbTrace
 10
-1614.152976005732
 20
-3048.728139157239
 30
0.0
 11
-1614.092976005732
 21
-3048.728139157239
 31
0.0
 12
-1614.122976005732
 22
-3048.908139157238
 32
0.0
 13
-1614.122976005732
 23
-3048.908139157238
 33
0.0
  0
MTEXT
  5
A85
330
A7C
100
AcDbEntity
  8
0
  6
Continuous
 62
     0
440
 16777216
100
AcDbMText
 10
-1614.122976005732
 20
-2600.408140157238
 30
0.0
 40
0.18
 41
0.0
 46
0.0
 71
     5
 72
     1
  1
\A1;897.0000
 73
     1
 44
1.0
  0
POINT
  5
A86
330
A7C
100
AcDbEntity
  8
Defpoints
  6
Continuous
 62
     0
440
 16777216
100
AcDbPoint
 10
-1815.3311755
 20
-2151.908141157238
 30
0.0
  0
POINT
  5
A87
330
A7C
100
AcDbEntity
  8
Defpoints
  6
Continuous
 62
     0
440
 16777216
100
AcDbPoint
 10
-1817.003346352067
 20
-3048.908139157238
 30
0.0
  0
POINT
  5
A88
330
A7C
100
AcDbEntity
  8
Defpoints
  6
Continuous
 62
     0
440
 16777216
100
AcDbPoint
 10
-1614.122976005732
 20
-3048.908139157238
 30
0.0
  0
ENDBLK
  5
A7E
330
A7C
100
AcDbEntity
  8
0
100
AcDbBlockEnd
  0
BLOCK
  5
C1E
330
C1D
100
AcDbEntity
  8
0
100
AcDbBlockBegin
  2
*D4
 70
     1
 10
0.0
 20
0.0
 30
0.0
  3
*D4
  1

  0
LINE
  5
C20
330
C1D
100
AcDbEntity
  8
0
  6
Continuous
 62
     0
440
 16777216
370
    -2
100
AcDbLine
 10
-2843.236390511371
 20
-1775.135307999998
 30
0.0
 11
-2837.731485226129
 21
-1775.135307999998
 31
0.0
  0
LINE
  5
C21
330
C1D
100
AcDbEntity
  8
0
  6
Continuous
 62
     0
440
 16777216
370
    -2
100
AcDbLine
 10
-2843.236390511371
 20
-1800.135307999997
 30
0.0
 11
-2837.731485226129
 21
-1800.135307999997
 31
0.0
  0
LINE
  5
C22
330
C1D
100
AcDbEntity
  8
0
  6
Continuous
 62
     0
440
 16777216
370
    -2
100
AcDbLine
 10
-2837.911485226128
 20
-1775.315307999998
 30
0.0
 11
-2837.911485226128
 21
-1787.455307999997
 31
0.0
  0
LINE
  5
C23
330
C1D
100
AcDbEntity
  8
0
  6
Continuous
 62
     0
440
 16777216
370
    -2
100
AcDbLine
 10
-2837.911485226128
 20
-1799.955307999997
 30
0.0
 11
-2837.911485226128
 21
-1787.815307999997
 31
0.0
  0
SOLID
  5
C24
330
C1D
100
AcDbEntity
  8
0
  6
Continuous
 62
     0
440
 16777216
100
AcDbTrace
 10
-2837.941485226128
 20
-1775.315307999998
 30
0.0
 11
-2837.881485226128
 21
-1775.315307999998
 31
0.0
 12
-2837.911485226128
 22
-1775.135307999998
 32
0.0
 13
-2837.911485226128
 23
-1775.135307999998
 33
0.0
  0
SOLID
  5
C25
330
C1D
100
AcDbEntity
  8
0
  6
Continuous
 62
     0
440
 16777216
100
AcDbTrace
 10
-2837.941485226128
 20
-1799.955307999997
 30
0.0
 11
-2837.881485226128
 21
-1799.955307999997
 31
0.0
 12
-2837.911485226128
 22
-1800.135307999997
 32
0.0
 13
-2837.911485226128
 23
-1800.135307999997
 33
0.0
  0
MTEXT
  5
C26
330
C1D
100
AcDbEntity
  8
0
  6
Continuous
 62
     0
440
 16777216
100
AcDbMText
 10
-2837.911485226128
 20
-1787.635307999998
 30
0.0
 40
0.18
 41
0.0
 46
0.0
 71
     5
 72
     1
  1
\A1;25.0000
 73
     1
 44
1.0
  0
POINT
  5
C27
330
C1D
100
AcDbEntity
  8
Defpoints
  6
Continuous
 62
     0
440
 16777216
100
AcDbPoint
 10
-2843.298890511371
 20
-1775.135307999998
 30
0.0
  0
POINT
  5
C28
330
C1D
100
AcDbEntity
  8
Defpoints
  6
Continuous
 62
     0
440
 16777216
100
AcDbPoint
 10
-2843.298890511371
 20
-1800.135307999997
 30
0.0
  0
POINT
  5
C29
330
C1D
100
AcDbEntity
  8
Defpoints
  6
Continuous
 62
     0
440
 16777216
100
AcDbPoint
 10
-2837.911485226128
 20
-1800.135307999997
 30
0.0
  0
ENDBLK
  5
C1F
330
C1D
100
AcDbEntity
  8
0
100
AcDbBlockEnd
  0
BLOCK
  5
CC9
330
CC8
100
AcDbEntity
  8
0
100
AcDbBlockBegin
  2
*D5
 70
     1
 10
0.0
 20
0.0
 30
0.0
  3
*D5
  1

  0
LINE
  5
CCB
330
CC8
100
AcDbEntity
  8
0
  6
Continuous
 62
     0
440
 16777216
370
    -2
100
AcDbLine
 10
-816.5321133915009
 20
-1668.513594688429
 30
0.0
 11
-816.5321133915009
 21
-1382.099939317292
 31
0.0
  0
LINE
  5
CCC
330
CC8
100
AcDbEntity
  8
0
  6
Continuous
 62
     0
440
 16777216
370
    -2
100
AcDbLine
 10
-1571.884155084999
 20
-1668.513594688431
 30
0.0
 11
-1571.884155084999
 21
-1382.099939317292
 31
0.0
  0
LINE
  5
CCD
330
CC8
100
AcDbEntity
  8
0
  6
Continuous
 62
     0
440
 16777216
370
    -2
100
AcDbLine
 10
-816.7121133915006
 20
-1382.279939317293
 30
0.0
 11
-1193.50313423825
 21
-1382.279939317293
 31
0.0
  0
LINE
  5
CCE
330
CC8
100
AcDbEntity
  8
0
  6
Continuous
 62
     0
440
 16777216
370
    -2
100
AcDbLine
 10
-1571.704155084999
 20
-1382.279939317293
 30
0.0
 11
-1194.91313423825
 21
-1382.279939317293
 31
0.0
  0
SOLID
  5
CCF
330
CC8
100
AcDbEntity
  8
0
  6
Continuous
 62
     0
440
 16777216
100
AcDbTrace
 10
-816.7121133915006
 20
-1382.249939317293
 30
0.0
 11
-816.7121133915006
 21
-1382.309939317291
 31
0.0
 12
-816.5321133915009
 22
-1382.279939317293
 32
0.0
 13
-816.5321133915009
 23
-1382.279939317293
 33
0.0
  0
SOLID
  5
CD0
330
CC8
100
AcDbEntity
  8
0
  6
Continuous
 62
     0
440
 16777216
100
AcDbTrace
 10
-1571.704155084999
 20
-1382.249939317293
 30
0.0
 11
-1571.704155084999
 21
-1382.309939317291
 31
0.0
 12
-1571.884155084999
 22
-1382.279939317293
 32
0.0
 13
-1571.884155084999
 23
-1382.279939317293
 33
0.0
  0
MTEXT
  5
CD1
330
CC8
100
AcDbEntity
  8
0
  6
Continuous
 62
     0
440
 16777216
100
AcDbMText
 10
-1194.20813423825
 20
-1382.279939317293
 30
0.0
 40
0.18
 41
0.0
 46
0.0
 71
     5
 72
     1
  1
\A1;755.3520
 73
     1
 44
1.0
  0
POINT
  5
CD2
330
CC8
100
AcDbEntity
  8
Defpoints
  6
Continuous
 62
     0
440
 16777216
100
AcDbPoint
 10
-816.5321133915009
 20
-1668.576094688428
 30
0.0
  0
POINT
  5
CD3
330
CC8
100
AcDbEntity
  8
Defpoints
  6
Continuous
 62
     0
440
 16777216
100
AcDbPoint
 10
-1571.884155084999
 20
-1668.576094688431
 30
0.0
  0
POINT
  5
CD4
330
CC8
100
AcDbEntity
  8
Defpoints
  6
Continuous
 62
     0
440
 16777216
100
AcDbPoint
 10
-1571.884155084999
 20
-1382.279939317293
 30
0.0
  0
ENDBLK
  5
CCA
330
CC8
100
AcDbEntity
  8
0
100
AcDbBlockEnd
  0
BLOCK
  5
E59
330
E58
100
AcDbEntity
  8
0
100
AcDbBlockBegin
  2
*D6
 70
     1
 10
0.0
 20
0.0
 30
0.0
  3
*D6
  1

  0
LINE
  5
E5B
330
E58
100
AcDbEntity
  8
0
  6
Continuous
 62
     0
440
 16777216
370
    -2
100
AcDbLine
 10
-671.8841930849999
 20
-1685.2228015
 30
0.0
 11
-671.8841930849999
 21
-1333.240967197846
 31
0.0
  0
LINE
  5
E5C
330
E58
100
AcDbEntity
  8
0
  6
Continuous
 62
     0
440
 16777216
370
    -2
100
AcDbLine
 10
-1571.884155084999
 20
-1685.222801500004
 30
0.0
 11
-1571.884155084999
 21
-1333.240967197846
 31
0.0
  0
LINE
  5
E5D
330
E58
100
AcDbEntity
  8
0
  6
Continuous
 62
     0
440
 16777216
370
    -2
100
AcDbLine
 10
-672.0641930849998
 20
-1333.420967197846
 30
0.0
 11
-1121.254174084999
 21
-1333.420967197846
 31
0.0
  0
LINE
  5
E5E
330
E58
100
AcDbEntity
  8
0
  6
Continuous
 62
     0
440
 16777216
370
    -2
100
AcDbLine
 10
-1571.704155084999
 20
-1333.420967197846
 30
0.0
 11
-1122.514174084999
 21
-1333.420967197846
 31
0.0
  0
SOLID
  5
E5F
330
E58
100
AcDbEntity
  8
0
  6
Continuous
 62
     0
440
 16777216
100
AcDbTrace
 10
-672.0641930849998
 20
-1333.390967197846
 30
0.0
 11
-672.0641930849998
 21
-1333.450967197846
 31
0.0
 12
-671.8841930849999
 22
-1333.420967197846
 32
0.0
 13
-671.8841930849999
 23
-1333.420967197846
 33
0.0
  0
SOLID
  5
E60
330
E58
100
AcDbEntity
  8
0
  6
Continuous
 62
     0
440
 16777216
100
AcDbTrace
 10
-1571.704155084999
 20
-1333.390967197846
 30
0.0
 11
-1571.704155084999
 21
-1333.450967197846
 31
0.0
 12
-1571.884155084999
 22
-1333.420967197846
 32
0.0
 13
-1571.884155084999
 23
-1333.420967197846
 33
0.0
  0
MTEXT
  5
E61
330
E58
100
AcDbEntity
  8
0
  6
Continuous
 62
     0
440
 16777216
100
AcDbMText
 10
-1121.884174084999
 20
-1333.420967197846
 30
0.0
 40
0.18
 41
0.0
 46
0.0
 71
     5
 72
     1
  1
\A1;900.0000
 73
     1
 44
1.0
  0
POINT
  5
E62
330
E58
100
AcDbEntity
  8
Defpoints
  6
Continuous
 62
     0
440
 16777216
100
AcDbPoint
 10
-671.8841930849999
 20
-1685.2853015
 30
0.0
  0
POINT
  5
E63
330
E58
100
AcDbEntity
  8
Defpoints
  6
Continuous
 62
     0
440
 16777216
100
AcDbPoint
 10
-1571.884155084999
 20
-1685.285301500004
 30
0.0
  0
POINT
  5
E64
330
E58
100
AcDbEntity
  8
Defpoints
  6
Continuous
 62
     0
440
 16777216
100
AcDbPoint
 10
-1571.884155084999
 20
-1333.420967197846
 30
0.0
  0
ENDBLK
  5
E5A
330
E58
100
AcDbEntity
  8
0
100
AcDbBlockEnd
  0
BLOCK
  5
F3E
330
F3D
100
AcDbEntity
  8
0
100
AcDbBlockBegin
  2
*D8
 70
     1
 10
0.0
 20
0.0
 30
0.0
  3
*D8
  1

  0
LINE
  5
F40
330
F3D
100
AcDbEntity
  8
0
  6
Continuous
 62
     0
440
 16777216
370
    -2
100
AcDbLine
 10
-1571.884155084999
 20
-1682.142748612657
 30
0.0
 11
-1571.884155084999
 21
-1497.987825145284
 31
0.0
  0
LINE
  5
F41
330
F3D
100
AcDbEntity
  8
0
  6
Continuous
 62
     0
440
 16777216
370
    -2
100
AcDbLine
 10
-671.8841930849999
 20
-1685.2228015
 30
0.0
 11
-671.8841930849999
 21
-1497.987825145284
 31
0.0
  0
LINE
  5
F42
330
F3D
100
AcDbEntity
  8
0
  6
Continuous
 62
     0
440
 16777216
370
    -2
100
AcDbLine
 10
-1571.704155084999
 20
-1498.167825145284
 30
0.0
 11
-1122.514174084999
 21
-1498.167825145284
 31
0.0
  0
LINE
  5
F43
330
F3D
100
AcDbEntity
  8
0
  6
Continuous
 62
     0
440
 16777216
370
    -2
100
AcDbLine
 10
-672.0641930849998
 20
-1498.167825145284
 30
0.0
 11
-1121.254174084999
 21
-1498.167825145284
 31
0.0
  0
SOLID
  5
F44
330
F3D
100
AcDbEntity
  8
0
  6
Continuous
 62
     0
440
 16777216
100
AcDbTrace
 10
-1571.704155084999
 20
-1498.137825145284
 30
0.0
 11
-1571.704155084999
 21
-1498.197825145284
 31
0.0
 12
-1571.884155084999
 22
-1498.167825145284
 32
0.0
 13
-1571.884155084999
 23
-1498.167825145284
 33
0.0
  0
SOLID
  5
F45
330
F3D
100
AcDbEntity
  8
0
  6
Continuous
 62
     0
440
 16777216
100
AcDbTrace
 10
-672.0641930849998
 20
-1498.137825145284
 30
0.0
 11
-672.0641930849998
 21
-1498.197825145284
 31
0.0
 12
-671.8841930849999
 22
-1498.167825145284
 32
0.0
 13
-671.8841930849999
 23
-1498.167825145284
 33
0.0
  0
MTEXT
  5
F46
330
F3D
100
AcDbEntity
  8
0
  6
Continuous
 62
     0
440
 16777216
100
AcDbMText
 10
-1121.884174084999
 20
-1498.167825145284
 30
0.0
 40
0.18
 41
0.0
 46
0.0
 71
     5
 72
     1
  1
\A1;900.0000
 73
     1
 44
1.0
  0
POINT
  5
F47
330
F3D
100
AcDbEntity
  8
Defpoints
  6
Continuous
 62
     0
440
 16777216
100
AcDbPoint
 10
-1571.884155084999
 20
-1682.205248612657
 30
0.0
  0
POINT
  5
F48
330
F3D
100
AcDbEntity
  8
Defpoints
  6
Continuous
 62
     0
440
 16777216
100
AcDbPoint
 10
-671.8841930849999
 20
-1685.2853015
 30
0.0
  0
POINT
  5
F49
330
F3D
100
AcDbEntity
  8
Defpoints
  6
Continuous
 62
     0
440
 16777216
100
AcDbPoint
 10
-671.8841930849999
 20
-1498.167825145284
 30
0.0
  0
ENDBLK
  5
F3F
330
F3D
100
AcDbEntity
  8
0
100
AcDbBlockEnd
  0
BLOCK
  5
1058
330
1057
100
AcDbEntity
  8
0
100
AcDbBlockBegin
  2
*D10
 70
     1
 10
0.0
 20
0.0
 30
0.0
  3
*D10
  1

  0
LINE
  5
105A
330
1057
100
AcDbEntity
  8
0
  6
Continuous
 62
     0
440
 16777216
370
    -2
100
AcDbLine
 10
-1797.3366725
 20
-2341.046068975149
 30
0.0
 11
-2174.196208186069
 21
-2341.046068975149
 31
0.0
  0
LINE
  5
105B
330
1057
100
AcDbEntity
  8
0
  6
Continuous
 62
     0
440
 16777216
370
    -2
100
AcDbLine
 10
-1830.737836352067
 20
-3241.04606897515
 30
0.0
 11
-2174.196208186069
 21
-3241.04606897515
 31
0.0
  0
LINE
  5
105C
330
1057
100
AcDbEntity
  8
0
  6
Continuous
 62
     0
440
 16777216
370
    -2
100
AcDbLine
 10
-2174.016208186069
 20
-2341.226068975149
 30
0.0
 11
-2174.016208186069
 21
-2790.86606897515
 31
0.0
  0
LINE
  5
105D
330
1057
100
AcDbEntity
  8
0
  6
Continuous
 62
     0
440
 16777216
370
    -2
100
AcDbLine
 10
-2174.016208186069
 20
-3240.86606897515
 30
0.0
 11
-2174.016208186069
 21
-2791.226068975149
 31
0.0
  0
SOLID
  5
105E
330
1057
100
AcDbEntity
  8
0
  6
Continuous
 62
     0
440
 16777216
100
AcDbTrace
 10
-2174.046208186069
 20
-2341.226068975149
 30
0.0
 11
-2173.986208186068
 21
-2341.226068975149
 31
0.0
 12
-2174.016208186069
 22
-2341.046068975149
 32
0.0
 13
-2174.016208186069
 23
-2341.046068975149
 33
0.0
  0
SOLID
  5
105F
330
1057
100
AcDbEntity
  8
0
  6
Continuous
 62
     0
440
 16777216
100
AcDbTrace
 10
-2174.046208186069
 20
-3240.86606897515
 30
0.0
 11
-2173.986208186069
 21
-3240.86606897515
 31
0.0
 12
-2174.016208186069
 22
-3241.04606897515
 32
0.0
 13
-2174.016208186069
 23
-3241.04606897515
 33
0.0
  0
MTEXT
  5
1060
330
1057
100
AcDbEntity
  8
0
  6
Continuous
 62
     0
440
 16777216
100
AcDbMText
 10
-2174.016208186068
 20
-2791.04606897515
 30
0.0
 40
0.18
 41
0.0
 46
0.0
 71
     5
 72
     1
  1
\A1;900.0000
 73
     1
 44
1.0
  0
POINT
  5
1061
330
1057
100
AcDbEntity
  8
Defpoints
  6
Continuous
 62
     0
440
 16777216
100
AcDbPoint
 10
-1797.2741725
 20
-2341.046068975149
 30
0.0
  0
POINT
  5
1062
330
1057
100
AcDbEntity
  8
Defpoints
  6
Continuous
 62
     0
440
 16777216
100
AcDbPoint
 10
-1830.675336352067
 20
-3241.04606897515
 30
0.0
  0
POINT
  5
1063
330
1057
100
AcDbEntity
  8
Defpoints
  6
Continuous
 62
     0
440
 16777216
100
AcDbPoint
 10
-2174.016208186069
 20
-3241.04606897515
 30
0.0
  0
ENDBLK
  5
1059
330
1057
100
AcDbEntity
  8
0
100
AcDbBlockEnd
  0
BLOCK
  5
11B4
330
11B3
100
AcDbEntity
  8
0
100
AcDbBlockBegin
  2
*D12
 70
     1
 10
0.0
 20
0.0
 30
0.0
  3
*D12
  1

  0
LINE
  5
11B6
330
11B3
100
AcDbEntity
  8
0
  6
Continuous
 62
     0
440
 16777216
370
    -2
100
AcDbLine
 10
-1803.6985475
 20
-2357.234046975149
 30
0.0
 11
-1353.404668114355
 21
-2357.234046975149
 31
0.0
  0
LINE
  5
11B7
330
11B3
100
AcDbEntity
  8
0
  6
Continuous
 62
     0
440
 16777216
370
    -2
100
AcDbLine
 10
-1814.062838852067
 20
-3091.04606897515
 30
0.0
 11
-1353.404668114356
 21
-3091.04606897515
 31
0.0
  0
LINE
  5
11B8
330
11B3
100
AcDbEntity
  8
0
  6
Continuous
 62
     0
440
 16777216
370
    -2
100
AcDbLine
 10
-1353.584668114355
 20
-2357.414046975149
 30
0.0
 11
-1353.584668114355
 21
-2723.96005797515
 31
0.0
  0
LINE
  5
11B9
330
11B3
100
AcDbEntity
  8
0
  6
Continuous
 62
     0
440
 16777216
370
    -2
100
AcDbLine
 10
-1353.584668114355
 20
-3090.86606897515
 30
0.0
 11
-1353.584668114355
 21
-2724.320057975149
 31
0.0
  0
SOLID
  5
11BA
330
11B3
100
AcDbEntity
  8
0
  6
Continuous
 62
     0
440
 16777216
100
AcDbTrace
 10
-1353.614668114355
 20
-2357.414046975149
 30
0.0
 11
-1353.554668114355
 21
-2357.414046975149
 31
0.0
 12
-1353.584668114355
 22
-2357.234046975149
 32
0.0
 13
-1353.584668114355
 23
-2357.234046975149
 33
0.0
  0
SOLID
  5
11BB
330
11B3
100
AcDbEntity
  8
0
  6
Continuous
 62
     0
440
 16777216
100
AcDbTrace
 10
-1353.614668114356
 20
-3090.86606897515
 30
0.0
 11
-1353.554668114355
 21
-3090.86606897515
 31
0.0
 12
-1353.584668114355
 22
-3091.04606897515
 32
0.0
 13
-1353.584668114355
 23
-3091.04606897515
 33
0.0
  0
MTEXT
  5
11BC
330
11B3
100
AcDbEntity
  8
0
  6
Continuous
 62
     0
440
 16777216
100
AcDbMText
 10
-1353.584668114355
 20
-2724.14005797515
 30
0.0
 40
0.18
 41
0.0
 46
0.0
 71
     5
 72
     1
  1
\A1;733.8120
 73
     1
 44
1.0
  0
POINT
  5
11BD
330
11B3
100
AcDbEntity
  8
Defpoints
  6
Continuous
 62
     0
440
 16777216
100
AcDbPoint
 10
-1803.7610475
 20
-2357.234046975149
 30
0.0
  0
POINT
  5
11BE
330
11B3
100
AcDbEntity
  8
Defpoints
  6
Continuous
 62
     0
440
 16777216
100
AcDbPoint
 10
-1814.125338852067
 20
-3091.04606897515
 30
0.0
  0
POINT
  5
11BF
330
11B3
100
AcDbEntity
  8
Defpoints
  6
Continuous
 62
     0
440
 16777216
100
AcDbPoint
 10
-1353.584668114355
 20
-3091.04606897515
 30
0.0
  0
ENDBLK
  5
11B5
330
11B3
100
AcDbEntity
  8
0
100
AcDbBlockEnd
  0
BLOCK
  5
126A
330
1269
100
AcDbEntity
  8
0
100
AcDbBlockBegin
  2
*D13
 70
     1
 10
0.0
 20
0.0
 30
0.0
  3
*D13
  1

  0
LINE
  5
126C
330
1269
100
AcDbEntity
  8
0
  6
Continuous
 62
     0
440
 16777216
370
    -2
100
AcDbLine
 10
-2058.778195915002
 20
-1678.759901566573
 30
0.0
 11
-2058.778195915002
 21
-1935.408297861901
 31
0.0
  0
LINE
  5
126D
330
1269
100
AcDbEntity
  8
0
  6
Continuous
 62
     0
440
 16777216
370
    -2
100
AcDbLine
 10
-2758.778157915001
 20
-1685.3478015
 30
0.0
 11
-2758.778157915001
 21
-1935.408297861901
 31
0.0
  0
LINE
  5
126E
330
1269
100
AcDbEntity
  8
0
  6
Continuous
 62
     0
440
 16777216
370
    -2
100
AcDbLine
 10
-2058.958195915002
 20
-1935.228297861901
 30
0.0
 11
-2408.148176915001
 21
-1935.228297861901
 31
0.0
  0
LINE
  5
126F
330
1269
100
AcDbEntity
  8
0
  6
Continuous
 62
     0
440
 16777216
370
    -2
100
AcDbLine
 10
-2758.598157915001
 20
-1935.228297861901
 30
0.0
 11
-2409.408176915002
 21
-1935.228297861901
 31
0.0
  0
SOLID
  5
1270
330
1269
100
AcDbEntity
  8
0
  6
Continuous
 62
     0
440
 16777216
100
AcDbTrace
 10
-2058.958195915002
 20
-1935.198297861902
 30
0.0
 11
-2058.958195915002
 21
-1935.258297861901
 31
0.0
 12
-2058.778195915002
 22
-1935.228297861901
 32
0.0
 13
-2058.778195915002
 23
-1935.228297861901
 33
0.0
  0
SOLID
  5
1271
330
1269
100
AcDbEntity
  8
0
  6
Continuous
 62
     0
440
 16777216
100
AcDbTrace
 10
-2758.598157915001
 20
-1935.198297861902
 30
0.0
 11
-2758.598157915001
 21
-1935.258297861901
 31
0.0
 12
-2758.778157915001
 22
-1935.228297861901
 32
0.0
 13
-2758.778157915001
 23
-1935.228297861901
 33
0.0
  0
MTEXT
  5
1272
330
1269
100
AcDbEntity
  8
0
  6
Continuous
 62
     0
440
 16777216
100
AcDbMText
 10
-2408.778176915002
 20
-1935.228297861901
 30
0.0
 40
0.18
 41
0.0
 46
0.0
 71
     5
 72
     1
  1
\A1;700.0000
 73
     1
 44
1.0
  0
POINT
  5
1273
330
1269
100
AcDbEntity
  8
Defpoints
  6
Continuous
 62
     0
440
 16777216
100
AcDbPoint
 10
-2058.778195915002
 20
-1678.697401566572
 30
0.0
  0
POINT
  5
1274
330
1269
100
AcDbEntity
  8
Defpoints
  6
Continuous
 62
     0
440
 16777216
100
AcDbPoint
 10
-2758.778157915001
 20
-1685.2853015
 30
0.0
  0
POINT
  5
1275
330
1269
100
AcDbEntity
  8
Defpoints
  6
Continuous
 62
     0
440
 16777216
100
AcDbPoint
 10
-2758.778157915001
 20
-1935.228297861901
 30
0.0
  0
ENDBLK
  5
126B
330
1269
100
AcDbEntity
  8
0
100
AcDbBlockEnd
  0
ENDSEC
  0
SECTION
  2
ENTITIES
  0
LINE
  5
1F
330
A
100
AcDbEntity
  8
HEWI
  6
STANDARD
 62
     7
100
AcDbLine
 10
-1797.273161499999
 20
-2404.586107975149
 30
0.0
 11
-1792.7871725
 21
-2404.586107975149
 31
0.0
  0
LINE
  5
20
330
A
100
AcDbEntity
  8
HEWI
  6
STANDARD
 62
     7
100
AcDbLine
 10
-1837.7871535
 20
-2404.586107975149
 30
0.0
 11
-1830.9741805
 21
-2404.586107975149
 31
0.0
  0
LINE
  5
21
330
A
100
AcDbEntity
  8
HEWI
  6
STANDARD
 62
     7
100
AcDbLine
 10
-1837.7871535
 20
-2359.586107975149
 30
0.0
 11
-1792.7871725
 21
-2359.586107975149
 31
0.0
  0
LINE
  5
22
330
A
100
AcDbEntity
  8
HEWI
  6
STANDARD
 62
     7
100
AcDbLine
 10
-1830.974180499999
 20
-3038.046066975149
 30
0.0
 11
-1797.2741725
 21
-3038.046066975149
 31
0.0
  0
LINE
  5
23
330
A
100
AcDbEntity
  8
HEWI
  6
STANDARD
 62
     7
100
AcDbLine
 10
-1830.661336352067
 20
-3038.046066975149
 30
0.0
 11
-1817.003346352067
 21
-3038.046066975149
 31
0.0
  0
LINE
  5
24
330
A
100
AcDbEntity
  8
HEWI
  6
STANDARD
 62
     7
100
AcDbLine
 10
-1852.8311755
 20
-2356.246110975149
 30
0.0
 11
-1777.8311755
 21
-2356.246110975149
 31
0.0
  0
LINE
  5
25
330
A
100
AcDbEntity
  8
HEWI
  6
STANDARD
 62
     7
100
AcDbLine
 10
-1830.675336352067
 20
-3041.04606897515
 30
0.0
 11
-1797.575341352067
 21
-3041.04606897515
 31
0.0
  0
LINE
  5
27
330
A
100
AcDbEntity
  8
HEWI
  6
STANDARD
 62
     7
100
AcDbLine
 10
-1852.8311755
 20
-2341.046068975149
 30
0.0
 11
-1777.8311755
 21
-2341.046068975149
 31
0.0
  0
LINE
  5
28
330
A
100
AcDbEntity
  8
HEWI
  6
STANDARD
 62
     7
100
AcDbLine
 10
-1837.7871535
 20
-2404.586107975149
 30
0.0
 11
-1837.7871535
 21
-2359.586107975149
 31
0.0
  0
LINE
  5
29
330
A
100
AcDbEntity
  8
HEWI
  6
STANDARD
 62
     7
100
AcDbLine
 10
-1792.7871725
 20
-2404.586107975149
 30
0.0
 11
-1792.7871725
 21
-2359.586107975149
 31
0.0
  0
LINE
  5
2A
330
A
100
AcDbEntity
  8
HEWI
  6
STANDARD
 62
     7
100
AcDbLine
 10
-1830.974180499998
 20
-3038.046066975149
 30
0.0
 11
-1830.9741805
 21
-2404.586107975149
 31
0.0
  0
LINE
  5
2B
330
A
100
AcDbEntity
  8
HEWI
  6
STANDARD
 62
     7
100
AcDbLine
 10
-1797.2741725
 20
-3038.046066975149
 30
0.0
 11
-1797.2741725
 21
-2404.585038975148
 31
0.0
  0
LINE
  5
2C
330
A
100
AcDbEntity
  8
HEWI
  6
STANDARD
 62
     7
100
AcDbLine
 10
-1852.8311755
 20
-2356.246110975149
 30
0.0
 11
-1852.8311755
 21
-2341.046068975149
 31
0.0
  0
LINE
  5
2D
330
A
100
AcDbEntity
  8
HEWI
  6
STANDARD
 62
     7
100
AcDbLine
 10
-1838.3311675
 20
-2404.546052975148
 30
0.0
 11
-1838.3311675
 21
-2356.246110975149
 31
0.0
  0
LINE
  5
2E
330
A
100
AcDbEntity
  8
HEWI
  6
STANDARD
 62
     7
100
AcDbLine
 10
-1777.8311755
 20
-2403.042070975149
 30
0.0
 11
-1777.8311755
 21
-2341.046068975149
 31
0.0
  0
LINE
  5
2F
330
A
100
AcDbEntity
  8
HEWI
  6
STANDARD
 62
     7
100
AcDbLine
 10
-1792.3311645
 20
-2404.546052975148
 30
0.0
 11
-1792.3311645
 21
-2356.246110975149
 31
0.0
  0
LINE
  5
30
330
A
100
AcDbEntity
  8
HEWI
  6
STANDARD
 62
     7
100
AcDbLine
 10
-1827.2731615
 20
-2359.586107975149
 30
0.0
 11
-1827.2731615
 21
-2357.246095975149
 31
0.0
  0
LINE
  5
31
330
A
100
AcDbEntity
  8
HEWI
  6
STANDARD
 62
     7
100
AcDbLine
 10
-1802.7731535
 20
-2359.586107975149
 30
0.0
 11
-1802.7731535
 21
-2357.246095975149
 31
0.0
  0
LINE
  5
32
330
A
100
AcDbEntity
  8
HEWI
  6
STANDARD
 62
     7
100
AcDbLine
 10
-1829.0561515
 20
-2403.229066975149
 30
0.0
 11
-1828.7161855
 21
-2402.889100975149
 31
0.0
  0
LINE
  5
33
330
A
100
AcDbEntity
  8
HEWI
  6
STANDARD
 62
     7
100
AcDbLine
 10
-1830.4541615
 20
-2404.244081975149
 30
0.0
 11
-1829.9571825
 21
-2403.747102975149
 31
0.0
  0
LINE
  5
34
330
A
100
AcDbEntity
  8
HEWI
  6
STANDARD
 62
     7
100
AcDbLine
 10
-1778.4091595
 20
-2404.217073975149
 30
0.0
 11
-1778.1481575
 21
-2403.956071975149
 31
0.0
  0
LINE
  5
35
330
A
100
AcDbEntity
  8
HEWI
  6
STANDARD
 62
     7
100
AcDbLine
 10
-1830.861340352067
 20
-3038.24607097515
 30
0.0
 11
-1830.661336352067
 21
-3038.046066975149
 31
0.0
  0
LINE
  5
36
330
A
100
AcDbEntity
  8
HEWI
  6
STANDARD
 62
     7
100
AcDbLine
 10
-1797.575341352067
 20
-3041.04606897515
 30
0.0
 11
-1797.375337352067
 21
-3040.84606397515
 31
0.0
  0
LINE
  5
37
330
A
100
AcDbEntity
  8
HEWI
  6
STANDARD
 62
     7
100
AcDbLine
 10
-1797.588330352067
 20
-3038.046066975149
 30
0.0
 11
-1797.388345352067
 21
-3038.24607097515
 31
0.0
  0
LINE
  5
38
330
A
100
AcDbEntity
  8
HEWI
  6
STANDARD
 62
     7
100
AcDbLine
 10
-1797.5291655
 20
-2404.330064975149
 30
0.0
 11
-1797.273161499999
 21
-2404.586107975149
 31
0.0
  0
LINE
  5
39
330
A
100
AcDbEntity
  8
HEWI
  6
STANDARD
 62
     7
100
AcDbLine
 10
-1852.6201845
 20
-2355.860063975149
 30
0.0
 11
-1852.5331715
 21
-2355.947114975149
 31
0.0
  0
LINE
  5
3A
330
A
100
AcDbEntity
  8
HEWI
  6
STANDARD
 62
     7
100
AcDbLine
 10
-1778.2161735
 20
-2356.034089975149
 30
0.0
 11
-1778.1291605
 21
-2355.947114975149
 31
0.0
  0
LINE
  5
3B
330
A
100
AcDbEntity
  8
HEWI
  6
STANDARD
 62
     7
100
AcDbLine
 10
-1852.6201845
 20
-2355.860063975149
 30
0.0
 11
-1852.5381685
 21
-2355.953065975149
 31
0.0
  0
LINE
  5
3C
330
A
100
AcDbEntity
  8
HEWI
  6
STANDARD
 62
     7
100
AcDbLine
 10
-1778.2161735
 20
-2356.034089975149
 30
0.0
 11
-1778.1241635
 21
-2355.953065975149
 31
0.0
  0
LINE
  5
3D
330
A
100
AcDbEntity
  8
HEWI
  6
STANDARD
 62
     7
100
AcDbLine
 10
-1778.1715995
 20
-2355.989534975149
 30
0.0
 11
-1778.1241635
 21
-2355.953065975149
 31
0.0
  0
LINE
  5
3E
330
A
100
AcDbEntity
  8
HEWI
  6
STANDARD
 62
     7
100
AcDbLine
 10
-1852.5745985
 20
-2355.905610975149
 30
0.0
 11
-1852.5381685
 21
-2355.953065975149
 31
0.0
  0
LINE
  5
3F
330
A
100
AcDbEntity
  8
HEWI
  6
STANDARD
 62
     7
100
AcDbLine
 10
-1826.6121505
 20
-2401.572114975149
 30
0.0
 11
-1824.9541685
 21
-2400.41107397515
 31
0.0
  0
LINE
  5
40
330
A
100
AcDbEntity
  8
HEWI
  6
STANDARD
 62
     7
100
AcDbLine
 10
-1822.7341675
 20
-2399.322053975149
 30
0.0
 11
-1822.5481635
 21
-2399.192048975149
 31
0.0
  0
LINE
  5
41
330
A
100
AcDbEntity
  8
HEWI
  6
STANDARD
 62
     7
100
AcDbLine
 10
-1778.3311675
 20
-2356.112062975149
 30
0.0
 11
-1778.2161735
 21
-2356.034089975149
 31
0.0
  0
LINE
  5
42
330
A
100
AcDbEntity
  8
HEWI
  6
STANDARD
 62
     7
100
AcDbLine
 10
-1852.6971655
 20
-2355.746080975149
 30
0.0
 11
-1852.6201845
 21
-2355.860063975149
 31
0.0
  0
LINE
  5
43
330
A
100
AcDbEntity
  8
HEWI
  6
STANDARD
 62
     7
100
AcDbLine
 10
-1828.7161855
 20
-2402.889100975149
 30
0.0
 11
-1827.0311575
 21
-2401.76712297515
 31
0.0
  0
LINE
  5
44
330
A
100
AcDbEntity
  8
HEWI
  6
STANDARD
 62
     7
100
AcDbLine
 10
-1778.4271645
 20
-2356.161119975149
 30
0.0
 11
-1778.3351735
 21
-2356.105119975149
 31
0.0
  0
LINE
  5
45
330
A
100
AcDbEntity
  8
HEWI
  6
STANDARD
 62
     7
100
AcDbLine
 10
-1852.7461835
 20
-2355.649110975149
 30
0.0
 11
-1852.6901845
 21
-2355.742112975149
 31
0.0
  0
LINE
  5
46
330
A
100
AcDbEntity
  8
HEWI
  6
STANDARD
 62
     7
100
AcDbLine
 10
-1778.7261605
 20
-2404.406053975149
 30
0.0
 11
-1778.4091595
 21
-2404.217073975149
 31
0.0
  0
LINE
  5
47
330
A
100
AcDbEntity
  8
HEWI
  6
STANDARD
 62
     7
100
AcDbLine
 10
-1829.9571825
 20
-2403.747102975149
 30
0.0
 11
-1829.0561515
 21
-2403.229066975149
 31
0.0
  0
LINE
  5
48
330
A
100
AcDbEntity
  8
HEWI
  6
STANDARD
 62
     7
100
AcDbLine
 10
-1778.4271645
 20
-2356.161119975149
 30
0.0
 11
-1778.3311675
 21
-2356.112062975149
 31
0.0
  0
LINE
  5
49
330
A
100
AcDbEntity
  8
HEWI
  6
STANDARD
 62
     7
100
AcDbLine
 10
-1852.7461835
 20
-2355.649110975149
 30
0.0
 11
-1852.6971655
 21
-2355.746080975149
 31
0.0
  0
LINE
  5
4A
330
A
100
AcDbEntity
  8
HEWI
  6
STANDARD
 62
     7
100
AcDbLine
 10
-1824.9541685
 20
-2400.41107397515
 30
0.0
 11
-1822.7341675
 21
-2399.322053975149
 31
0.0
  0
LINE
  5
4B
330
A
100
AcDbEntity
  8
HEWI
  6
STANDARD
 62
     7
100
AcDbLine
 10
-1827.0311575
 20
-2401.76712297515
 30
0.0
 11
-1826.6121505
 21
-2401.572114975149
 31
0.0
  0
LINE
  5
4C
330
A
100
AcDbEntity
  8
HEWI
  6
STANDARD
 62
     7
100
AcDbLine
 10
-1778.3798625
 20
-2356.132280975149
 30
0.0
 11
-1778.3311675
 21
-2356.112062975149
 31
0.0
  0
LINE
  5
4D
330
A
100
AcDbEntity
  8
HEWI
  6
STANDARD
 62
     7
100
AcDbLine
 10
-1852.7177645
 20
-2355.696260975149
 30
0.0
 11
-1852.6971655
 21
-2355.746080975149
 31
0.0
  0
LINE
  5
4E
330
A
100
AcDbEntity
  8
HEWI
  6
STANDARD
 62
     7
100
AcDbLine
 10
-1778.572161499999
 20
-2356.212083975149
 30
0.0
 11
-1778.4271645
 21
-2356.161119975149
 31
0.0
  0
LINE
  5
4F
330
A
100
AcDbEntity
  8
HEWI
  6
STANDARD
 62
     7
100
AcDbLine
 10
-1852.7971485
 20
-2355.504075975149
 30
0.0
 11
-1852.7461835
 21
-2355.649110975149
 31
0.0
  0
LINE
  5
50
330
A
100
AcDbEntity
  8
HEWI
  6
STANDARD
 62
     7
100
AcDbLine
 10
-1830.7171845
 20
-2404.330064975149
 30
0.0
 11
-1830.4541615
 21
-2404.244081975149
 31
0.0
  0
LINE
  5
51
330
A
100
AcDbEntity
  8
HEWI
  6
STANDARD
 62
     7
100
AcDbLine
 10
-1778.6631605
 20
-2356.232072975148
 30
0.0
 11
-1778.5741645
 21
-2356.205064975148
 31
0.0
  0
LINE
  5
52
330
A
100
AcDbEntity
  8
HEWI
  6
STANDARD
 62
     7
100
AcDbLine
 10
-1852.8171755
 20
-2355.413057975149
 30
0.0
 11
-1852.7901675
 21
-2355.502092975149
 31
0.0
  0
LINE
  5
53
330
A
100
AcDbEntity
  8
HEWI
  6
STANDARD
 62
     7
100
AcDbLine
 10
-1779.0801645
 20
-2404.513093975149
 30
0.0
 11
-1778.7261605
 21
-2404.406053975149
 31
0.0
  0
LINE
  5
54
330
A
100
AcDbEntity
  8
HEWI
  6
STANDARD
 62
     7
100
AcDbLine
 10
-1852.8171755
 20
-2355.413057975149
 30
0.0
 11
-1852.7971485
 21
-2355.504075975149
 31
0.0
  0
LINE
  5
55
330
A
100
AcDbEntity
  8
HEWI
  6
STANDARD
 62
     7
100
AcDbLine
 10
-1778.6631605
 20
-2356.232072975148
 30
0.0
 11
-1778.572161499999
 21
-2356.212083975149
 31
0.0
  0
LINE
  5
56
330
A
100
AcDbEntity
  8
HEWI
  6
STANDARD
 62
     7
100
AcDbLine
 10
-1826.5961675
 20
-2356.295091975149
 30
0.0
 11
-1826.2931655
 21
-2356.246110975149
 31
0.0
  0
LINE
  5
57
330
A
100
AcDbEntity
  8
HEWI
  6
STANDARD
 62
     7
100
AcDbLine
 10
-1802.8211805
 20
-2356.937105975149
 30
0.0
 11
-1802.7731535
 21
-2357.246095975149
 31
0.0
  0
LINE
  5
58
330
A
100
AcDbEntity
  8
HEWI
  6
STANDARD
 62
     7
100
AcDbLine
 10
-1852.8030225
 20
-2355.459749975149
 30
0.0
 11
-1852.7971485
 21
-2355.504075975149
 31
0.0
  0
LINE
  5
59
330
A
100
AcDbEntity
  8
HEWI
  6
STANDARD
 62
     7
100
AcDbLine
 10
-1778.6163735
 20
-2356.217881975149
 30
0.0
 11
-1778.572161499999
 21
-2356.212083975149
 31
0.0
  0
LINE
  5
5A
330
A
100
AcDbEntity
  8
HEWI
  6
STANDARD
 62
     7
100
AcDbLine
 10
-1852.8311755
 20
-2403.042070975149
 30
0.0
 11
-1852.8101565
 21
-2403.286058975148
 31
0.0
  0
LINE
  5
5B
330
A
100
AcDbEntity
  8
HEWI
  6
STANDARD
 62
     7
100
AcDbLine
 10
-1852.8311755
 20
-2355.246049975149
 30
0.0
 11
-1852.8171755
 21
-2355.413057975149
 31
0.0
  0
LINE
  5
5C
330
A
100
AcDbEntity
  8
HEWI
  6
STANDARD
 62
     7
100
AcDbLine
 10
-1779.3311715
 20
-2404.534074975149
 30
0.0
 11
-1779.0801645
 21
-2404.513093975149
 31
0.0
  0
LINE
  5
5D
330
A
100
AcDbEntity
  8
HEWI
  6
STANDARD
 62
     7
100
AcDbLine
 10
-1778.8311605
 20
-2356.246110975149
 30
0.0
 11
-1778.6631605
 21
-2356.232072975148
 31
0.0
  0
LINE
  5
5E
330
A
100
AcDbEntity
  8
HEWI
  6
STANDARD
 62
     7
100
AcDbLine
 10
-1797.388345352067
 20
-3038.24607097515
 30
0.0
 11
-1797.375337352067
 21
-3040.84606397515
 31
0.0
  0
LINE
  5
5F
330
A
100
AcDbEntity
  8
HEWI
  6
STANDARD
 62
     7
100
AcDbLine
 10
-1792.3311645
 20
-2404.546052975148
 30
0.0
 11
-1779.3311715
 21
-2404.534074975149
 31
0.0
  0
LINE
  5
60
330
A
100
AcDbEntity
  8
HEWI
  6
STANDARD
 62
     7
100
AcDbLine
 10
-1830.875340352067
 20
-3040.84606397515
 30
0.0
 11
-1830.861340352067
 21
-3038.24607097515
 31
0.0
  0
LINE
  5
61
330
A
100
AcDbEntity
  8
HEWI
  6
STANDARD
 62
     7
100
AcDbLine
 10
-1777.8451755
 20
-2355.413057975149
 30
0.0
 11
-1777.8311755
 21
-2355.246049975149
 31
0.0
  0
LINE
  5
62
330
A
100
AcDbEntity
  8
HEWI
  6
STANDARD
 62
     7
100
AcDbLine
 10
-1851.9981605
 20
-2356.232072975148
 30
0.0
 11
-1851.8311525
 21
-2356.246110975149
 31
0.0
  0
LINE
  5
63
330
A
100
AcDbEntity
  8
HEWI
  6
STANDARD
 62
     7
100
AcDbLine
 10
-1777.8521755
 20
-2403.286058975148
 30
0.0
 11
-1777.8311755
 21
-2403.042070975149
 31
0.0
  0
LINE
  5
64
330
A
100
AcDbEntity
  8
HEWI
  6
STANDARD
 62
     7
100
AcDbLine
 10
-1827.2731615
 20
-2357.246095975149
 30
0.0
 11
-1827.2251725
 21
-2356.937105975149
 31
0.0
  0
LINE
  5
65
330
A
100
AcDbEntity
  8
HEWI
  6
STANDARD
 62
     7
100
AcDbLine
 10
-1803.7531495
 20
-2356.246110975149
 30
0.0
 11
-1803.4501485
 21
-2356.295091975149
 31
0.0
  0
LINE
  5
66
330
A
100
AcDbEntity
  8
HEWI
  6
STANDARD
 62
     7
100
AcDbLine
 10
-1852.0901705
 20
-2356.212083975149
 30
0.0
 11
-1851.9981605
 21
-2356.232072975148
 31
0.0
  0
LINE
  5
67
330
A
100
AcDbEntity
  8
HEWI
  6
STANDARD
 62
     7
100
AcDbLine
 10
-1777.8651645
 20
-2355.504075975149
 30
0.0
 11
-1777.8451755
 21
-2355.413057975149
 31
0.0
  0
LINE
  5
68
330
A
100
AcDbEntity
  8
HEWI
  6
STANDARD
 62
     7
100
AcDbLine
 10
-1777.9581665
 20
-2403.639070975148
 30
0.0
 11
-1777.8521755
 21
-2403.286058975148
 31
0.0
  0
LINE
  5
69
330
A
100
AcDbEntity
  8
HEWI
  6
STANDARD
 62
     7
100
AcDbLine
 10
-1851.9361715
 20
-2404.406053975149
 30
0.0
 11
-1851.5821675
 21
-2404.513093975149
 31
0.0
  0
LINE
  5
6A
330
A
100
AcDbEntity
  8
HEWI
  6
STANDARD
 62
     7
100
AcDbLine
 10
-1797.7921705
 20
-2404.244081975149
 30
0.0
 11
-1797.5291655
 21
-2404.330064975149
 31
0.0
  0
LINE
  5
6B
330
A
100
AcDbEntity
  8
HEWI
  6
STANDARD
 62
     7
100
AcDbLine
 10
-1777.9161665
 20
-2355.649110975149
 30
0.0
 11
-1777.8651645
 21
-2355.504075975149
 31
0.0
  0
LINE
  5
6C
330
A
100
AcDbEntity
  8
HEWI
  6
STANDARD
 62
     7
100
AcDbLine
 10
-1852.2341755
 20
-2356.161119975149
 30
0.0
 11
-1852.0901705
 21
-2356.212083975149
 31
0.0
  0
LINE
  5
6D
330
A
100
AcDbEntity
  8
HEWI
  6
STANDARD
 62
     7
100
AcDbLine
 10
-1801.6341615
 20
-2401.572114975149
 30
0.0
 11
-1801.2151555
 21
-2401.76712297515
 31
0.0
  0
LINE
  5
6E
330
A
100
AcDbEntity
  8
HEWI
  6
STANDARD
 62
     7
100
AcDbLine
 10
-1805.5131745
 20
-2399.322053975149
 30
0.0
 11
-1803.2921815
 21
-2400.41107397515
 31
0.0
  0
LINE
  5
6F
330
A
100
AcDbEntity
  8
HEWI
  6
STANDARD
 62
     7
100
AcDbLine
 10
-1777.9651665
 20
-2355.746080975149
 30
0.0
 11
-1777.9161665
 21
-2355.649110975149
 31
0.0
  0
LINE
  5
70
330
A
100
AcDbEntity
  8
HEWI
  6
STANDARD
 62
     7
100
AcDbLine
 10
-1852.3311835
 20
-2356.112062975149
 30
0.0
 11
-1852.2341755
 21
-2356.161119975149
 31
0.0
  0
LINE
  5
71
330
A
100
AcDbEntity
  8
HEWI
  6
STANDARD
 62
     7
100
AcDbLine
 10
-1799.1911725
 20
-2403.229066975149
 30
0.0
 11
-1798.2891685
 21
-2403.747102975149
 31
0.0
  0
LINE
  5
72
330
A
100
AcDbEntity
  8
HEWI
  6
STANDARD
 62
     7
100
AcDbLine
 10
-1778.1481575
 20
-2403.956071975149
 30
0.0
 11
-1777.9581665
 21
-2403.639070975148
 31
0.0
  0
LINE
  5
73
330
A
100
AcDbEntity
  8
HEWI
  6
STANDARD
 62
     7
100
AcDbLine
 10
-1801.2151555
 20
-2401.76712297515
 30
0.0
 11
-1799.5311765
 21
-2402.889100975149
 31
0.0
  0
LINE
  5
74
330
A
100
AcDbEntity
  8
HEWI
  6
STANDARD
 62
     7
100
AcDbLine
 10
-1778.0421665
 20
-2355.860063975149
 30
0.0
 11
-1777.9651665
 21
-2355.746080975149
 31
0.0
  0
LINE
  5
75
330
A
100
AcDbEntity
  8
HEWI
  6
STANDARD
 62
     7
100
AcDbLine
 10
-1852.4451665
 20
-2356.034089975149
 30
0.0
 11
-1852.3311835
 21
-2356.112062975149
 31
0.0
  0
LINE
  5
76
330
A
100
AcDbEntity
  8
HEWI
  6
STANDARD
 62
     7
100
AcDbLine
 10
-1803.2921815
 20
-2400.41107397515
 30
0.0
 11
-1801.6341615
 21
-2401.572114975149
 31
0.0
  0
LINE
  5
77
330
A
100
AcDbEntity
  8
HEWI
  6
STANDARD
 62
     7
100
AcDbLine
 10
-1805.6981495
 20
-2399.192048975149
 30
0.0
 11
-1805.5131745
 21
-2399.322053975149
 31
0.0
  0
LINE
  5
78
330
A
100
AcDbEntity
  8
HEWI
  6
STANDARD
 62
     7
100
AcDbLine
 10
-1852.5381685
 20
-2355.953065975149
 30
0.0
 11
-1852.4451665
 21
-2356.034089975149
 31
0.0
  0
LINE
  5
79
330
A
100
AcDbEntity
  8
HEWI
  6
STANDARD
 62
     7
100
AcDbLine
 10
-1778.1241635
 20
-2355.953065975149
 30
0.0
 11
-1778.0421665
 21
-2355.860063975149
 31
0.0
  0
LINE
  5
7A
330
A
100
AcDbEntity
  8
HEWI
  6
STANDARD
 62
     7
100
AcDbLine
 10
-1799.5311765
 20
-2402.889100975149
 30
0.0
 11
-1799.1911725
 21
-2403.229066975149
 31
0.0
  0
LINE
  5
7B
330
A
100
AcDbEntity
  8
HEWI
  6
STANDARD
 62
     7
100
AcDbLine
 10
-1798.2891685
 20
-2403.747102975149
 30
0.0
 11
-1797.7921705
 21
-2404.244081975149
 31
0.0
  0
LINE
  5
7C
330
A
100
AcDbEntity
  8
HEWI
  6
STANDARD
 62
     7
100
AcDbLine
 10
-1830.875340352067
 20
-3040.84606397515
 30
0.0
 11
-1830.675336352067
 21
-3041.04606897515
 31
0.0
  0
ARC
  5
7D
330
A
100
AcDbEntity
  8
HEWI
  6
STANDARD
 62
     7
100
AcDbCircle
 10
-1803.7610475
 20
-2357.234046975149
 30
0.0
 40
0.987967
100
AcDbArc
 50
359.301222999997
 51
89.54194999999996
  0
ARC
  5
7E
330
A
100
AcDbEntity
  8
HEWI
  6
STANDARD
 62
     7
100
AcDbCircle
 10
-1814.1231565
 20
-2413.788667975149
 30
0.0
 40
16.853546
100
AcDbArc
 50
60.00693300000302
 51
119.9930669999969
  0
ARC
  5
7F
330
A
100
AcDbEntity
  8
HEWI
  6
STANDARD
 62
     7
100
AcDbCircle
 10
-1826.2853245
 20
-2357.233990975148
 30
0.0
 40
0.987911
100
AcDbArc
 50
90.45475399999999
 51
180.7020729999987
  0
LINE
  5
80
330
A
100
AcDbEntity
  8
HEWI
100
AcDbLine
 10
-1792.331173
 20
-1662.785302
 30
0.0
 11
-1779.331181
 21
-1662.785302
 31
0.0
  0
LINE
  5
81
330
A
100
AcDbEntity
  8
HEWI
100
AcDbLine
 10
-1837.787182
 20
-1662.785302
 30
0.0
 11
-1792.787182
 21
-1662.785302
 31
0.0
  0
LINE
  5
82
330
A
100
AcDbEntity
  8
HEWI
100
AcDbLine
 10
-1792.331173
 20
-1707.785302
 30
0.0
 11
-1779.331181
 21
-1707.785302
 31
0.0
  0
LINE
  5
83
330
A
100
AcDbEntity
  8
HEWI
100
AcDbLine
 10
-1807.831166
 20
-1707.785302
 30
0.0
 11
-1792.787182
 21
-1707.785302
 31
0.0
  0
LINE
  5
84
330
A
100
AcDbEntity
  8
HEWI
100
AcDbLine
 10
-1837.787182
 20
-1707.785302
 30
0.0
 11
-1822.831166
 21
-1707.785302
 31
0.0
  0
LINE
  5
85
330
A
100
AcDbEntity
  8
HEWI
100
AcDbLine
 10
-1842.881176
 20
-1707.785302
 30
0.0
 11
-1838.331158
 21
-1707.785302
 31
0.0
  0
LINE
  5
86
330
A
100
AcDbEntity
  8
HEWI
100
AcDbLine
 10
-1851.331189
 20
-1707.785302
 30
0.0
 11
-1848.281186
 21
-1707.785302
 31
0.0
  0
LINE
  5
87
330
A
100
AcDbEntity
  8
HEWI
100
AcDbLine
 10
-1851.831180999999
 20
-1627.185288
 30
0.0
 11
-1778.83117
 21
-1627.185288
 31
0.0
  0
LINE
  5
88
330
A
100
AcDbEntity
  8
HEWI
100
AcDbLine
 10
-1851.831180999999
 20
-1883.185311
 30
0.0
 11
-1778.83117
 21
-1883.185311
 31
0.0
  0
LINE
  5
89
330
A
100
AcDbEntity
  8
HEWI
100
AcDbLine
 10
-1792.787182
 20
-1685.18528
 30
0.0
 11
-1792.331173
 21
-1685.18528
 31
0.0
  0
LINE
  5
8A
330
A
100
AcDbEntity
  8
HEWI
100
AcDbLine
 10
-1838.331158
 20
-1685.18528
 30
0.0
 11
-1837.787182
 21
-1685.18528
 31
0.0
  0
LINE
  5
8B
330
A
100
AcDbEntity
  8
HEWI
100
AcDbLine
 10
-1837.787182
 20
-1707.785302
 30
0.0
 11
-1837.787182
 21
-1662.785302
 31
0.0
  0
LINE
  5
8C
330
A
100
AcDbEntity
  8
HEWI
100
AcDbLine
 10
-1792.787182
 20
-1707.785302
 30
0.0
 11
-1792.787182
 21
-1662.785302
 31
0.0
  0
LINE
  5
8D
330
A
100
AcDbEntity
  8
HEWI
100
AcDbLine
 10
-1852.831166
 20
-1664.285317
 30
0.0
 11
-1852.831166
 21
-1628.185311
 31
0.0
  0
LINE
  5
8E
330
A
100
AcDbEntity
  8
HEWI
100
AcDbLine
 10
-1852.831166
 20
-1704.702263
 30
0.0
 11
-1852.831166
 21
-1685.18528
 31
0.0
  0
LINE
  5
8F
330
A
100
AcDbEntity
  8
HEWI
100
AcDbLine
 10
-1852.831166
 20
-1704.935265
 30
0.0
 11
-1852.831166
 21
-1704.831276
 31
0.0
  0
LINE
  5
90
330
A
100
AcDbEntity
  8
HEWI
100
AcDbLine
 10
-1852.831166
 20
-1882.185326
 30
0.0
 11
-1852.831166
 21
-1664.285317
 31
0.0
  0
LINE
  5
91
330
A
100
AcDbEntity
  8
HEWI
100
AcDbLine
 10
-1838.331158
 20
-1707.785302
 30
0.0
 11
-1838.331158
 21
-1662.785302
 31
0.0
  0
LINE
  5
92
330
A
100
AcDbEntity
  8
HEWI
100
AcDbLine
 10
-1777.831185
 20
-1882.185326
 30
0.0
 11
-1777.831185
 21
-1628.185311
 31
0.0
  0
LINE
  5
93
330
A
100
AcDbEntity
  8
HEWI
100
AcDbLine
 10
-1792.331173
 20
-1707.785302
 30
0.0
 11
-1792.331173
 21
-1662.785302
 31
0.0
  0
LINE
  5
94
330
A
100
AcDbEntity
  8
HEWI
100
AcDbLine
 10
-1822.831165999999
 20
-1777.635309751144
 30
0.0
 11
-1822.831166
 21
-1700.374337
 31
0.0
  0
LINE
  5
95
330
A
100
AcDbEntity
  8
HEWI
100
AcDbLine
 10
-1807.831166
 20
-1777.635128251144
 30
0.0
 11
-1807.831165999999
 21
-1700.413096467427
 31
0.0
  0
LINE
  5
9B
330
A
100
AcDbEntity
  8
HEWI
100
AcDbLine
 10
-1852.620175
 20
-1882.800331
 30
0.0
 11
-1852.538159
 21
-1882.892266
 31
0.0
  0
LINE
  5
9C
330
A
100
AcDbEntity
  8
HEWI
100
AcDbLine
 10
-1778.216183
 20
-1882.974282
 30
0.0
 11
-1778.124173
 21
-1882.892266
 31
0.0
  0
LINE
  5
9D
330
A
100
AcDbEntity
  8
HEWI
100
AcDbLine
 10
-1778.124173
 20
-1627.478295
 30
0.0
 11
-1778.042176
 21
-1627.570305
 31
0.0
  0
LINE
  5
9E
330
A
100
AcDbEntity
  8
HEWI
100
AcDbLine
 10
-1852.538159
 20
-1627.478295
 30
0.0
 11
-1852.445157
 21
-1627.396317
 31
0.0
  0
LINE
  5
9F
330
A
100
AcDbEntity
  8
HEWI
100
AcDbLine
 10
-1778.27018
 20
-1663.224297
 30
0.0
 11
-1778.148167
 21
-1663.363304
 31
0.0
  0
LINE
  5
A0
330
A
100
AcDbEntity
  8
HEWI
100
AcDbLine
 10
-1778.409169
 20
-1707.4683
 30
0.0
 11
-1778.27018
 21
-1707.346305999999
 31
0.0
  0
LINE
  5
A1
330
A
100
AcDbEntity
  8
HEWI
100
AcDbLine
 10
-1852.514164
 20
-1707.207299
 30
0.0
 11
-1852.39217
 21
-1707.346305999999
 31
0.0
  0
LINE
  5
A2
330
A
100
AcDbEntity
  8
HEWI
100
AcDbLine
 10
-1852.39217
 20
-1663.224297
 30
0.0
 11
-1852.253163
 21
-1663.102303
 31
0.0
  0
LINE
  5
B4
330
A
100
AcDbEntity
  8
HEWI
100
AcDbLine
 10
-1852.445157
 20
-1627.396317
 30
0.0
 11
-1852.331173
 21
-1627.319298
 31
0.0
  0
LINE
  5
B5
330
A
100
AcDbEntity
  8
HEWI
100
AcDbLine
 10
-1852.630169
 20
-1707.035332
 30
0.0
 11
-1852.514164
 21
-1707.207299
 31
0.0
  0
LINE
  5
B6
330
A
100
AcDbEntity
  8
HEWI
100
AcDbLine
 10
-1852.253163
 20
-1663.102303
 30
0.0
 11
-1852.081158
 21
-1662.986298
 31
0.0
  0
LINE
  5
B7
330
A
100
AcDbEntity
  8
HEWI
100
AcDbLine
 10
-1778.148167
 20
-1663.363304
 30
0.0
 11
-1778.032181
 21
-1663.535309
 31
0.0
  0
LINE
  5
B8
330
A
100
AcDbEntity
  8
HEWI
100
AcDbLine
 10
-1778.581173
 20
-1707.584267
 30
0.0
 11
-1778.409169
 21
-1707.4683
 31
0.0
  0
LINE
  5
B9
330
A
100
AcDbEntity
  8
HEWI
100
AcDbLine
 10
-1778.331177
 20
-1883.051339
 30
0.0
 11
-1778.216183
 21
-1882.974282
 31
0.0
  0
LINE
  5
BA
330
A
100
AcDbEntity
  8
HEWI
100
AcDbLine
 10
-1778.042176
 20
-1627.570305
 30
0.0
 11
-1777.965176
 21
-1627.685318
 31
0.0
  0
LINE
  5
BB
330
A
100
AcDbEntity
  8
HEWI
100
AcDbLine
 10
-1852.697194
 20
-1882.68528
 30
0.0
 11
-1852.620175
 21
-1882.800331
 31
0.0
  0
LINE
  5
C6
330
A
100
AcDbEntity
  8
HEWI
100
AcDbLine
 10
-1778.032181
 20
-1663.535309
 30
0.0
 11
-1777.958176
 21
-1663.680306
 31
0.0
  0
LINE
  5
C7
330
A
100
AcDbEntity
  8
HEWI
100
AcDbLine
 10
-1852.081158
 20
-1662.986298
 30
0.0
 11
-1851.936162
 21
-1662.912292999999
 31
0.0
  0
LINE
  5
C8
330
A
100
AcDbEntity
  8
HEWI
100
AcDbLine
 10
-1778.72617
 20
-1707.658272
 30
0.0
 11
-1778.581173
 21
-1707.584267
 31
0.0
  0
LINE
  5
C9
330
A
100
AcDbEntity
  8
HEWI
100
AcDbLine
 10
-1852.704175
 20
-1706.890297
 30
0.0
 11
-1852.630169
 21
-1707.035332
 31
0.0
  0
LINE
  5
CA
330
A
100
AcDbEntity
  8
HEWI
100
AcDbLine
 10
-1778.427174
 20
-1883.100319
 30
0.0
 11
-1778.331177
 21
-1883.051339
 31
0.0
  0
LINE
  5
CC
330
A
100
AcDbEntity
  8
HEWI
100
AcDbLine
 10
-1777.965176
 20
-1627.685318
 30
0.0
 11
-1777.916176
 21
-1627.782288
 31
0.0
  0
LINE
  5
CE
330
A
100
AcDbEntity
  8
HEWI
100
AcDbLine
 10
-1852.746174
 20
-1882.588311
 30
0.0
 11
-1852.697194
 21
-1882.68528
 31
0.0
  0
LINE
  5
CF
330
A
100
AcDbEntity
  8
HEWI
100
AcDbLine
 10
-1852.331173
 20
-1627.319298
 30
0.0
 11
-1852.234166
 21
-1627.270317
 31
0.0
  0
LINE
  5
DC
330
A
100
AcDbEntity
  8
HEWI
100
AcDbLine
 10
-1777.916176
 20
-1627.782288
 30
0.0
 11
-1777.865173999999
 21
-1627.926293
 31
0.0
  0
LINE
  5
DD
330
A
100
AcDbEntity
  8
HEWI
100
AcDbLine
 10
-1852.234166
 20
-1627.270317
 30
0.0
 11
-1852.090161
 21
-1627.219315
 31
0.0
  0
LINE
  5
DE
330
A
100
AcDbEntity
  8
HEWI
100
AcDbLine
 10
-1852.797177
 20
-1882.444268
 30
0.0
 11
-1852.746174
 21
-1882.588311
 31
0.0
  0
LINE
  5
DF
330
A
100
AcDbEntity
  8
HEWI
100
AcDbLine
 10
-1778.572171
 20
-1883.151284
 30
0.0
 11
-1778.427174
 21
-1883.100319
 31
0.0
  0
LINE
  5
E0
330
A
100
AcDbEntity
  8
HEWI
100
AcDbLine
 10
-1778.943169
 20
-1707.734337
 30
0.0
 11
-1778.72617
 21
-1707.658272
 31
0.0
  0
LINE
  5
E1
330
A
100
AcDbEntity
  8
HEWI
100
AcDbLine
 10
-1777.958176
 20
-1663.680306
 30
0.0
 11
-1777.882168
 21
-1663.897286
 31
0.0
  0
LINE
  5
E2
330
A
100
AcDbEntity
  8
HEWI
100
AcDbLine
 10
-1852.780163
 20
-1706.673317
 30
0.0
 11
-1852.704175
 21
-1706.890297
 31
0.0
  0
LINE
  5
E3
330
A
100
AcDbEntity
  8
HEWI
100
AcDbLine
 10
-1851.936162
 20
-1662.912292999999
 30
0.0
 11
-1851.719182
 21
-1662.836304
 31
0.0
  0
LINE
  5
E6
330
A
100
AcDbEntity
  8
HEWI
100
AcDbLine
 10
-1852.790158
 20
-1882.442284
 30
0.0
 11
-1852.746174
 21
-1882.588311
 31
0.0
  0
LINE
  5
E7
330
A
100
AcDbEntity
  8
HEWI
100
AcDbLine
 10
-1852.817166
 20
-1882.352333
 30
0.0
 11
-1852.746174
 21
-1882.588311
 31
0.0
  0
LINE
  5
E8
330
A
100
AcDbEntity
  8
HEWI
100
AcDbLine
 10
-1852.817166
 20
-1882.352333
 30
0.0
 11
-1852.790158
 21
-1882.442284
 31
0.0
  0
LINE
  5
F4
330
A
100
AcDbEntity
  8
HEWI
100
AcDbLine
 10
-1778.66317
 20
-1883.171273
 30
0.0
 11
-1778.572171
 21
-1883.151284
 31
0.0
  0
LINE
  5
F5
330
A
100
AcDbEntity
  8
HEWI
100
AcDbLine
 10
-1777.865173999999
 20
-1627.926293
 30
0.0
 11
-1777.845185
 21
-1628.017311
 31
0.0
  0
LINE
  5
F6
330
A
100
AcDbEntity
  8
HEWI
100
AcDbLine
 10
-1852.810185
 20
-1706.536293
 30
0.0
 11
-1852.780163
 21
-1706.673317
 31
0.0
  0
LINE
  5
F7
330
A
100
AcDbEntity
  8
HEWI
100
AcDbLine
 10
-1851.719182
 20
-1662.836304
 30
0.0
 11
-1851.582158
 21
-1662.806282
 31
0.0
  0
LINE
  5
F8
330
A
100
AcDbEntity
  8
HEWI
100
AcDbLine
 10
-1779.080174
 20
-1707.764321
 30
0.0
 11
-1778.943169
 21
-1707.734337
 31
0.0
  0
LINE
  5
F9
330
A
100
AcDbEntity
  8
HEWI
100
AcDbLine
 10
-1777.882168
 20
-1663.897286
 30
0.0
 11
-1777.852185
 21
-1664.03431
 31
0.0
  0
LINE
  5
FA
330
A
100
AcDbEntity
  8
HEWI
100
AcDbLine
 10
-1852.090161
 20
-1627.219315
 30
0.0
 11
-1851.998189
 21
-1627.199288
 31
0.0
  0
LINE
  5
FB
330
A
100
AcDbEntity
  8
HEWI
100
AcDbLine
 10
-1852.817166
 20
-1882.352333
 30
0.0
 11
-1852.797177
 21
-1882.444268
 31
0.0
  0
LINE
  5
106
330
A
100
AcDbEntity
  8
HEWI
100
AcDbLine
 10
-1852.831166
 20
-1882.185326
 30
0.0
 11
-1852.817166
 21
-1882.352333
 31
0.0
  0
LINE
  5
107
330
A
100
AcDbEntity
  8
HEWI
100
AcDbLine
 10
-1851.998189
 20
-1627.199288
 30
0.0
 11
-1851.831180999999
 21
-1627.185288
 31
0.0
  0
LINE
  5
108
330
A
100
AcDbEntity
  8
HEWI
100
AcDbLine
 10
-1777.852185
 20
-1664.03431
 30
0.0
 11
-1777.831185
 21
-1664.285317
 31
0.0
  0
LINE
  5
109
330
A
100
AcDbEntity
  8
HEWI
100
AcDbLine
 10
-1779.331181
 20
-1707.785302
 30
0.0
 11
-1779.080174
 21
-1707.764321
 31
0.0
  0
LINE
  5
10A
330
A
100
AcDbEntity
  8
HEWI
100
AcDbLine
 10
-1778.83117
 20
-1883.185311
 30
0.0
 11
-1778.66317
 21
-1883.171273
 31
0.0
  0
LINE
  5
10B
330
A
100
AcDbEntity
  8
HEWI
100
AcDbLine
 10
-1777.845185
 20
-1628.017311
 30
0.0
 11
-1777.831185
 21
-1628.185311
 31
0.0
  0
LINE
  5
10F
330
A
100
AcDbEntity
  8
HEWI
100
AcDbLine
 10
-1817.270176
 20
-1702.023278
 30
0.0
 11
-1815.331166
 21
-1702.135277
 31
0.0
  0
LINE
  5
111
330
A
100
AcDbEntity
  8
HEWI
100
AcDbLine
 10
-1852.831166
 20
-1628.185311
 30
0.0
 11
-1852.817166
 21
-1628.017311
 31
0.0
  0
LINE
  5
112
330
A
100
AcDbEntity
  8
HEWI
100
AcDbLine
 10
-1778.83117
 20
-1627.185288
 30
0.0
 11
-1778.66317
 21
-1627.199288
 31
0.0
  0
LINE
  5
113
330
A
100
AcDbEntity
  8
HEWI
100
AcDbLine
 10
-1779.331181
 20
-1662.785302
 30
0.0
 11
-1779.080174
 21
-1662.806282
 31
0.0
  0
LINE
  5
114
330
A
100
AcDbEntity
  8
HEWI
100
AcDbLine
 10
-1851.582158
 20
-1707.764321
 30
0.0
 11
-1851.331189
 21
-1707.785302
 31
0.0
  0
LINE
  5
115
330
A
100
AcDbEntity
  8
HEWI
100
AcDbLine
 10
-1777.852185
 20
-1706.536293
 30
0.0
 11
-1777.831185
 21
-1706.285286
 31
0.0
  0
LINE
  5
116
330
A
100
AcDbEntity
  8
HEWI
100
AcDbLine
 10
-1777.845185
 20
-1882.352333
 30
0.0
 11
-1777.831185
 21
-1882.185326
 31
0.0
  0
LINE
  5
117
330
A
100
AcDbEntity
  8
HEWI
100
AcDbLine
 10
-1851.998189
 20
-1883.171273
 30
0.0
 11
-1851.831180999999
 21
-1883.185311
 31
0.0
  0
LINE
  5
122
330
A
100
AcDbEntity
  8
HEWI
100
AcDbLine
 10
-1852.090161
 20
-1883.151284
 30
0.0
 11
-1851.998189
 21
-1883.171273
 31
0.0
  0
LINE
  5
123
330
A
100
AcDbEntity
  8
HEWI
100
AcDbLine
 10
-1777.865173999999
 20
-1882.444268
 30
0.0
 11
-1777.845185
 21
-1882.352333
 31
0.0
  0
LINE
  5
124
330
A
100
AcDbEntity
  8
HEWI
100
AcDbLine
 10
-1777.882168
 20
-1706.673317
 30
0.0
 11
-1777.852185
 21
-1706.536293
 31
0.0
  0
LINE
  5
125
330
A
100
AcDbEntity
  8
HEWI
100
AcDbLine
 10
-1851.719182
 20
-1707.734337
 30
0.0
 11
-1851.582158
 21
-1707.764321
 31
0.0
  0
LINE
  5
126
330
A
100
AcDbEntity
  8
HEWI
100
AcDbLine
 10
-1852.810185
 20
-1664.03431
 30
0.0
 11
-1852.780163
 21
-1663.897286
 31
0.0
  0
LINE
  5
127
330
A
100
AcDbEntity
  8
HEWI
100
AcDbLine
 10
-1779.080174
 20
-1662.806282
 30
0.0
 11
-1778.943169
 21
-1662.836304
 31
0.0
  0
LINE
  5
128
330
A
100
AcDbEntity
  8
HEWI
100
AcDbLine
 10
-1852.817166
 20
-1628.017311
 30
0.0
 11
-1852.797177
 21
-1627.926293
 31
0.0
  0
LINE
  5
129
330
A
100
AcDbEntity
  8
HEWI
100
AcDbLine
 10
-1778.66317
 20
-1627.199288
 30
0.0
 11
-1778.572171
 21
-1627.219315
 31
0.0
  0
LINE
  5
138
330
A
100
AcDbEntity
  8
HEWI
100
AcDbLine
 10
-1778.943169
 20
-1662.836304
 30
0.0
 11
-1778.72617
 21
-1662.912292999999
 31
0.0
  0
LINE
  5
139
330
A
100
AcDbEntity
  8
HEWI
100
AcDbLine
 10
-1852.780163
 20
-1663.897286
 30
0.0
 11
-1852.704175
 21
-1663.680306
 31
0.0
  0
LINE
  5
13A
330
A
100
AcDbEntity
  8
HEWI
100
AcDbLine
 10
-1777.958176
 20
-1706.890297
 30
0.0
 11
-1777.882168
 21
-1706.673317
 31
0.0
  0
LINE
  5
13B
330
A
100
AcDbEntity
  8
HEWI
100
AcDbLine
 10
-1851.936162
 20
-1707.658272
 30
0.0
 11
-1851.719182
 21
-1707.734337
 31
0.0
  0
LINE
  5
13C
330
A
100
AcDbEntity
  8
HEWI
100
AcDbLine
 10
-1778.572171
 20
-1627.219315
 30
0.0
 11
-1778.427174
 21
-1627.270317
 31
0.0
  0
LINE
  5
13D
330
A
100
AcDbEntity
  8
HEWI
100
AcDbLine
 10
-1852.234166
 20
-1883.100319
 30
0.0
 11
-1852.090161
 21
-1883.151284
 31
0.0
  0
LINE
  5
13E
330
A
100
AcDbEntity
  8
HEWI
100
AcDbLine
 10
-1777.916176
 20
-1882.588311
 30
0.0
 11
-1777.865173999999
 21
-1882.444268
 31
0.0
  0
LINE
  5
13F
330
A
100
AcDbEntity
  8
HEWI
100
AcDbLine
 10
-1852.797177
 20
-1627.926293
 30
0.0
 11
-1852.746174
 21
-1627.782288
 31
0.0
  0
LINE
  5
156
330
A
100
AcDbEntity
  8
HEWI
100
AcDbLine
 10
-1852.331173
 20
-1883.051339
 30
0.0
 11
-1852.234166
 21
-1883.100319
 31
0.0
  0
LINE
  5
157
330
A
100
AcDbEntity
  8
HEWI
100
AcDbLine
 10
-1852.746174
 20
-1627.782288
 30
0.0
 11
-1852.697194
 21
-1627.685318
 31
0.0
  0
LINE
  5
158
330
A
100
AcDbEntity
  8
HEWI
100
AcDbLine
 10
-1777.965176
 20
-1882.68528
 30
0.0
 11
-1777.916176
 21
-1882.588311
 31
0.0
  0
LINE
  5
159
330
A
100
AcDbEntity
  8
HEWI
100
AcDbLine
 10
-1778.427174
 20
-1627.270317
 30
0.0
 11
-1778.331177
 21
-1627.319298
 31
0.0
  0
LINE
  5
15A
330
A
100
AcDbEntity
  8
HEWI
100
AcDbLine
 10
-1778.032181
 20
-1707.035332
 30
0.0
 11
-1777.958176
 21
-1706.890297
 31
0.0
  0
LINE
  5
15B
330
A
100
AcDbEntity
  8
HEWI
100
AcDbLine
 10
-1852.704175
 20
-1663.680306
 30
0.0
 11
-1852.630169
 21
-1663.535309
 31
0.0
  0
LINE
  5
15C
330
A
100
AcDbEntity
  8
HEWI
100
AcDbLine
 10
-1852.081158
 20
-1707.584267
 30
0.0
 11
-1851.936162
 21
-1707.658272
 31
0.0
  0
LINE
  5
15D
330
A
100
AcDbEntity
  8
HEWI
100
AcDbLine
 10
-1778.72617
 20
-1662.912292999999
 30
0.0
 11
-1778.581173
 21
-1662.986298
 31
0.0
  0
LINE
  5
167
330
A
100
AcDbEntity
  8
HEWI
100
AcDbLine
 10
-1778.042176
 20
-1882.800331
 30
0.0
 11
-1777.965176
 21
-1882.68528
 31
0.0
  0
LINE
  5
168
330
A
100
AcDbEntity
  8
HEWI
100
AcDbLine
 10
-1852.697194
 20
-1627.685318
 30
0.0
 11
-1852.620175
 21
-1627.570305
 31
0.0
  0
LINE
  5
169
330
A
100
AcDbEntity
  8
HEWI
100
AcDbLine
 10
-1778.331177
 20
-1627.319298
 30
0.0
 11
-1778.216183
 21
-1627.396317
 31
0.0
  0
LINE
  5
16A
330
A
100
AcDbEntity
  8
HEWI
100
AcDbLine
 10
-1852.253163
 20
-1707.4683
 30
0.0
 11
-1852.081158
 21
-1707.584267
 31
0.0
  0
LINE
  5
16B
330
A
100
AcDbEntity
  8
HEWI
100
AcDbLine
 10
-1852.630169
 20
-1663.535309
 30
0.0
 11
-1852.514164
 21
-1663.363304
 31
0.0
  0
LINE
  5
16C
330
A
100
AcDbEntity
  8
HEWI
100
AcDbLine
 10
-1778.581173
 20
-1662.986298
 30
0.0
 11
-1778.409169
 21
-1663.102303
 31
0.0
  0
LINE
  5
16D
330
A
100
AcDbEntity
  8
HEWI
100
AcDbLine
 10
-1778.148167
 20
-1707.207299
 30
0.0
 11
-1778.032181
 21
-1707.035332
 31
0.0
  0
LINE
  5
16E
330
A
100
AcDbEntity
  8
HEWI
100
AcDbLine
 10
-1852.445157
 20
-1882.974282
 30
0.0
 11
-1852.331173
 21
-1883.051339
 31
0.0
  0
LINE
  5
17A
330
A
100
AcDbEntity
  8
HEWI
100
AcDbLine
 10
-1805.698178
 20
-1670.692292
 30
0.0
 11
-1805.513165
 21
-1670.822296
 31
0.0
  0
LINE
  5
182
330
A
100
AcDbEntity
  8
HEWI
100
AcDbLine
 10
-1852.514164
 20
-1663.363304
 30
0.0
 11
-1852.39217
 21
-1663.224297
 31
0.0
  0
LINE
  5
183
330
A
100
AcDbEntity
  8
HEWI
100
AcDbLine
 10
-1852.39217
 20
-1707.346305999999
 30
0.0
 11
-1852.253163
 21
-1707.4683
 31
0.0
  0
LINE
  5
184
330
A
100
AcDbEntity
  8
HEWI
100
AcDbLine
 10
-1778.409169
 20
-1663.102303
 30
0.0
 11
-1778.27018
 21
-1663.224297
 31
0.0
  0
LINE
  5
185
330
A
100
AcDbEntity
  8
HEWI
100
AcDbLine
 10
-1778.27018
 20
-1707.346305999999
 30
0.0
 11
-1778.148167
 21
-1707.207299
 31
0.0
  0
LINE
  5
187
330
A
100
AcDbEntity
  8
HEWI
100
AcDbLine
 10
-1852.538159
 20
-1882.892266
 30
0.0
 11
-1852.445157
 21
-1882.974282
 31
0.0
  0
LINE
  5
188
330
A
100
AcDbEntity
  8
HEWI
100
AcDbLine
 10
-1778.216183
 20
-1627.396317
 30
0.0
 11
-1778.124173
 21
-1627.478295
 31
0.0
  0
LINE
  5
189
330
A
100
AcDbEntity
  8
HEWI
100
AcDbLine
 10
-1852.620175
 20
-1627.570305
 30
0.0
 11
-1852.538159
 21
-1627.478295
 31
0.0
  0
LINE
  5
18A
330
A
100
AcDbEntity
  8
HEWI
100
AcDbLine
 10
-1778.124173
 20
-1882.892266
 30
0.0
 11
-1778.042176
 21
-1882.800331
 31
0.0
  0
LINE
  5
1C3
330
A
100
AcDbEntity
  8
HEWI
  6
STANDARD
 62
     7
100
AcDbLine
 10
-1063.384189084997
 20
-1702.135276999999
 30
0.0
 11
-874.8841850849981
 21
-1702.135277
 31
0.0
  0
LINE
  5
1C4
330
A
100
AcDbEntity
  8
HEWI
  6
STANDARD
 62
     7
100
AcDbLine
 10
-1382.384166084999
 20
-1702.135277
 30
0.0
 11
-903.3841800849973
 21
-1702.135277000001
 31
0.0
  0
LINE
  5
1C5
330
A
100
AcDbEntity
  8
HEWI
  6
STANDARD
 62
     7
100
AcDbLine
 10
-1515.982227084998
 20
-1702.135277
 30
0.0
 11
-1422.384185084997
 21
-1702.135277
 31
0.0
  0
LINE
  5
1C6
330
A
100
AcDbEntity
  8
HEWI
  6
STANDARD
 62
     7
100
AcDbLine
 10
-1515.982227084998
 20
-1668.435288000001
 30
0.0
 11
-874.8841850849981
 21
-1668.435288
 31
0.0
  0
LINE
  5
1C7
330
A
100
AcDbEntity
  8
HEWI
  6
STANDARD
 62
     7
100
AcDbLine
 10
-1100.384187084997
 20
-1777.635307999999
 30
0.0
 11
-1066.384181084996
 21
-1777.635307999999
 31
0.0
  0
LINE
  5
1C8
330
A
100
AcDbEntity
  8
HEWI
  6
STANDARD
 62
     7
100
AcDbLine
 10
-1419.384174084998
 20
-1777.635307999999
 30
0.0
 11
-1385.384178084997
 21
-1777.635308
 31
0.0
  0
LINE
  5
1C9
330
A
100
AcDbEntity
  8
HEWI
  6
STANDARD
 62
     7
100
AcDbLine
 10
-1100.384187084997
 20
-1700.374335999999
 30
0.0
 11
-1066.384181084996
 21
-1700.374335999999
 31
0.0
  0
LINE
  5
1CA
330
A
100
AcDbEntity
  8
HEWI
  6
STANDARD
 62
     7
100
AcDbLine
 10
-1419.384174084999
 20
-1700.374336
 30
0.0
 11
-1385.384178084997
 21
-1700.374336
 31
0.0
  0
LINE
  5
1CB
330
A
100
AcDbEntity
  8
HEWI
  6
STANDARD
 62
     7
100
AcDbLine
 10
-1559.684181084998
 20
-1704.685326
 30
0.0
 11
-1557.184162084997
 21
-1704.685326
 31
0.0
  0
LINE
  5
1CC
330
A
100
AcDbEntity
  8
HEWI
  6
STANDARD
 62
     7
100
AcDbLine
 10
-1559.684181084998
 20
-1665.885314999999
 30
0.0
 11
-1557.184162084997
 21
-1665.885314999999
 31
0.0
  0
LINE
  5
1CD
330
A
100
AcDbEntity
  8
HEWI
  6
STANDARD
 62
     7
100
AcDbLine
 10
-1556.684169084998
 20
-1707.785301
 30
0.0
 11
-1530.884170084997
 21
-1707.785301
 31
0.0
  0
LINE
  5
1CE
330
A
100
AcDbEntity
  8
HEWI
  6
STANDARD
 62
     7
100
AcDbLine
 10
-1552.384166084998
 20
-1800.135307999999
 30
0.0
 11
-930.5841890849983
 21
-1800.135307999999
 31
0.0
  0
LINE
  5
1CF
330
A
100
AcDbEntity
  8
HEWI
  6
STANDARD
 62
     7
100
AcDbLine
 10
-1063.384170084998
 20
-1775.135307999999
 30
0.0
 11
-933.3841890849976
 21
-1775.135308
 31
0.0
  0
LINE
  5
1D0
330
A
100
AcDbEntity
  8
HEWI
  6
STANDARD
 62
     7
100
AcDbLine
 10
-1382.384176084997
 20
-1775.135308
 30
0.0
 11
-953.3841800849968
 21
-1775.135308
 31
0.0
  0
LINE
  5
1D1
330
A
100
AcDbEntity
  8
HEWI
  6
STANDARD
 62
     7
100
AcDbLine
 10
-1552.384166084998
 20
-1775.135307999999
 30
0.0
 11
-1422.384166084998
 21
-1775.135308
 31
0.0
  0
LINE
  5
1D2
330
A
100
AcDbEntity
  8
HEWI
  6
STANDARD
 62
     7
100
AcDbLine
 10
-1555.684165084998
 20
-1799.885292
 30
0.0
 11
-1552.384166084998
 21
-1799.885292
 31
0.0
  0
LINE
  5
1D3
330
A
100
AcDbEntity
  8
HEWI
  6
STANDARD
 62
     7
100
AcDbLine
 10
-1555.684165084998
 20
-1775.385323
 30
0.0
 11
-1552.384166084998
 21
-1775.385323
 31
0.0
  0
LINE
  5
1D6
330
A
100
AcDbEntity
  8
HEWI
  6
STANDARD
 62
     7
100
AcDbLine
 10
-1559.684181084998
 20
-1665.685311
 30
0.0
 11
-1556.789989084997
 21
-1665.685311
 31
0.0
  0
LINE
  5
1D7
330
A
100
AcDbEntity
  8
HEWI
  6
STANDARD
 62
     7
100
AcDbLine
 10
-1571.884155084997
 20
-1627.185287999999
 30
0.0
 11
-1562.684173084996
 21
-1627.185287999999
 31
0.0
  0
LINE
  5
1D8
330
A
100
AcDbEntity
  8
HEWI
  6
STANDARD
 62
     7
100
AcDbLine
 10
-1571.884155084996
 20
-1883.185310999999
 30
0.0
 11
-1562.684173084996
 21
-1883.185310999999
 31
0.0
  0
LINE
  5
1DA
330
A
100
AcDbEntity
  8
HEWI
  6
STANDARD
 62
     7
100
AcDbLine
 10
-874.8841850849981
 20
-1668.691292
 30
0.0
 11
-874.8841850849981
 21
-1668.435288
 31
0.0
  0
LINE
  5
1DB
330
A
100
AcDbEntity
  8
HEWI
  6
STANDARD
 62
     7
100
AcDbLine
 10
-874.8841850849981
 20
-1702.135277
 30
0.0
 11
-874.8841850849981
 21
-1668.987313
 31
0.0
  0
LINE
  5
1DC
330
A
100
AcDbEntity
  8
HEWI
  6
STANDARD
 62
     7
100
AcDbLine
 10
-1382.384176084997
 20
-1775.97332
 30
0.0
 11
-1382.384176084998
 21
-1701.523323
 31
0.0
  0
LINE
  5
1DD
330
A
100
AcDbEntity
  8
HEWI
  6
STANDARD
 62
     7
100
AcDbLine
 10
-1422.384166084998
 20
-1775.97332
 30
0.0
 11
-1422.384166084999
 21
-1701.523322999999
 31
0.0
  0
LINE
  5
1DE
330
A
100
AcDbEntity
  8
HEWI
  6
STANDARD
 62
     7
100
AcDbLine
 10
-1556.684169084998
 20
-1665.685311
 30
0.0
 11
-1556.684169084998
 21
-1633.185310999999
 31
0.0
  0
LINE
  5
1DF
330
A
100
AcDbEntity
  8
HEWI
  6
STANDARD
 62
     7
100
AcDbLine
 10
-1556.684169084997
 20
-1877.185326000001
 30
0.0
 11
-1556.684169084998
 21
-1704.685326
 31
0.0
  0
LINE
  5
1E0
330
A
100
AcDbEntity
  8
HEWI
  6
STANDARD
 62
     7
100
AcDbLine
 10
-1559.684181084998
 20
-1704.685326
 30
0.0
 11
-1559.684181084998
 21
-1665.685311
 31
0.0
  0
LINE
  5
1E1
330
A
100
AcDbEntity
  8
HEWI
  6
STANDARD
 62
     7
100
AcDbLine
 10
-1552.384166084998
 20
-1800.135307999999
 30
0.0
 11
-1552.384166084998
 21
-1775.135307999999
 31
0.0
  0
LINE
  5
1E3
330
A
100
AcDbEntity
  8
HEWI
  6
STANDARD
 62
     7
100
AcDbLine
 10
-1063.384189084997
 20
-1775.973319999999
 30
0.0
 11
-1063.384189084997
 21
-1701.523322999999
 31
0.0
  0
LINE
  5
1E4
330
A
100
AcDbEntity
  8
HEWI
  6
STANDARD
 62
     7
100
AcDbLine
 10
-1103.384180084997
 20
-1775.973319999999
 30
0.0
 11
-1103.384180084997
 21
-1701.523322999999
 31
0.0
  0
LINE
  5
1E5
330
A
100
AcDbEntity
  8
HEWI
  6
STANDARD
 62
     7
100
AcDbLine
 10
-871.8841930849981
 20
-1701.822319
 30
0.0
 11
-871.8841930849981
 21
-1668.748284
 31
0.0
  0
LINE
  5
1ED
330
A
100
AcDbEntity
  8
HEWI
  6
STANDARD
 62
     7
100
AcDbLine
 10
-1571.884155084996
 20
-1883.185310999999
 30
0.0
 11
-1571.884155084997
 21
-1627.185287999999
 31
0.0
  0
LINE
  5
1EE
330
A
100
AcDbEntity
  8
HEWI
  6
STANDARD
 62
     7
100
AcDbLine
 10
-1557.684173084997
 20
-1665.885314999999
 30
0.0
 11
-1557.684173084997
 21
-1665.685311
 31
0.0
  0
LINE
  5
1EF
330
A
100
AcDbEntity
  8
HEWI
  6
STANDARD
 62
     7
100
AcDbLine
 10
-1562.684173084996
 20
-1882.588309999999
 30
0.0
 11
-1562.684173084996
 21
-1882.352333
 31
0.0
  0
LINE
  5
1F0
330
A
100
AcDbEntity
  8
HEWI
  6
STANDARD
 62
     7
100
AcDbLine
 10
-1513.966674084998
 20
-1700.106774
 30
0.0
 11
-1513.608169084998
 21
-1699.748268000001
 31
0.0
  0
LINE
  5
1F1
330
A
100
AcDbEntity
  8
HEWI
  6
STANDARD
 62
     7
100
AcDbLine
 10
-874.8841850849981
 20
-1668.735314
 30
0.0
 11
-874.6841810849982
 21
-1668.535309
 31
0.0
  0
LINE
  5
1F2
330
A
100
AcDbEntity
  8
HEWI
  6
STANDARD
 62
     7
100
AcDbLine
 10
-1513.966674084998
 20
-1700.106774
 30
0.0
 11
-1513.738155084997
 21
-1699.878273
 31
0.0
  0
LINE
  5
1F3
330
A
100
AcDbEntity
  8
HEWI
  6
STANDARD
 62
     7
100
AcDbLine
 10
-874.8841850849981
 20
-1701.835289
 30
0.0
 11
-874.6841810849979
 21
-1702.035332
 31
0.0
  0
LINE
  5
1F5
330
A
100
AcDbEntity
  8
HEWI
  6
STANDARD
 62
     7
100
AcDbLine
 10
-872.0841980849977
 20
-1702.021294
 30
0.0
 11
-871.8841930849981
 21
-1701.822319
 31
0.0
  0
LINE
  5
1F6
330
A
100
AcDbEntity
  8
HEWI
  6
STANDARD
 62
     7
100
AcDbLine
 10
-1515.453166084998
 20
-1668.911286
 30
0.0
 11
-1514.419174084998
 21
-1669.951287
 31
0.0
  0
LINE
  5
1F7
330
A
100
AcDbEntity
  8
HEWI
  6
STANDARD
 62
     7
100
AcDbLine
 10
-1063.641185084998
 20
-1701.137275999999
 30
0.0
 11
-1063.460178084997
 21
-1701.323280999999
 31
0.0
  0
LINE
  5
1F8
330
A
100
AcDbEntity
  8
HEWI
  6
STANDARD
 62
     7
100
AcDbLine
 10
-1382.641172084998
 20
-1701.137276
 30
0.0
 11
-1382.460174084999
 21
-1701.323281
 31
0.0
  0
LINE
  5
1F9
330
A
100
AcDbEntity
  8
HEWI
  6
STANDARD
 62
     7
100
AcDbLine
 10
-1382.882175084998
 20
-1776.755333
 30
0.0
 11
-1382.681179084998
 21
-1776.563301
 31
0.0
  0
LINE
  5
1FA
330
A
100
AcDbEntity
  8
HEWI
  6
STANDARD
 62
     7
100
AcDbLine
 10
-1063.882179084997
 20
-1776.755332999999
 30
0.0
 11
-1063.681182084998
 21
-1776.563300999999
 31
0.0
  0
LINE
  5
1FB
330
A
100
AcDbEntity
  8
HEWI
  6
STANDARD
 62
     7
100
AcDbLine
 10
-1515.726165084997
 20
-1701.913338
 30
0.0
 11
-1515.453166084998
 21
-1701.659279000001
 31
0.0
  0
LINE
  5
1FC
330
A
100
AcDbEntity
  8
HEWI
  6
STANDARD
 62
     7
100
AcDbLine
 10
-1514.419174084998
 20
-1669.951287
 30
0.0
 11
-1514.257164084998
 21
-1670.127297
 31
0.0
  0
LINE
  5
1FD
330
A
100
AcDbEntity
  8
HEWI
  6
STANDARD
 62
     7
100
AcDbLine
 10
-1516.553173084998
 20
-1702.630272
 30
0.0
 11
-1515.726165084997
 21
-1701.913338
 31
0.0
  0
LINE
  5
1FE
330
A
100
AcDbEntity
  8
HEWI
  6
STANDARD
 62
     7
100
AcDbLine
 10
-1558.442153084997
 20
-1628.942298999999
 30
0.0
 11
-1557.877159084997
 21
-1629.595298999999
 31
0.0
  0
LINE
  5
1FF
330
A
100
AcDbEntity
  8
HEWI
  6
STANDARD
 62
     7
100
AcDbLine
 10
-1514.257164084998
 20
-1670.127297
 30
0.0
 11
-1513.455162084997
 21
-1671.05629
 31
0.0
  0
LINE
  5
200
330
A
100
AcDbEntity
  8
HEWI
  6
STANDARD
 62
     7
100
AcDbLine
 10
-1422.216167084997
 20
-1776.406287999999
 30
0.0
 11
-1422.087173084996
 21
-1776.563301
 31
0.0
  0
LINE
  5
201
330
A
100
AcDbEntity
  8
HEWI
  6
STANDARD
 62
     7
100
AcDbLine
 10
-1103.216180084996
 20
-1776.406287999999
 30
0.0
 11
-1103.087186084998
 21
-1776.563300999999
 31
0.0
  0
LINE
  5
202
330
A
100
AcDbEntity
  8
HEWI
  6
STANDARD
 62
     7
100
AcDbLine
 10
-1559.449157084997
 20
-1882.238273999999
 30
0.0
 11
-1558.442153084997
 21
-1881.428336999999
 31
0.0
  0
LINE
  5
203
330
A
100
AcDbEntity
  8
HEWI
  6
STANDARD
 62
     7
100
AcDbLine
 10
-1517.325172084999
 20
-1703.240319000001
 30
0.0
 11
-1516.553173084998
 21
-1702.630272
 31
0.0
  0
LINE
  5
204
330
A
100
AcDbEntity
  8
HEWI
  6
STANDARD
 62
     7
100
AcDbLine
 10
-1513.455162084997
 20
-1671.05629
 30
0.0
 11
-1512.929172084998
 21
-1671.726302999999
 31
0.0
  0
LINE
  5
205
330
A
100
AcDbEntity
  8
HEWI
  6
STANDARD
 62
     7
100
AcDbLine
 10
-1556.934165084998
 20
-1665.818291
 30
0.0
 11
-1556.831169084998
 21
-1665.738297
 31
0.0
  0
LINE
  5
206
330
A
100
AcDbEntity
  8
HEWI
  6
STANDARD
 62
     7
100
AcDbLine
 10
-1517.713165084997
 20
-1703.527336
 30
0.0
 11
-1517.325172084999
 21
-1703.240319000001
 31
0.0
  0
LINE
  5
207
330
A
100
AcDbEntity
  8
HEWI
  6
STANDARD
 62
     7
100
AcDbLine
 10
-1512.929172084998
 20
-1671.726302999999
 30
0.0
 11
-1512.565174084998
 21
-1672.22229
 31
0.0
  0
LINE
  5
208
330
A
100
AcDbEntity
  8
HEWI
  6
STANDARD
 62
     7
100
AcDbLine
 10
-1383.050174084997
 20
-1776.878319
 30
0.0
 11
-1382.882175084998
 21
-1776.755333
 31
0.0
  0
LINE
  5
209
330
A
100
AcDbEntity
  8
HEWI
  6
STANDARD
 62
     7
100
AcDbLine
 10
-1064.050178084997
 20
-1776.878318999999
 30
0.0
 11
-1063.882179084997
 21
-1776.755332999999
 31
0.0
  0
LINE
  5
20A
330
A
100
AcDbEntity
  8
HEWI
  6
STANDARD
 62
     7
100
AcDbLine
 10
-1383.262176084998
 20
-1777.03228
 30
0.0
 11
-1383.050174084997
 21
-1776.878319
 31
0.0
  0
LINE
  5
20B
330
A
100
AcDbEntity
  8
HEWI
  6
STANDARD
 62
     7
100
AcDbLine
 10
-1064.262180084998
 20
-1777.032279999999
 30
0.0
 11
-1064.050178084997
 21
-1776.878318999999
 31
0.0
  0
LINE
  5
20C
330
A
100
AcDbEntity
  8
HEWI
  6
STANDARD
 62
     7
100
AcDbLine
 10
-1422.082176084996
 20
-1701.105309
 30
0.0
 11
-1421.925182084997
 21
-1700.994300999999
 31
0.0
  0
LINE
  5
20D
330
A
100
AcDbEntity
  8
HEWI
  6
STANDARD
 62
     7
100
AcDbLine
 10
-1103.082189084997
 20
-1701.105308999999
 30
0.0
 11
-1102.925186084996
 21
-1700.994300999999
 31
0.0
  0
LINE
  5
20E
330
A
100
AcDbEntity
  8
HEWI
  6
STANDARD
 62
     7
100
AcDbLine
 10
-1516.680545084998
 20
-1702.730980000001
 30
0.0
 11
-1516.381168084997
 21
-1702.521324
 31
0.0
  0
LINE
  5
20F
330
A
100
AcDbEntity
  8
HEWI
  6
STANDARD
 62
     7
100
AcDbLine
 10
-1513.608169084998
 20
-1670.822296
 30
0.0
 11
-1513.354568084999
 21
-1671.184426
 31
0.0
  0
LINE
  5
210
330
A
100
AcDbEntity
  8
HEWI
  6
STANDARD
 62
     7
100
AcDbLine
 10
-1519.594173084998
 20
-1704.771308999999
 30
0.0
 11
-1519.303836084998
 21
-1704.567985999999
 31
0.0
  0
LINE
  5
211
330
A
100
AcDbEntity
  8
HEWI
  6
STANDARD
 62
     7
100
AcDbLine
 10
-1511.664295084997
 20
-1673.598137
 30
0.0
 11
-1511.358165084996
 21
-1674.035300999999
 31
0.0
  0
LINE
  5
212
330
A
100
AcDbEntity
  8
HEWI
  6
STANDARD
 62
     7
100
AcDbLine
 10
-1511.664371084998
 20
-1673.597984999999
 30
0.0
 11
-1511.358165084996
 21
-1674.035300999999
 31
0.0
  0
LINE
  5
213
330
A
100
AcDbEntity
  8
HEWI
  6
STANDARD
 62
     7
100
AcDbLine
 10
-1103.128185084996
 20
-1701.137275999999
 30
0.0
 11
-1103.082189084997
 21
-1701.105308999999
 31
0.0
  0
LINE
  5
214
330
A
100
AcDbEntity
  8
HEWI
  6
STANDARD
 62
     7
100
AcDbLine
 10
-1422.128181084997
 20
-1701.137276
 30
0.0
 11
-1422.082176084996
 21
-1701.105309
 31
0.0
  0
LINE
  5
215
330
A
100
AcDbEntity
  8
HEWI
  6
STANDARD
 62
     7
100
AcDbLine
 10
-1518.930168084999
 20
-1704.346276
 30
0.0
 11
-1517.713165084997
 21
-1703.527336
 31
0.0
  0
LINE
  5
216
330
A
100
AcDbEntity
  8
HEWI
  6
STANDARD
 62
     7
100
AcDbLine
 10
-1512.565174084998
 20
-1672.22229
 30
0.0
 11
-1511.754169084999
 21
-1673.440285
 31
0.0
  0
LINE
  5
217
330
A
100
AcDbEntity
  8
HEWI
  6
STANDARD
 62
     7
100
AcDbLine
 10
-1557.708168084998
 20
-1629.859314
 30
0.0
 11
-1557.411155084997
 21
-1630.322303999999
 31
0.0
  0
LINE
  5
218
330
A
100
AcDbEntity
  8
HEWI
  6
STANDARD
 62
     7
100
AcDbLine
 10
-1557.877159084997
 20
-1629.595298999999
 30
0.0
 11
-1557.708168084998
 21
-1629.859314
 31
0.0
  0
LINE
  5
219
330
A
100
AcDbEntity
  8
HEWI
  6
STANDARD
 62
     7
100
AcDbLine
 10
-1519.040164084998
 20
-1704.415321999999
 30
0.0
 11
-1518.930168084999
 21
-1704.346276
 31
0.0
  0
LINE
  5
21A
330
A
100
AcDbEntity
  8
HEWI
  6
STANDARD
 62
     7
100
AcDbLine
 10
-1422.309169084998
 20
-1776.253318999999
 30
0.0
 11
-1422.216167084997
 21
-1776.406287999999
 31
0.0
  0
LINE
  5
21B
330
A
100
AcDbEntity
  8
HEWI
  6
STANDARD
 62
     7
100
AcDbLine
 10
-1103.309183084998
 20
-1776.253318999999
 30
0.0
 11
-1103.216180084996
 21
-1776.406287999999
 31
0.0
  0
LINE
  5
21C
330
A
100
AcDbEntity
  8
HEWI
  6
STANDARD
 62
     7
100
AcDbLine
 10
-1520.197162084998
 20
-1705.085334999999
 30
0.0
 11
-1519.040164084998
 21
-1704.415321999999
 31
0.0
  0
LINE
  5
21D
330
A
100
AcDbEntity
  8
HEWI
  6
STANDARD
 62
     7
100
AcDbLine
 10
-1511.755161084996
 20
-1673.440285
 30
0.0
 11
-1511.021156084999
 21
-1674.715308999999
 31
0.0
  0
LINE
  5
21E
330
A
100
AcDbEntity
  8
HEWI
  6
STANDARD
 62
     7
100
AcDbLine
 10
-1383.514175084998
 20
-1777.176323
 30
0.0
 11
-1383.262176084998
 21
-1777.03228
 31
0.0
  0
LINE
  5
21F
330
A
100
AcDbEntity
  8
HEWI
  6
STANDARD
 62
     7
100
AcDbLine
 10
-1064.514179084998
 20
-1777.176323
 30
0.0
 11
-1064.262180084998
 21
-1777.032279999999
 31
0.0
  0
LINE
  5
220
330
A
100
AcDbEntity
  8
HEWI
  6
STANDARD
 62
     7
100
AcDbLine
 10
-1102.925186084996
 20
-1700.994300999999
 30
0.0
 11
-1102.730188084997
 21
-1700.884284999999
 31
0.0
  0
LINE
  5
221
330
A
100
AcDbEntity
  8
HEWI
  6
STANDARD
 62
     7
100
AcDbLine
 10
-1421.925182084997
 20
-1700.994300999999
 30
0.0
 11
-1421.730175084999
 21
-1700.884285
 31
0.0
  0
LINE
  5
222
330
A
100
AcDbEntity
  8
HEWI
  6
STANDARD
 62
     7
100
AcDbLine
 10
-1382.460174084999
 20
-1701.323281
 30
0.0
 11
-1382.403173084997
 21
-1701.425286
 31
0.0
  0
LINE
  5
223
330
A
100
AcDbEntity
  8
HEWI
  6
STANDARD
 62
     7
100
AcDbLine
 10
-1063.460178084997
 20
-1701.323280999999
 30
0.0
 11
-1063.403186084997
 21
-1701.425285999999
 31
0.0
  0
LINE
  5
224
330
A
100
AcDbEntity
  8
HEWI
  6
STANDARD
 62
     7
100
AcDbLine
 10
-1511.754169084999
 20
-1673.440285
 30
0.0
 11
-1511.724815084998
 21
-1673.493004
 31
0.0
  0
LINE
  5
225
330
A
100
AcDbEntity
  8
HEWI
  6
STANDARD
 62
     7
100
AcDbLine
 10
-1520.855159084999
 20
-1705.426292999999
 30
0.0
 11
-1520.197162084998
 21
-1705.085334999999
 31
0.0
  0
LINE
  5
226
330
A
100
AcDbEntity
  8
HEWI
  6
STANDARD
 62
     7
100
AcDbLine
 10
-1511.021156084999
 20
-1674.715308999999
 30
0.0
 11
-1510.743160084997
 21
-1675.256309999999
 31
0.0
  0
LINE
  5
227
330
A
100
AcDbEntity
  8
HEWI
  6
STANDARD
 62
     7
100
AcDbLine
 10
-1560.608177084998
 20
-1882.814292999999
 30
0.0
 11
-1559.695167084996
 21
-1882.360267999999
 31
0.0
  0
LINE
  5
228
330
A
100
AcDbEntity
  8
HEWI
  6
STANDARD
 62
     7
100
AcDbLine
 10
-1559.695167084996
 20
-1882.360267999999
 30
0.0
 11
-1559.449157084997
 21
-1882.238273999999
 31
0.0
  0
LINE
  5
229
330
A
100
AcDbEntity
  8
HEWI
  6
STANDARD
 62
     7
100
AcDbLine
 10
-1521.510162084997
 20
-1705.739326999999
 30
0.0
 11
-1520.855159084999
 21
-1705.426292999999
 31
0.0
  0
LINE
  5
22A
330
A
100
AcDbEntity
  8
HEWI
  6
STANDARD
 62
     7
100
AcDbLine
 10
-1383.786172084997
 20
-1777.305336
 30
0.0
 11
-1383.514175084998
 21
-1777.176323
 31
0.0
  0
LINE
  5
22B
330
A
100
AcDbEntity
  8
HEWI
  6
STANDARD
 62
     7
100
AcDbLine
 10
-1064.786186084998
 20
-1777.305335999999
 30
0.0
 11
-1064.514179084998
 21
-1777.176323
 31
0.0
  0
LINE
  5
22C
330
A
100
AcDbEntity
  8
HEWI
  6
STANDARD
 62
     7
100
AcDbLine
 10
-1510.743160084997
 20
-1675.256309999999
 30
0.0
 11
-1510.375156084998
 21
-1676.032295
 31
0.0
  0
LINE
  5
22D
330
A
100
AcDbEntity
  8
HEWI
  6
STANDARD
 62
     7
100
AcDbLine
 10
-1523.149166084998
 20
-1706.428336999999
 30
0.0
 11
-1522.956428084998
 21
-1706.338462999999
 31
0.0
  0
LINE
  5
22E
330
A
100
AcDbEntity
  8
HEWI
  6
STANDARD
 62
     7
100
AcDbLine
 10
-1519.905605084996
 20
-1704.916496999999
 30
0.0
 11
-1519.594173084998
 21
-1704.771308999999
 31
0.0
  0
LINE
  5
22F
330
A
100
AcDbEntity
  8
HEWI
  6
STANDARD
 62
     7
100
AcDbLine
 10
-1509.914550084998
 20
-1677.132454
 30
0.0
 11
-1509.701156084997
 21
-1677.590293999999
 31
0.0
  0
LINE
  5
230
330
A
100
AcDbEntity
  8
HEWI
  6
STANDARD
 62
     7
100
AcDbLine
 10
-1511.358165084996
 20
-1674.035300999999
 30
0.0
 11
-1511.126499084997
 21
-1674.532357
 31
0.0
  0
LINE
  5
231
330
A
100
AcDbEntity
  8
HEWI
  6
STANDARD
 62
     7
100
AcDbLine
 10
-1509.915981084998
 20
-1677.129097
 30
0.0
 11
-1509.701156084997
 21
-1677.590293999999
 31
0.0
  0
LINE
  5
232
330
A
100
AcDbEntity
  8
HEWI
  6
STANDARD
 62
     7
100
AcDbLine
 10
-1421.730175084999
 20
-1700.884285
 30
0.0
 11
-1421.506176084998
 21
-1700.780296999998
 31
0.0
  0
LINE
  5
233
330
A
100
AcDbEntity
  8
HEWI
  6
STANDARD
 62
     7
100
AcDbLine
 10
-1102.730188084997
 20
-1700.884284999999
 30
0.0
 11
-1102.506189084998
 21
-1700.780296999998
 31
0.0
  0
LINE
  5
234
330
A
100
AcDbEntity
  8
HEWI
  6
STANDARD
 62
     7
100
AcDbLine
 10
-1557.152156084997
 20
-1630.894317999999
 30
0.0
 11
-1557.055168084998
 21
-1631.108283999999
 31
0.0
  0
LINE
  5
235
330
A
100
AcDbEntity
  8
HEWI
  6
STANDARD
 62
     7
100
AcDbLine
 10
-1557.411155084997
 20
-1630.322303999999
 30
0.0
 11
-1557.152156084997
 21
-1630.894317999999
 31
0.0
  0
LINE
  5
236
330
A
100
AcDbEntity
  8
HEWI
  6
STANDARD
 62
     7
100
AcDbLine
 10
-1522.756156084998
 20
-1706.266289
 30
0.0
 11
-1521.510162084997
 21
-1705.739326999999
 31
0.0
  0
LINE
  5
237
330
A
100
AcDbEntity
  8
HEWI
  6
STANDARD
 62
     7
100
AcDbLine
 10
-1510.375156084998
 20
-1676.032295
 30
0.0
 11
-1509.904155084997
 21
-1677.157325999999
 31
0.0
  0
LINE
  5
238
330
A
100
AcDbEntity
  8
HEWI
  6
STANDARD
 62
     7
100
AcDbLine
 10
-1557.055168084999
 20
-1665.868301999999
 30
0.0
 11
-1556.934165084998
 21
-1665.818291
 31
0.0
  0
LINE
  5
239
330
A
100
AcDbEntity
  8
HEWI
  6
STANDARD
 62
     7
100
AcDbLine
 10
-1556.751155084997
 20
-1704.935264999999
 30
0.0
 11
-1556.701164084997
 21
-1705.056266999999
 31
0.0
  0
LINE
  5
23A
330
A
100
AcDbEntity
  8
HEWI
  6
STANDARD
 62
     7
100
AcDbLine
 10
-1421.506176084998
 20
-1700.780296999998
 30
0.0
 11
-1421.255168084998
 21
-1700.682334999999
 31
0.0
  0
LINE
  5
23B
330
A
100
AcDbEntity
  8
HEWI
  6
STANDARD
 62
     7
100
AcDbLine
 10
-1102.506189084998
 20
-1700.780296999998
 30
0.0
 11
-1102.255182084997
 21
-1700.682335000001
 31
0.0
  0
LINE
  5
23C
330
A
100
AcDbEntity
  8
HEWI
  6
STANDARD
 62
     7
100
AcDbLine
 10
-1065.083179084997
 20
-1777.419318999999
 30
0.0
 11
-1064.786186084998
 21
-1777.305335999999
 31
0.0
  0
LINE
  5
23D
330
A
100
AcDbEntity
  8
HEWI
  6
STANDARD
 62
     7
100
AcDbLine
 10
-1384.083175084998
 20
-1777.419319
 30
0.0
 11
-1383.786172084997
 21
-1777.305336
 31
0.0
  0
LINE
  5
23E
330
A
100
AcDbEntity
  8
HEWI
  6
STANDARD
 62
     7
100
AcDbLine
 10
-1509.904155084997
 20
-1677.157325999999
 30
0.0
 11
-1509.816169084998
 21
-1677.388267999999
 31
0.0
  0
LINE
  5
23F
330
A
100
AcDbEntity
  8
HEWI
  6
STANDARD
 62
     7
100
AcDbLine
 10
-1522.863159084998
 20
-1706.306266999999
 30
0.0
 11
-1522.756156084998
 21
-1706.266289
 31
0.0
  0
LINE
  5
240
330
A
100
AcDbEntity
  8
HEWI
  6
STANDARD
 62
     7
100
AcDbLine
 10
-1524.249172084997
 20
-1706.784324999999
 30
0.0
 11
-1522.863159084998
 21
-1706.306266999999
 31
0.0
  0
LINE
  5
241
330
A
100
AcDbEntity
  8
HEWI
  6
STANDARD
 62
     7
100
AcDbLine
 10
-1422.377166084998
 20
-1776.055335999999
 30
0.0
 11
-1422.309169084998
 21
-1776.253318999999
 31
0.0
  0
LINE
  5
242
330
A
100
AcDbEntity
  8
HEWI
  6
STANDARD
 62
     7
100
AcDbLine
 10
-1103.377180084998
 20
-1776.055335999999
 30
0.0
 11
-1103.309183084998
 21
-1776.253318999999
 31
0.0
  0
LINE
  5
243
330
A
100
AcDbEntity
  8
HEWI
  6
STANDARD
 62
     7
100
AcDbLine
 10
-1509.816169084998
 20
-1677.388267999999
 30
0.0
 11
-1509.346160084998
 21
-1678.777275
 31
0.0
  0
LINE
  5
244
330
A
100
AcDbEntity
  8
HEWI
  6
STANDARD
 62
     7
100
AcDbLine
 10
-1421.255168084998
 20
-1700.682334999999
 30
0.0
 11
-1420.981178084997
 21
-1700.594292
 31
0.0
  0
LINE
  5
245
330
A
100
AcDbEntity
  8
HEWI
  6
STANDARD
 62
     7
100
AcDbLine
 10
-1102.255182084997
 20
-1700.682335000001
 30
0.0
 11
-1101.981182084997
 21
-1700.594292
 31
0.0
  0
LINE
  5
246
330
A
100
AcDbEntity
  8
HEWI
  6
STANDARD
 62
     7
100
AcDbLine
 10
-1524.727172084997
 20
-1706.926307999999
 30
0.0
 11
-1524.249172084997
 21
-1706.784324999999
 31
0.0
  0
LINE
  5
247
330
A
100
AcDbEntity
  8
HEWI
  6
STANDARD
 62
     7
100
AcDbLine
 10
-1384.390172084997
 20
-1777.510338
 30
0.0
 11
-1384.083175084998
 21
-1777.419319
 31
0.0
  0
LINE
  5
248
330
A
100
AcDbEntity
  8
HEWI
  6
STANDARD
 62
     7
100
AcDbLine
 10
-1065.390186084997
 20
-1777.510337999999
 30
0.0
 11
-1065.083179084997
 21
-1777.419318999999
 31
0.0
  0
LINE
  5
249
330
A
100
AcDbEntity
  8
HEWI
  6
STANDARD
 62
     7
100
AcDbLine
 10
-1509.346160084998
 20
-1678.777275
 30
0.0
 11
-1509.243164084998
 21
-1679.128304
 31
0.0
  0
LINE
  5
24A
330
A
100
AcDbEntity
  8
HEWI
  6
STANDARD
 62
     7
100
AcDbLine
 10
-1557.055168084998
 20
-1631.108283999999
 30
0.0
 11
-1556.815166084998
 21
-1631.937294
 31
0.0
  0
LINE
  5
24B
330
A
100
AcDbEntity
  8
HEWI
  6
STANDARD
 62
     7
100
AcDbLine
 10
-1508.840675084998
 20
-1680.801659
 30
0.0
 11
-1508.686161084997
 21
-1681.378289
 31
0.0
  0
LINE
  5
24C
330
A
100
AcDbEntity
  8
HEWI
  6
STANDARD
 62
     7
100
AcDbLine
 10
-1509.701156084997
 20
-1677.590293999999
 30
0.0
 11
-1509.523677084998
 21
-1678.252754
 31
0.0
  0
LINE
  5
24D
330
A
100
AcDbEntity
  8
HEWI
  6
STANDARD
 62
     7
100
AcDbLine
 10
-1526.937160084997
 20
-1707.443276000001
 30
0.0
 11
-1526.853122084998
 21
-1707.420769
 31
0.0
  0
LINE
  5
24E
330
A
100
AcDbEntity
  8
HEWI
  6
STANDARD
 62
     7
100
AcDbLine
 10
-1508.841037084998
 20
-1680.799904
 30
0.0
 11
-1508.686161084997
 21
-1681.378289
 31
0.0
  0
LINE
  5
24F
330
A
100
AcDbEntity
  8
HEWI
  6
STANDARD
 62
     7
100
AcDbLine
 10
-1523.452911084997
 20
-1706.509667
 30
0.0
 11
-1523.149166084998
 21
-1706.428336999999
 31
0.0
  0
LINE
  5
250
330
A
100
AcDbEntity
  8
HEWI
  6
STANDARD
 62
     7
100
AcDbLine
 10
-1525.664157084998
 20
-1707.171287999999
 30
0.0
 11
-1524.727172084997
 21
-1706.926307999999
 31
0.0
  0
LINE
  5
251
330
A
100
AcDbEntity
  8
HEWI
  6
STANDARD
 62
     7
100
AcDbLine
 10
-1509.243164084998
 20
-1679.128304
 30
0.0
 11
-1508.968162084998
 21
-1680.195275
 31
0.0
  0
LINE
  5
252
330
A
100
AcDbEntity
  8
HEWI
  6
STANDARD
 62
     7
100
AcDbLine
 10
-1101.981182084997
 20
-1700.594292
 30
0.0
 11
-1101.686182084997
 21
-1700.518302999999
 31
0.0
  0
LINE
  5
253
330
A
100
AcDbEntity
  8
HEWI
  6
STANDARD
 62
     7
100
AcDbLine
 10
-1420.981178084997
 20
-1700.594292
 30
0.0
 11
-1420.686168084998
 21
-1700.518303
 31
0.0
  0
LINE
  5
254
330
A
100
AcDbEntity
  8
HEWI
  6
STANDARD
 62
     7
100
AcDbLine
 10
-1561.862182084998
 20
-1883.128319
 30
0.0
 11
-1561.140174084996
 21
-1882.947272999999
 31
0.0
  0
LINE
  5
255
330
A
100
AcDbEntity
  8
HEWI
  6
STANDARD
 62
     7
100
AcDbLine
 10
-1561.140174084996
 20
-1882.947272999999
 30
0.0
 11
-1560.608177084998
 21
-1882.814292999999
 31
0.0
  0
LINE
  5
256
330
A
100
AcDbEntity
  8
HEWI
  6
STANDARD
 62
     7
100
AcDbLine
 10
-1526.750164084997
 20
-1707.402305999999
 30
0.0
 11
-1525.664157084998
 21
-1707.171287999999
 31
0.0
  0
LINE
  5
257
330
A
100
AcDbEntity
  8
HEWI
  6
STANDARD
 62
     7
100
AcDbLine
 10
-1065.717182084997
 20
-1777.579307999999
 30
0.0
 11
-1065.390186084997
 21
-1777.510337999999
 31
0.0
  0
LINE
  5
258
330
A
100
AcDbEntity
  8
HEWI
  6
STANDARD
 62
     7
100
AcDbLine
 10
-1384.717178084997
 20
-1777.579308
 30
0.0
 11
-1384.390172084997
 21
-1777.510338
 31
0.0
  0
LINE
  5
259
330
A
100
AcDbEntity
  8
HEWI
  6
STANDARD
 62
     7
100
AcDbLine
 10
-1508.968162084998
 20
-1680.195275
 30
0.0
 11
-1508.767166084997
 21
-1681.151314
 31
0.0
  0
LINE
  5
25A
330
A
100
AcDbEntity
  8
HEWI
  6
STANDARD
 62
     7
100
AcDbLine
 10
-1420.686168084998
 20
-1700.518303
 30
0.0
 11
-1420.377178084999
 21
-1700.457267999999
 31
0.0
  0
LINE
  5
25B
330
A
100
AcDbEntity
  8
HEWI
  6
STANDARD
 62
     7
100
AcDbLine
 10
-1101.686182084997
 20
-1700.518302999999
 30
0.0
 11
-1101.377182084998
 21
-1700.457267999999
 31
0.0
  0
LINE
  5
25C
330
A
100
AcDbEntity
  8
HEWI
  6
STANDARD
 62
     7
100
AcDbLine
 10
-1382.403173084997
 20
-1701.425286
 30
0.0
 11
-1382.384176084998
 21
-1701.523323
 31
0.0
  0
LINE
  5
25D
330
A
100
AcDbEntity
  8
HEWI
  6
STANDARD
 62
     7
100
AcDbLine
 10
-1063.403186084997
 20
-1701.425285999999
 30
0.0
 11
-1063.384189084997
 21
-1701.523322999999
 31
0.0
  0
LINE
  5
25E
330
A
100
AcDbEntity
  8
HEWI
  6
STANDARD
 62
     7
100
AcDbLine
 10
-1527.101173084997
 20
-1707.465324999999
 30
0.0
 11
-1526.750164084997
 21
-1707.402305999999
 31
0.0
  0
LINE
  5
25F
330
A
100
AcDbEntity
  8
HEWI
  6
STANDARD
 62
     7
100
AcDbLine
 10
-1508.767166084997
 20
-1681.151314
 30
0.0
 11
-1508.683166084999
 21
-1681.633263
 31
0.0
  0
LINE
  5
260
330
A
100
AcDbEntity
  8
HEWI
  6
STANDARD
 62
     7
100
AcDbLine
 10
-1556.684169084998
 20
-1798.905296999999
 30
0.0
 11
-1556.635169084998
 21
-1799.208335999999
 31
0.0
  0
LINE
  5
261
330
A
100
AcDbEntity
  8
HEWI
  6
STANDARD
 62
     7
100
AcDbLine
 10
-1555.993156084997
 20
-1775.433312
 30
0.0
 11
-1555.684165084998
 21
-1775.385323
 31
0.0
  0
LINE
  5
262
330
A
100
AcDbEntity
  8
HEWI
  6
STANDARD
 62
     7
100
AcDbLine
 10
-1101.377182084998
 20
-1700.457267999999
 30
0.0
 11
-1101.052188084997
 21
-1700.411262999999
 31
0.0
  0
LINE
  5
263
330
A
100
AcDbEntity
  8
HEWI
  6
STANDARD
 62
     7
100
AcDbLine
 10
-1420.377178084999
 20
-1700.457267999999
 30
0.0
 11
-1420.052166084998
 21
-1700.411263
 31
0.0
  0
LINE
  5
264
330
A
100
AcDbEntity
  8
HEWI
  6
STANDARD
 62
     7
100
AcDbLine
 10
-1556.805171084997
 20
-1632.015305
 30
0.0
 11
-1556.697158084997
 21
-1632.793311999999
 31
0.0
  0
LINE
  5
265
330
A
100
AcDbEntity
  8
HEWI
  6
STANDARD
 62
     7
100
AcDbLine
 10
-1528.555164084998
 20
-1707.664298999999
 30
0.0
 11
-1527.101173084997
 21
-1707.465324999999
 31
0.0
  0
LINE
  5
266
330
A
100
AcDbEntity
  8
HEWI
  6
STANDARD
 62
     7
100
AcDbLine
 10
-1557.184162084997
 20
-1665.885314999999
 30
0.0
 11
-1557.055168084999
 21
-1665.868301999999
 31
0.0
  0
LINE
  5
267
330
A
100
AcDbEntity
  8
HEWI
  6
STANDARD
 62
     7
100
AcDbLine
 10
-1556.701164084997
 20
-1705.056266999999
 30
0.0
 11
-1556.684169084998
 21
-1705.18528
 31
0.0
  0
LINE
  5
268
330
A
100
AcDbEntity
  8
HEWI
  6
STANDARD
 62
     7
100
AcDbLine
 10
-1508.683166084999
 20
-1681.633263
 30
0.0
 11
-1508.492164084998
 21
-1683.088265
 31
0.0
  0
LINE
  5
269
330
A
100
AcDbEntity
  8
HEWI
  6
STANDARD
 62
     7
100
AcDbLine
 10
-1556.815166084998
 20
-1631.937294
 30
0.0
 11
-1556.805171084997
 21
-1632.015305
 31
0.0
  0
LINE
  5
26A
330
A
100
AcDbEntity
  8
HEWI
  6
STANDARD
 62
     7
100
AcDbLine
 10
-1385.046176084996
 20
-1777.621269
 30
0.0
 11
-1384.717178084997
 21
-1777.579308
 31
0.0
  0
LINE
  5
26B
330
A
100
AcDbEntity
  8
HEWI
  6
STANDARD
 62
     7
100
AcDbLine
 10
-1066.046180084998
 20
-1777.621269000001
 30
0.0
 11
-1065.717182084997
 21
-1777.579307999999
 31
0.0
  0
LINE
  5
26C
330
A
100
AcDbEntity
  8
HEWI
  6
STANDARD
 62
     7
100
AcDbLine
 10
-1508.492164084998
 20
-1683.088265
 30
0.0
 11
-1508.480167084998
 21
-1683.209267000001
 31
0.0
  0
LINE
  5
26D
330
A
100
AcDbEntity
  8
HEWI
  6
STANDARD
 62
     7
100
AcDbLine
 10
-1528.808174084999
 20
-1707.689323999999
 30
0.0
 11
-1528.555164084998
 21
-1707.664298999999
 31
0.0
  0
LINE
  5
26E
330
A
100
AcDbEntity
  8
HEWI
  6
STANDARD
 62
     7
100
AcDbLine
 10
-1530.851497084998
 20
-1662.785949999999
 30
0.0
 11
-1530.844173084997
 21
-1662.785300999999
 31
0.0
  0
LINE
  5
26F
330
A
100
AcDbEntity
  8
HEWI
  6
STANDARD
 62
     7
100
AcDbLine
 10
-1527.018032084996
 20
-1707.450371
 30
0.0
 11
-1526.937160084997
 21
-1707.443276000001
 31
0.0
  0
LINE
  5
270
330
A
100
AcDbEntity
  8
HEWI
  6
STANDARD
 62
     7
100
AcDbLine
 10
-1508.686161084997
 20
-1681.378289
 30
0.0
 11
-1508.624897084998
 21
-1682.077141
 31
0.0
  0
LINE
  5
271
330
A
100
AcDbEntity
  8
HEWI
  6
STANDARD
 62
     7
100
AcDbLine
 10
-1508.393363084998
 20
-1684.723244
 30
0.0
 11
-1508.344173084997
 21
-1685.285300999999
 31
0.0
  0
LINE
  5
272
330
A
100
AcDbEntity
  8
HEWI
  6
STANDARD
 62
     7
100
AcDbLine
 10
-1508.686161084997
 20
-1681.378289
 30
0.0
 11
-1508.625183084998
 21
-1682.075080999999
 31
0.0
  0
LINE
  5
273
330
A
100
AcDbEntity
  8
HEWI
  6
STANDARD
 62
     7
100
AcDbLine
 10
-1508.393383084998
 20
-1684.722862
 30
0.0
 11
-1508.344173084997
 21
-1685.285300999999
 31
0.0
  0
LINE
  5
274
330
A
100
AcDbEntity
  8
HEWI
  6
STANDARD
 62
     7
100
AcDbLine
 10
-1530.844173084997
 20
-1707.785301
 30
0.0
 11
-1530.832595084998
 21
-1707.78431
 31
0.0
  0
LINE
  5
275
330
A
100
AcDbEntity
  8
HEWI
  6
STANDARD
 62
     7
100
AcDbLine
 10
-1422.384166084998
 20
-1775.97332
 30
0.0
 11
-1422.377166084998
 21
-1776.055335999999
 31
0.0
  0
LINE
  5
276
330
A
100
AcDbEntity
  8
HEWI
  6
STANDARD
 62
     7
100
AcDbLine
 10
-1103.384180084997
 20
-1775.973319999999
 30
0.0
 11
-1103.377180084998
 21
-1776.055335999999
 31
0.0
  0
LINE
  5
277
330
A
100
AcDbEntity
  8
HEWI
  6
STANDARD
 62
     7
100
AcDbLine
 10
-1420.052166084998
 20
-1700.411263
 30
0.0
 11
-1419.722175084996
 21
-1700.383263
 31
0.0
  0
LINE
  5
278
330
A
100
AcDbEntity
  8
HEWI
  6
STANDARD
 62
     7
100
AcDbLine
 10
-1101.052188084997
 20
-1700.411262999999
 30
0.0
 11
-1100.722188084997
 21
-1700.383262999999
 31
0.0
  0
LINE
  5
279
330
A
100
AcDbEntity
  8
HEWI
  6
STANDARD
 62
     7
100
AcDbLine
 10
-1562.684173084996
 20
-1883.185310999999
 30
0.0
 11
-1561.862182084998
 21
-1883.128319
 31
0.0
  0
LINE
  5
27A
330
A
100
AcDbEntity
  8
HEWI
  6
STANDARD
 62
     7
100
AcDbLine
 10
-1530.018157084998
 20
-1707.768287999999
 30
0.0
 11
-1528.808174084999
 21
-1707.689323999999
 31
0.0
  0
LINE
  5
27B
330
A
100
AcDbEntity
  8
HEWI
  6
STANDARD
 62
     7
100
AcDbLine
 10
-1508.480167084998
 20
-1683.209267000001
 30
0.0
 11
-1508.396167084996
 21
-1684.552269
 31
0.0
  0
LINE
  5
27C
330
A
100
AcDbEntity
  8
HEWI
  6
STANDARD
 62
     7
100
AcDbLine
 10
-1385.384178084997
 20
-1777.635308
 30
0.0
 11
-1385.046176084996
 21
-1777.621269
 31
0.0
  0
LINE
  5
27D
330
A
100
AcDbEntity
  8
HEWI
  6
STANDARD
 62
     7
100
AcDbLine
 10
-1066.384181084996
 20
-1777.635307999999
 30
0.0
 11
-1066.046180084998
 21
-1777.621269000001
 31
0.0
  0
LINE
  5
27E
330
A
100
AcDbEntity
  8
HEWI
  6
STANDARD
 62
     7
100
AcDbLine
 10
-1556.697158084997
 20
-1632.793311999999
 30
0.0
 11
-1556.684169084998
 21
-1633.185310999999
 31
0.0
  0
LINE
  5
27F
330
A
100
AcDbEntity
  8
HEWI
  6
STANDARD
 62
     7
100
AcDbLine
 10
-1419.722175084996
 20
-1700.383263
 30
0.0
 11
-1419.384174084999
 21
-1700.374336
 31
0.0
  0
LINE
  5
280
330
A
100
AcDbEntity
  8
HEWI
  6
STANDARD
 62
     7
100
AcDbLine
 10
-1100.722188084997
 20
-1700.383262999999
 30
0.0
 11
-1100.384187084997
 21
-1700.374335999999
 31
0.0
  0
LINE
  5
281
330
A
100
AcDbEntity
  8
HEWI
  6
STANDARD
 62
     7
100
AcDbLine
 10
-1530.884170084997
 20
-1707.785301
 30
0.0
 11
-1530.018157084998
 21
-1707.768287999999
 31
0.0
  0
LINE
  5
282
330
A
100
AcDbEntity
  8
HEWI
  6
STANDARD
 62
     7
100
AcDbLine
 10
-1508.396167084996
 20
-1684.552269
 30
0.0
 11
-1508.384170084997
 21
-1685.285300999999
 31
0.0
  0
LINE
  5
283
330
A
100
AcDbEntity
  8
HEWI
  6
STANDARD
 62
     7
100
AcDbLine
 10
-874.6841810849979
 20
-1702.035332
 30
0.0
 11
-872.0841980849977
 21
-1702.021294
 31
0.0
  0
LINE
  5
284
330
A
100
AcDbEntity
  8
HEWI
  6
STANDARD
 62
     7
100
AcDbLine
 10
-874.6841810849982
 20
-1668.535309
 30
0.0
 11
-872.0841980849977
 21
-1668.548317
 31
0.0
  0
LINE
  5
285
330
A
100
AcDbEntity
  8
HEWI
  6
STANDARD
 62
     7
100
AcDbLine
 10
-1508.396167084996
 20
-1686.018334
 30
0.0
 11
-1508.384170084997
 21
-1685.285300999999
 31
0.0
  0
LINE
  5
286
330
A
100
AcDbEntity
  8
HEWI
  6
STANDARD
 62
     7
100
AcDbLine
 10
-1385.384178084997
 20
-1700.374336
 30
0.0
 11
-1385.048170084997
 21
-1700.383263
 31
0.0
  0
LINE
  5
287
330
A
100
AcDbEntity
  8
HEWI
  6
STANDARD
 62
     7
100
AcDbLine
 10
-1066.384181084996
 20
-1700.374335999999
 30
0.0
 11
-1066.048183084998
 21
-1700.383262999999
 31
0.0
  0
LINE
  5
288
330
A
100
AcDbEntity
  8
HEWI
  6
STANDARD
 62
     7
100
AcDbLine
 10
-1562.684173084996
 20
-1627.185287999999
 30
0.0
 11
-1562.292175084998
 21
-1627.198295999999
 31
0.0
  0
LINE
  5
289
330
A
100
AcDbEntity
  8
HEWI
  6
STANDARD
 62
     7
100
AcDbLine
 10
-1508.480167084998
 20
-1687.361335999999
 30
0.0
 11
-1508.396167084996
 21
-1686.018334
 31
0.0
  0
LINE
  5
28A
330
A
100
AcDbEntity
  8
HEWI
  6
STANDARD
 62
     7
100
AcDbLine
 10
-1530.018157084998
 20
-1662.802314999999
 30
0.0
 11
-1528.808174084998
 21
-1662.881317
 31
0.0
  0
LINE
  5
28B
330
A
100
AcDbEntity
  8
HEWI
  6
STANDARD
 62
     7
100
AcDbLine
 10
-1556.741161084997
 20
-1878.007316999999
 30
0.0
 11
-1556.684169084997
 21
-1877.185326000001
 31
0.0
  0
LINE
  5
28C
330
A
100
AcDbEntity
  8
HEWI
  6
STANDARD
 62
     7
100
AcDbLine
 10
-1530.851497084998
 20
-1707.784691
 30
0.0
 11
-1530.844173084997
 21
-1707.785301
 31
0.0
  0
LINE
  5
28D
330
A
100
AcDbEntity
  8
HEWI
  6
STANDARD
 62
     7
100
AcDbLine
 10
-1066.048183084998
 20
-1700.383262999999
 30
0.0
 11
-1065.717182084997
 21
-1700.411262999999
 31
0.0
  0
LINE
  5
28E
330
A
100
AcDbEntity
  8
HEWI
  6
STANDARD
 62
     7
100
AcDbLine
 10
-1385.048170084997
 20
-1700.383263
 30
0.0
 11
-1384.717178084997
 21
-1700.411263
 31
0.0
  0
LINE
  5
28F
330
A
100
AcDbEntity
  8
HEWI
  6
STANDARD
 62
     7
100
AcDbLine
 10
-1382.391176084998
 20
-1776.055336
 30
0.0
 11
-1382.384176084997
 21
-1775.97332
 31
0.0
  0
LINE
  5
290
330
A
100
AcDbEntity
  8
HEWI
  6
STANDARD
 62
     7
100
AcDbLine
 10
-1063.391189084998
 20
-1776.055335999999
 30
0.0
 11
-1063.384189084997
 21
-1775.973319999999
 31
0.0
  0
LINE
  5
291
330
A
100
AcDbEntity
  8
HEWI
  6
STANDARD
 62
     7
100
AcDbLine
 10
-1530.844173084997
 20
-1662.785300999999
 30
0.0
 11
-1530.832595084997
 21
-1662.786292999999
 31
0.0
  0
LINE
  5
292
330
A
100
AcDbEntity
  8
HEWI
  6
STANDARD
 62
     7
100
AcDbLine
 10
-1527.018032084995
 20
-1663.120231999999
 30
0.0
 11
-1526.937160084997
 21
-1663.127288999999
 31
0.0
  0
LINE
  5
293
330
A
100
AcDbEntity
  8
HEWI
  6
STANDARD
 62
     7
100
AcDbLine
 10
-1508.393383084998
 20
-1685.847739999999
 30
0.0
 11
-1508.344173084997
 21
-1685.285300999999
 31
0.0
  0
LINE
  5
294
330
A
100
AcDbEntity
  8
HEWI
  6
STANDARD
 62
     7
100
AcDbLine
 10
-1508.393363084998
 20
-1685.847359
 30
0.0
 11
-1508.344173084997
 21
-1685.285300999999
 31
0.0
  0
LINE
  5
295
330
A
100
AcDbEntity
  8
HEWI
  6
STANDARD
 62
     7
100
AcDbLine
 10
-1508.686161084997
 20
-1689.192313999999
 30
0.0
 11
-1508.624992084997
 21
-1688.493461999999
 31
0.0
  0
LINE
  5
296
330
A
100
AcDbEntity
  8
HEWI
  6
STANDARD
 62
     7
100
AcDbLine
 10
-1508.686161084997
 20
-1689.192313999999
 30
0.0
 11
-1508.624706084998
 21
-1688.491326000001
 31
0.0
  0
LINE
  5
297
330
A
100
AcDbEntity
  8
HEWI
  6
STANDARD
 62
     7
100
AcDbLine
 10
-1528.808174084998
 20
-1662.881317
 30
0.0
 11
-1528.555164084998
 21
-1662.906304
 31
0.0
  0
LINE
  5
298
330
A
100
AcDbEntity
  8
HEWI
  6
STANDARD
 62
     7
100
AcDbLine
 10
-1508.492164084998
 20
-1687.482338
 30
0.0
 11
-1508.480167084998
 21
-1687.361335999999
 31
0.0
  0
LINE
  5
299
330
A
100
AcDbEntity
  8
HEWI
  6
STANDARD
 62
     7
100
AcDbLine
 10
-1508.683166084999
 20
-1688.936272
 30
0.0
 11
-1508.492164084998
 21
-1687.482338
 31
0.0
  0
LINE
  5
29A
330
A
100
AcDbEntity
  8
HEWI
  6
STANDARD
 62
     7
100
AcDbLine
 10
-1556.701164084997
 20
-1665.514297999999
 30
0.0
 11
-1556.684169084998
 21
-1665.385284999999
 31
0.0
  0
LINE
  5
29B
330
A
100
AcDbEntity
  8
HEWI
  6
STANDARD
 62
     7
100
AcDbLine
 10
-1528.555164084998
 20
-1662.906304
 30
0.0
 11
-1527.101173084997
 21
-1663.105315999999
 31
0.0
  0
LINE
  5
29C
330
A
100
AcDbEntity
  8
HEWI
  6
STANDARD
 62
     7
100
AcDbLine
 10
-1562.292175084998
 20
-1627.198295999999
 30
0.0
 11
-1561.514167084997
 21
-1627.305297999999
 31
0.0
  0
LINE
  5
29D
330
A
100
AcDbEntity
  8
HEWI
  6
STANDARD
 62
     7
100
AcDbLine
 10
-1384.717178084997
 20
-1700.411263
 30
0.0
 11
-1384.392175084997
 21
-1700.456276
 31
0.0
  0
LINE
  5
29E
330
A
100
AcDbEntity
  8
HEWI
  6
STANDARD
 62
     7
100
AcDbLine
 10
-1065.717182084997
 20
-1700.411262999999
 30
0.0
 11
-1065.392189084997
 21
-1700.456275999999
 31
0.0
  0
LINE
  5
29F
330
A
100
AcDbEntity
  8
HEWI
  6
STANDARD
 62
     7
100
AcDbLine
 10
-1561.514167084997
 20
-1627.305297999999
 30
0.0
 11
-1561.437149084998
 21
-1627.316283999999
 31
0.0
  0
LINE
  5
2A0
330
A
100
AcDbEntity
  8
HEWI
  6
STANDARD
 62
     7
100
AcDbLine
 10
-1555.993156084997
 20
-1799.837302999999
 30
0.0
 11
-1555.684165084998
 21
-1799.885292
 31
0.0
  0
LINE
  5
2A1
330
A
100
AcDbEntity
  8
HEWI
  6
STANDARD
 62
     7
100
AcDbLine
 10
-1556.684169084998
 20
-1776.365319000001
 30
0.0
 11
-1556.635169084998
 21
-1776.062278999999
 31
0.0
  0
LINE
  5
2A2
330
A
100
AcDbEntity
  8
HEWI
  6
STANDARD
 62
     7
100
AcDbLine
 10
-1508.767166084997
 20
-1689.419288999999
 30
0.0
 11
-1508.683166084999
 21
-1688.936272
 31
0.0
  0
LINE
  5
2A3
330
A
100
AcDbEntity
  8
HEWI
  6
STANDARD
 62
     7
100
AcDbLine
 10
-1527.101173084997
 20
-1663.105315999999
 30
0.0
 11
-1526.750164084997
 21
-1663.168296999999
 31
0.0
  0
LINE
  5
2A4
330
A
100
AcDbEntity
  8
HEWI
  6
STANDARD
 62
     7
100
AcDbLine
 10
-1422.384166084999
 20
-1701.523322999999
 30
0.0
 11
-1422.365169084999
 21
-1701.426277
 31
0.0
  0
LINE
  5
2A5
330
A
100
AcDbEntity
  8
HEWI
  6
STANDARD
 62
     7
100
AcDbLine
 10
-1103.384180084997
 20
-1701.523322999999
 30
0.0
 11
-1103.365182084997
 21
-1701.426276999999
 31
0.0
  0
LINE
  5
2A6
330
A
100
AcDbEntity
  8
HEWI
  6
STANDARD
 62
     7
100
AcDbLine
 10
-1065.392189084997
 20
-1700.456275999999
 30
0.0
 11
-1065.083179084997
 21
-1700.518302999999
 31
0.0
  0
LINE
  5
2A7
330
A
100
AcDbEntity
  8
HEWI
  6
STANDARD
 62
     7
100
AcDbLine
 10
-1384.392175084997
 20
-1700.456276
 30
0.0
 11
-1384.083175084999
 21
-1700.518303
 31
0.0
  0
LINE
  5
2A8
330
A
100
AcDbEntity
  8
HEWI
  6
STANDARD
 62
     7
100
AcDbLine
 10
-1508.968162084998
 20
-1690.375328000001
 30
0.0
 11
-1508.767166084997
 21
-1689.419288999999
 31
0.0
  0
LINE
  5
2A9
330
A
100
AcDbEntity
  8
HEWI
  6
STANDARD
 62
     7
100
AcDbLine
 10
-1526.750164084997
 20
-1663.168296999999
 30
0.0
 11
-1525.664157084998
 21
-1663.399315
 31
0.0
  0
LINE
  5
2AA
330
A
100
AcDbEntity
  8
HEWI
  6
STANDARD
 62
     7
100
AcDbLine
 10
-1557.055168084998
 20
-1879.262276000001
 30
0.0
 11
-1556.922168084996
 21
-1878.730278
 31
0.0
  0
LINE
  5
2AB
330
A
100
AcDbEntity
  8
HEWI
  6
STANDARD
 62
     7
100
AcDbLine
 10
-1556.922168084996
 20
-1878.730278
 30
0.0
 11
-1556.741161084997
 21
-1878.007316999999
 31
0.0
  0
LINE
  5
2AC
330
A
100
AcDbEntity
  8
HEWI
  6
STANDARD
 62
     7
100
AcDbLine
 10
-1384.083175084999
 20
-1700.518303
 30
0.0
 11
-1383.786172084997
 21
-1700.594292
 31
0.0
  0
LINE
  5
2AD
330
A
100
AcDbEntity
  8
HEWI
  6
STANDARD
 62
     7
100
AcDbLine
 10
-1065.083179084997
 20
-1700.518302999999
 30
0.0
 11
-1064.786186084998
 21
-1700.594292
 31
0.0
  0
LINE
  5
2AE
330
A
100
AcDbEntity
  8
HEWI
  6
STANDARD
 62
     7
100
AcDbLine
 10
-1509.243164084998
 20
-1691.442299
 30
0.0
 11
-1508.968162084998
 21
-1690.375328000001
 31
0.0
  0
LINE
  5
2AF
330
A
100
AcDbEntity
  8
HEWI
  6
STANDARD
 62
     7
100
AcDbLine
 10
-1525.664157084998
 20
-1663.399315
 30
0.0
 11
-1524.727172084997
 21
-1663.644294999999
 31
0.0
  0
LINE
  5
2B0
330
A
100
AcDbEntity
  8
HEWI
  6
STANDARD
 62
     7
100
AcDbLine
 10
-1523.439903084998
 20
-1664.064407999999
 30
0.0
 11
-1523.149166084998
 21
-1664.142303999999
 31
0.0
  0
LINE
  5
2B1
330
A
100
AcDbEntity
  8
HEWI
  6
STANDARD
 62
     7
100
AcDbLine
 10
-1509.701156084997
 20
-1692.980309000001
 30
0.0
 11
-1509.522857084997
 21
-1692.314873000001
 31
0.0
  0
LINE
  5
2B2
330
A
100
AcDbEntity
  8
HEWI
  6
STANDARD
 62
     7
100
AcDbLine
 10
-1508.840675084998
 20
-1689.768944
 30
0.0
 11
-1508.686161084997
 21
-1689.192313999999
 31
0.0
  0
LINE
  5
2B3
330
A
100
AcDbEntity
  8
HEWI
  6
STANDARD
 62
     7
100
AcDbLine
 10
-1509.701156084997
 20
-1692.980309000001
 30
0.0
 11
-1509.522342084998
 21
-1692.313347
 31
0.0
  0
LINE
  5
2B4
330
A
100
AcDbEntity
  8
HEWI
  6
STANDARD
 62
     7
100
AcDbLine
 10
-1526.937160084997
 20
-1663.127288999999
 30
0.0
 11
-1526.853122084998
 21
-1663.149833999999
 31
0.0
  0
LINE
  5
2B5
330
A
100
AcDbEntity
  8
HEWI
  6
STANDARD
 62
     7
100
AcDbLine
 10
-1561.437149084998
 20
-1627.316283999999
 30
0.0
 11
-1560.608177084998
 21
-1627.556304999999
 31
0.0
  0
LINE
  5
2B6
330
A
100
AcDbEntity
  8
HEWI
  6
STANDARD
 62
     7
100
AcDbLine
 10
-1509.346160084998
 20
-1691.792335999999
 30
0.0
 11
-1509.243164084998
 21
-1691.442299
 31
0.0
  0
LINE
  5
2B7
330
A
100
AcDbEntity
  8
HEWI
  6
STANDARD
 62
     7
100
AcDbLine
 10
-1101.686182084997
 20
-1777.419318999999
 30
0.0
 11
-1101.377182084998
 21
-1777.510337999999
 31
0.0
  0
LINE
  5
2B8
330
A
100
AcDbEntity
  8
HEWI
  6
STANDARD
 62
     7
100
AcDbLine
 10
-1420.686168084998
 20
-1777.419319
 30
0.0
 11
-1420.377178084998
 21
-1777.510338
 31
0.0
  0
LINE
  5
2B9
330
A
100
AcDbEntity
  8
HEWI
  6
STANDARD
 62
     7
100
AcDbLine
 10
-1524.727172084997
 20
-1663.644294999999
 30
0.0
 11
-1524.249172084997
 21
-1663.785285999999
 31
0.0
  0
LINE
  5
2BA
330
A
100
AcDbEntity
  8
HEWI
  6
STANDARD
 62
     7
100
AcDbLine
 10
-1064.786186084998
 20
-1700.594292
 30
0.0
 11
-1064.514179084998
 21
-1700.682335000001
 31
0.0
  0
LINE
  5
2BB
330
A
100
AcDbEntity
  8
HEWI
  6
STANDARD
 62
     7
100
AcDbLine
 10
-1383.786172084997
 20
-1700.594292
 30
0.0
 11
-1383.514175084998
 21
-1700.682335
 31
0.0
  0
LINE
  5
2BC
330
A
100
AcDbEntity
  8
HEWI
  6
STANDARD
 62
     7
100
AcDbLine
 10
-1509.816169084998
 20
-1693.182335000001
 30
0.0
 11
-1509.346160084998
 21
-1691.792335999999
 31
0.0
  0
LINE
  5
2BD
330
A
100
AcDbEntity
  8
HEWI
  6
STANDARD
 62
     7
100
AcDbLine
 10
-1524.249172084997
 20
-1663.785285999999
 30
0.0
 11
-1522.863159084998
 21
-1664.263306
 31
0.0
  0
LINE
  5
2BE
330
A
100
AcDbEntity
  8
HEWI
  6
STANDARD
 62
     7
100
AcDbLine
 10
-1063.460178084997
 20
-1776.253318999999
 30
0.0
 11
-1063.391189084998
 21
-1776.055335999999
 31
0.0
  0
LINE
  5
2BF
330
A
100
AcDbEntity
  8
HEWI
  6
STANDARD
 62
     7
100
AcDbLine
 10
-1382.460174084998
 20
-1776.253319
 30
0.0
 11
-1382.391176084998
 21
-1776.055336
 31
0.0
  0
LINE
  5
2C0
330
A
100
AcDbEntity
  8
HEWI
  6
STANDARD
 62
     7
100
AcDbLine
 10
-1509.904155084997
 20
-1693.413277
 30
0.0
 11
-1509.816169084998
 21
-1693.182335000001
 31
0.0
  0
LINE
  5
2C1
330
A
100
AcDbEntity
  8
HEWI
  6
STANDARD
 62
     7
100
AcDbLine
 10
-1522.863159084998
 20
-1664.263306
 30
0.0
 11
-1522.756156084998
 21
-1664.304313999999
 31
0.0
  0
LINE
  5
2C2
330
A
100
AcDbEntity
  8
HEWI
  6
STANDARD
 62
     7
100
AcDbLine
 10
-1420.984172084997
 20
-1777.304268
 30
0.0
 11
-1420.686168084998
 21
-1777.419319
 31
0.0
  0
LINE
  5
2C3
330
A
100
AcDbEntity
  8
HEWI
  6
STANDARD
 62
     7
100
AcDbLine
 10
-1101.984186084997
 20
-1777.304267999999
 30
0.0
 11
-1101.686182084997
 21
-1777.419318999999
 31
0.0
  0
LINE
  5
2C4
330
A
100
AcDbEntity
  8
HEWI
  6
STANDARD
 62
     7
100
AcDbLine
 10
-1383.514175084998
 20
-1700.682335
 30
0.0
 11
-1383.263177084998
 21
-1700.779305
 31
0.0
  0
LINE
  5
2C5
330
A
100
AcDbEntity
  8
HEWI
  6
STANDARD
 62
     7
100
AcDbLine
 10
-1064.514179084998
 20
-1700.682335000001
 30
0.0
 11
-1064.263191084997
 21
-1700.779305
 31
0.0
  0
LINE
  5
2C6
330
A
100
AcDbEntity
  8
HEWI
  6
STANDARD
 62
     7
100
AcDbLine
 10
-1556.751155084997
 20
-1665.635299999999
 30
0.0
 11
-1556.701164084997
 21
-1665.514297999999
 31
0.0
  0
LINE
  5
2C7
330
A
100
AcDbEntity
  8
HEWI
  6
STANDARD
 62
     7
100
AcDbLine
 10
-1510.375156084998
 20
-1694.538307
 30
0.0
 11
-1509.904155084997
 21
-1693.413277
 31
0.0
  0
LINE
  5
2C8
330
A
100
AcDbEntity
  8
HEWI
  6
STANDARD
 62
     7
100
AcDbLine
 10
-1522.756156084998
 20
-1664.304313999999
 30
0.0
 11
-1521.510162084997
 21
-1664.831313999999
 31
0.0
  0
LINE
  5
2C9
330
A
100
AcDbEntity
  8
HEWI
  6
STANDARD
 62
     7
100
AcDbLine
 10
-1560.608177084998
 20
-1627.556304999999
 30
0.0
 11
-1560.393180084997
 21
-1627.653312999999
 31
0.0
  0
LINE
  5
2CA
330
A
100
AcDbEntity
  8
HEWI
  6
STANDARD
 62
     7
100
AcDbLine
 10
-1560.393180084997
 20
-1627.653312999999
 30
0.0
 11
-1559.821167084997
 21
-1627.912292999999
 31
0.0
  0
LINE
  5
2CB
330
A
100
AcDbEntity
  8
HEWI
  6
STANDARD
 62
     7
100
AcDbLine
 10
-1523.149166084998
 20
-1664.142303999999
 30
0.0
 11
-1522.964668084997
 21
-1664.228286999999
 31
0.0
  0
LINE
  5
2CC
330
A
100
AcDbEntity
  8
HEWI
  6
STANDARD
 62
     7
100
AcDbLine
 10
-1519.905605084996
 20
-1665.654144999999
 30
0.0
 11
-1519.594173084998
 21
-1665.799293999999
 31
0.0
  0
LINE
  5
2CD
330
A
100
AcDbEntity
  8
HEWI
  6
STANDARD
 62
     7
100
AcDbLine
 10
-1509.914550084998
 20
-1693.438149
 30
0.0
 11
-1509.701156084997
 21
-1692.980309000001
 31
0.0
  0
LINE
  5
2CE
330
A
100
AcDbEntity
  8
HEWI
  6
STANDARD
 62
     7
100
AcDbLine
 10
-1511.358165084996
 20
-1696.535301000001
 30
0.0
 11
-1511.126918084997
 21
-1696.039162
 31
0.0
  0
LINE
  5
2CF
330
A
100
AcDbEntity
  8
HEWI
  6
STANDARD
 62
     7
100
AcDbLine
 10
-1383.263177084998
 20
-1700.779305
 30
0.0
 11
-1383.039178084996
 21
-1700.884285
 31
0.0
  0
LINE
  5
2D0
330
A
100
AcDbEntity
  8
HEWI
  6
STANDARD
 62
     7
100
AcDbLine
 10
-1064.263191084997
 20
-1700.779305
 30
0.0
 11
-1064.039192084998
 21
-1700.884284999999
 31
0.0
  0
LINE
  5
2D1
330
A
100
AcDbEntity
  8
HEWI
  6
STANDARD
 62
     7
100
AcDbLine
 10
-1421.255168084998
 20
-1777.176323
 30
0.0
 11
-1420.984172084997
 21
-1777.304268
 31
0.0
  0
LINE
  5
2D2
330
A
100
AcDbEntity
  8
HEWI
  6
STANDARD
 62
     7
100
AcDbLine
 10
-1102.255182084997
 20
-1777.176323
 30
0.0
 11
-1101.984186084997
 21
-1777.304267999999
 31
0.0
  0
LINE
  5
2D3
330
A
100
AcDbEntity
  8
HEWI
  6
STANDARD
 62
     7
100
AcDbLine
 10
-1510.743160084997
 20
-1695.314293
 30
0.0
 11
-1510.375156084998
 21
-1694.538307
 31
0.0
  0
LINE
  5
2D4
330
A
100
AcDbEntity
  8
HEWI
  6
STANDARD
 62
     7
100
AcDbLine
 10
-1521.510162084997
 20
-1664.831313999999
 30
0.0
 11
-1520.855159084999
 21
-1665.144309999999
 31
0.0
  0
LINE
  5
2D5
330
A
100
AcDbEntity
  8
HEWI
  6
STANDARD
 62
     7
100
AcDbLine
 10
-1557.509155084996
 20
-1880.175285999999
 30
0.0
 11
-1557.055168084998
 21
-1879.262276000001
 31
0.0
  0
LINE
  5
2D6
330
A
100
AcDbEntity
  8
HEWI
  6
STANDARD
 62
     7
100
AcDbLine
 10
-1557.631149084998
 20
-1880.420264999998
 30
0.0
 11
-1557.509155084996
 21
-1880.175285999999
 31
0.0
  0
LINE
  5
2D7
330
A
100
AcDbEntity
  8
HEWI
  6
STANDARD
 62
     7
100
AcDbLine
 10
-1511.021156084999
 20
-1695.855294000001
 30
0.0
 11
-1510.743160084997
 21
-1695.314293
 31
0.0
  0
LINE
  5
2D8
330
A
100
AcDbEntity
  8
HEWI
  6
STANDARD
 62
     7
100
AcDbLine
 10
-1520.855159084999
 20
-1665.144309999999
 30
0.0
 11
-1520.197162084998
 21
-1665.485306
 31
0.0
  0
LINE
  5
2D9
330
A
100
AcDbEntity
  8
HEWI
  6
STANDARD
 62
     7
100
AcDbLine
 10
-1422.365169084999
 20
-1701.426277
 30
0.0
 11
-1422.309169084998
 21
-1701.323281
 31
0.0
  0
LINE
  5
2DA
330
A
100
AcDbEntity
  8
HEWI
  6
STANDARD
 62
     7
100
AcDbLine
 10
-1103.365182084997
 20
-1701.426276999999
 30
0.0
 11
-1103.309183084998
 21
-1701.323280999999
 31
0.0
  0
LINE
  5
2DB
330
A
100
AcDbEntity
  8
HEWI
  6
STANDARD
 62
     7
100
AcDbLine
 10
-1511.754169084999
 20
-1697.130318
 30
0.0
 11
-1511.745090084998
 21
-1697.113991
 31
0.0
  0
LINE
  5
2DC
330
A
100
AcDbEntity
  8
HEWI
  6
STANDARD
 62
     7
100
AcDbLine
 10
-1383.039178084996
 20
-1700.884285
 30
0.0
 11
-1382.844171084998
 21
-1700.994301
 31
0.0
  0
LINE
  5
2DD
330
A
100
AcDbEntity
  8
HEWI
  6
STANDARD
 62
     7
100
AcDbLine
 10
-1064.039192084998
 20
-1700.884284999999
 30
0.0
 11
-1063.844184084997
 21
-1700.994300999999
 31
0.0
  0
LINE
  5
2DE
330
A
100
AcDbEntity
  8
HEWI
  6
STANDARD
 62
     7
100
AcDbLine
 10
-1421.506176084998
 20
-1777.033271999999
 30
0.0
 11
-1421.255168084998
 21
-1777.176323
 31
0.0
  0
LINE
  5
2DF
330
A
100
AcDbEntity
  8
HEWI
  6
STANDARD
 62
     7
100
AcDbLine
 10
-1102.506189084998
 20
-1777.033271999999
 30
0.0
 11
-1102.255182084997
 21
-1777.176323
 31
0.0
  0
LINE
  5
2E0
330
A
100
AcDbEntity
  8
HEWI
  6
STANDARD
 62
     7
100
AcDbLine
 10
-1511.752166084998
 20
-1697.126273999998
 30
0.0
 11
-1511.021156084999
 21
-1695.855294000001
 31
0.0
  0
LINE
  5
2E1
330
A
100
AcDbEntity
  8
HEWI
  6
STANDARD
 62
     7
100
AcDbLine
 10
-1520.197162084998
 20
-1665.485306
 30
0.0
 11
-1519.040164084998
 21
-1666.155318999999
 31
0.0
  0
LINE
  5
2E2
330
A
100
AcDbEntity
  8
HEWI
  6
STANDARD
 62
     7
100
AcDbLine
 10
-1382.553176084997
 20
-1776.406288
 30
0.0
 11
-1382.460174084998
 21
-1776.253319
 31
0.0
  0
LINE
  5
2E3
330
A
100
AcDbEntity
  8
HEWI
  6
STANDARD
 62
     7
100
AcDbLine
 10
-1063.553180084997
 20
-1776.406287999999
 30
0.0
 11
-1063.460178084997
 21
-1776.253318999999
 31
0.0
  0
LINE
  5
2E4
330
A
100
AcDbEntity
  8
HEWI
  6
STANDARD
 62
     7
100
AcDbLine
 10
-1519.040164084998
 20
-1666.155318999999
 30
0.0
 11
-1518.930168084999
 21
-1666.224288999999
 31
0.0
  0
LINE
  5
2E5
330
A
100
AcDbEntity
  8
HEWI
  6
STANDARD
 62
     7
100
AcDbLine
 10
-1559.359169084997
 20
-1628.208313000001
 30
0.0
 11
-1559.094162084997
 21
-1628.377303999999
 31
0.0
  0
LINE
  5
2E6
330
A
100
AcDbEntity
  8
HEWI
  6
STANDARD
 62
     7
100
AcDbLine
 10
-1559.821167084997
 20
-1627.912292999999
 30
0.0
 11
-1559.359169084997
 21
-1628.208313000001
 31
0.0
  0
LINE
  5
2E7
330
A
100
AcDbEntity
  8
HEWI
  6
STANDARD
 62
     7
100
AcDbLine
 10
-1512.565174084998
 20
-1698.348273999999
 30
0.0
 11
-1511.754169084999
 21
-1697.130318
 31
0.0
  0
LINE
  5
2E8
330
A
100
AcDbEntity
  8
HEWI
  6
STANDARD
 62
     7
100
AcDbLine
 10
-1518.930168084999
 20
-1666.224288999999
 30
0.0
 11
-1517.713165084997
 21
-1667.043304999999
 31
0.0
  0
LINE
  5
2E9
330
A
100
AcDbEntity
  8
HEWI
  6
STANDARD
 62
     7
100
AcDbLine
 10
-1063.844184084997
 20
-1700.994300999999
 30
0.0
 11
-1063.681182084998
 21
-1701.105308999999
 31
0.0
  0
LINE
  5
2EA
330
A
100
AcDbEntity
  8
HEWI
  6
STANDARD
 62
     7
100
AcDbLine
 10
-1382.844171084998
 20
-1700.994301
 30
0.0
 11
-1382.681179084998
 21
-1701.105309
 31
0.0
  0
LINE
  5
2EB
330
A
100
AcDbEntity
  8
HEWI
  6
STANDARD
 62
     7
100
AcDbLine
 10
-1421.730175084998
 20
-1776.880302999999
 30
0.0
 11
-1421.506176084998
 21
-1777.033271999999
 31
0.0
  0
LINE
  5
2EC
330
A
100
AcDbEntity
  8
HEWI
  6
STANDARD
 62
     7
100
AcDbLine
 10
-1102.730188084997
 20
-1776.880302999999
 30
0.0
 11
-1102.506189084998
 21
-1777.033271999999
 31
0.0
  0
LINE
  5
2ED
330
A
100
AcDbEntity
  8
HEWI
  6
STANDARD
 62
     7
100
AcDbLine
 10
-1511.660861084997
 20
-1696.967583
 30
0.0
 11
-1511.358165084996
 21
-1696.535301000001
 31
0.0
  0
LINE
  5
2EE
330
A
100
AcDbEntity
  8
HEWI
  6
STANDARD
 62
     7
100
AcDbLine
 10
-1519.594173084998
 20
-1665.799293999999
 30
0.0
 11
-1519.303836084998
 21
-1666.002617
 31
0.0
  0
LINE
  5
2EF
330
A
100
AcDbEntity
  8
HEWI
  6
STANDARD
 62
     7
100
AcDbLine
 10
-1516.680545084998
 20
-1667.839660999999
 30
0.0
 11
-1516.381168084997
 21
-1668.049317
 31
0.0
  0
LINE
  5
2F0
330
A
100
AcDbEntity
  8
HEWI
  6
STANDARD
 62
     7
100
AcDbLine
 10
-1513.608169084998
 20
-1699.748268000001
 30
0.0
 11
-1513.354415084997
 21
-1699.385947999999
 31
0.0
  0
LINE
  5
2F1
330
A
100
AcDbEntity
  8
HEWI
  6
STANDARD
 62
     7
100
AcDbLine
 10
-1513.608169084998
 20
-1699.748268000001
 30
0.0
 11
-1513.354568084999
 21
-1699.386177
 31
0.0
  0
LINE
  5
2F2
330
A
100
AcDbEntity
  8
HEWI
  6
STANDARD
 62
     7
100
AcDbLine
 10
-1512.929172084998
 20
-1698.844338
 30
0.0
 11
-1512.565174084998
 21
-1698.348273999999
 31
0.0
  0
LINE
  5
2F3
330
A
100
AcDbEntity
  8
HEWI
  6
STANDARD
 62
     7
100
AcDbLine
 10
-1517.713165084997
 20
-1667.043304999999
 30
0.0
 11
-1517.325172084999
 21
-1667.330284
 31
0.0
  0
LINE
  5
2F4
330
A
100
AcDbEntity
  8
HEWI
  6
STANDARD
 62
     7
100
AcDbLine
 10
-1556.831169084998
 20
-1665.738297
 30
0.0
 11
-1556.751155084997
 21
-1665.635299999999
 31
0.0
  0
LINE
  5
2F5
330
A
100
AcDbEntity
  8
HEWI
  6
STANDARD
 62
     7
100
AcDbLine
 10
-1513.455162084997
 20
-1699.514275
 30
0.0
 11
-1512.929172084998
 21
-1698.844338
 31
0.0
  0
LINE
  5
2F6
330
A
100
AcDbEntity
  8
HEWI
  6
STANDARD
 62
     7
100
AcDbLine
 10
-1517.325172084999
 20
-1667.330284
 30
0.0
 11
-1516.553173084998
 21
-1667.940293
 31
0.0
  0
LINE
  5
2F7
330
A
100
AcDbEntity
  8
HEWI
  6
STANDARD
 62
     7
100
AcDbLine
 10
-1421.887168084998
 20
-1776.755333
 30
0.0
 11
-1421.730175084998
 21
-1776.880302999999
 31
0.0
  0
LINE
  5
2F8
330
A
100
AcDbEntity
  8
HEWI
  6
STANDARD
 62
     7
100
AcDbLine
 10
-1102.887182084997
 20
-1776.755332999999
 30
0.0
 11
-1102.730188084997
 21
-1776.880302999999
 31
0.0
  0
LINE
  5
2F9
330
A
100
AcDbEntity
  8
HEWI
  6
STANDARD
 62
     7
100
AcDbLine
 10
-1382.681179084998
 20
-1701.105309
 30
0.0
 11
-1382.641172084998
 21
-1701.137276
 31
0.0
  0
LINE
  5
2FA
330
A
100
AcDbEntity
  8
HEWI
  6
STANDARD
 62
     7
100
AcDbLine
 10
-1063.681182084998
 20
-1701.105308999999
 30
0.0
 11
-1063.641185084998
 21
-1701.137275999999
 31
0.0
  0
LINE
  5
2FB
330
A
100
AcDbEntity
  8
HEWI
  6
STANDARD
 62
     7
100
AcDbLine
 10
-1558.442153084997
 20
-1881.428336999999
 30
0.0
 11
-1557.631149084998
 21
-1880.420264999998
 31
0.0
  0
LINE
  5
2FC
330
A
100
AcDbEntity
  8
HEWI
  6
STANDARD
 62
     7
100
AcDbLine
 10
-1382.681179084998
 20
-1776.563301
 30
0.0
 11
-1382.553176084997
 21
-1776.406288
 31
0.0
  0
LINE
  5
2FD
330
A
100
AcDbEntity
  8
HEWI
  6
STANDARD
 62
     7
100
AcDbLine
 10
-1063.681182084998
 20
-1776.563300999999
 30
0.0
 11
-1063.553180084997
 21
-1776.406287999999
 31
0.0
  0
LINE
  5
2FE
330
A
100
AcDbEntity
  8
HEWI
  6
STANDARD
 62
     7
100
AcDbLine
 10
-1514.257164084998
 20
-1700.443305999999
 30
0.0
 11
-1513.455162084997
 21
-1699.514275
 31
0.0
  0
LINE
  5
2FF
330
A
100
AcDbEntity
  8
HEWI
  6
STANDARD
 62
     7
100
AcDbLine
 10
-1559.094162084997
 20
-1628.377303999999
 30
0.0
 11
-1558.442153084997
 21
-1628.942298999999
 31
0.0
  0
LINE
  5
300
330
A
100
AcDbEntity
  8
HEWI
  6
STANDARD
 62
     7
100
AcDbLine
 10
-1516.553173084998
 20
-1667.940293
 30
0.0
 11
-1515.726165084997
 21
-1668.657302999999
 31
0.0
  0
LINE
  5
301
330
A
100
AcDbEntity
  8
HEWI
  6
STANDARD
 62
     7
100
AcDbLine
 10
-1514.419174084998
 20
-1700.619316
 30
0.0
 11
-1514.257164084998
 21
-1700.443305999999
 31
0.0
  0
LINE
  5
302
330
A
100
AcDbEntity
  8
HEWI
  6
STANDARD
 62
     7
100
AcDbLine
 10
-1515.726165084997
 20
-1668.657302999999
 30
0.0
 11
-1515.453166084998
 21
-1668.911286
 31
0.0
  0
LINE
  5
303
330
A
100
AcDbEntity
  8
HEWI
  6
STANDARD
 62
     7
100
AcDbLine
 10
-1422.087173084996
 20
-1776.563301
 30
0.0
 11
-1421.887168084998
 21
-1776.755333
 31
0.0
  0
LINE
  5
304
330
A
100
AcDbEntity
  8
HEWI
  6
STANDARD
 62
     7
100
AcDbLine
 10
-1103.087186084998
 20
-1776.563300999999
 30
0.0
 11
-1102.887182084997
 21
-1776.755332999999
 31
0.0
  0
LINE
  5
305
330
A
100
AcDbEntity
  8
HEWI
  6
STANDARD
 62
     7
100
AcDbLine
 10
-1422.309169084998
 20
-1701.323281
 30
0.0
 11
-1422.128181084997
 21
-1701.137276
 31
0.0
  0
LINE
  5
306
330
A
100
AcDbEntity
  8
HEWI
  6
STANDARD
 62
     7
100
AcDbLine
 10
-1103.309183084998
 20
-1701.323280999999
 30
0.0
 11
-1103.128185084996
 21
-1701.137275999999
 31
0.0
  0
LINE
  5
307
330
A
100
AcDbEntity
  8
HEWI
  6
STANDARD
 62
     7
100
AcDbLine
 10
-1515.453166084998
 20
-1701.659279000001
 30
0.0
 11
-1514.419174084998
 21
-1700.619316
 31
0.0
  0
LINE
  5
308
330
A
100
AcDbEntity
  8
HEWI
  6
STANDARD
 62
     7
100
AcDbLine
 10
-872.0841980849977
 20
-1668.548317
 30
0.0
 11
-871.8841930849981
 21
-1668.748284
 31
0.0
  0
LINE
  5
30A
330
A
100
AcDbEntity
  8
HEWI
  6
STANDARD
 62
     7
100
AcDbLine
 10
-1513.966674084998
 20
-1670.463790999999
 30
0.0
 11
-1513.738155084997
 21
-1670.692292000001
 31
0.0
  0
LINE
  5
30B
330
A
100
AcDbEntity
  8
HEWI
  6
STANDARD
 62
     7
100
AcDbLine
 10
-1516.381168084997
 20
-1702.521324
 30
0.0
 11
-1516.079521084997
 21
-1702.219658
 31
0.0
  0
LINE
  5
30C
330
A
100
AcDbEntity
  8
HEWI
  6
STANDARD
 62
     7
100
AcDbLine
 10
-1516.381168084997
 20
-1668.049317
 30
0.0
 11
-1516.079521084997
 21
-1668.350944999999
 31
0.0
  0
LINE
  5
30D
330
A
100
AcDbEntity
  8
HEWI
  6
STANDARD
 62
     7
100
AcDbLine
 10
-1513.966674084998
 20
-1670.463790999999
 30
0.0
 11
-1513.608169084998
 21
-1670.822296
 31
0.0
  0
ARC
  5
30E
330
A
100
AcDbEntity
  8
HEWI
  6
STANDARD
 62
     7
100
AcDbCircle
 10
-1555.696213084998
 20
-1776.373237999999
 30
0.0
 40
0.9879879999999998
100
AcDbArc
 50
89.30133900000473
 51
179.540740999995
  0
ARC
  5
30F
330
A
100
AcDbEntity
  8
HEWI
  6
STANDARD
 62
     7
100
AcDbCircle
 10
-1555.692522084998
 20
-1798.893610999999
 30
0.0
 40
0.9917159999999999
100
AcDbArc
 50
180.6751359999997
 51
270.4827830000022
  0
ARC
  5
310
330
A
100
AcDbEntity
  8
HEWI
  6
STANDARD
 62
     7
100
AcDbCircle
 10
-1419.385275084998
 20
-1773.636383999999
 30
0.0
 40
3.998923999999998
100
AcDbArc
 50
255.638300000006
 51
270.0157789999949
  0
ARC
  5
311
330
A
100
AcDbEntity
  8
HEWI
  6
STANDARD
 62
     7
100
AcDbCircle
 10
-1100.385336084997
 20
-1773.636836999999
 30
0.0
 40
3.998470999999998
100
AcDbArc
 50
255.6374810000093
 51
270.0164619999969
  0
ARC
  5
312
330
A
100
AcDbEntity
  8
HEWI
  6
STANDARD
 62
     7
100
AcDbCircle
 10
-1557.184133084999
 20
-1705.185211999999
 30
0.0
 40
0.499886
100
AcDbArc
 50
14.948344000014
 51
90.00331300000697
  0
LINE
  5
48B
330
A
100
AcDbEntity
  8
HEWI
100
AcDbLine
 10
-1838.243031594354
 20
-1662.699753128151
 30
0.0
 11
-1851.242933322909
 21
-1662.651306786731
 31
0.0
  0
LINE
  5
48C
330
A
100
AcDbEntity
  8
HEWI
100
AcDbLine
 10
-1838.410730571698
 20
-1707.699440649877
 30
0.0
 11
-1851.410632300253
 21
-1707.650994308457
 31
0.0
  0
LINE
  5
48D
330
A
100
AcDbEntity
  8
HEWI
100
AcDbLine
 10
-1837.870502503156
 20
-1685.10127496674
 30
0.0
 11
-1838.326508336647
 21
-1685.099575583563
 31
0.0
  0
LINE
  5
48E
330
A
100
AcDbEntity
  8
HEWI
100
AcDbLine
 10
-1837.954724738208
 20
-1707.701140033054
 30
0.0
 11
-1837.787025760863
 21
-1662.701452511328
 31
0.0
  0
LINE
  5
48F
330
A
100
AcDbEntity
  8
HEWI
100
AcDbLine
 10
-1838.410730571698
 20
-1707.699440649877
 30
0.0
 11
-1838.243031594354
 21
-1662.699753128151
 31
0.0
  0
LINE
  5
490
330
A
100
AcDbEntity
  8
HEWI
100
AcDbLine
 10
-1852.305562933415
 20
-1663.086344765419
 30
0.0
 11
-1852.428093115756
 21
-1663.224896101152
 31
0.0
  0
LINE
  5
491
330
A
100
AcDbEntity
  8
HEWI
100
AcDbLine
 10
-1852.331456544254
 20
-1707.330558499274
 30
0.0
 11
-1852.46998995092
 21
-1707.20804738388
 31
0.0
  0
LINE
  5
492
330
A
100
AcDbEntity
  8
HEWI
100
AcDbLine
 10
-1852.428093115756
 20
-1663.224896101152
 30
0.0
 11
-1852.544719311745
 21
-1663.396467668232
 31
0.0
  0
LINE
  5
493
330
A
100
AcDbEntity
  8
HEWI
100
AcDbLine
 10
-1852.159885906362
 20
-1707.447165691668
 30
0.0
 11
-1852.331456544254
 21
-1707.330558499274
 31
0.0
  0
LINE
  5
494
330
A
100
AcDbEntity
  8
HEWI
100
AcDbLine
 10
-1852.544719311745
 20
-1663.396467668232
 30
0.0
 11
-1852.619264150048
 21
-1663.541187871093
 31
0.0
  0
LINE
  5
495
330
A
100
AcDbEntity
  8
HEWI
100
AcDbLine
 10
-1852.0151657035
 20
-1707.521710529971
 30
0.0
 11
-1852.159885906362
 21
-1707.447165691668
 31
0.0
  0
LINE
  5
496
330
A
100
AcDbEntity
  8
HEWI
100
AcDbLine
 10
-1851.798451677504
 20
-1707.598583679788
 30
0.0
 11
-1852.0151657035
 21
-1707.521710529971
 31
0.0
  0
LINE
  5
497
330
A
100
AcDbEntity
  8
HEWI
100
AcDbLine
 10
-1852.619264150048
 20
-1663.541187871093
 30
0.0
 11
-1852.696080229454
 21
-1663.75788310964
 31
0.0
  0
LINE
  5
498
330
A
100
AcDbEntity
  8
HEWI
100
AcDbLine
 10
-1851.661559368554
 20
-1707.629078040433
 30
0.0
 11
-1851.798451677504
 21
-1707.598583679788
 31
0.0
  0
LINE
  5
499
330
A
100
AcDbEntity
  8
HEWI
100
AcDbLine
 10
-1852.696080229454
 20
-1663.75788310964
 30
0.0
 11
-1852.726573660912
 21
-1663.894794422185
 31
0.0
  0
LINE
  5
49A
330
A
100
AcDbEntity
  8
HEWI
100
AcDbLine
 10
-1852.726573660912
 20
-1663.894794422185
 30
0.0
 11
-1852.748508928805
 21
-1664.14572141968
 31
0.0
  0
LINE
  5
49B
330
A
100
AcDbEntity
  8
HEWI
100
AcDbLine
 10
-1851.410632300253
 20
-1707.650994308457
 30
0.0
 11
-1851.661559368554
 21
-1707.629078040433
 31
0.0
  0
LINE
  5
49C
330
A
100
AcDbEntity
  8
HEWI
100
AcDbLine
 10
-1851.242933322909
 20
-1662.651306786731
 30
0.0
 11
-1851.494016764916
 21
-1662.671351227331
 31
0.0
  0
LINE
  5
49D
330
A
100
AcDbEntity
  8
HEWI
100
AcDbLine
 10
-1852.884963418339
 20
-1706.396482290045
 30
0.0
 11
-1852.9050278588
 21
-1706.145398773506
 31
0.0
  0
LINE
  5
49E
330
A
100
AcDbEntity
  8
HEWI
100
AcDbLine
 10
-1852.8554912662
 20
-1706.533617074522
 30
0.0
 11
-1852.884963418339
 21
-1706.396482290045
 31
0.0
  0
LINE
  5
49F
330
A
100
AcDbEntity
  8
HEWI
100
AcDbLine
 10
-1851.494016764916
 20
-1662.671351227331
 30
0.0
 11
-1851.631132694862
 21
-1662.700862450006
 31
0.0
  0
LINE
  5
4A0
330
A
100
AcDbEntity
  8
HEWI
100
AcDbLine
 10
-1851.631132694862
 20
-1662.700862450006
 30
0.0
 11
-1851.848413371976
 21
-1662.776042244333
 31
0.0
  0
LINE
  5
4A1
330
A
100
AcDbEntity
  8
HEWI
100
AcDbLine
 10
-1852.780292401198
 20
-1706.750878822573
 30
0.0
 11
-1852.8554912662
 21
-1706.533617074522
 31
0.0
  0
LINE
  5
4A2
330
A
100
AcDbEntity
  8
HEWI
100
AcDbLine
 10
-1852.706828408891
 20
-1706.896188605741
 30
0.0
 11
-1852.780292401198
 21
-1706.750878822573
 31
0.0
  0
LINE
  5
4A3
330
A
100
AcDbEntity
  8
HEWI
100
AcDbLine
 10
-1851.848413371976
 20
-1662.776042244333
 30
0.0
 11
-1851.993685155407
 21
-1662.849506378254
 31
0.0
  0
LINE
  5
4A4
330
A
100
AcDbEntity
  8
HEWI
100
AcDbLine
 10
-1851.993685155407
 20
-1662.849506378254
 30
0.0
 11
-1852.166120270348
 21
-1662.964869575055
 31
0.0
  0
LINE
  5
4A5
330
A
100
AcDbEntity
  8
HEWI
100
AcDbLine
 10
-1852.591484074071
 20
-1707.068586650133
 30
0.0
 11
-1852.706828408891
 21
-1706.896188605741
 31
0.0
  0
LINE
  5
4A6
330
A
100
AcDbEntity
  8
HEWI
100
AcDbLine
 10
-1852.166120270348
 20
-1662.964869575055
 30
0.0
 11
-1852.305562933415
 21
-1663.086344765419
 31
0.0
  0
LINE
  5
4A7
330
A
100
AcDbEntity
  8
HEWI
100
AcDbLine
 10
-1852.46998995092
 20
-1707.20804738388
 30
0.0
 11
-1852.591484074071
 21
-1707.068586650133
 31
0.0
  0
LINE
  5
4AA
330
A
100
AcDbEntity
  8
HEWI
  6
STANDARD
 62
     7
100
AcDbLine
 10
-1559.684181084998
 20
-1665.685233999999
 30
0.0
 11
-1557.184162084997
 21
-1665.685233999999
 31
0.0
  0
LINE
  5
4AB
330
A
100
AcDbEntity
  8
HEWI
  6
STANDARD
 62
     7
100
AcDbLine
 10
-1556.684169084998
 20
-1662.585258999999
 30
0.0
 11
-1530.884170084997
 21
-1662.585258999999
 31
0.0
  0
LINE
  5
4AC
330
A
100
AcDbEntity
  8
HEWI
  6
STANDARD
 62
     7
100
AcDbLine
 10
-1513.966674084998
 20
-1670.263786
 30
0.0
 11
-1513.608169084998
 21
-1670.622292
 31
0.0
  0
LINE
  5
4AD
330
A
100
AcDbEntity
  8
HEWI
  6
STANDARD
 62
     7
100
AcDbLine
 10
-1513.966674084998
 20
-1670.263786
 30
0.0
 11
-1513.738155084997
 21
-1670.492287
 31
0.0
  0
LINE
  5
4AE
330
A
100
AcDbEntity
  8
HEWI
  6
STANDARD
 62
     7
100
AcDbLine
 10
-1515.726165084997
 20
-1668.457222
 30
0.0
 11
-1515.453166084998
 21
-1668.711281
 31
0.0
  0
LINE
  5
4AF
330
A
100
AcDbEntity
  8
HEWI
  6
STANDARD
 62
     7
100
AcDbLine
 10
-1516.553173084998
 20
-1667.740288000001
 30
0.0
 11
-1515.726165084997
 21
-1668.457222
 31
0.0
  0
LINE
  5
4B0
330
A
100
AcDbEntity
  8
HEWI
  6
STANDARD
 62
     7
100
AcDbLine
 10
-1517.325172084999
 20
-1667.130241
 30
0.0
 11
-1516.553173084998
 21
-1667.740288000001
 31
0.0
  0
LINE
  5
4B1
330
A
100
AcDbEntity
  8
HEWI
  6
STANDARD
 62
     7
100
AcDbLine
 10
-1517.713165084997
 20
-1666.843224
 30
0.0
 11
-1517.325172084999
 21
-1667.130241
 31
0.0
  0
LINE
  5
4B2
330
A
100
AcDbEntity
  8
HEWI
  6
STANDARD
 62
     7
100
AcDbLine
 10
-1516.680545084998
 20
-1667.63958
 30
0.0
 11
-1516.381168084997
 21
-1667.849236
 31
0.0
  0
LINE
  5
4B3
330
A
100
AcDbEntity
  8
HEWI
  6
STANDARD
 62
     7
100
AcDbLine
 10
-1519.594173084998
 20
-1665.599250999999
 30
0.0
 11
-1519.303836084998
 21
-1665.802573999999
 31
0.0
  0
LINE
  5
4B4
330
A
100
AcDbEntity
  8
HEWI
  6
STANDARD
 62
     7
100
AcDbLine
 10
-1518.930168084999
 20
-1666.024283999999
 30
0.0
 11
-1517.713165084997
 21
-1666.843224
 31
0.0
  0
LINE
  5
4B5
330
A
100
AcDbEntity
  8
HEWI
  6
STANDARD
 62
     7
100
AcDbLine
 10
-1519.040164084998
 20
-1665.955238
 30
0.0
 11
-1518.930168084999
 21
-1666.024283999999
 31
0.0
  0
LINE
  5
4B6
330
A
100
AcDbEntity
  8
HEWI
  6
STANDARD
 62
     7
100
AcDbLine
 10
-1520.197162084998
 20
-1665.285224999999
 30
0.0
 11
-1519.040164084998
 21
-1665.955238
 31
0.0
  0
LINE
  5
4B7
330
A
100
AcDbEntity
  8
HEWI
  6
STANDARD
 62
     7
100
AcDbLine
 10
-1520.855159084999
 20
-1664.944266999999
 30
0.0
 11
-1520.197162084998
 21
-1665.285224999999
 31
0.0
  0
LINE
  5
4B8
330
A
100
AcDbEntity
  8
HEWI
  6
STANDARD
 62
     7
100
AcDbLine
 10
-1521.510162084997
 20
-1664.631232999999
 30
0.0
 11
-1520.855159084999
 21
-1664.944266999999
 31
0.0
  0
LINE
  5
4B9
330
A
100
AcDbEntity
  8
HEWI
  6
STANDARD
 62
     7
100
AcDbLine
 10
-1523.149166084998
 20
-1663.942223
 30
0.0
 11
-1522.956428084998
 21
-1664.032096999999
 31
0.0
  0
LINE
  5
4BA
330
A
100
AcDbEntity
  8
HEWI
  6
STANDARD
 62
     7
100
AcDbLine
 10
-1519.905605084996
 20
-1665.454062999999
 30
0.0
 11
-1519.594173084998
 21
-1665.599250999999
 31
0.0
  0
LINE
  5
4BB
330
A
100
AcDbEntity
  8
HEWI
  6
STANDARD
 62
     7
100
AcDbLine
 10
-1522.756156084998
 20
-1664.104271000001
 30
0.0
 11
-1521.510162084997
 21
-1664.631232999999
 31
0.0
  0
LINE
  5
4BC
330
A
100
AcDbEntity
  8
HEWI
  6
STANDARD
 62
     7
100
AcDbLine
 10
-1556.751155084997
 20
-1665.435294999999
 30
0.0
 11
-1556.701164084997
 21
-1665.314292999999
 31
0.0
  0
LINE
  5
4BD
330
A
100
AcDbEntity
  8
HEWI
  6
STANDARD
 62
     7
100
AcDbLine
 10
-1522.863159084998
 20
-1664.064292999999
 30
0.0
 11
-1522.756156084998
 21
-1664.104271000001
 31
0.0
  0
LINE
  5
4BE
330
A
100
AcDbEntity
  8
HEWI
  6
STANDARD
 62
     7
100
AcDbLine
 10
-1524.249172084997
 20
-1663.586234999999
 30
0.0
 11
-1522.863159084998
 21
-1664.064292999999
 31
0.0
  0
LINE
  5
4BF
330
A
100
AcDbEntity
  8
HEWI
  6
STANDARD
 62
     7
100
AcDbLine
 10
-1524.727172084997
 20
-1663.444251999999
 30
0.0
 11
-1524.249172084997
 21
-1663.586234999999
 31
0.0
  0
LINE
  5
4C0
330
A
100
AcDbEntity
  8
HEWI
  6
STANDARD
 62
     7
100
AcDbLine
 10
-1526.937160084997
 20
-1662.927283999999
 30
0.0
 11
-1526.853122084998
 21
-1662.949790999999
 31
0.0
  0
LINE
  5
4C1
330
A
100
AcDbEntity
  8
HEWI
  6
STANDARD
 62
     7
100
AcDbLine
 10
-1523.452911084997
 20
-1663.860893
 30
0.0
 11
-1523.149166084998
 21
-1663.942223
 31
0.0
  0
LINE
  5
4C2
330
A
100
AcDbEntity
  8
HEWI
  6
STANDARD
 62
     7
100
AcDbLine
 10
-1525.664157084998
 20
-1663.199271999999
 30
0.0
 11
-1524.727172084997
 21
-1663.444251999999
 31
0.0
  0
LINE
  5
4C3
330
A
100
AcDbEntity
  8
HEWI
  6
STANDARD
 62
     7
100
AcDbLine
 10
-1526.750164084997
 20
-1662.968253999999
 30
0.0
 11
-1525.664157084998
 21
-1663.199271999999
 31
0.0
  0
LINE
  5
4C4
330
A
100
AcDbEntity
  8
HEWI
  6
STANDARD
 62
     7
100
AcDbLine
 10
-1527.101173084997
 20
-1662.905234999999
 30
0.0
 11
-1526.750164084997
 21
-1662.968253999999
 31
0.0
  0
LINE
  5
4C5
330
A
100
AcDbEntity
  8
HEWI
  6
STANDARD
 62
     7
100
AcDbLine
 10
-1528.555164084998
 20
-1662.706260999999
 30
0.0
 11
-1527.101173084997
 21
-1662.905234999999
 31
0.0
  0
LINE
  5
4C6
330
A
100
AcDbEntity
  8
HEWI
  6
STANDARD
 62
     7
100
AcDbLine
 10
-1556.701164084997
 20
-1665.314292999999
 30
0.0
 11
-1556.684169084998
 21
-1665.185280000001
 31
0.0
  0
LINE
  5
4C7
330
A
100
AcDbEntity
  8
HEWI
  6
STANDARD
 62
     7
100
AcDbLine
 10
-1528.808174084998
 20
-1662.681235999999
 30
0.0
 11
-1528.555164084998
 21
-1662.706260999999
 31
0.0
  0
LINE
  5
4C8
330
A
100
AcDbEntity
  8
HEWI
  6
STANDARD
 62
     7
100
AcDbLine
 10
-1527.018032084995
 20
-1662.920189000001
 30
0.0
 11
-1526.937160084997
 21
-1662.927283999999
 31
0.0
  0
LINE
  5
4C9
330
A
100
AcDbEntity
  8
HEWI
  6
STANDARD
 62
     7
100
AcDbLine
 10
-1530.844173084997
 20
-1662.585258999999
 30
0.0
 11
-1530.832595084997
 21
-1662.586249999999
 31
0.0
  0
LINE
  5
4CA
330
A
100
AcDbEntity
  8
HEWI
  6
STANDARD
 62
     7
100
AcDbLine
 10
-1530.018157084998
 20
-1662.602272
 30
0.0
 11
-1528.808174084998
 21
-1662.681235999999
 31
0.0
  0
LINE
  5
4CB
330
A
100
AcDbEntity
  8
HEWI
  6
STANDARD
 62
     7
100
AcDbLine
 10
-1530.884170084997
 20
-1662.585258999999
 30
0.0
 11
-1530.018157084998
 21
-1662.602272
 31
0.0
  0
LINE
  5
4CC
330
A
100
AcDbEntity
  8
HEWI
  6
STANDARD
 62
     7
100
AcDbLine
 10
-1530.851497084998
 20
-1662.585868999999
 30
0.0
 11
-1530.844173084997
 21
-1662.585258999999
 31
0.0
  0
LINE
  5
4CD
330
A
100
AcDbEntity
  8
HEWI
  6
STANDARD
 62
     7
100
AcDbLine
 10
-1511.358165084996
 20
-1673.835259
 30
0.0
 11
-1511.126918084997
 21
-1674.331398
 31
0.0
  0
LINE
  5
4CE
330
A
100
AcDbEntity
  8
HEWI
  6
STANDARD
 62
     7
100
AcDbLine
 10
-1510.743160084997
 20
-1675.056266999999
 30
0.0
 11
-1510.375156084998
 21
-1675.832253000001
 31
0.0
  0
LINE
  5
4CF
330
A
100
AcDbEntity
  8
HEWI
  6
STANDARD
 62
     7
100
AcDbLine
 10
-1511.021156084999
 20
-1674.515265999999
 30
0.0
 11
-1510.743160084997
 21
-1675.056266999999
 31
0.0
  0
LINE
  5
4D0
330
A
100
AcDbEntity
  8
HEWI
  6
STANDARD
 62
     7
100
AcDbLine
 10
-1511.754169084999
 20
-1673.240242
 30
0.0
 11
-1511.745090084998
 21
-1673.256569
 31
0.0
  0
LINE
  5
4D1
330
A
100
AcDbEntity
  8
HEWI
  6
STANDARD
 62
     7
100
AcDbLine
 10
-1511.752166084998
 20
-1673.244286
 30
0.0
 11
-1511.021156084999
 21
-1674.515265999999
 31
0.0
  0
LINE
  5
4D2
330
A
100
AcDbEntity
  8
HEWI
  6
STANDARD
 62
     7
100
AcDbLine
 10
-1512.565174084998
 20
-1672.022285999999
 30
0.0
 11
-1511.754169084999
 21
-1673.240242
 31
0.0
  0
LINE
  5
4D3
330
A
100
AcDbEntity
  8
HEWI
  6
STANDARD
 62
     7
100
AcDbLine
 10
-1511.660861084997
 20
-1673.402977
 30
0.0
 11
-1511.358165084996
 21
-1673.835259
 31
0.0
  0
LINE
  5
4D4
330
A
100
AcDbEntity
  8
HEWI
  6
STANDARD
 62
     7
100
AcDbLine
 10
-1513.608169084998
 20
-1670.622292
 30
0.0
 11
-1513.354415084997
 21
-1670.984611999999
 31
0.0
  0
LINE
  5
4D5
330
A
100
AcDbEntity
  8
HEWI
  6
STANDARD
 62
     7
100
AcDbLine
 10
-1513.608169084998
 20
-1670.622292
 30
0.0
 11
-1513.354568084999
 21
-1670.984382999999
 31
0.0
  0
LINE
  5
4D6
330
A
100
AcDbEntity
  8
HEWI
  6
STANDARD
 62
     7
100
AcDbLine
 10
-1512.929172084998
 20
-1671.526221999999
 30
0.0
 11
-1512.565174084998
 21
-1672.022285999999
 31
0.0
  0
LINE
  5
4D7
330
A
100
AcDbEntity
  8
HEWI
  6
STANDARD
 62
     7
100
AcDbLine
 10
-1513.455162084997
 20
-1670.856285
 30
0.0
 11
-1512.929172084998
 21
-1671.526221999999
 31
0.0
  0
LINE
  5
4D8
330
A
100
AcDbEntity
  8
HEWI
  6
STANDARD
 62
     7
100
AcDbLine
 10
-1514.257164084998
 20
-1669.927254
 30
0.0
 11
-1513.455162084997
 21
-1670.856285
 31
0.0
  0
LINE
  5
4D9
330
A
100
AcDbEntity
  8
HEWI
  6
STANDARD
 62
     7
100
AcDbLine
 10
-1514.419174084998
 20
-1669.751243999999
 30
0.0
 11
-1514.257164084998
 21
-1669.927254
 31
0.0
  0
LINE
  5
4DA
330
A
100
AcDbEntity
  8
HEWI
  6
STANDARD
 62
     7
100
AcDbLine
 10
-1515.453166084998
 20
-1668.711281
 30
0.0
 11
-1514.419174084998
 21
-1669.751243999999
 31
0.0
  0
LINE
  5
4DB
330
A
100
AcDbEntity
  8
HEWI
  6
STANDARD
 62
     7
100
AcDbLine
 10
-1516.381168084997
 20
-1667.849236
 30
0.0
 11
-1516.079521084997
 21
-1668.150902
 31
0.0
  0
ARC
  5
4DC
330
A
100
AcDbEntity
  8
HEWI
  6
STANDARD
 62
     7
100
AcDbCircle
 10
-1557.184133084999
 20
-1665.185347999999
 30
0.0
 40
0.499886
100
AcDbArc
 50
269.996686999993
 51
345.0516559999797
  0
LINE
  5
4DD
330
A
100
AcDbEntity
  8
HEWI
  6
STANDARD
 62
     7
100
AcDbLine
 10
-1833.3891895
 20
-2404.586107975149
 30
0.0
 11
-1837.8751785
 21
-2404.586107975149
 31
0.0
  0
LINE
  5
4DE
330
A
100
AcDbEntity
  8
HEWI
  6
STANDARD
 62
     7
100
AcDbLine
 10
-1837.8751785
 20
-2404.586107975149
 30
0.0
 11
-1837.8751785
 21
-2359.586107975149
 31
0.0
  0
LINE
  5
4DF
330
A
100
AcDbEntity
  8
HEWI
  6
STANDARD
 62
     7
100
AcDbLine
 10
-1852.8311755
 20
-2403.042070975149
 30
0.0
 11
-1852.8311755
 21
-2341.046068975149
 31
0.0
  0
LINE
  5
4E0
330
A
100
AcDbEntity
  8
HEWI
  6
STANDARD
 62
     7
100
AcDbLine
 10
-1838.3311865
 20
-2404.546052975148
 30
0.0
 11
-1838.3311865
 21
-2356.246110975149
 31
0.0
  0
LINE
  5
4E1
330
A
100
AcDbEntity
  8
HEWI
  6
STANDARD
 62
     7
100
AcDbLine
 10
-1827.8891975
 20
-2359.586107975149
 30
0.0
 11
-1827.8891975
 21
-2357.246095975149
 31
0.0
  0
LINE
  5
4E2
330
A
100
AcDbEntity
  8
HEWI
  6
STANDARD
 62
     7
100
AcDbLine
 10
-1852.2531915
 20
-2404.217073975149
 30
0.0
 11
-1852.5141935
 21
-2403.956071975149
 31
0.0
  0
LINE
  5
4E3
330
A
100
AcDbEntity
  8
HEWI
  6
STANDARD
 62
     7
100
AcDbLine
 10
-1833.1331855
 20
-2404.330064975149
 30
0.0
 11
-1833.3891895
 21
-2404.586107975149
 31
0.0
  0
LINE
  5
4E4
330
A
100
AcDbEntity
  8
HEWI
  6
STANDARD
 62
     7
100
AcDbLine
 10
-1852.4461775
 20
-2356.034089975149
 30
0.0
 11
-1852.5331905
 21
-2355.947114975149
 31
0.0
  0
LINE
  5
4E5
330
A
100
AcDbEntity
  8
HEWI
  6
STANDARD
 62
     7
100
AcDbLine
 10
-1852.4461775
 20
-2356.034089975149
 30
0.0
 11
-1852.5381875
 21
-2355.953065975149
 31
0.0
  0
LINE
  5
4E6
330
A
100
AcDbEntity
  8
HEWI
  6
STANDARD
 62
     7
100
AcDbLine
 10
-1852.4907515
 20
-2355.989534975149
 30
0.0
 11
-1852.5381875
 21
-2355.953065975149
 31
0.0
  0
LINE
  5
4E7
330
A
100
AcDbEntity
  8
HEWI
  6
STANDARD
 62
     7
100
AcDbLine
 10
-1852.3311835
 20
-2356.112062975149
 30
0.0
 11
-1852.4461775
 21
-2356.034089975149
 31
0.0
  0
LINE
  5
4E8
330
A
100
AcDbEntity
  8
HEWI
  6
STANDARD
 62
     7
100
AcDbLine
 10
-1852.235186499999
 20
-2356.161119975149
 30
0.0
 11
-1852.3271775
 21
-2356.105119975149
 31
0.0
  0
LINE
  5
4E9
330
A
100
AcDbEntity
  8
HEWI
  6
STANDARD
 62
     7
100
AcDbLine
 10
-1851.9361905
 20
-2404.406053975149
 30
0.0
 11
-1852.2531915
 21
-2404.217073975149
 31
0.0
  0
LINE
  5
4EA
330
A
100
AcDbEntity
  8
HEWI
  6
STANDARD
 62
     7
100
AcDbLine
 10
-1852.235186499999
 20
-2356.161119975149
 30
0.0
 11
-1852.3311835
 21
-2356.112062975149
 31
0.0
  0
LINE
  5
4EB
330
A
100
AcDbEntity
  8
HEWI
  6
STANDARD
 62
     7
100
AcDbLine
 10
-1852.2824885
 20
-2356.132280975149
 30
0.0
 11
-1852.3311835
 21
-2356.112062975149
 31
0.0
  0
LINE
  5
4EC
330
A
100
AcDbEntity
  8
HEWI
  6
STANDARD
 62
     7
100
AcDbLine
 10
-1852.0901895
 20
-2356.212083975149
 30
0.0
 11
-1852.235186499999
 21
-2356.161119975149
 31
0.0
  0
LINE
  5
4ED
330
A
100
AcDbEntity
  8
HEWI
  6
STANDARD
 62
     7
100
AcDbLine
 10
-1851.9991905
 20
-2356.232072975148
 30
0.0
 11
-1852.0881865
 21
-2356.205064975148
 31
0.0
  0
LINE
  5
4EE
330
A
100
AcDbEntity
  8
HEWI
  6
STANDARD
 62
     7
100
AcDbLine
 10
-1851.5821865
 20
-2404.513093975149
 30
0.0
 11
-1851.9361905
 21
-2404.406053975149
 31
0.0
  0
LINE
  5
4EF
330
A
100
AcDbEntity
  8
HEWI
  6
STANDARD
 62
     7
100
AcDbLine
 10
-1851.9991905
 20
-2356.232072975148
 30
0.0
 11
-1852.0901895
 21
-2356.212083975149
 31
0.0
  0
LINE
  5
4F0
330
A
100
AcDbEntity
  8
HEWI
  6
STANDARD
 62
     7
100
AcDbLine
 10
-1827.8411705
 20
-2356.937105975149
 30
0.0
 11
-1827.8891975
 21
-2357.246095975149
 31
0.0
  0
LINE
  5
4F1
330
A
100
AcDbEntity
  8
HEWI
  6
STANDARD
 62
     7
100
AcDbLine
 10
-1852.0459775
 20
-2356.217881975149
 30
0.0
 11
-1852.0901895
 21
-2356.212083975149
 31
0.0
  0
LINE
  5
4F2
330
A
100
AcDbEntity
  8
HEWI
  6
STANDARD
 62
     7
100
AcDbLine
 10
-1851.331179499999
 20
-2404.534074975149
 30
0.0
 11
-1851.5821865
 21
-2404.513093975149
 31
0.0
  0
LINE
  5
4F3
330
A
100
AcDbEntity
  8
HEWI
  6
STANDARD
 62
     7
100
AcDbLine
 10
-1851.8311905
 20
-2356.246110975149
 30
0.0
 11
-1851.9991905
 21
-2356.232072975148
 31
0.0
  0
LINE
  5
4F4
330
A
100
AcDbEntity
  8
HEWI
  6
STANDARD
 62
     7
100
AcDbLine
 10
-1838.3311865
 20
-2404.546052975148
 30
0.0
 11
-1851.331179499999
 21
-2404.534074975149
 31
0.0
  0
LINE
  5
4F5
330
A
100
AcDbEntity
  8
HEWI
  6
STANDARD
 62
     7
100
AcDbLine
 10
-1852.8171755
 20
-2355.413057975149
 30
0.0
 11
-1852.8311755
 21
-2355.246049975149
 31
0.0
  0
LINE
  5
4F6
330
A
100
AcDbEntity
  8
HEWI
  6
STANDARD
 62
     7
100
AcDbLine
 10
-1852.8101755
 20
-2403.286058975148
 30
0.0
 11
-1852.8311755
 21
-2403.042070975149
 31
0.0
  0
LINE
  5
4F7
330
A
100
AcDbEntity
  8
HEWI
  6
STANDARD
 62
     7
100
AcDbLine
 10
-1826.9092015
 20
-2356.246110975149
 30
0.0
 11
-1827.2122025
 21
-2356.295091975149
 31
0.0
  0
LINE
  5
4F8
330
A
100
AcDbEntity
  8
HEWI
  6
STANDARD
 62
     7
100
AcDbLine
 10
-1852.7971865
 20
-2355.504075975149
 30
0.0
 11
-1852.8171755
 21
-2355.413057975149
 31
0.0
  0
LINE
  5
4F9
330
A
100
AcDbEntity
  8
HEWI
  6
STANDARD
 62
     7
100
AcDbLine
 10
-1852.7041845
 20
-2403.639070975148
 30
0.0
 11
-1852.8101755
 21
-2403.286058975148
 31
0.0
  0
LINE
  5
4FA
330
A
100
AcDbEntity
  8
HEWI
  6
STANDARD
 62
     7
100
AcDbLine
 10
-1832.8701805
 20
-2404.244081975149
 30
0.0
 11
-1833.1331855
 21
-2404.330064975149
 31
0.0
  0
LINE
  5
4FB
330
A
100
AcDbEntity
  8
HEWI
  6
STANDARD
 62
     7
100
AcDbLine
 10
-1852.7461845
 20
-2355.649110975149
 30
0.0
 11
-1852.7971865
 21
-2355.504075975149
 31
0.0
  0
LINE
  5
4FC
330
A
100
AcDbEntity
  8
HEWI
  6
STANDARD
 62
     7
100
AcDbLine
 10
-1829.0281895
 20
-2401.572114975149
 30
0.0
 11
-1829.4471955
 21
-2401.76712297515
 31
0.0
  0
LINE
  5
4FD
330
A
100
AcDbEntity
  8
HEWI
  6
STANDARD
 62
     7
100
AcDbLine
 10
-1825.1491765
 20
-2399.322053975149
 30
0.0
 11
-1827.370169499999
 21
-2400.41107397515
 31
0.0
  0
LINE
  5
4FE
330
A
100
AcDbEntity
  8
HEWI
  6
STANDARD
 62
     7
100
AcDbLine
 10
-1852.6971845
 20
-2355.746080975149
 30
0.0
 11
-1852.7461845
 21
-2355.649110975149
 31
0.0
  0
LINE
  5
4FF
330
A
100
AcDbEntity
  8
HEWI
  6
STANDARD
 62
     7
100
AcDbLine
 10
-1831.4711785
 20
-2403.229066975149
 30
0.0
 11
-1832.3731825
 21
-2403.747102975149
 31
0.0
  0
LINE
  5
500
330
A
100
AcDbEntity
  8
HEWI
  6
STANDARD
 62
     7
100
AcDbLine
 10
-1852.5141935
 20
-2403.956071975149
 30
0.0
 11
-1852.7041845
 21
-2403.639070975148
 31
0.0
  0
LINE
  5
501
330
A
100
AcDbEntity
  8
HEWI
  6
STANDARD
 62
     7
100
AcDbLine
 10
-1829.4471955
 20
-2401.76712297515
 30
0.0
 11
-1831.1311745
 21
-2402.889100975149
 31
0.0
  0
LINE
  5
502
330
A
100
AcDbEntity
  8
HEWI
  6
STANDARD
 62
     7
100
AcDbLine
 10
-1852.6201845
 20
-2355.860063975149
 30
0.0
 11
-1852.6971845
 21
-2355.746080975149
 31
0.0
  0
LINE
  5
503
330
A
100
AcDbEntity
  8
HEWI
  6
STANDARD
 62
     7
100
AcDbLine
 10
-1827.370169499999
 20
-2400.41107397515
 30
0.0
 11
-1829.0281895
 21
-2401.572114975149
 31
0.0
  0
LINE
  5
504
330
A
100
AcDbEntity
  8
HEWI
  6
STANDARD
 62
     7
100
AcDbLine
 10
-1824.9642015
 20
-2399.192048975149
 30
0.0
 11
-1825.1491765
 21
-2399.322053975149
 31
0.0
  0
LINE
  5
505
330
A
100
AcDbEntity
  8
HEWI
  6
STANDARD
 62
     7
100
AcDbLine
 10
-1852.5381875
 20
-2355.953065975149
 30
0.0
 11
-1852.6201845
 21
-2355.860063975149
 31
0.0
  0
LINE
  5
506
330
A
100
AcDbEntity
  8
HEWI
  6
STANDARD
 62
     7
100
AcDbLine
 10
-1831.1311745
 20
-2402.889100975149
 30
0.0
 11
-1831.4711785
 21
-2403.229066975149
 31
0.0
  0
LINE
  5
507
330
A
100
AcDbEntity
  8
HEWI
  6
STANDARD
 62
     7
100
AcDbLine
 10
-1832.3731825
 20
-2403.747102975149
 30
0.0
 11
-1832.8701805
 21
-2404.244081975149
 31
0.0
  0
ARC
  5
508
330
A
100
AcDbEntity
  8
HEWI
  6
STANDARD
 62
     7
100
AcDbCircle
 10
-1826.901303499999
 20
-2357.234046975149
 30
0.0
 40
0.987967
100
AcDbArc
 50
90.45804999998878
 51
180.6987770000029
  0
LINE
  5
638
330
A
100
AcDbEntity
  8
HEWI
  6
STANDARD
 62
     7
100
AcDbLine
 10
-933.1841890849977
 20
-1775.135308
 30
0.0
 11
-933.3841890849971
 21
-1775.335308
 31
0.0
  0
LINE
  5
639
330
A
100
AcDbEntity
  8
HEWI
  6
STANDARD
 62
     7
100
AcDbLine
 10
-933.3841890849971
 20
-1799.935307999999
 30
0.0
 11
-933.1841890849977
 21
-1800.135307999999
 31
0.0
  0
LINE
  5
63A
330
A
100
AcDbEntity
  8
HEWI
  6
STANDARD
 62
     7
100
AcDbLine
 10
-930.5841890849979
 20
-1800.135307999999
 30
0.0
 11
-930.3841890849971
 21
-1799.935307999999
 31
0.0
  0
LINE
  5
63B
330
A
100
AcDbEntity
  8
HEWI
  6
STANDARD
 62
     7
100
AcDbLine
 10
-930.3841890849971
 20
-1775.335308
 30
0.0
 11
-930.5841890849979
 21
-1775.135308
 31
0.0
  0
LINE
  5
63C
330
A
100
AcDbEntity
  8
HEWI
  6
STANDARD
 62
     7
100
AcDbLine
 10
-933.1841890849977
 20
-1800.135307999999
 30
0.0
 11
-930.5841890849979
 21
-1800.135307999999
 31
0.0
  0
LINE
  5
63D
330
A
100
AcDbEntity
  8
HEWI
  6
STANDARD
 62
     7
100
AcDbLine
 10
-930.5841890849979
 20
-1775.135308
 30
0.0
 11
-933.1841890849977
 21
-1775.135308
 31
0.0
  0
LINE
  5
63E
330
A
100
AcDbEntity
  8
HEWI
  6
STANDARD
 62
     7
100
AcDbLine
 10
-933.1841890849977
 20
-1800.135307999999
 30
0.0
 11
-933.1841890849982
 21
-1775.135308
 31
0.0
  0
LINE
  5
63F
330
A
100
AcDbEntity
  8
HEWI
  6
STANDARD
 62
     7
100
AcDbLine
 10
-933.3841890849971
 20
-1775.335308
 30
0.0
 11
-933.3841890849971
 21
-1787.577686499999
 31
0.0
  0
LINE
  5
640
330
A
100
AcDbEntity
  8
HEWI
  6
STANDARD
 62
     7
100
AcDbLine
 10
-933.3841890849971
 20
-1787.577686499999
 30
0.0
 11
-933.3841890849971
 21
-1799.935307999999
 31
0.0
  0
LINE
  5
641
330
A
100
AcDbEntity
  8
HEWI
  6
STANDARD
 62
     7
100
AcDbLine
 10
-930.3841890849977
 20
-1775.335308
 30
0.0
 11
-930.3841890849971
 21
-1787.577686499999
 31
0.0
  0
LINE
  5
642
330
A
100
AcDbEntity
  8
HEWI
  6
STANDARD
 62
     7
100
AcDbLine
 10
-930.3841890849971
 20
-1787.577686499999
 30
0.0
 11
-930.3841890849971
 21
-1799.935307999999
 31
0.0
  0
LINE
  5
643
330
A
100
AcDbEntity
  8
HEWI
  6
STANDARD
 62
     7
100
AcDbLine
 10
-930.5841890849979
 20
-1787.577686499999
 30
0.0
 11
-930.5841890849979
 21
-1775.135308
 31
0.0
  0
LINE
  5
644
330
A
100
AcDbEntity
  8
HEWI
  6
STANDARD
 62
     7
100
AcDbLine
 10
-930.5841890849979
 20
-1800.135307999999
 30
0.0
 11
-930.5841890849979
 21
-1787.577686499999
 31
0.0
  0
HATCH
  5
99B
330
A
100
AcDbEntity
  8
0
 62
   152
420
    28896
100
AcDbHatch
 10
0.0
 20
0.0
 30
0.0
210
0.0
220
0.0
230
1.0
  2
SOLID
 70
     1
 71
     1
 91
        3
 92
        7
 72
     1
 73
     1
 93
       10
 10
-1106.334189084998
 20
-1704.710650499998
 42
0.4142135623730951
 10
-1107.334189084998
 20
-1703.710650499998
 42
0.0
 10
-1139.834189084998
 20
-1703.710650499998
 42
0.4142135623730951
 10
-1140.834189084998
 20
-1704.710650499998
 42
0.0
 10
-1140.834189084998
 20
-1738.710650499999
 42
0.0
 10
-1140.834189084998
 20
-1772.710650499999
 42
0.4142135623730909
 10
-1139.834189084998
 20
-1773.710650499999
 42
0.0
 10
-1107.334189084998
 20
-1773.710650499999
 42
0.4142135623730888
 10
-1106.334189084998
 20
-1772.710650499999
 42
0.0
 10
-1106.334189084998
 20
-1738.710650499999
 42
0.0
 97
       10
330
9C6
330
9B6
330
9C7
330
9B7
330
9B4
330
9C5
330
9B3
330
9C4
330
9B2
330
9B5
 92
       20
 93
        6
 72
     4
 94
        5
 73
     1
 74
     0
 95
       12
 96
        6
 40
0.4960304773248839
 40
0.4960304773248839
 40
0.4960304773248839
 40
0.4960304773248839
 40
0.4960304773248839
 40
0.4960304773248839
 40
0.5039695226751161
 40
0.5039695226751161
 40
0.5039695226751161
 40
0.5039695226751161
 40
0.5039695226751161
 40
0.5039695226751161
 10
-1116.005171562114
 20
-1736.94679248057
 42
1.0
 10
-1115.634485516123
 20
-1736.748620362547
 42
1.0
 10
-1115.277527580283
 20
-1736.52476946125
 42
1.0
 10
-1114.922411634196
 20
-1737.189022976002
 42
1.0
 10
-1115.280606733939
 20
-1737.410559730385
 42
1.0
 10
-1115.651292779929
 20
-1737.608731848408
 42
1.0
 97
        0
 72
     4
 94
        5
 73
     1
 74
     0
 95
       12
 96
        6
 40
0.5039695226751161
 40
0.5039695226751161
 40
0.5039695226751161
 40
0.5039695226751161
 40
0.5039695226751161
 40
0.5039695226751161
 40
1.0
 40
1.0
 40
1.0
 40
1.0
 40
1.0
 40
1.0
 10
-1115.651292779929
 20
-1737.608731848408
 42
1.0
 10
-1117.106332201832
 20
-1738.386609103747
 42
0.952754144170146
 10
-1118.735260947715
 20
-1738.805222211226
 42
0.92913121625522
 10
-1120.427096981526
 20
-1738.805239169056
 42
0.92913121625522
 10
-1122.055996335292
 20
-1738.38665871586
 42
0.952754144170146
 10
-1123.510981138935
 20
-1737.608810628653
 42
1.0
 97
        0
 72
     4
 94
        5
 73
     1
 74
     0
 95
       12
 96
        6
 40
0.0
 40
0.0
 40
0.0
 40
0.0
 40
0.0
 40
0.0
 40
1.0
 40
1.0
 40
1.0
 40
1.0
 40
1.0
 40
1.0
 10
-1123.510981138935
 20
-1737.608810628653
 42
1.0
 10
-1124.835449587906
 20
-1736.902254864456
 42
0.9529220753075458
 10
-1126.317600804294
 20
-1736.522142509123
 42
0.929383112961319
 10
-1127.85679831478
 20
-1736.522159462356
 42
0.929383112961319
 10
-1129.338978924124
 20
-1736.902304467825
 42
0.9529220753075458
 10
-1130.663502007731
 20
-1737.608889408897
 42
1.0
 97
        0
 72
     4
 94
        5
 73
     1
 74
     0
 95
       12
 96
        6
 40
0.0
 40
0.0
 40
0.0
 40
0.0
 40
0.0
 40
0.0
 40
0.0157553232654262
 40
0.0157553232654262
 40
0.0157553232654262
 40
0.0157553232654262
 40
0.0157553232654262
 40
0.0157553232654262
 10
-1130.663502007731
 20
-1737.608889408897
 42
1.0
 10
-1131.034364521469
 20
-1737.806731085392
 42
1.0
 10
-1131.3915469261
 20
-1738.030216699705
 42
1.0
 10
-1131.746064548771
 20
-1737.365658558885
 42
1.0
 10
-1131.387653229491
 20
-1737.144476596576
 42
1.0
 10
-1131.016790715755
 20
-1736.946634920081
 42
1.0
 97
        0
 72
     4
 94
        5
 73
     1
 74
     0
 95
       12
 96
        6
 40
0.0157553232654262
 40
0.0157553232654262
 40
0.0157553232654262
 40
0.0157553232654262
 40
0.0157553232654262
 40
0.0157553232654262
 40
1.0
 40
1.0
 40
1.0
 40
1.0
 40
1.0
 40
1.0
 10
-1131.016790715755
 20
-1736.946634920081
 42
1.0
 10
-1129.561424421303
 20
-1736.170249879963
 42
0.9529220753075458
 10
-1127.932793065399
 20
-1735.752569983889
 42
0.929383112961319
 10
-1126.241479071778
 20
-1735.752586937123
 42
0.929383112961319
 10
-1124.612818322916
 20
-1736.170299483333
 42
0.9529220753075458
 10
-1123.15739739383
 20
-1736.946713700326
 42
1.0
 97
        0
 72
     4
 94
        5
 73
     1
 74
     0
 95
       12
 96
        6
 40
0.0
 40
0.0
 40
0.0
 40
0.0
 40
0.0
 40
0.0
 40
0.4960304773248839
 40
0.4960304773248839
 40
0.4960304773248839
 40
0.4960304773248839
 40
0.4960304773248839
 40
0.4960304773248839
 10
-1123.15739739383
 20
-1736.946713700326
 42
1.0
 10
-1121.833325829621
 20
-1737.654574321288
 42
0.952754144170146
 10
-1120.351018119816
 20
-1738.035508878553
 42
0.92913121625522
 10
-1118.81146682575
 20
-1738.035525836384
 42
0.92913121625522
 10
-1117.329188508058
 20
-1737.654623933402
 42
0.952754144170146
 10
-1116.005171562114
 20
-1736.94679248057
 42
1.0
 97
        0
 97
        3
330
9D5
330
9D7
330
9D6
 92
       20
 93
        6
 72
     4
 94
        5
 73
     1
 74
     0
 95
       12
 96
        6
 40
0.4960304773248839
 40
0.4960304773248839
 40
0.4960304773248839
 40
0.4960304773248839
 40
0.4960304773248839
 40
0.4960304773248839
 40
0.5039695226751161
 40
0.5039695226751161
 40
0.5039695226751161
 40
0.5039695226751161
 40
0.5039695226751161
 40
0.5039695226751161
 10
-1116.005171562114
 20
-1740.074274603637
 42
1.0
 10
-1115.634485516123
 20
-1739.876102485614
 42
1.0
 10
-1115.277527580283
 20
-1739.652251584318
 42
1.0
 10
-1114.922411634196
 20
-1740.316505099069
 42
1.0
 10
-1115.280606733939
 20
-1740.538041853453
 42
1.0
 10
-1115.651292779929
 20
-1740.736213971475
 42
1.0
 97
        0
 72
     4
 94
        5
 73
     1
 74
     0
 95
       12
 96
        6
 40
0.5039695226751161
 40
0.5039695226751161
 40
0.5039695226751161
 40
0.5039695226751161
 40
0.5039695226751161
 40
0.5039695226751161
 40
1.0
 40
1.0
 40
1.0
 40
1.0
 40
1.0
 40
1.0
 10
-1115.651292779929
 20
-1740.736213971475
 42
1.0
 10
-1117.106332201832
 20
-1741.514091226813
 42
0.952754144170146
 10
-1118.735260947715
 20
-1741.932704334293
 42
0.92913121625522
 10
-1120.427096981526
 20
-1741.932721292123
 42
0.92913121625522
 10
-1122.055996335292
 20
-1741.514140838928
 42
0.952754144170146
 10
-1123.510981138935
 20
-1740.736292751719
 42
1.0
 97
        0
 72
     4
 94
        5
 73
     1
 74
     0
 95
       12
 96
        6
 40
0.0
 40
0.0
 40
0.0
 40
0.0
 40
0.0
 40
0.0
 40
1.0
 40
1.0
 40
1.0
 40
1.0
 40
1.0
 40
1.0
 10
-1123.510981138935
 20
-1740.736292751719
 42
1.0
 10
-1124.835449587906
 20
-1740.029736987523
 42
0.9529220753075458
 10
-1126.317600804294
 20
-1739.649624632188
 42
0.929383112961319
 10
-1127.85679831478
 20
-1739.649641585423
 42
0.929383112961319
 10
-1129.338978924124
 20
-1740.029786590892
 42
0.9529220753075458
 10
-1130.663502007731
 20
-1740.736371531965
 42
1.0
 97
        0
 72
     4
 94
        5
 73
     1
 74
     0
 95
       12
 96
        6
 40
0.0
 40
0.0
 40
0.0
 40
0.0
 40
0.0
 40
0.0
 40
0.0157553232654262
 40
0.0157553232654262
 40
0.0157553232654262
 40
0.0157553232654262
 40
0.0157553232654262
 40
0.0157553232654262
 10
-1130.663502007731
 20
-1740.736371531965
 42
1.0
 10
-1131.034364521469
 20
-1740.934213208458
 42
1.0
 10
-1131.3915469261
 20
-1741.157698822772
 42
1.0
 10
-1131.746064548771
 20
-1740.493140681952
 42
1.0
 10
-1131.387653229491
 20
-1740.271958719642
 42
1.0
 10
-1131.016790715755
 20
-1740.074117043149
 42
1.0
 97
        0
 72
     4
 94
        5
 73
     1
 74
     0
 95
       12
 96
        6
 40
0.0157553232654262
 40
0.0157553232654262
 40
0.0157553232654262
 40
0.0157553232654262
 40
0.0157553232654262
 40
0.0157553232654262
 40
1.0
 40
1.0
 40
1.0
 40
1.0
 40
1.0
 40
1.0
 10
-1131.016790715755
 20
-1740.074117043149
 42
1.0
 10
-1129.561424421302
 20
-1739.29773200303
 42
0.9529220753075458
 10
-1127.932793065399
 20
-1738.880052106956
 42
0.929383112961319
 10
-1126.241479071778
 20
-1738.880069060191
 42
0.929383112961319
 10
-1124.612818322916
 20
-1739.297781606399
 42
0.9529220753075458
 10
-1123.15739739383
 20
-1740.074195823394
 42
1.0
 97
        0
 72
     4
 94
        5
 73
     1
 74
     0
 95
       12
 96
        6
 40
0.0
 40
0.0
 40
0.0
 40
0.0
 40
0.0
 40
0.0
 40
0.4960304773248839
 40
0.4960304773248839
 40
0.4960304773248839
 40
0.4960304773248839
 40
0.4960304773248839
 40
0.4960304773248839
 10
-1123.15739739383
 20
-1740.074195823394
 42
1.0
 10
-1121.833325829621
 20
-1740.782056444356
 42
0.952754144170146
 10
-1120.351018119816
 20
-1741.16299100162
 42
0.92913121625522
 10
-1118.81146682575
 20
-1741.16300795945
 42
0.92913121625522
 10
-1117.329188508058
 20
-1740.782106056469
 42
0.952754144170146
 10
-1116.005171562114
 20
-1740.074274603637
 42
1.0
 97
        0
 97
        3
330
9D9
330
9DB
330
9DA
 75
     1
 76
     1
 47
0.1141113672883229
 98
        3
 10
-1117.018206234248
 20
-1715.710713565621
 10
-1117.018206234248
 20
-1715.710713565621
 10
-1117.018206234248
 20
-1715.710713565621
450
        0
451
        0
460
0.0
461
0.0
452
        0
462
1.0
453
        2
463
0.0
 63
     5
421
      255
463
1.0
 63
     2
421
 16776960
470
LINEAR
1001
GradientColor1ACI
1070
     5
1001
GradientColor2ACI
1070
     2
1001
ACAD
1010
0.0
1020
0.0
1030
0.0
  0
LINE
  5
99C
330
A
100
AcDbEntity
  8
HEWI
100
AcDbLine
 10
-1103.584189084998
 20
-1700.848242499998
 30
0.0
 11
-1143.584189084998
 21
-1700.848242499998
 31
0.0
  0
LINE
  5
99D
330
A
100
AcDbEntity
  8
HEWI
  6
STANDARD
 62
     7
100
AcDbLine
 10
-1143.584189084998
 20
-1776.406198499998
 30
0.0
 11
-1103.584189084998
 21
-1776.406198499998
 31
0.0
  0
LINE
  5
99E
330
A
100
AcDbEntity
  8
HEWI
  6
STANDARD
 62
     7
100
AcDbLine
 10
-1065.584189084998
 20
-1700.435882499999
 30
0.0
 11
-1101.584189084998
 21
-1700.435882499999
 31
0.0
  0
LINE
  5
99F
330
A
100
AcDbEntity
  8
HEWI
  6
STANDARD
 62
     7
100
AcDbLine
 10
-1101.584189084998
 20
-1777.385382499998
 30
0.0
 11
-1065.584189084998
 21
-1777.385382499998
 31
0.0
  0
LINE
  5
9A0
330
A
100
AcDbEntity
  8
HEWI
  6
STANDARD
 62
     7
100
AcDbLine
 10
-1103.584189084998
 20
-1775.906198499997
 30
0.0
 11
-1103.584189084998
 21
-1776.406198499998
 31
0.0
  0
LINE
  5
9A1
330
A
100
AcDbEntity
  8
HEWI
100
AcDbLine
 10
-1103.584189084998
 20
-1700.848242499998
 30
0.0
 11
-1103.584189084998
 21
-1701.348242499998
 31
0.0
  0
LINE
  5
9A2
330
A
100
AcDbEntity
  8
HEWI
  6
STANDARD
 62
     7
100
AcDbLine
 10
-1103.584189084998
 20
-1701.348242499998
 30
0.0
 11
-1103.584189084998
 21
-1775.906198499997
 31
0.0
  0
LINE
  5
9A3
330
A
100
AcDbEntity
  8
HEWI
100
AcDbLine
 10
-1103.584189084998
 20
-1701.348242499998
 30
0.0
 11
-1143.584189084998
 21
-1701.348242499998
 31
0.0
  0
LINE
  5
9A4
330
A
100
AcDbEntity
  8
HEWI
  6
STANDARD
 62
     7
100
AcDbLine
 10
-1143.584189084998
 20
-1775.906198499997
 30
0.0
 11
-1103.584189084998
 21
-1775.906198499997
 31
0.0
  0
LINE
  5
9A5
330
A
100
AcDbEntity
  8
HEWI
100
AcDbLine
 10
-1106.084189084998
 20
-1704.460650499999
 30
0.0
 11
-1106.084189084998
 21
-1772.960650499998
 31
0.0
  0
LINE
  5
9A6
330
A
100
AcDbEntity
  8
HEWI
100
AcDbLine
 10
-1107.084189084998
 20
-1703.460650499998
 30
0.0
 11
-1140.084189084998
 21
-1703.460650499998
 31
0.0
  0
LINE
  5
9A7
330
A
100
AcDbEntity
  8
HEWI
100
AcDbLine
 10
-1107.084189084998
 20
-1773.960650499998
 30
0.0
 11
-1140.084189084998
 21
-1773.960650499998
 31
0.0
  0
LINE
  5
9A8
330
A
100
AcDbEntity
  8
HEWI
100
AcDbLine
 10
-1141.084189084998
 20
-1704.460650499999
 30
0.0
 11
-1141.084189084998
 21
-1772.960650499998
 31
0.0
  0
LINE
  5
9A9
330
A
100
AcDbEntity
  8
HEWI
  6
STANDARD
 62
     7
100
AcDbLine
 10
-1143.584189084998
 20
-1776.406198499998
 30
0.0
 11
-1143.584189084998
 21
-1775.906198499997
 31
0.0
  0
LINE
  5
9AA
330
A
100
AcDbEntity
  8
HEWI
100
AcDbLine
 10
-1143.584189084998
 20
-1701.348242499998
 30
0.0
 11
-1143.584189084998
 21
-1700.848242499998
 31
0.0
  0
LINE
  5
9AB
330
A
100
AcDbEntity
  8
HEWI
  6
STANDARD
 62
     7
100
AcDbLine
 10
-1143.584189084998
 20
-1701.348242499998
 30
0.0
 11
-1143.584189084998
 21
-1775.906198499997
 31
0.0
  0
LINE
  5
9AC
330
A
100
AcDbEntity
  8
HEWI
  6
STANDARD
 62
     7
100
AcDbLine
 10
-1065.584189084998
 20
-1777.385382499998
 30
0.0
 11
-1065.584189084998
 21
-1777.185382499999
 31
0.0
  0
LINE
  5
9AD
330
A
100
AcDbEntity
  8
HEWI
  6
STANDARD
 62
     7
100
AcDbLine
 10
-1101.584189084998
 20
-1777.185382499999
 30
0.0
 11
-1065.584189084998
 21
-1777.185382499999
 31
0.0
  0
LINE
  5
9AE
330
A
100
AcDbEntity
  8
HEWI
  6
STANDARD
 62
     7
100
AcDbLine
 10
-1065.584189084998
 20
-1700.635882499998
 30
0.0
 11
-1101.584189084998
 21
-1700.635882499998
 31
0.0
  0
LINE
  5
9AF
330
A
100
AcDbEntity
  8
HEWI
  6
STANDARD
 62
     7
100
AcDbLine
 10
-1101.584189084998
 20
-1777.385382499998
 30
0.0
 11
-1101.584189084998
 21
-1777.185382499999
 31
0.0
  0
LINE
  5
9B0
330
A
100
AcDbEntity
  8
HEWI
  6
STANDARD
 62
     7
100
AcDbLine
 10
-1101.584189084998
 20
-1700.635882499998
 30
0.0
 11
-1101.584189084998
 21
-1777.185382499999
 31
0.0
  0
LINE
  5
9B1
330
A
100
AcDbEntity
  8
HEWI
100
AcDbLine
 10
-1101.584189084998
 20
-1700.435882499999
 30
0.0
 11
-1101.584189084998
 21
-1700.635882499998
 31
0.0
  0
LINE
  5
9B2
102
{ACAD_REACTORS
330
99B
102
}
330
A
100
AcDbEntity
  8
HEWI
100
AcDbLine
 10
-1106.334189084998
 20
-1772.710650499999
 30
0.0
 11
-1106.334189084998
 21
-1738.710650499999
 31
0.0
  0
LINE
  5
9B3
102
{ACAD_REACTORS
330
99B
102
}
330
A
100
AcDbEntity
  8
HEWI
100
AcDbLine
 10
-1139.834189084998
 20
-1773.710650499998
 30
0.0
 11
-1107.334189084998
 21
-1773.710650499998
 31
0.0
  0
LINE
  5
9B4
102
{ACAD_REACTORS
330
99B
102
}
330
A
100
AcDbEntity
  8
HEWI
100
AcDbLine
 10
-1140.834189084998
 20
-1772.710650499999
 30
0.0
 11
-1140.834189084998
 21
-1738.710650499999
 31
0.0
  0
LINE
  5
9B5
102
{ACAD_REACTORS
330
99B
102
}
330
A
100
AcDbEntity
  8
HEWI
100
AcDbLine
 10
-1106.334189084998
 20
-1738.710650499999
 30
0.0
 11
-1106.334189084998
 21
-1704.710650499998
 31
0.0
  0
LINE
  5
9B6
102
{ACAD_REACTORS
330
99B
102
}
330
A
100
AcDbEntity
  8
HEWI
100
AcDbLine
 10
-1107.334189084998
 20
-1703.710650499998
 30
0.0
 11
-1139.834189084998
 21
-1703.710650499998
 31
0.0
  0
LINE
  5
9B7
102
{ACAD_REACTORS
330
99B
102
}
330
A
100
AcDbEntity
  8
HEWI
100
AcDbLine
 10
-1140.834189084998
 20
-1738.710650499999
 30
0.0
 11
-1140.834189084998
 21
-1704.710650499998
 31
0.0
  0
LINE
  5
9B8
330
A
100
AcDbEntity
  8
HEWI
  6
STANDARD
 62
     7
100
AcDbLine
 10
-1091.134191084998
 20
-1800.077688499998
 30
0.0
 11
-1091.134191084998
 21
-1800.077688499998
 31
0.0
  0
LINE
  5
9B9
330
A
100
AcDbEntity
  8
HEWI
  6
STANDARD
 62
     7
100
AcDbLine
 10
-1079.108651084998
 20
-1798.527686499998
 30
0.0
 11
-1088.108081084998
 21
-1798.527686499998
 31
0.0
  0
LINE
  5
9BA
330
A
100
AcDbEntity
  8
HEWI
  6
STANDARD
 62
     7
100
AcDbLine
 10
-1077.884189084997
 20
-1799.327686499999
 30
0.0
 11
-1089.284189084998
 21
-1799.327686499999
 31
0.0
  0
LINE
  5
9BB
330
A
100
AcDbEntity
  8
HEWI
  6
STANDARD
 62
     7
100
AcDbLine
 10
-1063.584189084998
 20
-1701.366226499998
 30
0.0
 11
-1063.584189084998
 21
-1776.130416499998
 31
0.0
  0
LINE
  5
9BC
330
A
100
AcDbEntity
  8
HEWI
  6
STANDARD
 62
     7
100
AcDbLine
 10
-1065.584189084998
 20
-1777.185382499999
 30
0.0
 11
-1065.584189084998
 21
-1700.635882499998
 31
0.0
  0
LINE
  5
9BD
330
A
100
AcDbEntity
  8
HEWI
  6
STANDARD
 62
     7
100
AcDbLine
 10
-1065.584189084998
 20
-1700.435882499999
 30
0.0
 11
-1065.584189084998
 21
-1700.635882499998
 31
0.0
  0
ARC
  5
9BE
330
A
100
AcDbEntity
  8
HEWI
  6
STANDARD
 62
     7
100
AcDbCircle
 10
-1089.284189084998
 20
-1798.527686499998
 30
0.0
 40
0.8
100
AcDbArc
 50
245.0166050000199
 51
270.0
  0
ARC
  5
9BF
330
A
100
AcDbEntity
  8
HEWI
  6
STANDARD
 62
     7
100
AcDbCircle
 10
-1077.884189084997
 20
-1798.527686499998
 30
0.0
 40
0.8
100
AcDbArc
 50
270.0
 51
295.6430130000017
  0
ARC
  5
9C0
330
A
100
AcDbEntity
  8
HEWI
100
AcDbCircle
 10
1107.084189084998
 20
-1704.460650499999
 30
0.0
 40
1.0
210
0.0
220
0.0
230
-1.0
100
AcDbArc
 50
90.0
 51
180.0
  0
ARC
  5
9C1
330
A
100
AcDbEntity
  8
HEWI
100
AcDbCircle
 10
1107.084189084998
 20
-1772.960650499998
 30
0.0
 40
1.0
210
0.0
220
0.0
230
-1.0
100
AcDbArc
 50
180.0
 51
270.0
  0
ARC
  5
9C2
330
A
100
AcDbEntity
  8
HEWI
100
AcDbCircle
 10
1140.084189084998
 20
-1704.460650499999
 30
0.0
 40
1.0
210
0.0
220
0.0
230
-1.0
100
AcDbArc
 50
0.0000000000001088
 51
90.0
  0
ARC
  5
9C3
330
A
100
AcDbEntity
  8
HEWI
100
AcDbCircle
 10
1140.084189084998
 20
-1772.960650499998
 30
0.0
 40
1.0
210
0.0
220
0.0
230
-1.0
100
AcDbArc
 50
270.0
 51
0.0000000000001088
  0
ARC
  5
9C4
102
{ACAD_REACTORS
330
99B
102
}
330
A
100
AcDbEntity
  8
HEWI
100
AcDbCircle
 10
-1107.334189084998
 20
-1772.710650499999
 30
0.0
 40
1.0
100
AcDbArc
 50
270.0
 51
0.000000000000007
  0
ARC
  5
9C5
102
{ACAD_REACTORS
330
99B
102
}
330
A
100
AcDbEntity
  8
HEWI
100
AcDbCircle
 10
-1139.834189084998
 20
-1772.710650499999
 30
0.0
 40
1.0
100
AcDbArc
 50
180.0
 51
270.0
  0
ARC
  5
9C6
102
{ACAD_REACTORS
330
99B
102
}
330
A
100
AcDbEntity
  8
HEWI
100
AcDbCircle
 10
-1107.334189084998
 20
-1704.710650499998
 30
0.0
 40
1.0
100
AcDbArc
 50
0.000000000000007
 51
90.0
  0
ARC
  5
9C7
102
{ACAD_REACTORS
330
99B
102
}
330
A
100
AcDbEntity
  8
HEWI
100
AcDbCircle
 10
-1139.834189084998
 20
-1704.710650499998
 30
0.0
 40
1.0
100
AcDbArc
 50
90.0
 51
180.0
  0
ELLIPSE
  5
9C8
330
A
100
AcDbEntity
  8
HEWI
  6
STANDARD
 62
     7
100
AcDbEllipse
 10
-1063.784189084997
 20
-1776.130416499998
 30
0.0
 11
-0.2
 21
-0.0000000000000001
 31
0.0
210
0.0
220
0.0
230
1.0
 40
0.90136
 41
2.514698896745267
 42
3.141592653589792
  0
ELLIPSE
  5
9C9
330
A
100
AcDbEntity
  8
HEWI
  6
STANDARD
 62
     7
100
AcDbEllipse
 10
-1103.384189084998
 20
-1776.130416499998
 30
0.0
 11
-0.2
 21
-0.0000000000000001
 31
0.0
210
0.0
220
0.0
230
1.0
 40
0.90136
 41
0.0
 42
0.6599300405254424
  0
SPLINE
  5
9CA
330
A
100
AcDbEntity
  8
HEWI
  6
STANDARD
 62
     7
100
AcDbSpline
210
0.0000000000000001
220
0.0000000000000013
230
1.0
 70
     8
 71
     3
 72
    10
 73
     6
 74
     0
 42
0.000000001
 43
0.0000000001
 40
0.0
 40
0.0
 40
0.0
 40
0.0
 40
0.0691533484577913
 40
0.5486690255593603
 40
1.0
 40
1.0
 40
1.0
 40
1.0
 10
-1064.338585969522
 20
-1700.656072941482
 30
-0.0000000000000002
 10
-1064.358489676811
 20
-1700.64543969675
 30
-0.0000000000000002
 10
-1064.521634849858
 20
-1700.564253120376
 30
-0.0000000000000002
 10
-1064.960611753545
 20
-1700.471277822979
 30
-0.0000000000000004
 10
-1065.36927486378
 20
-1700.441001539488
 30
-0.0000000000000004
 10
-1065.58530369873
 20
-1700.441994378129
 30
-0.0000000000000004
  0
SPLINE
  5
9CB
330
A
100
AcDbEntity
  8
HEWI
  6
STANDARD
 62
     7
100
AcDbSpline
210
0.0000000000000001
220
0.0000000000000013
230
1.0
 70
     8
 71
     3
 72
    10
 73
     6
 74
     0
 42
0.000000001
 43
0.0000000001
 40
0.0
 40
0.0
 40
0.0
 40
0.0
 40
0.0691533484577913
 40
0.5486690255593603
 40
1.0
 40
1.0
 40
1.0
 40
1.0
 10
-1064.338585969522
 20
-1700.656072941482
 30
-0.0000000000000002
 10
-1064.358489676811
 20
-1700.64543969675
 30
-0.0000000000000002
 10
-1064.521634849858
 20
-1700.564253120376
 30
-0.0000000000000002
 10
-1064.960611753545
 20
-1700.471277822979
 30
-0.0000000000000004
 10
-1065.36927486378
 20
-1700.441001539488
 30
-0.0000000000000004
 10
-1065.58530369873
 20
-1700.441994378129
 30
-0.0000000000000004
  0
SPLINE
  5
9CC
330
A
100
AcDbEntity
  8
HEWI
  6
STANDARD
 62
     7
100
AcDbSpline
210
0.0
220
0.0
230
1.0
 70
     8
 71
     3
 72
    11
 73
     7
 74
     0
 42
0.000000001
 43
0.0000000001
 40
0.0
 40
0.0
 40
0.0
 40
0.0
 40
0.0085407042298158
 40
0.294495578516009
 40
0.6285837272446312
 40
1.0
 40
1.0
 40
1.0
 40
1.0
 10
-1063.586389135097
 20
-1701.365627321862
 30
-0.0000000000000002
 10
-1063.585640466055
 20
-1701.362986158452
 30
-0.0000000000000002
 10
-1063.561052942969
 20
-1701.272069866494
 30
-0.0000000000000002
 10
-1063.672204005044
 20
-1701.075473793568
 30
-0.0000000000000002
 10
-1063.896955178691
 20
-1700.85085546566
 30
-0.0000000000000002
 10
-1064.169999792017
 20
-1700.716120365514
 30
-0.0000000000000002
 10
-1064.338585969522
 20
-1700.656072941482
 30
-0.0000000000000002
  0
SPLINE
  5
9CD
330
A
100
AcDbEntity
  8
HEWI
100
AcDbSpline
210
0.0
220
0.0
230
1.0
 70
     8
 71
     3
 72
    12
 73
     8
 74
     0
 42
0.000000001
 43
0.0000000001
 40
0.0
 40
0.0
 40
0.0
 40
0.0
 40
0.129584674490289
 40
0.3660981216981058
 40
0.6122957521584437
 40
0.8793126725148667
 40
1.0
 40
1.0
 40
1.0
 40
1.0
 10
-1101.852770538576
 20
-1700.458699708415
 30
0.0
 10
-1101.979055731582
 20
-1700.461747544452
 30
0.0
 10
-1102.319513640001
 20
-1700.486301281964
 30
0.0
 10
-1102.828878732331
 20
-1700.62863980303
 30
0.0
 10
-1103.285454961016
 20
-1700.859722482057
 30
0.0
 10
-1103.55195861443
 20
-1701.102346571294
 30
0.0
 10
-1103.566861213368
 20
-1701.302580366158
 30
0.0
 10
-1103.560819742298
 20
-1701.368747844972
 30
0.0
  0
SPLINE
  5
9CE
330
A
100
AcDbEntity
  8
HEWI
  6
STANDARD
 62
     7
100
AcDbSpline
210
-0.0000000000000002
220
0.0000000000000002
230
1.0
 70
     8
 71
     3
 72
    16
 73
    12
 74
     0
 42
0.000000001
 43
0.0000000001
 40
0.0
 40
0.0
 40
0.0
 40
0.0
 40
0.1771404143545236
 40
0.1771404143545236
 40
0.3522186943510297
 40
0.3522186943510297
 40
0.539954319336339
 40
0.539954319336339
 40
0.7594025013289695
 40
0.7594025013289695
 40
1.0
 40
1.0
 40
1.0
 40
1.0
 10
-1065.58418926638
 20
-1777.185381714251
 30
-0.0000000000000004
 10
-1065.387837456631
 20
-1777.185381714251
 30
-0.0000000000000004
 10
-1065.188868876633
 20
-1777.166312719691
 30
-0.0000000000000004
 10
-1064.820789764328
 20
-1777.096876824742
 30
-0.0000000000000004
 10
-1064.646683057127
 20
-1777.046276359822
 30
-0.0000000000000004
 10
-1064.325565620083
 20
-1776.921587285821
 30
-0.0000000000000002
 10
-1064.177447357841
 20
-1776.84479339323
 30
-0.0000000000000002
 10
-1063.909532917926
 20
-1776.668325094368
 30
-0.0000000000000002
 10
-1063.795010956948
 20
-1776.564777176714
 30
-0.0000000000000002
 10
-1063.629901345212
 20
-1776.350058439585
 30
-0.0000000000000002
 10
-1063.58418926638
 20
-1776.236089374627
 30
-0.0000000000000002
 10
-1063.58418926638
 20
-1776.130416142662
 30
-0.0000000000000002
  0
SPLINE
  5
9CF
330
A
100
AcDbEntity
  8
HEWI
  6
STANDARD
 62
     7
100
AcDbSpline
210
-0.0000000000000002
220
0.0000000000000003
230
1.0
 70
     8
 71
     3
 72
    16
 73
    12
 74
     0
 42
0.000000001
 43
0.0000000001
 40
0.0
 40
0.0
 40
0.0
 40
0.0
 40
0.012771053008153
 40
0.012771053008153
 40
0.2987140812229396
 40
0.2987140812229396
 40
0.5432081856599547
 40
0.5432081856599547
 40
0.7705827780638374
 40
0.7705827780638374
 40
1.0
 40
1.0
 40
1.0
 40
1.0
 10
-1063.893649142674
 20
-1776.623767670548
 30
-0.0000000000000002
 10
-1063.896693070101
 20
-1776.628274861109
 30
-0.0000000000000002
 10
-1063.899797758377
 20
-1776.632779501318
 30
-0.0000000000000002
 10
-1063.973988680321
 20
-1776.738293999689
 30
-0.0000000000000002
 10
-1064.077016711909
 20
-1776.840139142983
 30
-0.0000000000000002
 10
-1064.318037918213
 20
-1777.013755090915
 30
-0.0000000000000002
 10
-1064.451241592696
 20
-1777.089320721957
 30
-0.0000000000000002
 10
-1064.740199356161
 20
-1777.212025835207
 30
-0.0000000000000004
 10
-1064.896859941978
 20
-1777.261873291523
 30
-0.0000000000000004
 10
-1065.228180140535
 20
-1777.330225816166
 30
-0.0000000000000004
 10
-1065.407386259762
 20
-1777.349040058274
 30
-0.0000000000000004
 10
-1065.58418926638
 20
-1777.349040058274
 30
-0.0000000000000004
  0
SPLINE
  5
9D0
330
A
100
AcDbEntity
  8
HEWI
  6
STANDARD
 62
     7
100
AcDbSpline
210
0.0
220
0.0
230
1.0
 70
     8
 71
     3
 72
    16
 73
    12
 74
     0
 42
0.000000001
 43
0.0000000001
 40
0.0
 40
0.0
 40
0.0
 40
0.0
 40
0.1053123592843732
 40
0.1053123592843732
 40
0.3301327988397731
 40
0.3301327988397731
 40
0.6504275187068807
 40
0.6504275187068807
 40
0.9722491720568131
 40
0.9722491720568131
 40
1.0
 40
1.0
 40
1.0
 40
1.0
 10
-1101.584189266382
 20
-1777.349040058274
 30
0.0
 10
-1101.666962207399
 20
-1777.349040058274
 30
0.0
 10
-1101.75001104019
 20
-1777.345051065125
 30
0.0
 10
-1102.004085966642
 20
-1777.320754247798
 30
0.0
 10
-1102.173393979939
 20
-1777.286509038238
 30
0.0
 10
-1102.544717801167
 20
-1777.173913155506
 30
0.0
 10
-1102.739232180744
 20
-1777.081170886901
 30
0.0
 10
-1103.051689760777
 20
-1776.876861185607
 30
0.0
 10
-1103.175305101785
 20
-1776.76180447947
 30
0.0
 10
-1103.265016282739
 20
-1776.637987933088
 30
0.0
 10
-1103.271851976114
 20
-1776.628139527552
 30
0.0
 10
-1103.278396860975
 20
-1776.61828051265
 30
0.0
  0
SPLINE
  5
9D1
330
A
100
AcDbEntity
  8
HEWI
100
AcDbSpline
210
0.0
220
0.0
230
1.0
 70
     8
 71
     3
 72
    16
 73
    12
 74
     0
 42
0.000000001
 43
0.0000000001
 40
0.0
 40
0.0
 40
0.0
 40
0.0
 40
0.1945552639644179
 40
0.1945552639644179
 40
0.3878946385599321
 40
0.3878946385599321
 40
0.5892372746630514
 40
0.5892372746630514
 40
0.8080348914056751
 40
0.8080348914056751
 40
1.0
 40
1.0
 40
1.0
 40
1.0
 10
-1101.584189266382
 20
-1700.635882430695
 30
0.0
 10
-1101.793206474361
 20
-1700.635882430695
 30
0.0
 10
-1102.005034416853
 20
-1700.650398677755
 30
0.0
 10
-1102.398300970651
 20
-1700.704076716418
 30
0.0
 10
-1102.585041354871
 20
-1700.743646207994
 30
0.0
 10
-1102.920948288315
 20
-1700.840620355578
 30
0.0
 10
-1103.072615787537
 20
-1700.899800026977
 30
0.0
 10
-1103.32872523505
 20
-1701.030605700276
 30
0.0
 10
-1103.43151225513
 20
-1701.104551299157
 30
0.0
 10
-1103.554345407993
 20
-1701.241212518899
 30
0.0
 10
-1103.584189266381
 20
-1701.305572554328
 30
0.0
 10
-1103.584189266381
 20
-1701.366227385898
 30
0.0
  0
SPLINE
  5
9D2
330
A
100
AcDbEntity
  8
HEWI
  6
STANDARD
 62
     7
100
AcDbSpline
210
0.0
220
0.0
230
1.0
 70
     8
 71
     3
 72
    16
 73
    12
 74
     0
 42
0.000000001
 43
0.0000000001
 40
0.0
 40
0.0
 40
0.0
 40
0.0
 40
0.2481016251448624
 40
0.2481016251448624
 40
0.4963851440995061
 40
0.4963851440995061
 40
0.7438538839225557
 40
0.7438538839225557
 40
0.9181884979193776
 40
0.9181884979193776
 40
1.0
 40
1.0
 40
1.0
 40
1.0
 10
-1103.58418926638
 20
-1776.130416142662
 30
0.0
 10
-1103.58418926638
 20
-1776.239404104677
 30
0.0
 10
-1103.535505769195
 20
-1776.357282138879
 30
0.0
 10
-1103.352170868324
 20
-1776.588655565106
 30
0.0
 10
-1103.214727587566
 20
-1776.705658612632
 30
0.0
 10
-1102.867313093533
 20
-1776.913380411302
 30
0.0
 10
-1102.650935538259
 20
-1777.007593539709
 30
0.0
 10
-1102.23857005039
 20
-1777.121930917285
 30
0.0
 10
-1102.050506953542
 20
-1777.156663810075
 30
0.0
 10
-1101.768406153212
 20
-1777.181331479265
 30
0.0
 10
-1101.67614900161
 20
-1777.185381714251
 30
0.0
 10
-1101.584189266382
 20
-1777.185381714251
 30
0.0
  0
SPLINE
  5
9D3
330
A
100
AcDbEntity
  8
HEWI
100
AcDbSpline
210
0.0
220
0.0
230
1.0
 70
     8
 71
     3
 72
     8
 73
     4
 74
     0
 42
0.000000001
 43
0.0000000001
 40
0.0
 40
0.0
 40
0.0
 40
0.0
 40
1.0
 40
1.0
 40
1.0
 40
1.0
 10
-1101.843026652447
 20
-1700.463988108392
 30
0.0
 10
-1101.757233450914
 20
-1700.458158710697
 30
0.0
 10
-1101.670443756415
 20
-1700.455141130154
 30
0.0
 10
-1101.584189266382
 20
-1700.455141130154
 30
0.0
  0
HATCH
  5
9D4
330
A
100
AcDbEntity
  8
0
 62
     7
100
AcDbHatch
 10
0.0
 20
0.0
 30
0.0
210
0.0
220
0.0
230
1.0
  2
SOLID
 70
     1
 71
     0
 91
        2
 92
        5
 93
        6
 72
     4
 94
        5
 73
     1
 74
     0
 95
       12
 96
        6
 40
0.0157553232654262
 40
0.0157553232654262
 40
0.0157553232654262
 40
0.0157553232654262
 40
0.0157553232654262
 40
0.0157553232654262
 40
1.0
 40
1.0
 40
1.0
 40
1.0
 40
1.0
 40
1.0
 10
-1123.15739739383
 20
-1736.946713700326
 42
1.0
 10
-1124.612818322916
 20
-1736.170299483333
 42
0.9529220753075458
 10
-1126.241479071778
 20
-1735.752586937123
 42
0.929383112961319
 10
-1127.932793065399
 20
-1735.752569983889
 42
0.929383112961319
 10
-1129.561424421303
 20
-1736.170249879963
 42
0.9529220753075458
 10
-1131.016790715755
 20
-1736.946634920081
 42
1.0
 97
        0
 72
     4
 94
        5
 73
     1
 74
     0
 95
       12
 96
        6
 40
0.0
 40
0.0
 40
0.0
 40
0.0
 40
0.0
 40
0.0
 40
0.0157553232654262
 40
0.0157553232654262
 40
0.0157553232654262
 40
0.0157553232654262
 40
0.0157553232654262
 40
0.0157553232654262
 10
-1131.016790715755
 20
-1736.946634920081
 42
1.0
 10
-1131.387653229491
 20
-1737.144476596576
 42
1.0
 10
-1131.746064548771
 20
-1737.365658558885
 42
1.0
 10
-1131.3915469261
 20
-1738.030216699705
 42
1.0
 10
-1131.034364521469
 20
-1737.806731085392
 42
1.0
 10
-1130.663502007731
 20
-1737.608889408897
 42
1.0
 97
        0
 72
     4
 94
        5
 73
     1
 74
     0
 95
       12
 96
        6
 40
0.0
 40
0.0
 40
0.0
 40
0.0
 40
0.0
 40
0.0
 40
1.0
 40
1.0
 40
1.0
 40
1.0
 40
1.0
 40
1.0
 10
-1130.663502007731
 20
-1737.608889408897
 42
1.0
 10
-1129.338978924124
 20
-1736.902304467825
 42
0.9529220753075458
 10
-1127.85679831478
 20
-1736.522159462356
 42
0.929383112961319
 10
-1126.317600804294
 20
-1736.522142509123
 42
0.929383112961319
 10
-1124.835449587906
 20
-1736.902254864456
 42
0.9529220753075458
 10
-1123.510981138935
 20
-1737.608810628653
 42
1.0
 97
        0
 72
     4
 94
        5
 73
     1
 74
     0
 95
       12
 96
        6
 40
0.5039695226751162
 40
0.5039695226751162
 40
0.5039695226751162
 40
0.5039695226751162
 40
0.5039695226751162
 40
0.5039695226751162
 40
1.0
 40
1.0
 40
1.0
 40
1.0
 40
1.0
 40
1.0
 10
-1123.510981138935
 20
-1737.608810628653
 42
1.0
 10
-1122.055996335292
 20
-1738.38665871586
 42
0.952754144170146
 10
-1120.427096981526
 20
-1738.805239169056
 42
0.92913121625522
 10
-1118.735260947715
 20
-1738.805222211226
 42
0.92913121625522
 10
-1117.106332201832
 20
-1738.386609103747
 42
0.952754144170146
 10
-1115.651292779929
 20
-1737.608731848408
 42
1.0
 97
        0
 72
     4
 94
        5
 73
     1
 74
     0
 95
       12
 96
        6
 40
0.4960304773248839
 40
0.4960304773248839
 40
0.4960304773248839
 40
0.4960304773248839
 40
0.4960304773248839
 40
0.4960304773248839
 40
0.5039695226751161
 40
0.5039695226751161
 40
0.5039695226751161
 40
0.5039695226751161
 40
0.5039695226751161
 40
0.5039695226751161
 10
-1115.651292779929
 20
-1737.608731848408
 42
1.0
 10
-1115.280606733939
 20
-1737.410559730385
 42
1.0
 10
-1114.922411634196
 20
-1737.189022976002
 42
1.0
 10
-1115.277527580283
 20
-1736.52476946125
 42
1.0
 10
-1115.634485516123
 20
-1736.748620362547
 42
1.0
 10
-1116.005171562114
 20
-1736.94679248057
 42
1.0
 97
        0
 72
     4
 94
        5
 73
     1
 74
     0
 95
       12
 96
        6
 40
0.0
 40
0.0
 40
0.0
 40
0.0
 40
0.0
 40
0.0
 40
0.4960304773248839
 40
0.4960304773248839
 40
0.4960304773248839
 40
0.4960304773248839
 40
0.4960304773248839
 40
0.4960304773248839
 10
-1116.005171562114
 20
-1736.94679248057
 42
1.0
 10
-1117.329188508058
 20
-1737.654623933402
 42
0.952754144170146
 10
-1118.81146682575
 20
-1738.035525836384
 42
0.92913121625522
 10
-1120.351018119816
 20
-1738.035508878553
 42
0.92913121625522
 10
-1121.833325829621
 20
-1737.654574321288
 42
0.952754144170146
 10
-1123.15739739383
 20
-1736.946713700326
 42
1.0
 97
        0
 97
        0
 92
        5
 93
        6
 72
     4
 94
        5
 73
     1
 74
     0
 95
       12
 96
        6
 40
0.0157553232654262
 40
0.0157553232654262
 40
0.0157553232654262
 40
0.0157553232654262
 40
0.0157553232654262
 40
0.0157553232654262
 40
1.0
 40
1.0
 40
1.0
 40
1.0
 40
1.0
 40
1.0
 10
-1123.15739739383
 20
-1740.074195823394
 42
1.0
 10
-1124.612818322916
 20
-1739.297781606399
 42
0.9529220753075458
 10
-1126.241479071778
 20
-1738.880069060191
 42
0.929383112961319
 10
-1127.932793065399
 20
-1738.880052106956
 42
0.929383112961319
 10
-1129.561424421302
 20
-1739.29773200303
 42
0.9529220753075458
 10
-1131.016790715755
 20
-1740.074117043149
 42
1.0
 97
        0
 72
     4
 94
        5
 73
     1
 74
     0
 95
       12
 96
        6
 40
0.0
 40
0.0
 40
0.0
 40
0.0
 40
0.0
 40
0.0
 40
0.0157553232654262
 40
0.0157553232654262
 40
0.0157553232654262
 40
0.0157553232654262
 40
0.0157553232654262
 40
0.0157553232654262
 10
-1131.016790715755
 20
-1740.074117043149
 42
1.0
 10
-1131.387653229491
 20
-1740.271958719642
 42
1.0
 10
-1131.746064548771
 20
-1740.493140681952
 42
1.0
 10
-1131.3915469261
 20
-1741.157698822772
 42
1.0
 10
-1131.034364521469
 20
-1740.934213208458
 42
1.0
 10
-1130.663502007731
 20
-1740.736371531965
 42
1.0
 97
        0
 72
     4
 94
        5
 73
     1
 74
     0
 95
       12
 96
        6
 40
0.0
 40
0.0
 40
0.0
 40
0.0
 40
0.0
 40
0.0
 40
1.0
 40
1.0
 40
1.0
 40
1.0
 40
1.0
 40
1.0
 10
-1130.663502007731
 20
-1740.736371531965
 42
1.0
 10
-1129.338978924124
 20
-1740.029786590892
 42
0.9529220753075458
 10
-1127.85679831478
 20
-1739.649641585423
 42
0.929383112961319
 10
-1126.317600804294
 20
-1739.649624632188
 42
0.929383112961319
 10
-1124.835449587906
 20
-1740.029736987523
 42
0.9529220753075458
 10
-1123.510981138935
 20
-1740.736292751719
 42
1.0
 97
        0
 72
     4
 94
        5
 73
     1
 74
     0
 95
       12
 96
        6
 40
0.5039695226751162
 40
0.5039695226751162
 40
0.5039695226751162
 40
0.5039695226751162
 40
0.5039695226751162
 40
0.5039695226751162
 40
1.0
 40
1.0
 40
1.0
 40
1.0
 40
1.0
 40
1.0
 10
-1123.510981138935
 20
-1740.736292751719
 42
1.0
 10
-1122.055996335292
 20
-1741.514140838928
 42
0.952754144170146
 10
-1120.427096981526
 20
-1741.932721292123
 42
0.92913121625522
 10
-1118.735260947715
 20
-1741.932704334293
 42
0.92913121625522
 10
-1117.106332201832
 20
-1741.514091226813
 42
0.952754144170146
 10
-1115.651292779929
 20
-1740.736213971475
 42
1.0
 97
        0
 72
     4
 94
        5
 73
     1
 74
     0
 95
       12
 96
        6
 40
0.4960304773248839
 40
0.4960304773248839
 40
0.4960304773248839
 40
0.4960304773248839
 40
0.4960304773248839
 40
0.4960304773248839
 40
0.5039695226751161
 40
0.5039695226751161
 40
0.5039695226751161
 40
0.5039695226751161
 40
0.5039695226751161
 40
0.5039695226751161
 10
-1115.651292779929
 20
-1740.736213971475
 42
1.0
 10
-1115.280606733939
 20
-1740.538041853453
 42
1.0
 10
-1114.922411634196
 20
-1740.316505099069
 42
1.0
 10
-1115.277527580283
 20
-1739.652251584318
 42
1.0
 10
-1115.634485516123
 20
-1739.876102485614
 42
1.0
 10
-1116.005171562114
 20
-1740.074274603637
 42
1.0
 97
        0
 72
     4
 94
        5
 73
     1
 74
     0
 95
       12
 96
        6
 40
0.0
 40
0.0
 40
0.0
 40
0.0
 40
0.0
 40
0.0
 40
0.4960304773248839
 40
0.4960304773248839
 40
0.4960304773248839
 40
0.4960304773248839
 40
0.4960304773248839
 40
0.4960304773248839
 10
-1116.005171562114
 20
-1740.074274603637
 42
1.0
 10
-1117.329188508058
 20
-1740.782106056469
 42
0.952754144170146
 10
-1118.81146682575
 20
-1741.16300795945
 42
0.92913121625522
 10
-1120.351018119816
 20
-1741.16299100162
 42
0.92913121625522
 10
-1121.833325829621
 20
-1740.782056444356
 42
0.952754144170146
 10
-1123.15739739383
 20
-1740.074195823394
 42
1.0
 97
        0
 97
        0
 75
     1
 76
     1
 47
0.1141113672883229
 98
        2
 10
-1126.837699834704
 20
-1736.478985026627
 10
-1127.636958620507
 20
-1739.674104472715
450
        0
451
        0
460
0.0
461
0.0
452
        0
462
1.0
453
        2
463
0.0
 63
     5
421
      255
463
1.0
 63
     2
421
 16776960
470
LINEAR
1001
GradientColor1ACI
1070
     5
1001
GradientColor2ACI
1070
     2
1001
ACAD
1010
0.0
1020
0.0
1030
0.0
  0
SPLINE
  5
9D5
102
{ACAD_REACTORS
330
99B
102
}
330
A
100
AcDbEntity
  8
HEWI
100
AcDbSpline
210
-0.0000000000000001
220
0.0
230
1.0
 70
    12
 71
     5
 72
    22
 73
    16
 74
     0
 42
0.000000001
 43
0.0000000001
 40
0.0
 40
0.0
 40
0.0
 40
0.0
 40
0.0
 40
0.0
 40
0.4960304773248839
 40
0.4960304773248839
 40
0.4960304773248839
 40
0.4960304773248839
 40
0.4960304773248839
 40
0.5039695226751161
 40
0.5039695226751161
 40
0.5039695226751161
 40
0.5039695226751161
 40
0.5039695226751161
 40
1.0
 40
1.0
 40
1.0
 40
1.0
 40
1.0
 40
1.0
 10
-1123.15739739383
 20
-1736.946713700326
 30
-0.0000000000000004
 41
1.0
 10
-1121.833325829621
 20
-1737.654574321288
 30
-0.0000000000000002
 41
0.952754144170146
 10
-1120.351018119816
 20
-1738.035508878553
 30
-0.0000000000000002
 41
0.92913121625522
 10
-1118.81146682575
 20
-1738.035525836384
 30
0.0
 41
0.92913121625522
 10
-1117.329188508058
 20
-1737.654623933402
 30
0.0
 41
0.952754144170146
 10
-1116.005171562114
 20
-1736.94679248057
 30
0.0000000000000002
 41
1.0
 10
-1115.634485516123
 20
-1736.748620362547
 30
0.0000000000000002
 41
1.0
 10
-1115.277527580283
 20
-1736.52476946125
 30
0.0000000000000002
 41
1.0
 10
-1114.922411634196
 20
-1737.189022976002
 30
0.0000000000000002
 41
1.0
 10
-1115.280606733939
 20
-1737.410559730385
 30
0.0000000000000002
 41
1.0
 10
-1115.651292779929
 20
-1737.608731848408
 30
0.0000000000000002
 41
1.0
 10
-1117.106332201832
 20
-1738.386609103747
 30
0.0
 41
0.952754144170146
 10
-1118.735260947715
 20
-1738.805222211226
 30
0.0
 41
0.92913121625522
 10
-1120.427096981526
 20
-1738.805239169056
 30
-0.0000000000000002
 41
0.92913121625522
 10
-1122.055996335292
 20
-1738.38665871586
 30
-0.0000000000000002
 41
0.952754144170146
 10
-1123.510981138935
 20
-1737.608810628653
 30
-0.0000000000000004
 41
1.0
  0
SPLINE
  5
9D6
102
{ACAD_REACTORS
330
99B
102
}
330
A
100
AcDbEntity
  8
HEWI
100
AcDbSpline
210
0.0000000000000001
220
-0.0000000000000003
230
1.0
 70
    12
 71
     5
 72
    17
 73
    11
 74
     0
 42
0.000000001
 43
0.0000000001
 40
0.0
 40
0.0
 40
0.0
 40
0.0
 40
0.0
 40
0.0
 40
0.0157553232654262
 40
0.0157553232654262
 40
0.0157553232654262
 40
0.0157553232654262
 40
0.0157553232654262
 40
1.0
 40
1.0
 40
1.0
 40
1.0
 40
1.0
 40
1.0
 10
-1130.663502007731
 20
-1737.608889408897
 30
0.0
 41
1.0
 10
-1131.034364521469
 20
-1737.806731085392
 30
0.0
 41
1.0
 10
-1131.3915469261
 20
-1738.030216699705
 30
0.0
 41
1.0
 10
-1131.746064548771
 20
-1737.365658558885
 30
0.0
 41
1.0
 10
-1131.387653229491
 20
-1737.144476596576
 30
0.0
 41
1.0
 10
-1131.016790715755
 20
-1736.946634920081
 30
0.0
 41
1.0
 10
-1129.561424421303
 20
-1736.170249879963
 30
0.0000000000000002
 41
0.9529220753075458
 10
-1127.932793065399
 20
-1735.752569983889
 30
0.0000000000000002
 41
0.929383112961319
 10
-1126.241479071778
 20
-1735.752586937123
 30
0.0000000000000004
 41
0.929383112961319
 10
-1124.612818322916
 20
-1736.170299483333
 30
-0.0000000000000004
 41
0.9529220753075458
 10
-1123.15739739383
 20
-1736.946713700326
 30
-0.0000000000000004
 41
1.0
  0
SPLINE
  5
9D7
102
{ACAD_REACTORS
330
99B
102
}
330
A
100
AcDbEntity
  8
HEWI
100
AcDbSpline
210
0.0000000000000001
220
-0.0000000000000003
230
1.0
 70
    12
 71
     5
 72
    12
 73
     6
 74
     0
 42
0.000000001
 43
0.0000000001
 40
0.0
 40
0.0
 40
0.0
 40
0.0
 40
0.0
 40
0.0
 40
1.0
 40
1.0
 40
1.0
 40
1.0
 40
1.0
 40
1.0
 10
-1123.510981138935
 20
-1737.608810628653
 30
-0.0000000000000004
 41
1.0
 10
-1124.835449587906
 20
-1736.902254864456
 30
-0.0000000000000004
 41
0.9529220753075458
 10
-1126.317600804294
 20
-1736.522142509123
 30
0.0000000000000004
 41
0.929383112961319
 10
-1127.85679831478
 20
-1736.522159462356
 30
0.0000000000000002
 41
0.929383112961319
 10
-1129.338978924124
 20
-1736.902304467825
 30
0.0000000000000002
 41
0.9529220753075458
 10
-1130.663502007731
 20
-1737.608889408897
 30
0.0
 41
1.0
  0
SPLINE
  5
9D8
330
A
100
AcDbEntity
  8
HEWI
  6
STANDARD
 62
     7
100
AcDbSpline
210
0.0
220
-0.0000000000000002
230
1.0
 70
     8
 71
     3
 72
    14
 73
    10
 74
     0
 42
0.000000001
 43
0.0000000001
 40
0.0
 40
0.0
 40
0.0
 40
0.0
 40
0.2499087050623483
 40
0.2499087050623483
 40
0.4999391367082322
 40
0.4999391367082322
 40
0.7499695683541161
 40
0.7499695683541161
 40
1.0
 40
1.0
 40
1.0
 40
1.0
 10
-1076.034221130785
 20
-1800.077667284307
 30
-0.0000000000000002
 10
-1076.028322090998
 20
-1800.081190235329
 30
-0.0000000000000002
 10
-1076.880556022118
 20
-1799.525347387227
 30
-0.0000000000000002
 10
-1079.604129264879
 20
-1798.23823886424
 30
-0.0000000000000004
 10
-1081.540031878478
 20
-1797.542913817137
 30
0.0000000000000004
 10
-1085.59975286361
 20
-1797.537087720429
 30
0.0000000000000002
 10
-1087.535196782496
 20
-1798.225943149251
 30
0.0
 10
-1090.287398731135
 20
-1799.523728796893
 30
-0.0000000000000002
 10
-1091.134202663309
 20
-1800.07769531028
 30
-0.0000000000000002
 10
-1091.134191881768
 20
-1800.07768827061
 30
-0.0000000000000002
  0
SPLINE
  5
9D9
102
{ACAD_REACTORS
330
99B
102
}
330
A
100
AcDbEntity
  8
HEWI
100
AcDbSpline
210
-0.0000000000000001
220
0.0
230
1.0
 70
    12
 71
     5
 72
    22
 73
    16
 74
     0
 42
0.000000001
 43
0.0000000001
 40
0.0
 40
0.0
 40
0.0
 40
0.0
 40
0.0
 40
0.0
 40
0.4960304773248839
 40
0.4960304773248839
 40
0.4960304773248839
 40
0.4960304773248839
 40
0.4960304773248839
 40
0.5039695226751161
 40
0.5039695226751161
 40
0.5039695226751161
 40
0.5039695226751161
 40
0.5039695226751161
 40
1.0
 40
1.0
 40
1.0
 40
1.0
 40
1.0
 40
1.0
 10
-1123.15739739383
 20
-1740.074195823394
 30
-0.0000000000000004
 41
1.0
 10
-1121.833325829621
 20
-1740.782056444356
 30
-0.0000000000000002
 41
0.952754144170146
 10
-1120.351018119816
 20
-1741.16299100162
 30
-0.0000000000000002
 41
0.92913121625522
 10
-1118.81146682575
 20
-1741.16300795945
 30
0.0
 41
0.92913121625522
 10
-1117.329188508058
 20
-1740.782106056469
 30
0.0
 41
0.952754144170146
 10
-1116.005171562114
 20
-1740.074274603637
 30
0.0000000000000002
 41
1.0
 10
-1115.634485516123
 20
-1739.876102485614
 30
0.0000000000000002
 41
1.0
 10
-1115.277527580283
 20
-1739.652251584318
 30
0.0000000000000002
 41
1.0
 10
-1114.922411634196
 20
-1740.316505099069
 30
0.0000000000000002
 41
1.0
 10
-1115.280606733939
 20
-1740.538041853453
 30
0.0000000000000002
 41
1.0
 10
-1115.651292779929
 20
-1740.736213971475
 30
0.0000000000000002
 41
1.0
 10
-1117.106332201832
 20
-1741.514091226813
 30
0.0
 41
0.952754144170146
 10
-1118.735260947715
 20
-1741.932704334293
 30
0.0
 41
0.92913121625522
 10
-1120.427096981526
 20
-1741.932721292123
 30
-0.0000000000000002
 41
0.92913121625522
 10
-1122.055996335292
 20
-1741.514140838928
 30
-0.0000000000000002
 41
0.952754144170146
 10
-1123.510981138935
 20
-1740.736292751719
 30
-0.0000000000000004
 41
1.0
  0
SPLINE
  5
9DA
102
{ACAD_REACTORS
330
99B
102
}
330
A
100
AcDbEntity
  8
HEWI
100
AcDbSpline
210
0.0000000000000001
220
-0.0000000000000003
230
1.0
 70
    12
 71
     5
 72
    17
 73
    11
 74
     0
 42
0.000000001
 43
0.0000000001
 40
0.0
 40
0.0
 40
0.0
 40
0.0
 40
0.0
 40
0.0
 40
0.0157553232654262
 40
0.0157553232654262
 40
0.0157553232654262
 40
0.0157553232654262
 40
0.0157553232654262
 40
1.0
 40
1.0
 40
1.0
 40
1.0
 40
1.0
 40
1.0
 10
-1130.663502007731
 20
-1740.736371531965
 30
0.0
 41
1.0
 10
-1131.034364521469
 20
-1740.934213208458
 30
0.0
 41
1.0
 10
-1131.3915469261
 20
-1741.157698822772
 30
0.0
 41
1.0
 10
-1131.746064548771
 20
-1740.493140681952
 30
0.0
 41
1.0
 10
-1131.387653229491
 20
-1740.271958719642
 30
0.0
 41
1.0
 10
-1131.016790715755
 20
-1740.074117043149
 30
0.0
 41
1.0
 10
-1129.561424421302
 20
-1739.29773200303
 30
0.0000000000000002
 41
0.9529220753075458
 10
-1127.932793065399
 20
-1738.880052106956
 30
0.0000000000000002
 41
0.929383112961319
 10
-1126.241479071778
 20
-1738.880069060191
 30
0.0000000000000004
 41
0.929383112961319
 10
-1124.612818322916
 20
-1739.297781606399
 30
-0.0000000000000004
 41
0.9529220753075458
 10
-1123.15739739383
 20
-1740.074195823394
 30
-0.0000000000000004
 41
1.0
  0
SPLINE
  5
9DB
102
{ACAD_REACTORS
330
99B
102
}
330
A
100
AcDbEntity
  8
HEWI
100
AcDbSpline
210
0.0000000000000001
220
-0.0000000000000006
230
1.0
 70
    12
 71
     5
 72
    12
 73
     6
 74
     0
 42
0.000000001
 43
0.0000000001
 40
0.0
 40
0.0
 40
0.0
 40
0.0
 40
0.0
 40
0.0
 40
1.0
 40
1.0
 40
1.0
 40
1.0
 40
1.0
 40
1.0
 10
-1123.510981138935
 20
-1740.736292751719
 30
-0.0000000000000004
 41
1.0
 10
-1124.835449587906
 20
-1740.029736987523
 30
-0.0000000000000004
 41
0.9529220753075458
 10
-1126.317600804294
 20
-1739.649624632188
 30
0.0000000000000004
 41
0.929383112961319
 10
-1127.85679831478
 20
-1739.649641585423
 30
0.0000000000000002
 41
0.929383112961319
 10
-1129.338978924124
 20
-1740.029786590892
 30
0.0000000000000002
 41
0.9529220753075458
 10
-1130.663502007731
 20
-1740.736371531965
 30
0.0
 41
1.0
  0
SPLINE
  5
9DC
330
A
100
AcDbEntity
  8
HEWI
  6
STANDARD
 62
     7
100
AcDbSpline
210
-0.0000000000000002
220
-0.0000000000000002
230
1.0
 70
     8
 71
     3
 72
    16
 73
    12
 74
     0
 42
0.000000001
 43
0.0000000001
 40
0.0
 40
0.0
 40
0.0
 40
0.0
 40
0.2318639328501264
 40
0.2318639328501264
 40
0.4638696371680758
 40
0.4638696371680758
 40
0.6950310216224952
 40
0.6950310216224952
 40
0.9111144293793211
 40
0.9111144293793211
 40
1.0
 40
1.0
 40
1.0
 40
1.0
 10
-1063.584189266381
 20
-1701.366227385898
 30
-0.0000000000000002
 10
-1063.584189266381
 20
-1701.293205623571
 30
-0.0000000000000002
 10
-1063.627770393009
 20
-1701.214576203931
 30
-0.0000000000000002
 10
-1063.793570770883
 20
-1701.060675577523
 30
-0.0000000000000002
 10
-1063.918239422667
 20
-1700.983210701432
 30
-0.0000000000000002
 10
-1064.231664175389
 20
-1700.845111091473
 30
-0.0000000000000002
 10
-1064.425223325855
 20
-1700.782423426673
 30
-0.0000000000000002
 10
-1064.840422052322
 20
-1700.690945040095
 30
-0.0000000000000004
 10
-1065.065828872005
 20
-1700.659072642421
 30
-0.0000000000000004
 10
-1065.390390106052
 20
-1700.638901986314
 30
-0.0000000000000004
 10
-1065.487437719813
 20
-1700.635882430695
 30
-0.0000000000000004
 10
-1065.584189266381
 20
-1700.635882430695
 30
-0.0000000000000004
  0
CIRCLE
  5
C1B
330
A
100
AcDbEntity
  8
HEWI
  6
Continuous
100
AcDbCircle
 10
-1815.331045
 20
-1787.635219
 30
0.0
 40
12.5
  0
LWPOLYLINE
  5
F25
330
A
100
AcDbEntity
  8
HEWI
  6
STANDARD
 62
     7
100
AcDbPolyline
 90
       56
 70
     1
 43
0.0
 10
-1323.182155227336
 20
-1800.135308713657
 10
-1323.31615522726
 20
-1800.015308710355
 10
-1323.55815522712
 20
-1799.945308708427
 10
-1323.714155227032
 20
-1799.807308704626
 10
-1324.361155226661
 20
-1799.483308695709
 10
-1324.672155226485
 20
-1799.382308692927
 10
-1325.232155226162
 20
-1799.063308684146
 10
-1326.293155225556
 20
-1798.657308672971
 10
-1327.082155225104
 20
-1798.461308667569
 10
-1327.503155224864
 20
-1798.303308663222
 10
-1328.816155224111
 20
-1798.02430865554
 10
-1330.182155223329
 20
-1797.930308652956
 10
-1331.547155222548
 20
-1798.02430865554
 10
-1332.860155221797
 20
-1798.303308663222
 10
-1333.281155221556
 20
-1798.461308667569
 10
-1334.071155221105
 20
-1798.657308672971
 10
-1335.131155220499
 20
-1799.063308684146
 10
-1335.691155220178
 20
-1799.382308692927
 10
-1336.00215522
 20
-1799.483308695709
 10
-1336.649155219628
 20
-1799.807308704626
 10
-1336.80515521954
 20
-1799.945308708427
 10
-1337.047155219402
 20
-1800.015308710355
 10
-1337.181155219324
 20
-1800.135308713657
 10
-1337.182155219324
 20
-1805.002308847642
 10
-1337.162155219336
 20
-1805.197308853012
 10
-1337.106155219368
 20
-1805.384308858161
 10
-1337.01315521942
 20
-1805.557308862922
 10
-1336.889155219491
 20
-1805.709308867108
 10
-1336.737155219579
 20
-1805.83330887052
 10
-1336.564155219678
 20
-1805.925308873053
 10
-1336.377155219785
 20
-1805.982308874621
 10
-1336.182155219895
 20
-1806.002308875171
 10
-1336.066155219964
 20
-1806.002308875171
 10
-1335.725155220158
 20
-1806.002308875171
 10
-1335.170155220474
 20
-1806.002308875171
 10
-1334.424155220903
 20
-1806.002308875171
 10
-1333.515155221421
 20
-1806.002308875171
 10
-1332.478155222018
 20
-1806.002308875171
 10
-1331.352155222661
 20
-1806.002308875171
 10
-1330.182155223329
 20
-1806.002308875171
 10
-1329.011155224002
 20
-1806.002308875171
 10
-1327.886155224646
 20
-1806.002308875171
 10
-1326.848155225238
 20
-1806.002308875171
 10
-1325.939155225759
 20
-1806.002308875171
 10
-1325.193155226185
 20
-1806.002308875171
 10
-1324.638155226503
 20
-1806.002308875171
 10
-1324.297155226699
 20
-1806.002308875171
 10
-1324.182155226763
 20
-1806.002308875171
 10
-1323.987155226876
 20
-1805.982308874621
 10
-1323.799155226983
 20
-1805.925308873053
 10
-1323.626155227083
 20
-1805.83330887052
 10
-1323.475155227169
 20
-1805.709308867108
 10
-1323.350155227241
 20
-1805.557308862922
 10
-1323.258155227292
 20
-1805.384308858161
 10
-1323.201155227327
 20
-1805.197308853012
 10
-1323.182155227336
 20
-1805.002308847642
  0
LINE
  5
F26
330
A
100
AcDbEntity
  8
HEWI
  6
STANDARD
 62
     7
100
AcDbLine
 10
-1561.060435568418
 20
-2010.164412056345
 30
0.0
 11
-1561.121155091156
 21
-2010.166314495751
 31
0.0
  0
LINE
  5
F27
330
A
100
AcDbEntity
  8
HEWI
  6
STANDARD
 62
     7
100
AcDbLine
 10
-1560.738155091375
 20
-2010.154314495418
 30
0.0
 11
-1560.98658751256
 21
-2010.162098279072
 31
0.0
  0
LINE
  5
F28
330
A
100
AcDbEntity
  8
HEWI
  6
STANDARD
 62
     7
100
AcDbLine
 10
-1559.730155114661
 20
-2010.120863514849
 30
0.0
 11
-1560.111155091734
 21
-2010.133314494842
 31
0.0
  0
LINE
  5
F29
330
A
100
AcDbEntity
  8
HEWI
  6
STANDARD
 62
     7
100
AcDbLine
 10
-1559.040155092347
 20
-2010.098314493875
 30
0.0
 11
-1559.499155096645
 21
-2010.113314494438
 31
0.0
  0
LINE
  5
F2A
330
A
100
AcDbEntity
  8
HEWI
  6
STANDARD
 62
     7
100
AcDbLine
 10
-1561.028374835049
 20
-2010.163292202627
 30
0.0
 11
-1560.216476962686
 21
-2010.136844837014
 31
0.0
  0
LINE
  5
F2B
330
A
100
AcDbEntity
  8
HEWI
  6
STANDARD
 62
     7
100
AcDbLine
 10
-1561.121155091156
 20
-2010.166314495751
 30
0.0
 11
-1561.030398080562
 21
-2010.163358109335
 31
0.0
  0
LWPOLYLINE
  5
F2C
330
A
100
AcDbEntity
  8
HEWI
  6
STANDARD
 62
     7
100
AcDbPolyline
 90
        3
 70
     0
 43
0.0
 10
-1559.040155092347
 20
-2010.098314493875
 10
-1558.880155092438
 20
-2010.093314493738
 10
-1558.634155092577
 20
-2010.085314493519
  0
LINE
  5
F2D
330
A
100
AcDbEntity
  8
HEWI
  6
STANDARD
 62
     7
100
AcDbLine
 10
-1559.350155092169
 20
-2010.108314494153
 30
0.0
 11
-1559.416770479227
 21
-2010.110622186608
 31
0.0
  0
LINE
  5
F2E
330
A
100
AcDbEntity
  8
HEWI
  6
STANDARD
 62
     7
100
AcDbLine
 10
-1559.295155095481
 20
-2010.106647827541
 30
0.0
 11
-1559.350155092169
 21
-2010.108314494153
 31
0.0
  0
LINE
  5
F2F
330
A
100
AcDbEntity
  8
HEWI
  6
STANDARD
 62
     7
100
AcDbLine
 10
-1559.350155092169
 20
-2010.108314494153
 30
0.0
 11
-1559.389102460859
 21
-2010.109718002974
 31
0.0
  0
LWPOLYLINE
  5
F30
330
A
100
AcDbEntity
  8
HEWI
  6
STANDARD
 62
     7
100
AcDbPolyline
 90
        2
 70
     1
 43
0.0
 10
-1560.222751214859
 20
-2010.137049219165
 10
-1560.172155091699
 20
-2010.135314494897
  0
LWPOLYLINE
  5
F31
330
A
100
AcDbEntity
  8
HEWI
  6
STANDARD
 62
     7
100
AcDbPolyline
 90
       43
 70
     0
 43
0.0
 10
-1327.580026886124
 20
-1806.002308792159
 10
-1326.396155225497
 20
-1833.675309637003
 10
-1322.415155227776
 20
-1881.591310956117
 10
-1317.234155230741
 20
-1933.732312391543
 10
-1313.615155232811
 20
-1978.186313615349
 10
-1311.060155234273
 20
-2006.569314396724
 10
-1310.515155234585
 20
-2038.227315268259
 10
-1312.04715523371
 20
-2055.451315742432
 10
-1314.407155232357
 20
-2067.928316085922
 10
-1317.334155230683
 20
-2077.771316356893
 10
-1319.563155229409
 20
-2083.386316511476
 10
-1321.255155228441
 20
-2087.016316611409
 10
-1325.019155226286
 20
-2093.82931679897
 10
-1329.336155223815
 20
-2100.228316975134
 10
-1335.397155220346
 20
-2107.576317177418
 10
-1342.147155216482
 20
-2114.268317361648
 10
-1350.991155211421
 20
-2121.422317558596
 10
-1360.542155205955
 20
-2127.690317731149
 10
-1372.353155199195
 20
-2133.916317902551
 10
-1386.445155191128
 20
-2139.67831806118
 10
-1395.489155185953
 20
-2142.602318141677
 10
-1402.831155181752
 20
-2144.559318195554
 10
-1417.56115517332
 20
-2147.385318273353
 10
-1430.578155165871
 20
-2148.650318308175
 10
-1443.579155158428
 20
-2148.730318310378
 10
-1456.479155151048
 20
-2147.577318278638
 10
-1467.410155144792
 20
-2145.564318223218
 10
-1478.144155138647
 20
-2142.583318141153
 10
-1488.612155132656
 20
-2138.616318031944
 10
-1498.72515512687
 20
-2133.742317897764
 10
-1509.90415512047
 20
-2127.036317713146
 10
-1520.290155114524
 20
-2119.355317501691
 10
-1529.706155109134
 20
-2110.847317267466
 10
-1536.898155105019
 20
-2102.981317050924
 10
-1543.142155101446
 20
-2094.702316823003
 10
-1547.557155098919
 20
-2087.528316625505
 10
-1550.535155097214
 20
-2081.655316463823
 10
-1552.471155096106
 20
-2077.148316339744
 10
-1555.572155094331
 20
-2068.101316090682
 10
-1558.123155092873
 20
-2057.328315794106
 10
-1560.049155091771
 20
-2043.256315406708
 10
-1561.133155091147
 20
-2010.167314495777
 10
-1561.121155091156
 20
-2010.166314495751
  0
LWPOLYLINE
  5
F32
330
A
100
AcDbEntity
  8
HEWI
  6
STANDARD
 62
     7
100
AcDbPolyline
 90
       42
 70
     0
 43
0.0
 10
-1556.132470131541
 20
-2010.085314496175
 10
-1555.060155094623
 20
-2042.83431539509
 10
-1553.202155095687
 20
-2056.411315768861
 10
-1550.763155097086
 20
-2066.711316052415
 10
-1547.805155098779
 20
-2075.350316290247
 10
-1546.006155099807
 20
-2079.537316405515
 10
-1543.195155101416
 20
-2085.085316558247
 10
-1539.009155103812
 20
-2091.88031674531
 10
-1533.048155107223
 20
-2099.782316962852
 10
-1526.177155111154
 20
-2107.29731716974
 10
-1517.12015511634
 20
-2115.481317395044
 10
-1507.125155122058
 20
-2122.873317598542
 10
-1496.348155128226
 20
-2129.337317776497
 10
-1486.639155133784
 20
-2134.021317905443
 10
-1476.586155139538
 20
-2137.826318010195
 10
-1466.287155145432
 20
-2140.691318089068
 10
-1455.802155151434
 20
-2142.617318142091
 10
-1443.372155158548
 20
-2143.729318172702
 10
-1430.835155165724
 20
-2143.65231817058
 10
-1418.275155172911
 20
-2142.431318136967
 10
-1403.946155181113
 20
-2139.685318061371
 10
-1396.902155185146
 20
-2137.806318009645
 10
-1388.161155190146
 20
-2134.982317931901
 10
-1374.470155197984
 20
-2129.380317777677
 10
-1363.085155204497
 20
-2123.378317612443
 10
-1353.942155209732
 20
-2117.378317447265
 10
-1345.488155214569
 20
-2110.539317258992
 10
-1339.095155218229
 20
-2104.201317084508
 10
-1333.345155221519
 20
-2097.231316892628
 10
-1329.284155223845
 20
-2091.219316727116
 10
-1325.712155225889
 20
-2084.750316549025
 10
-1324.154155226779
 20
-2081.406316456965
 10
-1322.058155227979
 20
-2076.135316311857
 10
-1319.272155229575
 20
-2066.748316053438
 10
-1317.005155230871
 20
-2054.763315723491
 10
-1315.518155231725
 20
-2038.048315263333
 10
-1316.052155231417
 20
-2006.836314404079
 10
-1318.59715522996
 20
-1978.613313627104
 10
-1322.21315522789
 20
-1934.183312403956
 10
-1327.395155224926
 20
-1882.04631096864
 10
-1331.386155222641
 20
-1833.989309645645
 10
-1332.585055429236
 20
-1806.002308441371
  0
LINE
  5
F33
330
A
100
AcDbEntity
  8
HEWI
  6
STANDARD
 62
     7
100
AcDbLine
 10
-1561.029155091208
 20
-2010.163314495667
 30
0.0
 11
-1560.854155091309
 21
-2010.158314495531
 31
0.0
  0
LWPOLYLINE
  5
F34
330
A
100
AcDbEntity
  8
HEWI
  6
STANDARD
 62
     7
100
AcDbPolyline
 90
        2
 70
     1
 43
0.0
 10
-1561.121155091156
 20
-2010.166314495751
 10
-1561.086155091176
 20
-2010.165314495722
  0
LWPOLYLINE
  5
F35
330
A
100
AcDbEntity
  8
HEWI
  6
STANDARD
 62
     7
100
AcDbPolyline
 90
        3
 70
     0
 43
0.0
 10
-1561.029155091208
 20
-2010.163314495667
 10
-1560.952155091253
 20
-2010.161314495615
 10
-1560.854155091309
 20
-2010.158314495531
  0
LINE
  5
F36
330
A
100
AcDbEntity
  8
HEWI
  6
STANDARD
 62
     7
100
AcDbLine
 10
-1560.854155091309
 20
-2010.158314495531
 30
0.0
 11
-1560.738155091375
 21
-2010.154314495418
 31
0.0
  0
LWPOLYLINE
  5
F37
330
A
100
AcDbEntity
  8
HEWI
  6
STANDARD
 62
     7
100
AcDbPolyline
 90
        5
 70
     0
 43
0.0
 10
-1560.738155091375
 20
-2010.154314495418
 10
-1560.605155091451
 20
-2010.150314495311
 10
-1560.455155091537
 20
-2010.145314495172
 10
-1560.290155091631
 20
-2010.139314495007
 10
-1560.111155091734
 20
-2010.133314494842
  0
LWPOLYLINE
  5
F38
330
A
100
AcDbEntity
  8
HEWI
  6
STANDARD
 62
     7
100
AcDbPolyline
 90
        4
 70
     0
 43
0.0
 10
-1560.111155091734
 20
-2010.133314494842
 10
-1559.918155091844
 20
-2010.127314494677
 10
-1559.714155091961
 20
-2010.120314494483
 10
-1559.499155092084
 20
-2010.113314494288
  0
LWPOLYLINE
  5
F39
330
A
100
AcDbEntity
  8
HEWI
  6
STANDARD
 62
     7
100
AcDbPolyline
 90
        3
 70
     0
 43
0.0
 10
-1559.499155092084
 20
-2010.113314494288
 10
-1559.274155092213
 20
-2010.106314494098
 10
-1559.040155092347
 20
-2010.098314493875
  0
LWPOLYLINE
  5
F3A
330
A
100
AcDbEntity
  8
HEWI
  6
STANDARD
 62
     7
100
AcDbPolyline
 90
       16
 70
     0
 43
0.0
 10
-1564.884155089001
 20
-2010.085314493519
 10
-1552.384155096157
 20
-2010.085314493519
 10
-1552.255155096231
 20
-2010.068314493054
 10
-1552.134155096299
 20
-2010.018314491675
 10
-1552.03015509636
 20
-2009.939314489498
 10
-1551.951155096404
 20
-2009.835314486636
 10
-1551.901155096434
 20
-2009.714314483304
 10
-1551.884155096441
 20
-2009.585314479756
 10
-1551.884155096441
 20
-1955.585312993151
 10
-1551.901155096434
 20
-1955.456312989599
 10
-1551.951155096404
 20
-1955.335312986268
 10
-1552.03015509636
 20
-1955.231312983405
 10
-1552.134155096299
 20
-1955.152312981232
 10
-1552.255155096231
 20
-1955.102312979854
 10
-1552.384155096157
 20
-1955.085312979385
 10
-1564.884155089001
 20
-1955.085312979385
  0
LWPOLYLINE
  5
F3B
330
A
100
AcDbEntity
  8
HEWI
  6
STANDARD
 62
     7
100
AcDbPolyline
 90
       28
 70
     1
 43
0.0
 10
-1564.884155089001
 20
-2022.085314823876
 10
-1564.901155088994
 20
-2022.214314827428
 10
-1564.951155088964
 20
-2022.33531483076
 10
-1565.03015508892
 20
-2022.439314833626
 10
-1565.13415508886
 20
-2022.518314835799
 10
-1565.25515508879
 20
-2022.568314837173
 10
-1565.384155088717
 20
-2022.585314837639
 10
-1571.884155084996
 20
-2022.585314837639
 10
-1571.884155084996
 20
-2022.568314837173
 10
-1571.884155084996
 20
-2022.518314835799
 10
-1571.884155084996
 20
-2022.439314833626
 10
-1571.884155084996
 20
-2022.33531483076
 10
-1571.884155084996
 20
-2022.214314827428
 10
-1571.884155084996
 20
-2022.085314823876
 10
-1571.884155084996
 20
-1943.085312649027
 10
-1571.884155084996
 20
-1942.956312645479
 10
-1571.884155084996
 20
-1942.835312642148
 10
-1571.884155084996
 20
-1942.731312639285
 10
-1571.884155084996
 20
-1942.652312637105
 10
-1571.884155084996
 20
-1942.602312635734
 10
-1571.884155084996
 20
-1942.585312635264
 10
-1565.384155088717
 20
-1942.585312635264
 10
-1565.25515508879
 20
-1942.602312635734
 10
-1565.13415508886
 20
-1942.652312637105
 10
-1565.03015508892
 20
-1942.731312639285
 10
-1564.951155088964
 20
-1942.835312642148
 10
-1564.901155088994
 20
-1942.956312645479
 10
-1564.884155089001
 20
-1943.085312649027
  0
LWPOLYLINE
  5
1064
330
A
100
AcDbEntity
  8
HEWI
  6
CUSTOM
 62
    18
420
        0
370
     9
100
AcDbPolyline
 90
       83
 70
     0
 43
0.0
 10
-1817.831175485886
 20
-1806.002294360601
 10
-1817.831175485886
 20
-1833.832294860508
 10
-1817.831175485886
 20
-1881.819296453635
 10
-1817.831175485886
 20
-1933.957298184574
 10
-1817.831175485886
 20
-1978.400299660042
 10
-1817.831175485886
 20
-2006.703300599678
 10
-1817.831175485886
 20
-2038.138301643299
 10
-1817.831175485886
 20
-2055.107302206652
 10
-1817.831175485886
 20
-2067.338302612712
 10
-1817.831175485886
 20
-2076.95330293192
 10
-1817.831175485886
 20
-2082.396303112622
 10
-1817.831175485886
 20
-2085.883303228394
 10
-1817.831175485886
 20
-2092.524303448866
 10
-1817.831175485886
 20
-2098.729303654868
 10
-1817.831175485886
 20
-2105.888303892538
 10
-1817.831175485886
 20
-2112.403304108833
 10
-1817.831175485886
 20
-2119.400304341124
 10
-1817.831175485886
 20
-2125.534304544773
 10
-1817.831175485886
 20
-2131.648304747752
 10
-1817.831175485886
 20
-2137.330304936385
 10
-1817.831175485886
 20
-2140.204305031802
 10
-1817.831175485886
 20
-2142.122305095476
 10
-1817.831175485886
 20
-2144.908305187971
 10
-1817.831175485886
 20
-2146.151305229235
 10
-1817.831175485886
 20
-2146.23030523186
 10
-1817.819175485954
 20
-2146.476305240026
 10
-1817.79817548607
 20
-2146.636305245337
 10
-1817.749175486349
 20
-2146.870305253109
 10
-1817.67817548675
 20
-2147.095305260576
 10
-1817.587175487264
 20
-2147.310305267714
 10
-1817.477175487884
 20
-2147.515305274522
 10
-1817.349175488607
 20
-2147.708305280932
 10
-1817.205175489422
 20
-2147.887305286872
 10
-1817.045175490322
 20
-2148.052305292349
 10
-1816.870175491311
 20
-2148.202305297327
 10
-1816.682175492373
 20
-2148.336305301778
 10
-1816.481175493507
 20
-2148.452305305625
 10
-1816.269175494704
 20
-2148.549305308846
 10
-1816.047175495958
 20
-2148.627305311438
 10
-1815.816175497261
 20
-2148.683305313297
 10
-1815.577175498609
 20
-2148.718305314461
 10
-1815.3311755
 20
-2148.730305314856
 10
-1815.085175501388
 20
-2148.718305314461
 10
-1814.92517550229
 20
-2148.698305313795
 10
-1814.691175503611
 20
-2148.648305312133
 10
-1814.466175504882
 20
-2148.577305309776
 10
-1814.2501755061
 20
-2148.486305306756
 10
-1814.046175507252
 20
-2148.376305303103
 10
-1813.853175508342
 20
-2148.248305298857
 10
-1813.674175509353
 20
-2148.104305294076
 10
-1813.509175510284
 20
-2147.944305288765
 10
-1813.35917551113
 20
-2147.769305282956
 10
-1813.22617551188
 20
-2147.581305276711
 10
-1813.110175512536
 20
-2147.380305270038
 10
-1813.012175513089
 20
-2147.168305263003
 10
-1812.935175513525
 20
-2146.946305255631
 10
-1812.878175513844
 20
-2146.715305247962
 10
-1812.843175514043
 20
-2146.476305240026
 10
-1812.831175514111
 20
-2146.23030523186
 10
-1812.831175514111
 20
-2146.151305229235
 10
-1812.831175514111
 20
-2144.908305187971
 10
-1812.831175514111
 20
-2142.122305095476
 10
-1812.831175514111
 20
-2140.204305031802
 10
-1812.831175514111
 20
-2137.330304936385
 10
-1812.831175514111
 20
-2131.648304747752
 10
-1812.831175514111
 20
-2125.534304544773
 10
-1812.831175514111
 20
-2119.400304341124
 10
-1812.831175514111
 20
-2112.403304108833
 10
-1812.831175514111
 20
-2105.888303892538
 10
-1812.831175514111
 20
-2098.729303654868
 10
-1812.831175514111
 20
-2092.524303448866
 10
-1812.831175514111
 20
-2085.883303228394
 10
-1812.831175514111
 20
-2082.396303112622
 10
-1812.831175514111
 20
-2076.95330293192
 10
-1812.831175514111
 20
-2067.338302612712
 10
-1812.831175514111
 20
-2055.107302206652
 10
-1812.831175514111
 20
-2038.138301643299
 10
-1812.831175514111
 20
-2006.703300599678
 10
-1812.831175514111
 20
-1978.400299660042
 10
-1812.831175514111
 20
-1933.957298184574
 10
-1812.831175514111
 20
-1881.819296453635
 10
-1812.831175514111
 20
-1833.832294860508
 10
-1812.831175514111
 20
-1806.002294360601
  0
LWPOLYLINE
  5
1065
330
A
100
AcDbEntity
  8
HEWI
  6
CUSTOM
 62
    18
420
        0
370
     9
100
AcDbPolyline
 90
       16
 70
     0
 43
0.0
 10
-1817.831175605095
 20
-1955.085298886006
 10
-1842.331175347586
 20
-1955.085298886006
 10
-1842.460175346858
 20
-1955.102298886573
 10
-1842.581175346175
 20
-1955.152298888227
 10
-1842.685175345587
 20
-1955.231298890852
 10
-1842.764175345139
 20
-1955.335298894307
 10
-1842.814175344858
 20
-1955.456298898323
 10
-1842.831175344763
 20
-1955.585298902606
 10
-1842.831175344763
 20
-2009.585300695362
 10
-1842.814175344858
 20
-2009.714300699641
 10
-1842.764175345139
 20
-2009.835300703664
 10
-1842.685175345587
 20
-2009.939300707115
 10
-1842.581175346175
 20
-2010.018300709736
 10
-1842.460175346858
 20
-2010.068300711394
 10
-1842.331175347586
 20
-2010.085300711962
 10
-1817.831175605095
 20
-2010.085300711962
  0
LWPOLYLINE
  5
1066
330
A
100
AcDbEntity
  8
HEWI
  6
CUSTOM
 62
    18
420
        0
370
     9
100
AcDbPolyline
 90
       16
 70
     0
 43
0.0
 10
-1812.831175394902
 20
-2010.085300711962
 10
-1788.331175652411
 20
-2010.085300711962
 10
-1788.202175653139
 20
-2010.068300711394
 10
-1788.081175653822
 20
-2010.018300709736
 10
-1787.97717565441
 20
-2009.939300707115
 10
-1787.898175654855
 20
-2009.835300703664
 10
-1787.848175655137
 20
-2009.714300699641
 10
-1787.831175655234
 20
-2009.585300695362
 10
-1787.831175655234
 20
-1955.585298902606
 10
-1787.848175655137
 20
-1955.456298898323
 10
-1787.898175654855
 20
-1955.335298894307
 10
-1787.97717565441
 20
-1955.231298890852
 10
-1788.081175653822
 20
-1955.152298888227
 10
-1788.202175653139
 20
-1955.102298886573
 10
-1788.331175652411
 20
-1955.085298886006
 10
-1812.831175394902
 20
-1955.085298886006
  0
LWPOLYLINE
  5
1067
330
A
100
AcDbEntity
  8
HEWI
  6
CUSTOM
 62
    18
420
        0
370
     9
100
AcDbPolyline
 90
       16
 70
     0
 43
0.0
 10
-1812.831173427949
 20
-2022.58530112695
 10
-1775.831175722971
 20
-2022.58530112695
 10
-1775.7021757237
 20
-2022.568301126382
 10
-1775.581175724383
 20
-2022.518301124724
 10
-1775.477175724971
 20
-2022.439301122103
 10
-1775.398175725419
 20
-2022.335301118651
 10
-1775.348175725699
 20
-2022.214301114632
 10
-1775.331175725796
 20
-2022.08530111035
 10
-1775.331175725796
 20
-1943.085298487618
 10
-1775.348175725699
 20
-1942.956298483331
 10
-1775.398175725419
 20
-1942.835298479316
 10
-1775.477175724971
 20
-1942.731298475864
 10
-1775.581175724383
 20
-1942.652298473239
 10
-1775.7021757237
 20
-1942.602298471578
 10
-1775.831175722971
 20
-1942.585298471018
 10
-1812.83117578233
 20
-1942.585298471018
  0
LWPOLYLINE
  5
1068
330
A
100
AcDbEntity
  8
HEWI
  6
CUSTOM
 62
    18
420
        0
370
     9
100
AcDbPolyline
 90
       16
 70
     0
 43
0.0
 10
-1817.831177572048
 20
-1942.585298471018
 10
-1854.831175277024
 20
-1942.585298471018
 10
-1854.960175276294
 20
-1942.602298471578
 10
-1855.081175275614
 20
-1942.652298473239
 10
-1855.185175275026
 20
-1942.731298475864
 10
-1855.264175274578
 20
-1942.835298479316
 10
-1855.314175274298
 20
-1942.956298483331
 10
-1855.331175274203
 20
-1943.085298487618
 10
-1855.331175274203
 20
-2022.08530111035
 10
-1855.314175274298
 20
-2022.214301114632
 10
-1855.264175274578
 20
-2022.335301118651
 10
-1855.185175275026
 20
-2022.439301122103
 10
-1855.081175275614
 20
-2022.518301124724
 10
-1854.960175276294
 20
-2022.568301126382
 10
-1854.831175277024
 20
-2022.58530112695
 10
-1817.831175217663
 20
-2022.58530112695
  0
LWPOLYLINE
  5
1069
330
A
100
AcDbEntity
  8
HEWI
  6
CUSTOM
 62
    18
420
        0
370
     9
100
AcDbPolyline
 90
       44
 70
     0
 43
0.0
 10
-1822.338175460443
 20
-1797.930605713408
 10
-1822.338175460443
 20
-1805.002293903377
 10
-1822.31917546055
 20
-1805.197293909848
 10
-1822.262175460873
 20
-1805.38429391606
 10
-1822.1691754614
 20
-1805.557293921803
 10
-1822.045175462097
 20
-1805.709293926847
 10
-1821.894175462952
 20
-1805.833293930962
 10
-1821.721175463926
 20
-1805.925293934018
 10
-1821.533175464989
 20
-1805.982293935914
 10
-1821.33817546609
 20
-1806.002293936577
 10
-1821.223175466739
 20
-1806.002293936577
 10
-1820.881175468668
 20
-1806.002293936577
 10
-1820.327175471797
 20
-1806.002293936577
 10
-1819.581175476007
 20
-1806.002293936577
 10
-1818.671175481146
 20
-1806.002293936577
 10
-1817.634175486999
 20
-1806.002293936577
 10
-1816.509175493347
 20
-1806.002293936577
 10
-1815.338175499957
 20
-1806.002293936577
 10
-1814.167175506569
 20
-1806.002293936577
 10
-1813.042175512919
 20
-1806.002293936577
 10
-1812.005175518774
 20
-1806.002293936577
 10
-1811.095175523911
 20
-1806.002293936577
 10
-1810.349175528123
 20
-1806.002293936577
 10
-1809.79517553125
 20
-1806.002293936577
 10
-1809.453175533179
 20
-1806.002293936577
 10
-1809.338175533829
 20
-1806.002293936577
 10
-1809.143175534927
 20
-1805.982293935914
 10
-1808.955175535992
 20
-1805.925293934018
 10
-1808.782175536968
 20
-1805.833293930962
 10
-1808.631175537819
 20
-1805.709293926847
 10
-1808.507175538518
 20
-1805.557293921803
 10
-1808.414175539045
 20
-1805.38429391606
 10
-1808.357175539366
 20
-1805.197293909848
 10
-1808.338175539473
 20
-1805.002293903377
 10
-1808.338175539473
 20
-1797.941293668954
 10
-1808.473175538711
 20
-1798.035293672077
 10
-1808.871175536465
 20
-1798.314293681338
 10
-1809.080175535284
 20
-1798.461293686217
 10
-1809.518175532812
 20
-1798.665293692993
 10
-1810.388175527901
 20
-1799.07129370647
 10
-1811.055175524136
 20
-1799.3822937168
 10
-1811.449175521912
 20
-1799.487293720281
 10
-1812.659175515082
 20
-1799.811293731039
 10
-1813.160175512254
 20
-1799.945293735486
  0
CIRCLE
  5
106B
330
A
100
AcDbEntity
  8
0
  6
Continuous
100
AcDbCircle
 10
-1815.317387
 20
-1685.317435
 30
0.0
 40
16.85
  0
ENDSEC
  0
SECTION
  2
OBJECTS
  0
DICTIONARY
  5
19
330
0
100
AcDbDictionary
281
     1
  3
ACAD_CIP_PREVIOUS_PRODUCT_INFO
350
36C
  3
ACAD_COLOR
350
34B
  3
ACAD_DETAILVIEWSTYLE
350
364
  3
ACAD_GROUP
350
1A
  3
ACAD_LAYOUT
350
366
  3
ACAD_MATERIAL
350
319
  3
ACAD_MLEADERSTYLE
350
360
  3
ACAD_MLINESTYLE
350
1B
  3
ACAD_PLOTSETTINGS
350
367
  3
ACAD_PLOTSTYLENAME
350
317
  3
ACAD_SCALELIST
350
34E
  3
ACAD_SECTIONVIEWSTYLE
350
362
  3
ACAD_TABLESTYLE
350
34C
  3
ACAD_VISUALSTYLE
350
332
  3
ACDB_RECOMPOSE_DATA
350
130E
  3
AcDbVariableDictionary
350
509
  3
AcDsDecomposeData
350
1314
  0
DICTIONARY
  5
372
330
2
100
AcDbDictionary
280
     1
281
     1
  3
ACAD_LAYERSTATES
360
373
  0
DICTIONARY
  5
65A
330
14
100
AcDbDictionary
280
     1
281
     1
  3
ADSK_XREC_LAYER_RECONCILED
360
65B
  0
DICTIONARY
  5
65C
330
1D
100
AcDbDictionary
280
     1
281
     1
  3
ADSK_XREC_LAYER_RECONCILED
360
65D
  0
DICTIONARY
  5
65E
330
36D
100
AcDbDictionary
280
     1
281
     1
  3
ADSK_XREC_LAYER_RECONCILED
360
65F
  0
XRECORD
  5
36C
102
{ACAD_REACTORS
330
19
102
}
330
19
100
AcDbXrecord
280
     1
300
ACDLT
300
2016
300
ACDLT_F_S
  0
DICTIONARY
  5
34B
102
{ACAD_REACTORS
330
19
102
}
330
19
100
AcDbDictionary
281
     1
  0
DICTIONARY
  5
364
102
{ACAD_REACTORS
330
19
102
}
330
19
100
AcDbDictionary
281
     1
  3
Imperial24
350
365
  3
Metric50
350
E68
  0
DICTIONARY
  5
1A
102
{ACAD_REACTORS
330
19
102
}
330
19
100
AcDbDictionary
281
     1
  0
DICTIONARY
  5
366
102
{ACAD_REACTORS
330
19
102
}
330
19
100
AcDbDictionary
281
     1
  3
Layout1
350
369
  3
Model
350
368
  0
DICTIONARY
  5
319
102
{ACAD_REACTORS
330
19
102
}
330
19
100
AcDbDictionary
281
     1
  3
ByBlock
350
322
  3
ByLayer
350
31A
  3
Global
350
32A
  0
DICTIONARY
  5
360
102
{ACAD_REACTORS
330
19
102
}
330
19
100
AcDbDictionary
281
     1
  3
Standard
350
361
  0
DICTIONARY
  5
1B
102
{ACAD_REACTORS
330
19
102
}
330
19
100
AcDbDictionary
281
     1
  3
STANDARD
350
1C
  0
DICTIONARY
  5
367
102
{ACAD_REACTORS
330
19
102
}
330
19
100
AcDbDictionary
281
     1
  0
ACDBDICTIONARYWDFLT
  5
317
102
{ACAD_REACTORS
330
19
102
}
330
19
100
AcDbDictionary
281
     1
  3
Normal
350
318
100
AcDbDictionaryWithDefault
340
318
  0
DICTIONARY
  5
34E
102
{ACAD_REACTORS
330
19
102
}
330
19
100
AcDbDictionary
281
     1
  3
A0
350
34F
  3
A1
350
350
  3
A2
350
351
  3
A3
350
352
  3
A4
350
353
  3
A5
350
354
  3
A6
350
355
  3
A7
350
356
  3
A8
350
357
  3
A9
350
358
  3
B0
350
359
  3
B1
350
35A
  3
B2
350
35B
  3
B3
350
35C
  3
B4
350
35D
  3
B5
350
35E
  3
B6
350
35F
  0
DICTIONARY
  5
362
102
{ACAD_REACTORS
330
19
102
}
330
19
100
AcDbDictionary
281
     1
  3
Imperial24
350
363
  3
Metric50
350
E67
  0
DICTIONARY
  5
34C
102
{ACAD_REACTORS
330
19
102
}
330
19
100
AcDbDictionary
281
     1
  3
Standard
350
34D
  0
DICTIONARY
  5
332
102
{ACAD_REACTORS
330
19
102
}
330
19
100
AcDbDictionary
281
     1
  3
2dWireframe
350
338
  3
Basic
350
337
  3
Brighten
350
33E
  3
ColorChange
350
342
  3
Conceptual
350
33B
  3
Dim
350
33D
  3
EdgeColorOff
350
34A
  3
Facepattern
350
341
  3
Flat
350
333
  3
FlatWithEdges
350
334
  3
Gouraud
350
335
  3
GouraudWithEdges
350
336
  3
Hidden
350
33A
  3
JitterOff
350
348
  3
Linepattern
350
340
  3
OverhangOff
350
349
  3
Realistic
350
33C
  3
Shaded
350
347
  3
Shaded with edges
350
346
  3
Shades of Gray
350
343
  3
Sketchy
350
344
  3
Thicken
350
33F
  3
Wireframe
350
339
  3
X-Ray
350
345
  0
XRECORD
  5
130E
102
{ACAD_REACTORS
330
19
102
}
330
19
100
AcDbXrecord
280
     1
 90
        1
330
34D
  0
DICTIONARY
  5
509
102
{ACAD_REACTORS
330
19
102
}
330
19
100
AcDbDictionary
281
     1
  3
CANNOSCALE
350
50F
  3
CMLEADERSTYLE
350
50B
  3
CTABLESTYLE
350
50A
  3
CVIEWDETAILSTYLE
350
50C
  3
CVIEWSECTIONSTYLE
350
50D
  3
LAYEREVAL
350
511
  3
LAYERNOTIFY
350
512
  3
LIGHTINGUNITS
350
510
  3
MSLTSCALE
350
50E
  0
DICTIONARY
  5
1314
102
{ACAD_REACTORS
330
19
102
}
330
19
100
AcDbDictionary
281
     1
  3
AcDsRecords
350
1316
  3
AcDsSchemas
350
1315
1001
ACAD
1070
     2
  0
DICTIONARY
  5
373
102
{ACAD_REACTORS
330
372
102
}
330
372
100
AcDbDictionary
281
     1
  0
XRECORD
  5
65B
102
{ACAD_REACTORS
330
65A
102
}
330
65A
100
AcDbXrecord
280
     1
290
     1
  0
XRECORD
  5
65D
102
{ACAD_REACTORS
330
65C
102
}
330
65C
100
AcDbXrecord
280
     1
290
     1
  0
XRECORD
  5
65F
102
{ACAD_REACTORS
330
65E
102
}
330
65E
100
AcDbXrecord
280
     1
290
     1
  0
ACDBDETAILVIEWSTYLE
  5
365
102
{ACAD_XDICTIONARY
360
1349
102
}
102
{ACAD_REACTORS
330
364
102
}
330
364
100
AcDbModelDocViewStyle
 70
     0
  3
Imperial24
290
     0
100
AcDbDetailViewStyle
 70
     0
 71
     0
 90
        3
 71
     1
340
17
 62
   256
 40
0.24
340
0
 62
   256
 40
0.24
300

 40
0.36
280
     3
 71
     2
340
13
 90
       25
 62
   256
 71
     3
340
17
 62
   256
 40
0.24
 90
        1
 40
0.75
 90
        1
300
%<\AcVar ViewType \f "%tc1">% %<\AcVar ViewDetailId>%\PVARIA %<\AcVar ViewScale \f "%sn">%
 71
     4
340
13
 90
       25
 62
   256
340
13
 90
       25
 62
   256
280
     0
  0
ACDBDETAILVIEWSTYLE
  5
E68
102
{ACAD_XDICTIONARY
360
134D
102
}
102
{ACAD_REACTORS
330
364
102
}
330
364
100
AcDbModelDocViewStyle
 70
     0
  3
Metric50
290
     0
100
AcDbDetailViewStyle
 70
     0
 71
     0
 90
        3
 71
     1
340
17
 62
   256
 40
5.0
340
0
 62
   256
 40
5.0
300

 40
0.0
280
     1
 71
     2
340
13
 90
       25
 62
   256
 71
     3
340
17
 62
   256
 40
5.0
 90
        0
 40
15.0
 90
        1
300
%<\AcVar ViewDetailId>% (%<\AcVar ViewScale \f "%sn">%)
 71
     4
340
13
 90
       25
 62
   256
340
13
 90
       25
 62
   256
280
     0
  0
LAYOUT
  5
369
102
{ACAD_REACTORS
330
366
102
}
330
366
100
AcDbPlotSettings
  1

  2
\\srvadruck01\MFSA15
  4

  6

 40
0.0
 41
0.0
 42
0.0
 43
0.0
 44
0.0
 45
0.0
 46
0.0
 47
0.0
 48
0.0
 49
0.0
140
0.0
141
0.0
142
1.0
143
1.0
 70
   688
 72
     0
 73
     0
 74
     5
  7

 75
    16
147
1.0
 76
     0
 77
     2
 78
   300
148
0.0
149
0.0
100
AcDbLayout
  1
Layout1
 70
     0
 71
     1
 10
0.0
 20
0.0
 11
12.0
 21
9.0
 12
0.0
 22
0.0
 32
0.0
 14
1.000000000000000E+20
 24
1.000000000000000E+20
 34
1.000000000000000E+20
 15
-1.000000000000000E+20
 25
-1.000000000000000E+20
 35
-1.000000000000000E+20
146
0.0
 13
0.0
 23
0.0
 33
0.0
 16
1.0
 26
0.0
 36
0.0
 17
0.0
 27
1.0
 37
0.0
 76
     0
330
B
  0
LAYOUT
  5
368
102
{ACAD_REACTORS
330
366
102
}
330
366
100
AcDbPlotSettings
  1

  2
\\srvadruck01\MFSA15
  4

  6

 40
0.0
 41
0.0
 42
0.0
 43
0.0
 44
0.0
 45
0.0
 46
0.0
 47
0.0
 48
0.0
 49
0.0
140
0.0
141
0.0
142
1.0
143
1.0
 70
  1712
 72
     0
 73
     0
 74
     0
  7

 75
     0
147
1.0
 76
     0
 77
     2
 78
   300
148
0.0
149
0.0
100
AcDbLayout
  1
Model
 70
     1
 71
     0
 10
0.0
 20
0.0
 11
12.0
 21
9.0
 12
0.0
 22
0.0
 32
0.0
 14
0.0
 24
0.0
 34
0.0
 15
0.0
 25
0.0
 35
0.0
146
0.0
 13
0.0
 23
0.0
 33
0.0
 16
1.0
 26
0.0
 36
0.0
 17
0.0
 27
1.0
 37
0.0
 76
     0
330
A
331
15
  0
MATERIAL
  5
322
102
{ACAD_XDICTIONARY
360
323
102
}
102
{ACAD_REACTORS
330
319
102
}
330
319
100
AcDbMaterial
  1
ByBlock
 72
     0
 43
0.0208333333333333
 43
0.0
 43
0.0
 43
0.0
 43
0.0
 43
0.0208333333333333
 43
0.0
 43
0.0
 43
0.0
 43
0.0
 43
1.0
 43
0.0
 43
0.0
 43
0.0
 43
0.0
 43
1.0
 77
     0
 47
0.0208333333333333
 47
0.0
 47
0.0
 47
0.0
 47
0.0
 47
0.0208333333333333
 47
0.0
 47
0.0
 47
0.0
 47
0.0
 47
1.0
 47
0.0
 47
0.0
 47
0.0
 47
0.0
 47
1.0
171
     0
 49
0.0208333333333333
 49
0.0
 49
0.0
 49
0.0
 49
0.0
 49
0.0208333333333333
 49
0.0
 49
0.0
 49
0.0
 49
0.0
 49
1.0
 49
0.0
 49
0.0
 49
0.0
 49
0.0
 49
1.0
175
     0
142
0.0208333333333333
142
0.0
142
0.0
142
0.0
142
0.0
142
0.0208333333333333
142
0.0
142
0.0
142
0.0
142
0.0
142
1.0
142
0.0
142
0.0
142
0.0
142
0.0
142
1.0
179
     0
144
0.0208333333333333
144
0.0
144
0.0
144
0.0
144
0.0
144
0.0208333333333333
144
0.0
144
0.0
144
0.0
144
0.0
144
1.0
144
0.0
144
0.0
144
0.0
144
0.0
144
1.0
147
0.0208333333333333
147
0.0
147
0.0
147
0.0
147
0.0
147
0.0208333333333333
147
0.0
147
0.0
147
0.0
147
0.0
147
1.0
147
0.0
147
0.0
147
0.0
147
0.0
147
1.0
  0
MATERIAL
  5
31A
102
{ACAD_XDICTIONARY
360
31B
102
}
102
{ACAD_REACTORS
330
319
102
}
330
319
100
AcDbMaterial
  1
ByLayer
 72
     0
 43
0.0208333333333333
 43
0.0
 43
0.0
 43
0.0
 43
0.0
 43
0.0208333333333333
 43
0.0
 43
0.0
 43
0.0
 43
0.0
 43
1.0
 43
0.0
 43
0.0
 43
0.0
 43
0.0
 43
1.0
 77
     0
 47
0.0208333333333333
 47
0.0
 47
0.0
 47
0.0
 47
0.0
 47
0.0208333333333333
 47
0.0
 47
0.0
 47
0.0
 47
0.0
 47
1.0
 47
0.0
 47
0.0
 47
0.0
 47
0.0
 47
1.0
171
     0
 49
0.0208333333333333
 49
0.0
 49
0.0
 49
0.0
 49
0.0
 49
0.0208333333333333
 49
0.0
 49
0.0
 49
0.0
 49
0.0
 49
1.0
 49
0.0
 49
0.0
 49
0.0
 49
0.0
 49
1.0
175
     0
142
0.0208333333333333
142
0.0
142
0.0
142
0.0
142
0.0
142
0.0208333333333333
142
0.0
142
0.0
142
0.0
142
0.0
142
1.0
142
0.0
142
0.0
142
0.0
142
0.0
142
1.0
179
     0
144
0.0208333333333333
144
0.0
144
0.0
144
0.0
144
0.0
144
0.0208333333333333
144
0.0
144
0.0
144
0.0
144
0.0
144
1.0
144
0.0
144
0.0
144
0.0
144
0.0
144
1.0
147
0.0208333333333333
147
0.0
147
0.0
147
0.0
147
0.0
147
0.0208333333333333
147
0.0
147
0.0
147
0.0
147
0.0
147
1.0
147
0.0
147
0.0
147
0.0
147
0.0
147
1.0
  0
MATERIAL
  5
32A
102
{ACAD_XDICTIONARY
360
32B
102
}
102
{ACAD_REACTORS
330
319
102
}
330
319
100
AcDbMaterial
  1
Global
 72
     0
 43
0.0208333333333333
 43
0.0
 43
0.0
 43
0.0
 43
0.0
 43
0.0208333333333333
 43
0.0
 43
0.0
 43
0.0
 43
0.0
 43
1.0
 43
0.0
 43
0.0
 43
0.0
 43
0.0
 43
1.0
 77
     0
 47
0.0208333333333333
 47
0.0
 47
0.0
 47
0.0
 47
0.0
 47
0.0208333333333333
 47
0.0
 47
0.0
 47
0.0
 47
0.0
 47
1.0
 47
0.0
 47
0.0
 47
0.0
 47
0.0
 47
1.0
171
     0
 49
0.0208333333333333
 49
0.0
 49
0.0
 49
0.0
 49
0.0
 49
0.0208333333333333
 49
0.0
 49
0.0
 49
0.0
 49
0.0
 49
1.0
 49
0.0
 49
0.0
 49
0.0
 49
0.0
 49
1.0
175
     0
142
0.0208333333333333
142
0.0
142
0.0
142
0.0
142
0.0
142
0.0208333333333333
142
0.0
142
0.0
142
0.0
142
0.0
142
1.0
142
0.0
142
0.0
142
0.0
142
0.0
142
1.0
179
     0
144
0.0208333333333333
144
0.0
144
0.0
144
0.0
144
0.0
144
0.0208333333333333
144
0.0
144
0.0
144
0.0
144
0.0
144
1.0
144
0.0
144
0.0
144
0.0
144
0.0
144
1.0
147
0.0208333333333333
147
0.0
147
0.0
147
0.0
147
0.0
147
0.0208333333333333
147
0.0
147
0.0
147
0.0
147
0.0
147
1.0
147
0.0
147
0.0
147
0.0
147
0.0
147
1.0
  0
MLEADERSTYLE
  5
361
102
{ACAD_REACTORS
330
360
102
}
330
360
100
AcDbMLeaderStyle
179
     2
170
     2
171
     1
172
     0
 90
        2
 40
0.0
 41
0.0
173
     1
 91
-1056964608
340
11
 92
       -2
290
     1
 42
0.09
291
     1
 43
0.36
  3
Standard
 44
0.18
300

342
17
174
     1
178
     6
175
     1
176
     0
 93
-1056964608
 45
0.18
292
     0
297
     0
 46
0.18
 94
-1056964608
 47
1.0
 49
1.0
140
1.0
293
     1
141
0.0
294
     1
177
     0
142
1.0
295
     0
296
     0
143
0.125
271
     0
272
     9
273
     9
  0
MLINESTYLE
  5
1C
102
{ACAD_REACTORS
330
1B
102
}
330
1B
100
AcDbMlineStyle
  2
STANDARD
 70
     0
  3

 62
     0
 51
90.0
 52
90.0
 71
     2
 49
0.5
 62
   256
  6
BYLAYER
 49
-0.5
 62
   256
  6
BYLAYER
  0
ACDBPLACEHOLDER
  5
318
102
{ACAD_REACTORS
330
317
102
}
330
317
  0
SCALE
  5
34F
102
{ACAD_REACTORS
330
34E
102
}
330
34E
100
AcDbScale
 70
     0
300
1:1
140
1.0
141
1.0
290
     1
  0
SCALE
  5
350
102
{ACAD_REACTORS
330
34E
102
}
330
34E
100
AcDbScale
 70
     0
300
1/128" = 1'-0"
140
0.0078125
141
12.0
290
     0
  0
SCALE
  5
351
102
{ACAD_REACTORS
330
34E
102
}
330
34E
100
AcDbScale
 70
     0
300
1/64" = 1'-0"
140
0.015625
141
12.0
290
     0
  0
SCALE
  5
352
102
{ACAD_REACTORS
330
34E
102
}
330
34E
100
AcDbScale
 70
     0
300
1/32" = 1'-0"
140
0.03125
141
12.0
290
     0
  0
SCALE
  5
353
102
{ACAD_REACTORS
330
34E
102
}
330
34E
100
AcDbScale
 70
     0
300
1/16" = 1'-0"
140
0.0625
141
12.0
290
     0
  0
SCALE
  5
354
102
{ACAD_REACTORS
330
34E
102
}
330
34E
100
AcDbScale
 70
     0
300
3/32" = 1'-0"
140
0.09375
141
12.0
290
     0
  0
SCALE
  5
355
102
{ACAD_REACTORS
330
34E
102
}
330
34E
100
AcDbScale
 70
     0
300
1/8" = 1'-0"
140
0.125
141
12.0
290
     0
  0
SCALE
  5
356
102
{ACAD_REACTORS
330
34E
102
}
330
34E
100
AcDbScale
 70
     0
300
3/16" = 1'-0"
140
0.1875
141
12.0
290
     0
  0
SCALE
  5
357
102
{ACAD_REACTORS
330
34E
102
}
330
34E
100
AcDbScale
 70
     0
300
1/4" = 1'-0"
140
0.25
141
12.0
290
     0
  0
SCALE
  5
358
102
{ACAD_REACTORS
330
34E
102
}
330
34E
100
AcDbScale
 70
     0
300
3/8" = 1'-0"
140
0.375
141
12.0
290
     0
  0
SCALE
  5
359
102
{ACAD_REACTORS
330
34E
102
}
330
34E
100
AcDbScale
 70
     0
300
1/2" = 1'-0"
140
0.5
141
12.0
290
     0
  0
SCALE
  5
35A
102
{ACAD_REACTORS
330
34E
102
}
330
34E
100
AcDbScale
 70
     0
300
3/4" = 1'-0"
140
0.75
141
12.0
290
     0
  0
SCALE
  5
35B
102
{ACAD_REACTORS
330
34E
102
}
330
34E
100
AcDbScale
 70
     0
300
1" = 1'-0"
140
1.0
141
12.0
290
     0
  0
SCALE
  5
35C
102
{ACAD_REACTORS
330
34E
102
}
330
34E
100
AcDbScale
 70
     0
300
1-1/2" = 1'-0"
140
1.5
141
12.0
290
     0
  0
SCALE
  5
35D
102
{ACAD_REACTORS
330
34E
102
}
330
34E
100
AcDbScale
 70
     0
300
3" = 1'-0"
140
3.0
141
12.0
290
     0
  0
SCALE
  5
35E
102
{ACAD_REACTORS
330
34E
102
}
330
34E
100
AcDbScale
 70
     0
300
6" = 1'-0"
140
6.0
141
12.0
290
     0
  0
SCALE
  5
35F
102
{ACAD_REACTORS
330
34E
102
}
330
34E
100
AcDbScale
 70
     0
300
1'-0" = 1'-0"
140
12.0
141
12.0
290
     0
  0
ACDBSECTIONVIEWSTYLE
  5
363
102
{ACAD_XDICTIONARY
360
1347
102
}
102
{ACAD_REACTORS
330
362
102
}
330
362
100
AcDbModelDocViewStyle
 70
     0
  3
Imperial24
290
     0
100
AcDbSectionViewStyle
 70
     0
 71
     0
 90
       78
 71
     1
340
17
 62
   256
 40
0.24
340
0
340
0
 62
   256
 40
0.24
300
I, O, Q, S, X, Z
 40
0.48
 90
        3
 40
0.18
 90
        1
 71
     2
340
13
 90
       25
 62
   256
340
13
 90
       50
 62
   256
 40
0.24
 40
0.0
 40
0.24
 71
     3
340
17
 62
   256
 40
0.24
 90
        1
 40
0.75
 90
        1
300
%<\AcVar ViewType \f "%tc1">% %<\AcVar ViewSectionStartId>%-%<\AcVar ViewSectionEndId>%\PVARIA %<\AcVar ViewScale \f "%sn">%
 71
     4
 62
   256
 62
   257
300
ANSI31
 40
1.0
 90
        0
290
     0
290
     0
 90
        6
 40
0.0
 40
1.570796326794896
 40
0.2617993877991494
 40
1.308996938995747
 40
-0.2617993877991494
 40
1.832595714594044
  0
ACDBSECTIONVIEWSTYLE
  5
E67
102
{ACAD_XDICTIONARY
360
134B
102
}
102
{ACAD_REACTORS
330
362
102
}
330
362
100
AcDbModelDocViewStyle
 70
     0
  3
Metric50
290
     0
100
AcDbSectionViewStyle
 70
     0
 71
     0
 90
      102
 71
     1
340
17
 62
   256
 40
5.0
340
0
340
0
 62
   256
 40
5.0
300
I, O, Q, S, X, Z
 40
10.0
 90
        0
 40
2.5
 90
        0
 71
     2
340
13
 90
       25
 62
   256
340
13
 90
       50
 62
   256
 40
5.0
 40
2.5
 40
5.0
 71
     3
340
17
 62
   256
 40
5.0
 90
        0
 40
15.0
 90
        1
300
%<\AcVar ViewSectionStartId>%-%<\AcVar ViewSectionEndId>% (%<\AcVar ViewScale \f "%sn">%)
 71
     4
 62
   256
 62
   257
300
ANSI31
 40
1.0
 90
        0
290
     0
290
     0
 90
        6
 40
0.0
 40
1.570796326794896
 40
0.2617993877991494
 40
1.308996938995747
 40
-0.2617993877991494
 40
1.832595714594046
  0
TABLESTYLE
  5
34D
102
{ACAD_XDICTIONARY
360
513
102
}
102
{ACAD_REACTORS
330
34C
102
}
330
34C
100
AcDbTableStyle
280
     0
  3
Standard
 70
     0
 71
     0
 40
0.06
 41
0.06
280
     0
281
     0
  7
STANDARD
140
0.18
170
     2
 62
     0
 63
     7
283
     0
 90
      512
 91
        0
  1

274
    -2
284
     1
 64
     0
275
    -2
285
     1
 65
     0
276
    -2
286
     1
 66
     0
277
    -2
287
     1
 67
     0
278
    -2
288
     1
 68
     0
279
    -2
289
     1
 69
     0
  7
STANDARD
140
0.25
170
     5
 62
     0
 63
     7
283
     0
 90
      512
 91
        0
  1

274
    -2
284
     1
 64
     0
275
    -2
285
     1
 65
     0
276
    -2
286
     1
 66
     0
277
    -2
287
     1
 67
     0
278
    -2
288
     1
 68
     0
279
    -2
289
     1
 69
     0
  7
STANDARD
140
0.18
170
     5
 62
     0
 63
     7
283
     0
 90
      512
 91
        0
  1

274
    -2
284
     1
 64
     0
275
    -2
285
     1
 65
     0
276
    -2
286
     1
 66
     0
277
    -2
287
     1
 67
     0
278
    -2
288
     1
 68
     0
279
    -2
289
     1
 69
     0
  0
VISUALSTYLE
  5
338
102
{ACAD_XDICTIONARY
360
1321
102
}
102
{ACAD_REACTORS
330
332
102
}
330
332
100
AcDbVisualStyle
  2
2dWireframe
 70
     4
177
     2
291
     0
 71
     0
176
     1
 72
     2
176
     1
 73
     0
176
     1
 90
        0
176
     1
 40
0.6
176
     1
 41
30.0
176
     1
 63
     7
421
 16777215
176
     1
 74
     1
176
     1
 91
        4
176
     1
 64
     7
176
     1
 65
   257
176
     1
 75
     1
176
     1
175
     1
176
     1
 42
1.0
176
     1
 92
        0
176
     1
 66
   257
176
     1
 43
1.0
176
     1
 76
     1
176
     1
 77
     6
176
     1
 78
     2
176
     1
 67
     7
176
     1
 79
     5
176
     1
170
     0
176
     1
171
     0
176
     1
290
     0
176
     1
 93
        1
176
     1
 44
0.0
176
     1
173
     0
176
     1
1001
ACAD
1000
AcDbSavedByObjectVersion
1070
     0
  0
VISUALSTYLE
  5
337
102
{ACAD_XDICTIONARY
360
131F
102
}
102
{ACAD_REACTORS
330
332
102
}
330
332
100
AcDbVisualStyle
  2
Basic
 70
     7
177
     2
291
     1
 71
     1
176
     1
 72
     0
176
     1
 73
     1
176
     1
 90
        0
176
     1
 40
0.6
176
     1
 41
30.0
176
     1
 63
     7
421
 16777215
176
     1
 74
     0
176
     1
 91
        4
176
     1
 64
     7
176
     1
 65
   257
176
     1
 75
     1
176
     1
175
     1
176
     1
 42
1.0
176
     1
 92
        8
176
     1
 66
     7
176
     1
 43
1.0
176
     1
 76
     1
176
     1
 77
     6
176
     1
 78
     2
176
     1
 67
     7
176
     1
 79
     5
176
     1
170
     0
176
     1
171
     0
176
     1
290
     0
176
     1
 93
        1
176
     1
 44
0.0
176
     1
173
     0
176
     1
1001
ACAD
1000
AcDbSavedByObjectVersion
1070
     0
  0
VISUALSTYLE
  5
33E
102
{ACAD_XDICTIONARY
360
132D
102
}
102
{ACAD_REACTORS
330
332
102
}
330
332
100
AcDbVisualStyle
  2
Brighten
 70
    12
177
     2
291
     1
 71
     2
176
     1
 72
     2
176
     1
 73
     0
176
     1
 90
        0
176
     1
 40
0.6
176
     1
 41
30.0
176
     1
 63
     7
421
 16777215
176
     1
 74
     1
176
     1
 91
        4
176
     1
 64
     7
176
     1
 65
   257
176
     1
 75
     1
176
     1
175
     1
176
     1
 42
1.0
176
     1
 92
        8
176
     1
 66
     7
176
     1
 43
1.0
176
     1
 76
     1
176
     1
 77
     6
176
     1
 78
     2
176
     1
 67
     7
176
     1
 79
     5
176
     1
170
     0
176
     1
171
     0
176
     1
290
     0
176
     1
 93
        1
176
     1
 44
50.0
176
     1
173
     0
176
     1
1001
ACAD
1000
AcDbSavedByObjectVersion
1070
     0
  0
VISUALSTYLE
  5
342
102
{ACAD_XDICTIONARY
360
1335
102
}
102
{ACAD_REACTORS
330
332
102
}
330
332
100
AcDbVisualStyle
  2
ColorChange
 70
    16
177
     2
291
     1
 71
     2
176
     1
 72
     2
176
     1
 73
     3
176
     1
 90
        0
176
     1
 40
0.6
176
     1
 41
30.0
176
     1
 63
     8
421
  8421504
176
     1
 74
     1
176
     1
 91
        4
176
     1
 64
     7
176
     1
 65
   257
176
     1
 75
     1
176
     1
175
     1
176
     1
 42
1.0
176
     1
 92
        8
176
     1
 66
     8
424
  8421504
176
     1
 43
1.0
176
     1
 76
     1
176
     1
 77
     6
176
     1
 78
     2
176
     1
 67
     7
176
     1
 79
     5
176
     1
170
     0
176
     1
171
     0
176
     1
290
     0
176
     1
 93
        1
176
     1
 44
0.0
176
     1
173
     0
176
     1
1001
ACAD
1000
AcDbSavedByObjectVersion
1070
     0
  0
VISUALSTYLE
  5
33B
102
{ACAD_XDICTIONARY
360
1327
102
}
102
{ACAD_REACTORS
330
332
102
}
330
332
100
AcDbVisualStyle
  2
Conceptual
 70
     9
177
     2
291
     0
 71
     3
176
     1
 72
     2
176
     1
 73
     0
176
     1
 90
        0
176
     1
 40
0.6
176
     1
 41
30.0
176
     1
 63
     7
421
 16777215
176
     1
 74
     2
176
     1
 91
        2
176
     1
 64
     7
176
     1
 65
   257
176
     1
 75
     1
176
     1
175
     1
176
     1
 42
179.0
176
     1
 92
        8
176
     1
 66
     7
176
     1
 43
1.0
176
     1
 76
     1
176
     1
 77
     6
176
     1
 78
     2
176
     1
 67
     7
176
     1
 79
     3
176
     1
170
     0
176
     1
171
     0
176
     1
290
     0
176
     1
 93
        1
176
     1
 44
0.0
176
     1
173
     0
176
     1
1001
ACAD
1000
AcDbSavedByObjectVersion
1070
     0
  0
VISUALSTYLE
  5
33D
102
{ACAD_XDICTIONARY
360
132B
102
}
102
{ACAD_REACTORS
330
332
102
}
330
332
100
AcDbVisualStyle
  2
Dim
 70
    11
177
     2
291
     1
 71
     2
176
     1
 72
     2
176
     1
 73
     0
176
     1
 90
        0
176
     1
 40
0.6
176
     1
 41
30.0
176
     1
 63
     7
421
 16777215
176
     1
 74
     1
176
     1
 91
        4
176
     1
 64
     7
176
     1
 65
   257
176
     1
 75
     1
176
     1
175
     1
176
     1
 42
1.0
176
     1
 92
        8
176
     1
 66
     7
176
     1
 43
1.0
176
     1
 76
     1
176
     1
 77
     6
176
     1
 78
     2
176
     1
 67
     7
176
     1
 79
     5
176
     1
170
     0
176
     1
171
     0
176
     1
290
     0
176
     1
 93
        1
176
     1
 44
-50.0
176
     1
173
     0
176
     1
1001
ACAD
1000
AcDbSavedByObjectVersion
1070
     0
  0
VISUALSTYLE
  5
34A
102
{ACAD_XDICTIONARY
360
1345
102
}
102
{ACAD_REACTORS
330
332
102
}
330
332
100
AcDbVisualStyle
  2
EdgeColorOff
 70
    22
177
     2
291
     1
 71
     2
176
     0
 72
     2
176
     0
 73
     0
176
     0
 90
        0
176
     0
 40
0.6
176
     0
 41
30.0
176
     0
 63
     7
421
 16777215
176
     0
 74
     1
176
     0
 91
        4
176
     0
 64
     7
176
     0
 65
   257
176
     0
 75
     1
176
     0
175
     1
176
     0
 42
1.0
176
     0
 92
        8
176
     2
 66
     7
176
     0
 43
1.0
176
     0
 76
     1
176
     0
 77
     6
176
     0
 78
     2
176
     0
 67
     7
176
     0
 79
     5
176
     0
170
     0
176
     0
171
     0
176
     0
290
     0
176
     0
 93
        1
176
     0
 44
0.0
176
     0
173
     0
176
     0
1001
ACAD
1000
AcDbSavedByObjectVersion
1070
     0
  0
VISUALSTYLE
  5
341
102
{ACAD_XDICTIONARY
360
1333
102
}
102
{ACAD_REACTORS
330
332
102
}
330
332
100
AcDbVisualStyle
  2
Facepattern
 70
    15
177
     2
291
     1
 71
     2
176
     1
 72
     2
176
     1
 73
     0
176
     1
 90
        0
176
     1
 40
0.6
176
     1
 41
30.0
176
     1
 63
     7
421
 16777215
176
     1
 74
     1
176
     1
 91
        4
176
     1
 64
     7
176
     1
 65
   257
176
     1
 75
     1
176
     1
175
     1
176
     1
 42
1.0
176
     1
 92
        8
176
     1
 66
     7
176
     1
 43
1.0
176
     1
 76
     1
176
     1
 77
     6
176
     1
 78
     2
176
     1
 67
     7
176
     1
 79
     5
176
     1
170
     0
176
     1
171
     0
176
     1
290
     0
176
     1
 93
        1
176
     1
 44
0.0
176
     1
173
     0
176
     1
1001
ACAD
1000
AcDbSavedByObjectVersion
1070
     0
  0
VISUALSTYLE
  5
333
102
{ACAD_XDICTIONARY
360
1317
102
}
102
{ACAD_REACTORS
330
332
102
}
330
332
100
AcDbVisualStyle
  2
Flat
 70
     0
177
     2
291
     1
 71
     2
176
     1
 72
     1
176
     1
 73
     1
176
     1
 90
        2
176
     1
 40
0.6
176
     1
 41
30.0
176
     1
 63
     7
421
 16777215
176
     1
 74
     0
176
     1
 91
        0
176
     1
 64
     7
176
     1
 65
   257
176
     1
 75
     1
176
     1
175
     1
176
     1
 42
1.0
176
     1
 92
        8
176
     1
 66
     7
176
     1
 43
1.0
176
     1
 76
     1
176
     1
 77
     6
176
     1
 78
     2
176
     1
 67
     7
176
     1
 79
     5
176
     1
170
     0
176
     1
171
     0
176
     1
290
     0
176
     1
 93
       13
176
     1
 44
0.0
176
     1
173
     0
176
     1
1001
ACAD
1000
AcDbSavedByObjectVersion
1070
     0
  0
VISUALSTYLE
  5
334
102
{ACAD_XDICTIONARY
360
1319
102
}
102
{ACAD_REACTORS
330
332
102
}
330
332
100
AcDbVisualStyle
  2
FlatWithEdges
 70
     1
177
     2
291
     1
 71
     2
176
     1
 72
     1
176
     1
 73
     1
176
     1
 90
        2
176
     1
 40
0.6
176
     1
 41
30.0
176
     1
 63
     7
421
 16777215
176
     1
 74
     1
176
     1
 91
        0
176
     1
 64
     7
176
     1
 65
   257
176
     1
 75
     1
176
     1
175
     1
176
     1
 42
1.0
176
     1
 92
        0
176
     1
 66
   257
176
     1
 43
1.0
176
     1
 76
     1
176
     1
 77
     6
176
     1
 78
     2
176
     1
 67
     7
176
     1
 79
     5
176
     1
170
     0
176
     1
171
     0
176
     1
290
     0
176
     1
 93
       13
176
     1
 44
0.0
176
     1
173
     0
176
     1
1001
ACAD
1000
AcDbSavedByObjectVersion
1070
     0
  0
VISUALSTYLE
  5
335
102
{ACAD_XDICTIONARY
360
131B
102
}
102
{ACAD_REACTORS
330
332
102
}
330
332
100
AcDbVisualStyle
  2
Gouraud
 70
     2
177
     2
291
     1
 71
     2
176
     1
 72
     2
176
     1
 73
     1
176
     1
 90
        2
176
     1
 40
0.6
176
     1
 41
30.0
176
     1
 63
     7
421
 16777215
176
     1
 74
     0
176
     1
 91
        0
176
     1
 64
     7
176
     1
 65
   257
176
     1
 75
     1
176
     1
175
     1
176
     1
 42
1.0
176
     1
 92
        0
176
     1
 66
     7
176
     1
 43
1.0
176
     1
 76
     1
176
     1
 77
     6
176
     1
 78
     2
176
     1
 67
     7
176
     1
 79
     5
176
     1
170
     0
176
     1
171
     0
176
     1
290
     0
176
     1
 93
       13
176
     1
 44
0.0
176
     1
173
     0
176
     1
1001
ACAD
1000
AcDbSavedByObjectVersion
1070
     0
  0
VISUALSTYLE
  5
336
102
{ACAD_XDICTIONARY
360
131D
102
}
102
{ACAD_REACTORS
330
332
102
}
330
332
100
AcDbVisualStyle
  2
GouraudWithEdges
 70
     3
177
     2
291
     1
 71
     2
176
     1
 72
     2
176
     1
 73
     1
176
     1
 90
        2
176
     1
 40
0.6
176
     1
 41
30.0
176
     1
 63
     7
421
 16777215
176
     1
 74
     1
176
     1
 91
        0
176
     1
 64
     7
176
     1
 65
   257
176
     1
 75
     1
176
     1
175
     1
176
     1
 42
1.0
176
     1
 92
        0
176
     1
 66
   257
176
     1
 43
1.0
176
     1
 76
     1
176
     1
 77
     6
176
     1
 78
     2
176
     1
 67
     7
176
     1
 79
     5
176
     1
170
     0
176
     1
171
     0
176
     1
290
     0
176
     1
 93
       13
176
     1
 44
0.0
176
     1
173
     0
176
     1
1001
ACAD
1000
AcDbSavedByObjectVersion
1070
     0
  0
VISUALSTYLE
  5
33A
102
{ACAD_XDICTIONARY
360
1325
102
}
102
{ACAD_REACTORS
330
332
102
}
330
332
100
AcDbVisualStyle
  2
Hidden
 70
     6
177
     2
291
     0
 71
     1
176
     1
 72
     2
176
     1
 73
     2
176
     1
 90
        0
176
     1
 40
0.6
176
     1
 41
30.0
176
     1
 63
     7
421
 16777215
176
     1
 74
     2
176
     1
 91
        2
176
     1
 64
     7
176
     1
 65
   257
176
     1
 75
     2
176
     1
175
     1
176
     1
 42
40.0
176
     1
 92
        0
176
     1
 66
   257
176
     1
 43
1.0
176
     1
 76
     1
176
     1
 77
     6
176
     1
 78
     2
176
     1
 67
     7
176
     1
 79
     3
176
     1
170
     0
176
     1
171
     0
176
     1
290
     0
176
     1
 93
        1
176
     1
 44
0.0
176
     1
173
     0
176
     1
1001
ACAD
1000
AcDbSavedByObjectVersion
1070
     0
  0
VISUALSTYLE
  5
348
102
{ACAD_XDICTIONARY
360
1341
102
}
102
{ACAD_REACTORS
330
332
102
}
330
332
100
AcDbVisualStyle
  2
JitterOff
 70
    20
177
     2
291
     1
 71
     2
176
     0
 72
     2
176
     0
 73
     0
176
     0
 90
        0
176
     0
 40
0.6
176
     0
 41
30.0
176
     0
 63
     7
421
 16777215
176
     0
 74
     1
176
     0
 91
        4
176
     0
 64
     7
176
     0
 65
   257
176
     0
 75
     1
176
     0
175
     1
176
     0
 42
1.0
176
     0
 92
       10
176
     2
 66
     7
176
     0
 43
1.0
176
     0
 76
     1
176
     0
 77
     6
176
     0
 78
     2
176
     0
 67
     7
176
     0
 79
     5
176
     0
170
     0
176
     0
171
     0
176
     0
290
     0
176
     0
 93
        1
176
     0
 44
0.0
176
     0
173
     0
176
     0
1001
ACAD
1000
AcDbSavedByObjectVersion
1070
     0
  0
VISUALSTYLE
  5
340
102
{ACAD_XDICTIONARY
360
1331
102
}
102
{ACAD_REACTORS
330
332
102
}
330
332
100
AcDbVisualStyle
  2
Linepattern
 70
    14
177
     2
291
     1
 71
     2
176
     1
 72
     2
176
     1
 73
     0
176
     1
 90
        0
176
     1
 40
0.6
176
     1
 41
30.0
176
     1
 63
     7
421
 16777215
176
     1
 74
     1
176
     1
 91
        4
176
     1
 64
     7
176
     1
 65
   257
176
     1
 75
     7
176
     1
175
     7
176
     1
 42
1.0
176
     1
 92
        8
176
     1
 66
     7
176
     1
 43
1.0
176
     1
 76
     1
176
     1
 77
     6
176
     1
 78
     2
176
     1
 67
     7
176
     1
 79
     5
176
     1
170
     0
176
     1
171
     0
176
     1
290
     0
176
     1
 93
        1
176
     1
 44
0.0
176
     1
173
     0
176
     1
1001
ACAD
1000
AcDbSavedByObjectVersion
1070
     0
  0
VISUALSTYLE
  5
349
102
{ACAD_XDICTIONARY
360
1343
102
}
102
{ACAD_REACTORS
330
332
102
}
330
332
100
AcDbVisualStyle
  2
OverhangOff
 70
    21
177
     2
291
     1
 71
     2
176
     0
 72
     2
176
     0
 73
     0
176
     0
 90
        0
176
     0
 40
0.6
176
     0
 41
30.0
176
     0
 63
     7
421
 16777215
176
     0
 74
     1
176
     0
 91
        4
176
     0
 64
     7
176
     0
 65
   257
176
     0
 75
     1
176
     0
175
     1
176
     0
 42
1.0
176
     0
 92
        9
176
     2
 66
     7
176
     0
 43
1.0
176
     0
 76
     1
176
     0
 77
     6
176
     0
 78
     2
176
     0
 67
     7
176
     0
 79
     5
176
     0
170
     0
176
     0
171
     0
176
     0
290
     0
176
     0
 93
        1
176
     0
 44
0.0
176
     0
173
     0
176
     0
1001
ACAD
1000
AcDbSavedByObjectVersion
1070
     0
  0
VISUALSTYLE
  5
33C
102
{ACAD_XDICTIONARY
360
1329
102
}
102
{ACAD_REACTORS
330
332
102
}
330
332
100
AcDbVisualStyle
  2
Realistic
 70
     8
177
     2
291
     0
 71
     2
176
     1
 72
     3
176
     1
 73
     0
176
     1
 90
        2
176
     1
 40
0.6
176
     1
 41
30.0
176
     1
 63
     7
421
 16777215
176
     1
 74
     0
176
     1
 91
        0
176
     1
 64
     7
176
     1
 65
   257
176
     1
 75
     1
176
     1
175
     1
176
     1
 42
1.0
176
     1
 92
        8
176
     1
 66
   257
176
     1
 43
1.0
176
     1
 76
     1
176
     1
 77
     6
176
     1
 78
     2
176
     1
 67
     7
176
     1
 79
     3
176
     1
170
     0
176
     1
171
     0
176
     1
290
     0
176
     1
 93
       13
176
     1
 44
0.0
176
     1
173
     0
176
     1
1001
ACAD
1000
AcDbSavedByObjectVersion
1070
     0
  0
VISUALSTYLE
  5
347
102
{ACAD_XDICTIONARY
360
133F
102
}
102
{ACAD_REACTORS
330
332
102
}
330
332
100
AcDbVisualStyle
  2
Shaded
 70
    27
177
     2
291
     0
 71
     2
176
     1
 72
     2
176
     1
 73
     1
176
     1
 90
        2
176
     1
 40
0.6
176
     1
 41
30.0
176
     1
 63
     7
421
 16777215
176
     1
 74
     0
176
     1
 91
        4
176
     1
 64
     7
176
     1
 65
   257
176
     1
 75
     1
176
     1
175
     1
176
     1
 42
1.0
176
     1
 92
        8
176
     1
 66
   257
176
     1
 43
1.0
176
     1
 76
     1
176
     1
 77
     6
176
     1
 78
     2
176
     1
 67
     8
425
  7895160
176
     1
 79
     3
176
     1
170
     0
176
     1
171
     0
176
     1
290
     0
176
     1
 93
        5
176
     1
 44
0.0
176
     1
173
     0
176
     1
1001
ACAD
1000
AcDbSavedByObjectVersion
1070
     0
  0
VISUALSTYLE
  5
346
102
{ACAD_XDICTIONARY
360
133D
102
}
102
{ACAD_REACTORS
330
332
102
}
330
332
100
AcDbVisualStyle
  2
Shaded with edges
 70
    26
177
     2
291
     0
 71
     2
176
     1
 72
     2
176
     1
 73
     1
176
     1
 90
        2
176
     1
 40
0.6
176
     1
 41
30.0
176
     1
 63
     7
421
 16777215
176
     1
 74
     1
176
     1
 91
       10
176
     1
 64
     7
176
     1
 65
   257
176
     1
 75
     2
176
     1
175
     1
176
     1
 42
1.0
176
     1
 92
        8
176
     1
 66
   257
176
     1
 43
1.0
176
     1
 76
     1
176
     1
 77
     6
176
     1
 78
     2
176
     1
 67
     7
176
     1
 79
     3
176
     1
170
     0
176
     1
171
     0
176
     1
290
     0
176
     1
 93
        5
176
     1
 44
0.0
176
     1
173
     0
176
     1
1001
ACAD
1000
AcDbSavedByObjectVersion
1070
     0
  0
VISUALSTYLE
  5
343
102
{ACAD_XDICTIONARY
360
1337
102
}
102
{ACAD_REACTORS
330
332
102
}
330
332
100
AcDbVisualStyle
  2
Shades of Gray
 70
    23
177
     2
291
     0
 71
     2
176
     1
 72
     2
176
     1
 73
     3
176
     1
 90
        0
176
     1
 40
0.6
176
     1
 41
30.0
176
     1
 63
     7
421
 16777215
176
     1
 74
     2
176
     1
 91
        2
176
     1
 64
     7
176
     1
 65
     7
176
     1
 75
     1
176
     1
175
     1
176
     1
 42
40.0
176
     1
 92
        8
176
     1
 66
     7
176
     1
 43
1.0
176
     1
 76
     1
176
     1
 77
     6
176
     1
 78
     2
176
     1
 67
     7
176
     1
 79
     3
176
     1
170
     0
176
     1
171
     0
176
     1
290
     0
176
     1
 93
        1
176
     1
 44
0.0
176
     1
173
     0
176
     1
1001
ACAD
1000
AcDbSavedByObjectVersion
1070
     0
  0
VISUALSTYLE
  5
344
102
{ACAD_XDICTIONARY
360
1339
102
}
102
{ACAD_REACTORS
330
332
102
}
330
332
100
AcDbVisualStyle
  2
Sketchy
 70
    24
177
     2
291
     0
 71
     1
176
     1
 72
     2
176
     1
 73
     2
176
     1
 90
        0
176
     1
 40
0.6
176
     1
 41
30.0
176
     1
 63
     7
421
 16777215
176
     1
 74
     2
176
     1
 91
        2
176
     1
 64
     7
176
     1
 65
     7
176
     1
 75
     1
176
     1
175
     1
176
     1
 42
40.0
176
     1
 92
       11
176
     1
 66
     7
176
     1
 43
1.0
176
     1
 76
     1
176
     1
 77
     6
176
     1
 78
     2
176
     1
 67
     7
176
     1
 79
     6
176
     1
170
     0
176
     1
171
     0
176
     1
290
     0
176
     1
 93
        1
176
     1
 44
0.0
176
     1
173
     0
176
     1
1001
ACAD
1000
AcDbSavedByObjectVersion
1070
     0
  0
VISUALSTYLE
  5
33F
102
{ACAD_XDICTIONARY
360
132F
102
}
102
{ACAD_REACTORS
330
332
102
}
330
332
100
AcDbVisualStyle
  2
Thicken
 70
    13
177
     2
291
     1
 71
     2
176
     1
 72
     2
176
     1
 73
     0
176
     1
 90
        0
176
     1
 40
0.6
176
     1
 41
30.0
176
     1
 63
     7
421
 16777215
176
     1
 74
     1
176
     1
 91
        4
176
     1
 64
     7
176
     1
 65
   257
176
     1
 75
     1
176
     1
175
     1
176
     1
 42
1.0
176
     1
 92
       12
176
     1
 66
     7
176
     1
 43
1.0
176
     1
 76
     1
176
     1
 77
     6
176
     1
 78
     2
176
     1
 67
     7
176
     1
 79
     5
176
     1
170
     0
176
     1
171
     0
176
     1
290
     0
176
     1
 93
        1
176
     1
 44
0.0
176
     1
173
     0
176
     1
1001
ACAD
1000
AcDbSavedByObjectVersion
1070
     0
  0
VISUALSTYLE
  5
339
102
{ACAD_XDICTIONARY
360
1323
102
}
102
{ACAD_REACTORS
330
332
102
}
330
332
100
AcDbVisualStyle
  2
Wireframe
 70
     5
177
     2
291
     0
 71
     0
176
     1
 72
     2
176
     1
 73
     0
176
     1
 90
        0
176
     1
 40
0.6
176
     1
 41
30.0
176
     1
 63
     7
421
 16777215
176
     1
 74
     1
176
     1
 91
        4
176
     1
 64
     7
176
     1
 65
   257
176
     1
 75
     1
176
     1
175
     1
176
     1
 42
1.0
176
     1
 92
        0
176
     1
 66
   257
176
     1
 43
1.0
176
     1
 76
     1
176
     1
 77
     6
176
     1
 78
     2
176
     1
 67
     7
176
     1
 79
     3
176
     1
170
     0
176
     1
171
     0
176
     1
290
     0
176
     1
 93
        1
176
     1
 44
0.0
176
     1
173
     0
176
     1
1001
ACAD
1000
AcDbSavedByObjectVersion
1070
     0
  0
VISUALSTYLE
  5
345
102
{ACAD_XDICTIONARY
360
133B
102
}
102
{ACAD_REACTORS
330
332
102
}
330
332
100
AcDbVisualStyle
  2
X-Ray
 70
    25
177
     2
291
     0
 71
     2
176
     1
 72
     2
176
     1
 73
     1
176
     1
 90
        1
176
     1
 40
0.5
176
     1
 41
30.0
176
     1
 63
     7
421
 16777215
176
     1
 74
     1
176
     1
 91
        0
176
     1
 64
     7
176
     1
 65
   257
176
     1
 75
     1
176
     1
175
     1
176
     1
 42
1.0
176
     1
 92
        8
176
     1
 66
     7
176
     1
 43
1.0
176
     1
 76
     1
176
     1
 77
     6
176
     1
 78
     2
176
     1
 67
     7
176
     1
 79
     3
176
     1
170
     0
176
     1
171
     0
176
     1
290
     0
176
     1
 93
       13
176
     1
 44
0.0
176
     1
173
     0
176
     1
1001
ACAD
1000
AcDbSavedByObjectVersion
1070
     0
  0
DICTIONARYVAR
  5
50F
102
{ACAD_REACTORS
330
509
102
}
330
509
100
DictionaryVariables
280
     0
  1
1:1
  0
DICTIONARYVAR
  5
50B
102
{ACAD_REACTORS
330
509
102
}
330
509
100
DictionaryVariables
280
     0
  1
STANDARD
  0
DICTIONARYVAR
  5
50A
102
{ACAD_REACTORS
330
509
102
}
330
509
100
DictionaryVariables
280
     0
  1
STANDARD
  0
DICTIONARYVAR
  5
50C
102
{ACAD_REACTORS
330
509
102
}
330
509
100
DictionaryVariables
280
     0
  1
Imperial24
  0
DICTIONARYVAR
  5
50D
102
{ACAD_REACTORS
330
509
102
}
330
509
100
DictionaryVariables
280
     0
  1
Imperial24
  0
DICTIONARYVAR
  5
511
102
{ACAD_REACTORS
330
509
102
}
330
509
100
DictionaryVariables
280
     0
  1
1
  0
DICTIONARYVAR
  5
512
102
{ACAD_REACTORS
330
509
102
}
330
509
100
DictionaryVariables
280
     0
  1
15
  0
DICTIONARYVAR
  5
510
102
{ACAD_REACTORS
330
509
102
}
330
509
100
DictionaryVariables
280
     0
  1
0
  0
DICTIONARYVAR
  5
50E
102
{ACAD_REACTORS
330
509
102
}
330
509
100
DictionaryVariables
280
     0
  1
0
  0
DICTIONARY
  5
1316
102
{ACAD_REACTORS
330
1314
102
}
330
1314
100
AcDbDictionary
281
     1
  0
DICTIONARY
  5
1315
102
{ACAD_REACTORS
330
1314
102
}
330
1314
100
AcDbDictionary
281
     1
  3
8796087849456
350
130F
  3
8796087849472
350
1310
  3
8796087849488
350
1311
  3
8796087849504
350
1312
  3
8796087849520
350
1313
  0
DICTIONARY
  5
1349
330
365
100
AcDbDictionary
280
     1
281
     1
  3
ACAD_XREC_ROUNDTRIP
360
134A
  0
DICTIONARY
  5
134D
330
E68
100
AcDbDictionary
280
     1
281
     1
  3
ACAD_XREC_ROUNDTRIP
360
134E
  0
DICTIONARY
  5
323
330
322
100
AcDbDictionary
280
     1
281
     1
  3
BUMPTILE
360
325
  3
DIFFUSETILE
360
324
  3
OPACITYTILE
360
328
  3
REFLECTIONTILE
360
327
  3
REFRACTIONTILE
360
329
  3
SPECULARTILE
360
326
  0
DICTIONARY
  5
31B
330
31A
100
AcDbDictionary
280
     1
281
     1
  3
BUMPTILE
360
31D
  3
DIFFUSETILE
360
31C
  3
OPACITYTILE
360
320
  3
REFLECTIONTILE
360
31F
  3
REFRACTIONTILE
360
321
  3
SPECULARTILE
360
31E
  0
DICTIONARY
  5
32B
330
32A
100
AcDbDictionary
280
     1
281
     1
  3
BUMPTILE
360
32D
  3
DIFFUSETILE
360
32C
  3
OPACITYTILE
360
330
  3
REFLECTIONTILE
360
32F
  3
REFRACTIONTILE
360
331
  3
SPECULARTILE
360
32E
  0
DICTIONARY
  5
1347
330
363
100
AcDbDictionary
280
     1
281
     1
  3
ACAD_XREC_ROUNDTRIP
360
1348
  0
DICTIONARY
  5
134B
330
E67
100
AcDbDictionary
280
     1
281
     1
  3
ACAD_XREC_ROUNDTRIP
360
134C
  0
DICTIONARY
  5
513
330
34D
100
AcDbDictionary
280
     1
281
     1
  3
ACAD_ROUNDTRIP_2008_TABLESTYLE_CELLSTYLEMAP
360
130D
  0
DICTIONARY
  5
1321
330
338
100
AcDbDictionary
280
     1
281
     1
  3
ACAD_XREC_ROUNDTRIP
360
1322
  0
DICTIONARY
  5
131F
330
337
100
AcDbDictionary
280
     1
281
     1
  3
ACAD_XREC_ROUNDTRIP
360
1320
  0
DICTIONARY
  5
132D
330
33E
100
AcDbDictionary
280
     1
281
     1
  3
ACAD_XREC_ROUNDTRIP
360
132E
  0
DICTIONARY
  5
1335
330
342
100
AcDbDictionary
280
     1
281
     1
  3
ACAD_XREC_ROUNDTRIP
360
1336
  0
DICTIONARY
  5
1327
330
33B
100
AcDbDictionary
280
     1
281
     1
  3
ACAD_XREC_ROUNDTRIP
360
1328
  0
DICTIONARY
  5
132B
330
33D
100
AcDbDictionary
280
     1
281
     1
  3
ACAD_XREC_ROUNDTRIP
360
132C
  0
DICTIONARY
  5
1345
330
34A
100
AcDbDictionary
280
     1
281
     1
  3
ACAD_XREC_ROUNDTRIP
360
1346
  0
DICTIONARY
  5
1333
330
341
100
AcDbDictionary
280
     1
281
     1
  3
ACAD_XREC_ROUNDTRIP
360
1334
  0
DICTIONARY
  5
1317
330
333
100
AcDbDictionary
280
     1
281
     1
  3
ACAD_XREC_ROUNDTRIP
360
1318
  0
DICTIONARY
  5
1319
330
334
100
AcDbDictionary
280
     1
281
     1
  3
ACAD_XREC_ROUNDTRIP
360
131A
  0
DICTIONARY
  5
131B
330
335
100
AcDbDictionary
280
     1
281
     1
  3
ACAD_XREC_ROUNDTRIP
360
131C
  0
DICTIONARY
  5
131D
330
336
100
AcDbDictionary
280
     1
281
     1
  3
ACAD_XREC_ROUNDTRIP
360
131E
  0
DICTIONARY
  5
1325
330
33A
100
AcDbDictionary
280
     1
281
     1
  3
ACAD_XREC_ROUNDTRIP
360
1326
  0
DICTIONARY
  5
1341
330
348
100
AcDbDictionary
280
     1
281
     1
  3
ACAD_XREC_ROUNDTRIP
360
1342
  0
DICTIONARY
  5
1331
330
340
100
AcDbDictionary
280
     1
281
     1
  3
ACAD_XREC_ROUNDTRIP
360
1332
  0
DICTIONARY
  5
1343
330
349
100
AcDbDictionary
280
     1
281
     1
  3
ACAD_XREC_ROUNDTRIP
360
1344
  0
DICTIONARY
  5
1329
330
33C
100
AcDbDictionary
280
     1
281
     1
  3
ACAD_XREC_ROUNDTRIP
360
132A
  0
DICTIONARY
  5
133F
330
347
100
AcDbDictionary
280
     1
281
     1
  3
ACAD_XREC_ROUNDTRIP
360
1340
  0
DICTIONARY
  5
133D
330
346
100
AcDbDictionary
280
     1
281
     1
  3
ACAD_XREC_ROUNDTRIP
360
133E
  0
DICTIONARY
  5
1337
330
343
100
AcDbDictionary
280
     1
281
     1
  3
ACAD_XREC_ROUNDTRIP
360
1338
  0
DICTIONARY
  5
1339
330
344
100
AcDbDictionary
280
     1
281
     1
  3
ACAD_XREC_ROUNDTRIP
360
133A
  0
DICTIONARY
  5
132F
330
33F
100
AcDbDictionary
280
     1
281
     1
  3
ACAD_XREC_ROUNDTRIP
360
1330
  0
DICTIONARY
  5
1323
330
339
100
AcDbDictionary
280
     1
281
     1
  3
ACAD_XREC_ROUNDTRIP
360
1324
  0
DICTIONARY
  5
133B
330
345
100
AcDbDictionary
280
     1
281
     1
  3
ACAD_XREC_ROUNDTRIP
360
133C
  0
XRECORD
  5
130F
102
{ACAD_REACTORS
330
1315
102
}
330
1315
100
AcDbXrecord
280
     1
  1
AcDb_Thumbnail_Schema
102
{ATTRRECORD
341
1310
  2
AcDbDs::TreatedAsObjectData
280
     1
291
     1
102
ATTRRECORD}
102
{ATTRRECORD
341
1311
  2
AcDbDs::Legacy
280
     1
291
     1
102
ATTRRECORD}
  2
AcDbDs::ID
280
    10
 91
        8
102
{ATTRRECORD
341
1312
  2
AcDs:Indexable
280
     1
291
     1
102
ATTRRECORD}
102
{ATTRRECORD
341
1313
  2
AcDbDs::HandleAttribute
280
     7
282
     1
102
ATTRRECORD}
  2
Thumbnail_Data
280
    15
 91
        0
  0
XRECORD
  5
1310
102
{ACAD_REACTORS
330
1315
102
}
330
1315
100
AcDbXrecord
280
     1
  1
AcDbDs::TreatedAsObjectDataSchema
  2
AcDbDs::TreatedAsObjectData
280
     1
 91
        0
  0
XRECORD
  5
1311
102
{ACAD_REACTORS
330
1315
102
}
330
1315
100
AcDbXrecord
280
     1
  1
AcDbDs::LegacySchema
  2
AcDbDs::Legacy
280
     1
 91
        0
  0
XRECORD
  5
1312
102
{ACAD_REACTORS
330
1315
102
}
330
1315
100
AcDbXrecord
280
     1
  1
AcDbDs::IndexedPropertySchema
  2
AcDs:Indexable
280
     1
 91
        0
  0
XRECORD
  5
1313
102
{ACAD_REACTORS
330
1315
102
}
330
1315
100
AcDbXrecord
280
     1
  1
AcDbDs::HandleAttributeSchema
  2
AcDbDs::HandleAttribute
280
     7
 91
        1
284
     1
  0
XRECORD
  5
134A
102
{ACAD_REACTORS
330
1349
102
}
330
1349
100
AcDbXrecord
280
     1
102
DISPLAYNAME
  1
Imperial24
102
FLAGS
 90
        0
  0
XRECORD
  5
134E
102
{ACAD_REACTORS
330
134D
102
}
330
134D
100
AcDbXrecord
280
     1
102
DISPLAYNAME
  1
Metric50
102
FLAGS
 90
        0
  0
XRECORD
  5
325
102
{ACAD_REACTORS
330
323
102
}
330
323
100
AcDbXrecord
280
     1
270
     1
271
     1
  0
XRECORD
  5
324
102
{ACAD_REACTORS
330
323
102
}
330
323
100
AcDbXrecord
280
     1
270
     1
271
     1
  0
XRECORD
  5
328
102
{ACAD_REACTORS
330
323
102
}
330
323
100
AcDbXrecord
280
     1
270
     1
271
     1
  0
XRECORD
  5
327
102
{ACAD_REACTORS
330
323
102
}
330
323
100
AcDbXrecord
280
     1
270
     1
271
     1
  0
XRECORD
  5
329
102
{ACAD_REACTORS
330
323
102
}
330
323
100
AcDbXrecord
280
     1
270
     1
271
     1
  0
XRECORD
  5
326
102
{ACAD_REACTORS
330
323
102
}
330
323
100
AcDbXrecord
280
     1
270
     1
271
     1
  0
XRECORD
  5
31D
102
{ACAD_REACTORS
330
31B
102
}
330
31B
100
AcDbXrecord
280
     1
270
     1
271
     1
  0
XRECORD
  5
31C
102
{ACAD_REACTORS
330
31B
102
}
330
31B
100
AcDbXrecord
280
     1
270
     1
271
     1
  0
XRECORD
  5
320
102
{ACAD_REACTORS
330
31B
102
}
330
31B
100
AcDbXrecord
280
     1
270
     1
271
     1
  0
XRECORD
  5
31F
102
{ACAD_REACTORS
330
31B
102
}
330
31B
100
AcDbXrecord
280
     1
270
     1
271
     1
  0
XRECORD
  5
321
102
{ACAD_REACTORS
330
31B
102
}
330
31B
100
AcDbXrecord
280
     1
270
     1
271
     1
  0
XRECORD
  5
31E
102
{ACAD_REACTORS
330
31B
102
}
330
31B
100
AcDbXrecord
280
     1
270
     1
271
     1
  0
XRECORD
  5
32D
102
{ACAD_REACTORS
330
32B
102
}
330
32B
100
AcDbXrecord
280
     1
270
     1
271
     1
  0
XRECORD
  5
32C
102
{ACAD_REACTORS
330
32B
102
}
330
32B
100
AcDbXrecord
280
     1
270
     1
271
     1
  0
XRECORD
  5
330
102
{ACAD_REACTORS
330
32B
102
}
330
32B
100
AcDbXrecord
280
     1
270
     1
271
     1
  0
XRECORD
  5
32F
102
{ACAD_REACTORS
330
32B
102
}
330
32B
100
AcDbXrecord
280
     1
270
     1
271
     1
  0
XRECORD
  5
331
102
{ACAD_REACTORS
330
32B
102
}
330
32B
100
AcDbXrecord
280
     1
270
     1
271
     1
  0
XRECORD
  5
32E
102
{ACAD_REACTORS
330
32B
102
}
330
32B
100
AcDbXrecord
280
     1
270
     1
271
     1
  0
XRECORD
  5
1348
102
{ACAD_REACTORS
330
1347
102
}
330
1347
100
AcDbXrecord
280
     1
102
DISPLAYNAME
  1
Imperial24
102
FLAGS
 90
        0
  0
XRECORD
  5
134C
102
{ACAD_REACTORS
330
134B
102
}
330
134B
100
AcDbXrecord
280
     1
102
DISPLAYNAME
  1
Metric50
102
FLAGS
 90
        0
  0
CELLSTYLEMAP
  5
130D
102
{ACAD_REACTORS
330
513
102
}
330
513
100
AcDbCellStyleMap
 90
        3
300
CELLSTYLE
  1
TABLEFORMAT_BEGIN
 90
        5
170
     1
 91
        0
 92
    32768
 62
   257
 93
        1
300
CONTENTFORMAT
  1
CONTENTFORMAT_BEGIN
 90
        0
 91
        0
 92
      512
 93
        0
300

 40
0.0
140
1.0
 94
        5
 62
     0
340
17
144
0.25
309
CONTENTFORMAT_END
171
     1
301
MARGIN
  1
CELLMARGIN_BEGIN
 40
0.06
 40
0.06
 40
0.06
 40
0.06
 40
0.18
 40
0.18
309
CELLMARGIN_END
 94
        6
 95
        1
302
GRIDFORMAT
  1
GRIDFORMAT_BEGIN
 90
        0
 91
        1
 62
     0
 92
       -2
340
0
 93
        0
 40
0.045
309
GRIDFORMAT_END
 95
        2
302
GRIDFORMAT
  1
GRIDFORMAT_BEGIN
 90
        0
 91
        1
 62
     0
 92
       -2
340
0
 93
        0
 40
0.045
309
GRIDFORMAT_END
 95
        4
302
GRIDFORMAT
  1
GRIDFORMAT_BEGIN
 90
        0
 91
        1
 62
     0
 92
       -2
340
0
 93
        0
 40
0.045
309
GRIDFORMAT_END
 95
        8
302
GRIDFORMAT
  1
GRIDFORMAT_BEGIN
 90
        0
 91
        1
 62
     0
 92
       -2
340
0
 93
        0
 40
0.045
309
GRIDFORMAT_END
 95
       16
302
GRIDFORMAT
  1
GRIDFORMAT_BEGIN
 90
        0
 91
        1
 62
     0
 92
       -2
340
0
 93
        0
 40
0.045
309
GRIDFORMAT_END
 95
       32
302
GRIDFORMAT
  1
GRIDFORMAT_BEGIN
 90
        0
 91
        1
 62
     0
 92
       -2
340
0
 93
        0
 40
0.045
309
GRIDFORMAT_END
309
TABLEFORMAT_END
  1
CELLSTYLE_BEGIN
 90
        1
 91
        1
300
_TITLE
309
CELLSTYLE_END
300
CELLSTYLE
  1
TABLEFORMAT_BEGIN
 90
        5
170
     1
 91
        0
 92
        0
 62
   257
 93
        1
300
CONTENTFORMAT
  1
CONTENTFORMAT_BEGIN
 90
        0
 91
        0
 92
      512
 93
        0
300

 40
0.0
140
1.0
 94
        5
 62
     0
340
17
144
0.18
309
CONTENTFORMAT_END
171
     1
301
MARGIN
  1
CELLMARGIN_BEGIN
 40
0.06
 40
0.06
 40
0.06
 40
0.06
 40
0.18
 40
0.18
309
CELLMARGIN_END
 94
        6
 95
        1
302
GRIDFORMAT
  1
GRIDFORMAT_BEGIN
 90
        0
 91
        1
 62
     0
 92
       -2
340
0
 93
        0
 40
0.045
309
GRIDFORMAT_END
 95
        2
302
GRIDFORMAT
  1
GRIDFORMAT_BEGIN
 90
        0
 91
        1
 62
     0
 92
       -2
340
0
 93
        0
 40
0.045
309
GRIDFORMAT_END
 95
        4
302
GRIDFORMAT
  1
GRIDFORMAT_BEGIN
 90
        0
 91
        1
 62
     0
 92
       -2
340
0
 93
        0
 40
0.045
309
GRIDFORMAT_END
 95
        8
302
GRIDFORMAT
  1
GRIDFORMAT_BEGIN
 90
        0
 91
        1
 62
     0
 92
       -2
340
0
 93
        0
 40
0.045
309
GRIDFORMAT_END
 95
       16
302
GRIDFORMAT
  1
GRIDFORMAT_BEGIN
 90
        0
 91
        1
 62
     0
 92
       -2
340
0
 93
        0
 40
0.045
309
GRIDFORMAT_END
 95
       32
302
GRIDFORMAT
  1
GRIDFORMAT_BEGIN
 90
        0
 91
        1
 62
     0
 92
       -2
340
0
 93
        0
 40
0.045
309
GRIDFORMAT_END
309
TABLEFORMAT_END
  1
CELLSTYLE_BEGIN
 90
        2
 91
        1
300
_HEADER
309
CELLSTYLE_END
300
CELLSTYLE
  1
TABLEFORMAT_BEGIN
 90
        5
170
     1
 91
        0
 92
        0
 62
   257
 93
        1
300
CONTENTFORMAT
  1
CONTENTFORMAT_BEGIN
 90
        0
 91
        0
 92
      512
 93
        0
300

 40
0.0
140
1.0
 94
        2
 62
     0
340
17
144
0.18
309
CONTENTFORMAT_END
171
     1
301
MARGIN
  1
CELLMARGIN_BEGIN
 40
0.06
 40
0.06
 40
0.06
 40
0.06
 40
0.18
 40
0.18
309
CELLMARGIN_END
 94
        6
 95
        1
302
GRIDFORMAT
  1
GRIDFORMAT_BEGIN
 90
        0
 91
        1
 62
     0
 92
       -2
340
0
 93
        0
 40
0.045
309
GRIDFORMAT_END
 95
        2
302
GRIDFORMAT
  1
GRIDFORMAT_BEGIN
 90
        0
 91
        1
 62
     0
 92
       -2
340
0
 93
        0
 40
0.045
309
GRIDFORMAT_END
 95
        4
302
GRIDFORMAT
  1
GRIDFORMAT_BEGIN
 90
        0
 91
        1
 62
     0
 92
       -2
340
0
 93
        0
 40
0.045
309
GRIDFORMAT_END
 95
        8
302
GRIDFORMAT
  1
GRIDFORMAT_BEGIN
 90
        0
 91
        1
 62
     0
 92
       -2
340
0
 93
        0
 40
0.045
309
GRIDFORMAT_END
 95
       16
302
GRIDFORMAT
  1
GRIDFORMAT_BEGIN
 90
        0
 91
        1
 62
     0
 92
       -2
340
0
 93
        0
 40
0.045
309
GRIDFORMAT_END
 95
       32
302
GRIDFORMAT
  1
GRIDFORMAT_BEGIN
 90
        0
 91
        1
 62
     0
 92
       -2
340
0
 93
        0
 40
0.045
309
GRIDFORMAT_END
309
TABLEFORMAT_END
  1
CELLSTYLE_BEGIN
 90
        3
 91
        2
300
_DATA
309
CELLSTYLE_END
  0
XRECORD
  5
1322
102
{ACAD_REACTORS
330
1321
102
}
330
1321
100
AcDbXrecord
280
     1
102
RTVSPost2010Prop28
280
     1
102
RTVSPost2010PropOp28
 70
     1
102
RTVSPost2010Prop29
280
     1
102
RTVSPost2010PropOp29
 70
     1
102
RTVSPost2010Prop30
280
     0
102
RTVSPost2010PropOp30
 70
     1
102
RTVSPost2010Prop31
280
     0
102
RTVSPost2010PropOp31
 70
     1
102
RTVSPost2010Prop32
280
     0
102
RTVSPost2010PropOp32
 70
     1
102
RTVSPost2010Prop33
280
     0
102
RTVSPost2010PropOp33
 70
     1
102
RTVSPost2010Prop34
280
     0
102
RTVSPost2010PropOp34
 70
     1
102
RTVSPost2010Prop35
280
     0
102
RTVSPost2010PropOp35
 70
     1
102
RTVSPost2010Prop36
280
     0
102
RTVSPost2010PropOp36
 70
     1
102
RTVSPost2010Prop37
 90
       50
102
RTVSPost2010PropOp37
 70
     1
102
RTVSPost2010Prop38
140
0.0
102
RTVSPost2010PropOp38
 70
     1
102
RTVSPost2010Prop39
140
1.0
102
RTVSPost2010PropOp39
 70
     1
102
RTVSPost2010Prop40
 90
        0
102
RTVSPost2010PropOp40
 70
     1
102
RTVSPost2010Prop41ColorIndex
 90
       18
102
RTVSPost2010Prop41ColorRGB
 90
        0
102
RTVSPost2010PropOp41
 70
     1
102
RTVSPost2010Prop42
 90
       50
102
RTVSPost2010PropOp42
 70
     1
102
RTVSPost2010Prop43
 90
        3
102
RTVSPost2010PropOp43
 70
     1
102
RTVSPost2010Prop44ColorIndex
 90
        5
102
RTVSPost2010Prop44ColorRGB
 90
      255
102
RTVSPost2010PropOp44
 70
     1
102
RTVSPost2010Prop45
280
     0
102
RTVSPost2010PropOp45
 70
     1
102
RTVSPost2010Prop46
 90
       50
102
RTVSPost2010PropOp46
 70
     1
102
RTVSPost2010Prop47
 90
       50
102
RTVSPost2010PropOp47
 70
     1
102
RTVSPost2010Prop48
 90
       50
102
RTVSPost2010PropOp48
 70
     1
102
RTVSPost2010Prop49
280
     0
102
RTVSPost2010PropOp49
 70
     1
102
RTVSPost2010Prop50
 90
       50
102
RTVSPost2010PropOp50
 70
     1
102
RTVSPost2010Prop51ColorIndex
 90
      256
102
RTVSPost2010Prop51ColorRGB
 90
-16777216
102
RTVSPost2010PropOp51
 70
     0
102
RTVSPost2010Prop52
140
1.0
102
RTVSPost2010PropOp52
 70
     0
102
RTVSPost2010Prop53
 90
        2
102
RTVSPost2010PropOp53
 70
     1
102
RTVSPost2010Prop54
  1
strokes_ogs.tif
102
RTVSPost2010PropOp54
 70
     1
102
RTVSPost2010Prop55
280
     0
102
RTVSPost2010PropOp55
 70
     1
102
RTVSPost2010Prop56
140
1.0
102
RTVSPost2010PropOp56
 70
     1
102
RTVSPost2010Prop57
140
1.0
102
RTVSPost2010PropOp57
 70
     1
  0
XRECORD
  5
1320
102
{ACAD_REACTORS
330
131F
102
}
330
131F
100
AcDbXrecord
280
     1
102
RTVSPost2010Prop28
280
     0
102
RTVSPost2010PropOp28
 70
     1
102
RTVSPost2010Prop29
280
     1
102
RTVSPost2010PropOp29
 70
     1
102
RTVSPost2010Prop30
280
     1
102
RTVSPost2010PropOp30
 70
     1
102
RTVSPost2010Prop31
280
     0
102
RTVSPost2010PropOp31
 70
     1
102
RTVSPost2010Prop32
280
     0
102
RTVSPost2010PropOp32
 70
     1
102
RTVSPost2010Prop33
280
     0
102
RTVSPost2010PropOp33
 70
     1
102
RTVSPost2010Prop34
280
     0
102
RTVSPost2010PropOp34
 70
     1
102
RTVSPost2010Prop35
280
     0
102
RTVSPost2010PropOp35
 70
     1
102
RTVSPost2010Prop36
280
     0
102
RTVSPost2010PropOp36
 70
     1
102
RTVSPost2010Prop37
 90
       50
102
RTVSPost2010PropOp37
 70
     1
102
RTVSPost2010Prop38
140
0.0
102
RTVSPost2010PropOp38
 70
     1
102
RTVSPost2010Prop39
140
1.0
102
RTVSPost2010PropOp39
 70
     1
102
RTVSPost2010Prop40
 90
        0
102
RTVSPost2010PropOp40
 70
     1
102
RTVSPost2010Prop41ColorIndex
 90
       18
102
RTVSPost2010Prop41ColorRGB
 90
        0
102
RTVSPost2010PropOp41
 70
     1
102
RTVSPost2010Prop42
 90
       50
102
RTVSPost2010PropOp42
 70
     1
102
RTVSPost2010Prop43
 90
        3
102
RTVSPost2010PropOp43
 70
     1
102
RTVSPost2010Prop44ColorIndex
 90
        5
102
RTVSPost2010Prop44ColorRGB
 90
      255
102
RTVSPost2010PropOp44
 70
     1
102
RTVSPost2010Prop45
280
     0
102
RTVSPost2010PropOp45
 70
     1
102
RTVSPost2010Prop46
 90
       50
102
RTVSPost2010PropOp46
 70
     1
102
RTVSPost2010Prop47
 90
       50
102
RTVSPost2010PropOp47
 70
     1
102
RTVSPost2010Prop48
 90
       50
102
RTVSPost2010PropOp48
 70
     1
102
RTVSPost2010Prop49
280
     0
102
RTVSPost2010PropOp49
 70
     1
102
RTVSPost2010Prop50
 90
       50
102
RTVSPost2010PropOp50
 70
     1
102
RTVSPost2010Prop51ColorIndex
 90
      256
102
RTVSPost2010Prop51ColorRGB
 90
-16777216
102
RTVSPost2010PropOp51
 70
     0
102
RTVSPost2010Prop52
140
1.0
102
RTVSPost2010PropOp52
 70
     0
102
RTVSPost2010Prop53
 90
        2
102
RTVSPost2010PropOp53
 70
     1
102
RTVSPost2010Prop54
  1
strokes_ogs.tif
102
RTVSPost2010PropOp54
 70
     1
102
RTVSPost2010Prop55
280
     0
102
RTVSPost2010PropOp55
 70
     1
102
RTVSPost2010Prop56
140
1.0
102
RTVSPost2010PropOp56
 70
     1
102
RTVSPost2010Prop57
140
1.0
102
RTVSPost2010PropOp57
 70
     1
  0
XRECORD
  5
132E
102
{ACAD_REACTORS
330
132D
102
}
330
132D
100
AcDbXrecord
280
     1
102
RTVSPost2010Prop28
280
     0
102
RTVSPost2010PropOp28
 70
     1
102
RTVSPost2010Prop29
280
     1
102
RTVSPost2010PropOp29
 70
     1
102
RTVSPost2010Prop30
280
     1
102
RTVSPost2010PropOp30
 70
     1
102
RTVSPost2010Prop31
280
     0
102
RTVSPost2010PropOp31
 70
     1
102
RTVSPost2010Prop32
280
     0
102
RTVSPost2010PropOp32
 70
     1
102
RTVSPost2010Prop33
280
     0
102
RTVSPost2010PropOp33
 70
     1
102
RTVSPost2010Prop34
280
     0
102
RTVSPost2010PropOp34
 70
     1
102
RTVSPost2010Prop35
280
     0
102
RTVSPost2010PropOp35
 70
     1
102
RTVSPost2010Prop36
280
     0
102
RTVSPost2010PropOp36
 70
     1
102
RTVSPost2010Prop37
 90
       50
102
RTVSPost2010PropOp37
 70
     1
102
RTVSPost2010Prop38
140
0.0
102
RTVSPost2010PropOp38
 70
     1
102
RTVSPost2010Prop39
140
1.0
102
RTVSPost2010PropOp39
 70
     1
102
RTVSPost2010Prop40
 90
        0
102
RTVSPost2010PropOp40
 70
     1
102
RTVSPost2010Prop41ColorIndex
 90
       18
102
RTVSPost2010Prop41ColorRGB
 90
        0
102
RTVSPost2010PropOp41
 70
     1
102
RTVSPost2010Prop42
 90
       50
102
RTVSPost2010PropOp42
 70
     1
102
RTVSPost2010Prop43
 90
        3
102
RTVSPost2010PropOp43
 70
     1
102
RTVSPost2010Prop44ColorIndex
 90
        5
102
RTVSPost2010Prop44ColorRGB
 90
      255
102
RTVSPost2010PropOp44
 70
     1
102
RTVSPost2010Prop45
280
     0
102
RTVSPost2010PropOp45
 70
     1
102
RTVSPost2010Prop46
 90
       50
102
RTVSPost2010PropOp46
 70
     1
102
RTVSPost2010Prop47
 90
       50
102
RTVSPost2010PropOp47
 70
     1
102
RTVSPost2010Prop48
 90
       50
102
RTVSPost2010PropOp48
 70
     1
102
RTVSPost2010Prop49
280
     0
102
RTVSPost2010PropOp49
 70
     1
102
RTVSPost2010Prop50
 90
       50
102
RTVSPost2010PropOp50
 70
     1
102
RTVSPost2010Prop51ColorIndex
 90
      256
102
RTVSPost2010Prop51ColorRGB
 90
-16777216
102
RTVSPost2010PropOp51
 70
     0
102
RTVSPost2010Prop52
140
1.0
102
RTVSPost2010PropOp52
 70
     0
102
RTVSPost2010Prop53
 90
        2
102
RTVSPost2010PropOp53
 70
     1
102
RTVSPost2010Prop54
  1
strokes_ogs.tif
102
RTVSPost2010PropOp54
 70
     1
102
RTVSPost2010Prop55
280
     0
102
RTVSPost2010PropOp55
 70
     1
102
RTVSPost2010Prop56
140
1.0
102
RTVSPost2010PropOp56
 70
     1
102
RTVSPost2010Prop57
140
1.0
102
RTVSPost2010PropOp57
 70
     1
  0
XRECORD
  5
1336
102
{ACAD_REACTORS
330
1335
102
}
330
1335
100
AcDbXrecord
280
     1
102
RTVSPost2010Prop28
280
     0
102
RTVSPost2010PropOp28
 70
     1
102
RTVSPost2010Prop29
280
     1
102
RTVSPost2010PropOp29
 70
     1
102
RTVSPost2010Prop30
280
     1
102
RTVSPost2010PropOp30
 70
     1
102
RTVSPost2010Prop31
280
     0
102
RTVSPost2010PropOp31
 70
     1
102
RTVSPost2010Prop32
280
     0
102
RTVSPost2010PropOp32
 70
     1
102
RTVSPost2010Prop33
280
     0
102
RTVSPost2010PropOp33
 70
     1
102
RTVSPost2010Prop34
280
     0
102
RTVSPost2010PropOp34
 70
     1
102
RTVSPost2010Prop35
280
     0
102
RTVSPost2010PropOp35
 70
     1
102
RTVSPost2010Prop36
280
     0
102
RTVSPost2010PropOp36
 70
     1
102
RTVSPost2010Prop37
 90
       50
102
RTVSPost2010PropOp37
 70
     1
102
RTVSPost2010Prop38
140
0.0
102
RTVSPost2010PropOp38
 70
     1
102
RTVSPost2010Prop39
140
1.0
102
RTVSPost2010PropOp39
 70
     1
102
RTVSPost2010Prop40
 90
        0
102
RTVSPost2010PropOp40
 70
     1
102
RTVSPost2010Prop41ColorIndex
 90
       18
102
RTVSPost2010Prop41ColorRGB
 90
        0
102
RTVSPost2010PropOp41
 70
     1
102
RTVSPost2010Prop42
 90
       50
102
RTVSPost2010PropOp42
 70
     1
102
RTVSPost2010Prop43
 90
        3
102
RTVSPost2010PropOp43
 70
     1
102
RTVSPost2010Prop44ColorIndex
 90
        5
102
RTVSPost2010Prop44ColorRGB
 90
      255
102
RTVSPost2010PropOp44
 70
     1
102
RTVSPost2010Prop45
280
     0
102
RTVSPost2010PropOp45
 70
     1
102
RTVSPost2010Prop46
 90
       50
102
RTVSPost2010PropOp46
 70
     1
102
RTVSPost2010Prop47
 90
       50
102
RTVSPost2010PropOp47
 70
     1
102
RTVSPost2010Prop48
 90
       50
102
RTVSPost2010PropOp48
 70
     1
102
RTVSPost2010Prop49
280
     0
102
RTVSPost2010PropOp49
 70
     1
102
RTVSPost2010Prop50
 90
       50
102
RTVSPost2010PropOp50
 70
     1
102
RTVSPost2010Prop51ColorIndex
 90
      256
102
RTVSPost2010Prop51ColorRGB
 90
-16777216
102
RTVSPost2010PropOp51
 70
     0
102
RTVSPost2010Prop52
140
1.0
102
RTVSPost2010PropOp52
 70
     0
102
RTVSPost2010Prop53
 90
        2
102
RTVSPost2010PropOp53
 70
     1
102
RTVSPost2010Prop54
  1
strokes_ogs.tif
102
RTVSPost2010PropOp54
 70
     1
102
RTVSPost2010Prop55
280
     0
102
RTVSPost2010PropOp55
 70
     1
102
RTVSPost2010Prop56
140
1.0
102
RTVSPost2010PropOp56
 70
     1
102
RTVSPost2010Prop57
140
1.0
102
RTVSPost2010PropOp57
 70
     1
  0
XRECORD
  5
1328
102
{ACAD_REACTORS
330
1327
102
}
330
1327
100
AcDbXrecord
280
     1
102
RTVSPost2010Prop28
280
     0
102
RTVSPost2010PropOp28
 70
     1
102
RTVSPost2010Prop29
280
     1
102
RTVSPost2010PropOp29
 70
     1
102
RTVSPost2010Prop30
280
     1
102
RTVSPost2010PropOp30
 70
     1
102
RTVSPost2010Prop31
280
     0
102
RTVSPost2010PropOp31
 70
     1
102
RTVSPost2010Prop32
280
     0
102
RTVSPost2010PropOp32
 70
     1
102
RTVSPost2010Prop33
280
     0
102
RTVSPost2010PropOp33
 70
     1
102
RTVSPost2010Prop34
280
     0
102
RTVSPost2010PropOp34
 70
     1
102
RTVSPost2010Prop35
280
     0
102
RTVSPost2010PropOp35
 70
     1
102
RTVSPost2010Prop36
280
     0
102
RTVSPost2010PropOp36
 70
     1
102
RTVSPost2010Prop37
 90
       50
102
RTVSPost2010PropOp37
 70
     1
102
RTVSPost2010Prop38
140
0.0
102
RTVSPost2010PropOp38
 70
     1
102
RTVSPost2010Prop39
140
1.0
102
RTVSPost2010PropOp39
 70
     1
102
RTVSPost2010Prop40
 90
        0
102
RTVSPost2010PropOp40
 70
     1
102
RTVSPost2010Prop41ColorIndex
 90
       18
102
RTVSPost2010Prop41ColorRGB
 90
        0
102
RTVSPost2010PropOp41
 70
     1
102
RTVSPost2010Prop42
 90
       50
102
RTVSPost2010PropOp42
 70
     1
102
RTVSPost2010Prop43
 90
        3
102
RTVSPost2010PropOp43
 70
     1
102
RTVSPost2010Prop44ColorIndex
 90
        5
102
RTVSPost2010Prop44ColorRGB
 90
      255
102
RTVSPost2010PropOp44
 70
     1
102
RTVSPost2010Prop45
280
     0
102
RTVSPost2010PropOp45
 70
     1
102
RTVSPost2010Prop46
 90
       50
102
RTVSPost2010PropOp46
 70
     1
102
RTVSPost2010Prop47
 90
       50
102
RTVSPost2010PropOp47
 70
     1
102
RTVSPost2010Prop48
 90
       50
102
RTVSPost2010PropOp48
 70
     1
102
RTVSPost2010Prop49
280
     0
102
RTVSPost2010PropOp49
 70
     1
102
RTVSPost2010Prop50
 90
       50
102
RTVSPost2010PropOp50
 70
     1
102
RTVSPost2010Prop51ColorIndex
 90
      256
102
RTVSPost2010Prop51ColorRGB
 90
-16777216
102
RTVSPost2010PropOp51
 70
     0
102
RTVSPost2010Prop52
140
1.0
102
RTVSPost2010PropOp52
 70
     0
102
RTVSPost2010Prop53
 90
        2
102
RTVSPost2010PropOp53
 70
     1
102
RTVSPost2010Prop54
  1
strokes_ogs.tif
102
RTVSPost2010PropOp54
 70
     1
102
RTVSPost2010Prop55
280
     0
102
RTVSPost2010PropOp55
 70
     1
102
RTVSPost2010Prop56
140
1.0
102
RTVSPost2010PropOp56
 70
     1
102
RTVSPost2010Prop57
140
1.0
102
RTVSPost2010PropOp57
 70
     1
  0
XRECORD
  5
132C
102
{ACAD_REACTORS
330
132B
102
}
330
132B
100
AcDbXrecord
280
     1
102
RTVSPost2010Prop28
280
     0
102
RTVSPost2010PropOp28
 70
     1
102
RTVSPost2010Prop29
280
     1
102
RTVSPost2010PropOp29
 70
     1
102
RTVSPost2010Prop30
280
     1
102
RTVSPost2010PropOp30
 70
     1
102
RTVSPost2010Prop31
280
     0
102
RTVSPost2010PropOp31
 70
     1
102
RTVSPost2010Prop32
280
     0
102
RTVSPost2010PropOp32
 70
     1
102
RTVSPost2010Prop33
280
     0
102
RTVSPost2010PropOp33
 70
     1
102
RTVSPost2010Prop34
280
     0
102
RTVSPost2010PropOp34
 70
     1
102
RTVSPost2010Prop35
280
     0
102
RTVSPost2010PropOp35
 70
     1
102
RTVSPost2010Prop36
280
     0
102
RTVSPost2010PropOp36
 70
     1
102
RTVSPost2010Prop37
 90
       50
102
RTVSPost2010PropOp37
 70
     1
102
RTVSPost2010Prop38
140
0.0
102
RTVSPost2010PropOp38
 70
     1
102
RTVSPost2010Prop39
140
1.0
102
RTVSPost2010PropOp39
 70
     1
102
RTVSPost2010Prop40
 90
        0
102
RTVSPost2010PropOp40
 70
     1
102
RTVSPost2010Prop41ColorIndex
 90
       18
102
RTVSPost2010Prop41ColorRGB
 90
        0
102
RTVSPost2010PropOp41
 70
     1
102
RTVSPost2010Prop42
 90
       50
102
RTVSPost2010PropOp42
 70
     1
102
RTVSPost2010Prop43
 90
        3
102
RTVSPost2010PropOp43
 70
     1
102
RTVSPost2010Prop44ColorIndex
 90
        5
102
RTVSPost2010Prop44ColorRGB
 90
      255
102
RTVSPost2010PropOp44
 70
     1
102
RTVSPost2010Prop45
280
     0
102
RTVSPost2010PropOp45
 70
     1
102
RTVSPost2010Prop46
 90
       50
102
RTVSPost2010PropOp46
 70
     1
102
RTVSPost2010Prop47
 90
       50
102
RTVSPost2010PropOp47
 70
     1
102
RTVSPost2010Prop48
 90
       50
102
RTVSPost2010PropOp48
 70
     1
102
RTVSPost2010Prop49
280
     0
102
RTVSPost2010PropOp49
 70
     1
102
RTVSPost2010Prop50
 90
       50
102
RTVSPost2010PropOp50
 70
     1
102
RTVSPost2010Prop51ColorIndex
 90
      256
102
RTVSPost2010Prop51ColorRGB
 90
-16777216
102
RTVSPost2010PropOp51
 70
     0
102
RTVSPost2010Prop52
140
1.0
102
RTVSPost2010PropOp52
 70
     0
102
RTVSPost2010Prop53
 90
        2
102
RTVSPost2010PropOp53
 70
     1
102
RTVSPost2010Prop54
  1
strokes_ogs.tif
102
RTVSPost2010PropOp54
 70
     1
102
RTVSPost2010Prop55
280
     0
102
RTVSPost2010PropOp55
 70
     1
102
RTVSPost2010Prop56
140
1.0
102
RTVSPost2010PropOp56
 70
     1
102
RTVSPost2010Prop57
140
1.0
102
RTVSPost2010PropOp57
 70
     1
  0
XRECORD
  5
1346
102
{ACAD_REACTORS
330
1345
102
}
330
1345
100
AcDbXrecord
280
     1
102
RTVSPost2010Prop28
280
     0
102
RTVSPost2010PropOp28
 70
     1
102
RTVSPost2010Prop29
280
     1
102
RTVSPost2010PropOp29
 70
     1
102
RTVSPost2010Prop30
280
     1
102
RTVSPost2010PropOp30
 70
     1
102
RTVSPost2010Prop31
280
     0
102
RTVSPost2010PropOp31
 70
     1
102
RTVSPost2010Prop32
280
     0
102
RTVSPost2010PropOp32
 70
     1
102
RTVSPost2010Prop33
280
     0
102
RTVSPost2010PropOp33
 70
     1
102
RTVSPost2010Prop34
280
     0
102
RTVSPost2010PropOp34
 70
     1
102
RTVSPost2010Prop35
280
     0
102
RTVSPost2010PropOp35
 70
     1
102
RTVSPost2010Prop36
280
     0
102
RTVSPost2010PropOp36
 70
     1
102
RTVSPost2010Prop37
 90
       50
102
RTVSPost2010PropOp37
 70
     0
102
RTVSPost2010Prop38
140
0.0
102
RTVSPost2010PropOp38
 70
     0
102
RTVSPost2010Prop39
140
1.0
102
RTVSPost2010PropOp39
 70
     0
102
RTVSPost2010Prop40
 90
        0
102
RTVSPost2010PropOp40
 70
     0
102
RTVSPost2010Prop41ColorIndex
 90
       18
102
RTVSPost2010Prop41ColorRGB
 90
        0
102
RTVSPost2010PropOp41
 70
     0
102
RTVSPost2010Prop42
 90
       50
102
RTVSPost2010PropOp42
 70
     0
102
RTVSPost2010Prop43
 90
        3
102
RTVSPost2010PropOp43
 70
     0
102
RTVSPost2010Prop44ColorIndex
 90
        5
102
RTVSPost2010Prop44ColorRGB
 90
      255
102
RTVSPost2010PropOp44
 70
     0
102
RTVSPost2010Prop45
280
     0
102
RTVSPost2010PropOp45
 70
     1
102
RTVSPost2010Prop46
 90
       50
102
RTVSPost2010PropOp46
 70
     0
102
RTVSPost2010Prop47
 90
       50
102
RTVSPost2010PropOp47
 70
     0
102
RTVSPost2010Prop48
 90
       50
102
RTVSPost2010PropOp48
 70
     0
102
RTVSPost2010Prop49
280
     0
102
RTVSPost2010PropOp49
 70
     1
102
RTVSPost2010Prop50
 90
       50
102
RTVSPost2010PropOp50
 70
     0
102
RTVSPost2010Prop51ColorIndex
 90
      256
102
RTVSPost2010Prop51ColorRGB
 90
-16777216
102
RTVSPost2010PropOp51
 70
     0
102
RTVSPost2010Prop52
140
1.0
102
RTVSPost2010PropOp52
 70
     0
102
RTVSPost2010Prop53
 90
        2
102
RTVSPost2010PropOp53
 70
     0
102
RTVSPost2010Prop54
  1
strokes_ogs.tif
102
RTVSPost2010PropOp54
 70
     0
102
RTVSPost2010Prop55
280
     0
102
RTVSPost2010PropOp55
 70
     1
102
RTVSPost2010Prop56
140
1.0
102
RTVSPost2010PropOp56
 70
     0
102
RTVSPost2010Prop57
140
1.0
102
RTVSPost2010PropOp57
 70
     0
  0
XRECORD
  5
1334
102
{ACAD_REACTORS
330
1333
102
}
330
1333
100
AcDbXrecord
280
     1
102
RTVSPost2010Prop28
280
     0
102
RTVSPost2010PropOp28
 70
     1
102
RTVSPost2010Prop29
280
     1
102
RTVSPost2010PropOp29
 70
     1
102
RTVSPost2010Prop30
280
     1
102
RTVSPost2010PropOp30
 70
     1
102
RTVSPost2010Prop31
280
     0
102
RTVSPost2010PropOp31
 70
     1
102
RTVSPost2010Prop32
280
     0
102
RTVSPost2010PropOp32
 70
     1
102
RTVSPost2010Prop33
280
     0
102
RTVSPost2010PropOp33
 70
     1
102
RTVSPost2010Prop34
280
     0
102
RTVSPost2010PropOp34
 70
     1
102
RTVSPost2010Prop35
280
     0
102
RTVSPost2010PropOp35
 70
     1
102
RTVSPost2010Prop36
280
     0
102
RTVSPost2010PropOp36
 70
     1
102
RTVSPost2010Prop37
 90
       50
102
RTVSPost2010PropOp37
 70
     1
102
RTVSPost2010Prop38
140
0.0
102
RTVSPost2010PropOp38
 70
     1
102
RTVSPost2010Prop39
140
1.0
102
RTVSPost2010PropOp39
 70
     1
102
RTVSPost2010Prop40
 90
        0
102
RTVSPost2010PropOp40
 70
     1
102
RTVSPost2010Prop41ColorIndex
 90
       18
102
RTVSPost2010Prop41ColorRGB
 90
        0
102
RTVSPost2010PropOp41
 70
     1
102
RTVSPost2010Prop42
 90
       50
102
RTVSPost2010PropOp42
 70
     1
102
RTVSPost2010Prop43
 90
        3
102
RTVSPost2010PropOp43
 70
     1
102
RTVSPost2010Prop44ColorIndex
 90
        5
102
RTVSPost2010Prop44ColorRGB
 90
      255
102
RTVSPost2010PropOp44
 70
     1
102
RTVSPost2010Prop45
280
     0
102
RTVSPost2010PropOp45
 70
     1
102
RTVSPost2010Prop46
 90
       50
102
RTVSPost2010PropOp46
 70
     1
102
RTVSPost2010Prop47
 90
       50
102
RTVSPost2010PropOp47
 70
     1
102
RTVSPost2010Prop48
 90
       50
102
RTVSPost2010PropOp48
 70
     1
102
RTVSPost2010Prop49
280
     0
102
RTVSPost2010PropOp49
 70
     1
102
RTVSPost2010Prop50
 90
       50
102
RTVSPost2010PropOp50
 70
     1
102
RTVSPost2010Prop51ColorIndex
 90
      256
102
RTVSPost2010Prop51ColorRGB
 90
-16777216
102
RTVSPost2010PropOp51
 70
     0
102
RTVSPost2010Prop52
140
1.0
102
RTVSPost2010PropOp52
 70
     0
102
RTVSPost2010Prop53
 90
        2
102
RTVSPost2010PropOp53
 70
     1
102
RTVSPost2010Prop54
  1
strokes_ogs.tif
102
RTVSPost2010PropOp54
 70
     1
102
RTVSPost2010Prop55
280
     0
102
RTVSPost2010PropOp55
 70
     1
102
RTVSPost2010Prop56
140
1.0
102
RTVSPost2010PropOp56
 70
     1
102
RTVSPost2010Prop57
140
1.0
102
RTVSPost2010PropOp57
 70
     1
  0
XRECORD
  5
1318
102
{ACAD_REACTORS
330
1317
102
}
330
1317
100
AcDbXrecord
280
     1
102
RTVSPost2010Prop28
280
     0
102
RTVSPost2010PropOp28
 70
     1
102
RTVSPost2010Prop29
280
     1
102
RTVSPost2010PropOp29
 70
     1
102
RTVSPost2010Prop30
280
     1
102
RTVSPost2010PropOp30
 70
     1
102
RTVSPost2010Prop31
280
     0
102
RTVSPost2010PropOp31
 70
     1
102
RTVSPost2010Prop32
280
     0
102
RTVSPost2010PropOp32
 70
     1
102
RTVSPost2010Prop33
280
     0
102
RTVSPost2010PropOp33
 70
     1
102
RTVSPost2010Prop34
280
     0
102
RTVSPost2010PropOp34
 70
     1
102
RTVSPost2010Prop35
280
     0
102
RTVSPost2010PropOp35
 70
     1
102
RTVSPost2010Prop36
280
     0
102
RTVSPost2010PropOp36
 70
     1
102
RTVSPost2010Prop37
 90
       50
102
RTVSPost2010PropOp37
 70
     1
102
RTVSPost2010Prop38
140
0.0
102
RTVSPost2010PropOp38
 70
     1
102
RTVSPost2010Prop39
140
1.0
102
RTVSPost2010PropOp39
 70
     1
102
RTVSPost2010Prop40
 90
        0
102
RTVSPost2010PropOp40
 70
     1
102
RTVSPost2010Prop41ColorIndex
 90
       18
102
RTVSPost2010Prop41ColorRGB
 90
        0
102
RTVSPost2010PropOp41
 70
     1
102
RTVSPost2010Prop42
 90
       50
102
RTVSPost2010PropOp42
 70
     1
102
RTVSPost2010Prop43
 90
        3
102
RTVSPost2010PropOp43
 70
     1
102
RTVSPost2010Prop44ColorIndex
 90
        5
102
RTVSPost2010Prop44ColorRGB
 90
      255
102
RTVSPost2010PropOp44
 70
     1
102
RTVSPost2010Prop45
280
     0
102
RTVSPost2010PropOp45
 70
     1
102
RTVSPost2010Prop46
 90
       50
102
RTVSPost2010PropOp46
 70
     1
102
RTVSPost2010Prop47
 90
       50
102
RTVSPost2010PropOp47
 70
     1
102
RTVSPost2010Prop48
 90
       50
102
RTVSPost2010PropOp48
 70
     1
102
RTVSPost2010Prop49
280
     0
102
RTVSPost2010PropOp49
 70
     1
102
RTVSPost2010Prop50
 90
       50
102
RTVSPost2010PropOp50
 70
     1
102
RTVSPost2010Prop51ColorIndex
 90
      256
102
RTVSPost2010Prop51ColorRGB
 90
-16777216
102
RTVSPost2010PropOp51
 70
     0
102
RTVSPost2010Prop52
140
1.0
102
RTVSPost2010PropOp52
 70
     0
102
RTVSPost2010Prop53
 90
        2
102
RTVSPost2010PropOp53
 70
     1
102
RTVSPost2010Prop54
  1
strokes_ogs.tif
102
RTVSPost2010PropOp54
 70
     1
102
RTVSPost2010Prop55
280
     0
102
RTVSPost2010PropOp55
 70
     1
102
RTVSPost2010Prop56
140
1.0
102
RTVSPost2010PropOp56
 70
     1
102
RTVSPost2010Prop57
140
1.0
102
RTVSPost2010PropOp57
 70
     1
  0
XRECORD
  5
131A
102
{ACAD_REACTORS
330
1319
102
}
330
1319
100
AcDbXrecord
280
     1
102
RTVSPost2010Prop28
280
     0
102
RTVSPost2010PropOp28
 70
     1
102
RTVSPost2010Prop29
280
     1
102
RTVSPost2010PropOp29
 70
     1
102
RTVSPost2010Prop30
280
     1
102
RTVSPost2010PropOp30
 70
     1
102
RTVSPost2010Prop31
280
     0
102
RTVSPost2010PropOp31
 70
     1
102
RTVSPost2010Prop32
280
     0
102
RTVSPost2010PropOp32
 70
     1
102
RTVSPost2010Prop33
280
     0
102
RTVSPost2010PropOp33
 70
     1
102
RTVSPost2010Prop34
280
     0
102
RTVSPost2010PropOp34
 70
     1
102
RTVSPost2010Prop35
280
     0
102
RTVSPost2010PropOp35
 70
     1
102
RTVSPost2010Prop36
280
     0
102
RTVSPost2010PropOp36
 70
     1
102
RTVSPost2010Prop37
 90
       50
102
RTVSPost2010PropOp37
 70
     1
102
RTVSPost2010Prop38
140
0.0
102
RTVSPost2010PropOp38
 70
     1
102
RTVSPost2010Prop39
140
1.0
102
RTVSPost2010PropOp39
 70
     1
102
RTVSPost2010Prop40
 90
        0
102
RTVSPost2010PropOp40
 70
     1
102
RTVSPost2010Prop41ColorIndex
 90
       18
102
RTVSPost2010Prop41ColorRGB
 90
        0
102
RTVSPost2010PropOp41
 70
     1
102
RTVSPost2010Prop42
 90
       50
102
RTVSPost2010PropOp42
 70
     1
102
RTVSPost2010Prop43
 90
        3
102
RTVSPost2010PropOp43
 70
     1
102
RTVSPost2010Prop44ColorIndex
 90
        5
102
RTVSPost2010Prop44ColorRGB
 90
      255
102
RTVSPost2010PropOp44
 70
     1
102
RTVSPost2010Prop45
280
     0
102
RTVSPost2010PropOp45
 70
     1
102
RTVSPost2010Prop46
 90
       50
102
RTVSPost2010PropOp46
 70
     1
102
RTVSPost2010Prop47
 90
       50
102
RTVSPost2010PropOp47
 70
     1
102
RTVSPost2010Prop48
 90
       50
102
RTVSPost2010PropOp48
 70
     1
102
RTVSPost2010Prop49
280
     0
102
RTVSPost2010PropOp49
 70
     1
102
RTVSPost2010Prop50
 90
       50
102
RTVSPost2010PropOp50
 70
     1
102
RTVSPost2010Prop51ColorIndex
 90
      256
102
RTVSPost2010Prop51ColorRGB
 90
-16777216
102
RTVSPost2010PropOp51
 70
     0
102
RTVSPost2010Prop52
140
1.0
102
RTVSPost2010PropOp52
 70
     0
102
RTVSPost2010Prop53
 90
        2
102
RTVSPost2010PropOp53
 70
     1
102
RTVSPost2010Prop54
  1
strokes_ogs.tif
102
RTVSPost2010PropOp54
 70
     1
102
RTVSPost2010Prop55
280
     0
102
RTVSPost2010PropOp55
 70
     1
102
RTVSPost2010Prop56
140
1.0
102
RTVSPost2010PropOp56
 70
     1
102
RTVSPost2010Prop57
140
1.0
102
RTVSPost2010PropOp57
 70
     1
  0
XRECORD
  5
131C
102
{ACAD_REACTORS
330
131B
102
}
330
131B
100
AcDbXrecord
280
     1
102
RTVSPost2010Prop28
280
     0
102
RTVSPost2010PropOp28
 70
     1
102
RTVSPost2010Prop29
280
     1
102
RTVSPost2010PropOp29
 70
     1
102
RTVSPost2010Prop30
280
     1
102
RTVSPost2010PropOp30
 70
     1
102
RTVSPost2010Prop31
280
     0
102
RTVSPost2010PropOp31
 70
     1
102
RTVSPost2010Prop32
280
     0
102
RTVSPost2010PropOp32
 70
     1
102
RTVSPost2010Prop33
280
     0
102
RTVSPost2010PropOp33
 70
     1
102
RTVSPost2010Prop34
280
     0
102
RTVSPost2010PropOp34
 70
     1
102
RTVSPost2010Prop35
280
     0
102
RTVSPost2010PropOp35
 70
     1
102
RTVSPost2010Prop36
280
     0
102
RTVSPost2010PropOp36
 70
     1
102
RTVSPost2010Prop37
 90
       50
102
RTVSPost2010PropOp37
 70
     1
102
RTVSPost2010Prop38
140
0.0
102
RTVSPost2010PropOp38
 70
     1
102
RTVSPost2010Prop39
140
1.0
102
RTVSPost2010PropOp39
 70
     1
102
RTVSPost2010Prop40
 90
        0
102
RTVSPost2010PropOp40
 70
     1
102
RTVSPost2010Prop41ColorIndex
 90
       18
102
RTVSPost2010Prop41ColorRGB
 90
        0
102
RTVSPost2010PropOp41
 70
     1
102
RTVSPost2010Prop42
 90
       50
102
RTVSPost2010PropOp42
 70
     1
102
RTVSPost2010Prop43
 90
        3
102
RTVSPost2010PropOp43
 70
     1
102
RTVSPost2010Prop44ColorIndex
 90
        5
102
RTVSPost2010Prop44ColorRGB
 90
      255
102
RTVSPost2010PropOp44
 70
     1
102
RTVSPost2010Prop45
280
     0
102
RTVSPost2010PropOp45
 70
     1
102
RTVSPost2010Prop46
 90
       50
102
RTVSPost2010PropOp46
 70
     1
102
RTVSPost2010Prop47
 90
       50
102
RTVSPost2010PropOp47
 70
     1
102
RTVSPost2010Prop48
 90
       50
102
RTVSPost2010PropOp48
 70
     1
102
RTVSPost2010Prop49
280
     0
102
RTVSPost2010PropOp49
 70
     1
102
RTVSPost2010Prop50
 90
       50
102
RTVSPost2010PropOp50
 70
     1
102
RTVSPost2010Prop51ColorIndex
 90
      256
102
RTVSPost2010Prop51ColorRGB
 90
-16777216
102
RTVSPost2010PropOp51
 70
     0
102
RTVSPost2010Prop52
140
1.0
102
RTVSPost2010PropOp52
 70
     0
102
RTVSPost2010Prop53
 90
        2
102
RTVSPost2010PropOp53
 70
     1
102
RTVSPost2010Prop54
  1
strokes_ogs.tif
102
RTVSPost2010PropOp54
 70
     1
102
RTVSPost2010Prop55
280
     0
102
RTVSPost2010PropOp55
 70
     1
102
RTVSPost2010Prop56
140
1.0
102
RTVSPost2010PropOp56
 70
     1
102
RTVSPost2010Prop57
140
1.0
102
RTVSPost2010PropOp57
 70
     1
  0
XRECORD
  5
131E
102
{ACAD_REACTORS
330
131D
102
}
330
131D
100
AcDbXrecord
280
     1
102
RTVSPost2010Prop28
280
     0
102
RTVSPost2010PropOp28
 70
     1
102
RTVSPost2010Prop29
280
     1
102
RTVSPost2010PropOp29
 70
     1
102
RTVSPost2010Prop30
280
     1
102
RTVSPost2010PropOp30
 70
     1
102
RTVSPost2010Prop31
280
     0
102
RTVSPost2010PropOp31
 70
     1
102
RTVSPost2010Prop32
280
     0
102
RTVSPost2010PropOp32
 70
     1
102
RTVSPost2010Prop33
280
     0
102
RTVSPost2010PropOp33
 70
     1
102
RTVSPost2010Prop34
280
     0
102
RTVSPost2010PropOp34
 70
     1
102
RTVSPost2010Prop35
280
     0
102
RTVSPost2010PropOp35
 70
     1
102
RTVSPost2010Prop36
280
     0
102
RTVSPost2010PropOp36
 70
     1
102
RTVSPost2010Prop37
 90
       50
102
RTVSPost2010PropOp37
 70
     1
102
RTVSPost2010Prop38
140
0.0
102
RTVSPost2010PropOp38
 70
     1
102
RTVSPost2010Prop39
140
1.0
102
RTVSPost2010PropOp39
 70
     1
102
RTVSPost2010Prop40
 90
        0
102
RTVSPost2010PropOp40
 70
     1
102
RTVSPost2010Prop41ColorIndex
 90
       18
102
RTVSPost2010Prop41ColorRGB
 90
        0
102
RTVSPost2010PropOp41
 70
     1
102
RTVSPost2010Prop42
 90
       50
102
RTVSPost2010PropOp42
 70
     1
102
RTVSPost2010Prop43
 90
        3
102
RTVSPost2010PropOp43
 70
     1
102
RTVSPost2010Prop44ColorIndex
 90
        5
102
RTVSPost2010Prop44ColorRGB
 90
      255
102
RTVSPost2010PropOp44
 70
     1
102
RTVSPost2010Prop45
280
     0
102
RTVSPost2010PropOp45
 70
     1
102
RTVSPost2010Prop46
 90
       50
102
RTVSPost2010PropOp46
 70
     1
102
RTVSPost2010Prop47
 90
       50
102
RTVSPost2010PropOp47
 70
     1
102
RTVSPost2010Prop48
 90
       50
102
RTVSPost2010PropOp48
 70
     1
102
RTVSPost2010Prop49
280
     0
102
RTVSPost2010PropOp49
 70
     1
102
RTVSPost2010Prop50
 90
       50
102
RTVSPost2010PropOp50
 70
     1
102
RTVSPost2010Prop51ColorIndex
 90
      256
102
RTVSPost2010Prop51ColorRGB
 90
-16777216
102
RTVSPost2010PropOp51
 70
     0
102
RTVSPost2010Prop52
140
1.0
102
RTVSPost2010PropOp52
 70
     0
102
RTVSPost2010Prop53
 90
        2
102
RTVSPost2010PropOp53
 70
     1
102
RTVSPost2010Prop54
  1
strokes_ogs.tif
102
RTVSPost2010PropOp54
 70
     1
102
RTVSPost2010Prop55
280
     0
102
RTVSPost2010PropOp55
 70
     1
102
RTVSPost2010Prop56
140
1.0
102
RTVSPost2010PropOp56
 70
     1
102
RTVSPost2010Prop57
140
1.0
102
RTVSPost2010PropOp57
 70
     1
  0
XRECORD
  5
1326
102
{ACAD_REACTORS
330
1325
102
}
330
1325
100
AcDbXrecord
280
     1
102
RTVSPost2010Prop28
280
     0
102
RTVSPost2010PropOp28
 70
     1
102
RTVSPost2010Prop29
280
     1
102
RTVSPost2010PropOp29
 70
     1
102
RTVSPost2010Prop30
280
     1
102
RTVSPost2010PropOp30
 70
     1
102
RTVSPost2010Prop31
280
     0
102
RTVSPost2010PropOp31
 70
     1
102
RTVSPost2010Prop32
280
     0
102
RTVSPost2010PropOp32
 70
     1
102
RTVSPost2010Prop33
280
     0
102
RTVSPost2010PropOp33
 70
     1
102
RTVSPost2010Prop34
280
     0
102
RTVSPost2010PropOp34
 70
     1
102
RTVSPost2010Prop35
280
     0
102
RTVSPost2010PropOp35
 70
     1
102
RTVSPost2010Prop36
280
     0
102
RTVSPost2010PropOp36
 70
     1
102
RTVSPost2010Prop37
 90
       50
102
RTVSPost2010PropOp37
 70
     1
102
RTVSPost2010Prop38
140
0.0
102
RTVSPost2010PropOp38
 70
     1
102
RTVSPost2010Prop39
140
1.0
102
RTVSPost2010PropOp39
 70
     1
102
RTVSPost2010Prop40
 90
        0
102
RTVSPost2010PropOp40
 70
     1
102
RTVSPost2010Prop41ColorIndex
 90
       18
102
RTVSPost2010Prop41ColorRGB
 90
        0
102
RTVSPost2010PropOp41
 70
     1
102
RTVSPost2010Prop42
 90
       50
102
RTVSPost2010PropOp42
 70
     1
102
RTVSPost2010Prop43
 90
        3
102
RTVSPost2010PropOp43
 70
     1
102
RTVSPost2010Prop44ColorIndex
 90
        5
102
RTVSPost2010Prop44ColorRGB
 90
      255
102
RTVSPost2010PropOp44
 70
     1
102
RTVSPost2010Prop45
280
     0
102
RTVSPost2010PropOp45
 70
     1
102
RTVSPost2010Prop46
 90
       50
102
RTVSPost2010PropOp46
 70
     1
102
RTVSPost2010Prop47
 90
       50
102
RTVSPost2010PropOp47
 70
     1
102
RTVSPost2010Prop48
 90
       50
102
RTVSPost2010PropOp48
 70
     1
102
RTVSPost2010Prop49
280
     0
102
RTVSPost2010PropOp49
 70
     1
102
RTVSPost2010Prop50
 90
       50
102
RTVSPost2010PropOp50
 70
     1
102
RTVSPost2010Prop51ColorIndex
 90
      256
102
RTVSPost2010Prop51ColorRGB
 90
-16777216
102
RTVSPost2010PropOp51
 70
     0
102
RTVSPost2010Prop52
140
1.0
102
RTVSPost2010PropOp52
 70
     0
102
RTVSPost2010Prop53
 90
        2
102
RTVSPost2010PropOp53
 70
     1
102
RTVSPost2010Prop54
  1
strokes_ogs.tif
102
RTVSPost2010PropOp54
 70
     1
102
RTVSPost2010Prop55
280
     0
102
RTVSPost2010PropOp55
 70
     1
102
RTVSPost2010Prop56
140
1.0
102
RTVSPost2010PropOp56
 70
     1
102
RTVSPost2010Prop57
140
1.0
102
RTVSPost2010PropOp57
 70
     1
  0
XRECORD
  5
1342
102
{ACAD_REACTORS
330
1341
102
}
330
1341
100
AcDbXrecord
280
     1
102
RTVSPost2010Prop28
280
     0
102
RTVSPost2010PropOp28
 70
     1
102
RTVSPost2010Prop29
280
     1
102
RTVSPost2010PropOp29
 70
     1
102
RTVSPost2010Prop30
280
     1
102
RTVSPost2010PropOp30
 70
     1
102
RTVSPost2010Prop31
280
     0
102
RTVSPost2010PropOp31
 70
     1
102
RTVSPost2010Prop32
280
     0
102
RTVSPost2010PropOp32
 70
     1
102
RTVSPost2010Prop33
280
     0
102
RTVSPost2010PropOp33
 70
     1
102
RTVSPost2010Prop34
280
     0
102
RTVSPost2010PropOp34
 70
     1
102
RTVSPost2010Prop35
280
     0
102
RTVSPost2010PropOp35
 70
     1
102
RTVSPost2010Prop36
280
     0
102
RTVSPost2010PropOp36
 70
     1
102
RTVSPost2010Prop37
 90
       50
102
RTVSPost2010PropOp37
 70
     0
102
RTVSPost2010Prop38
140
0.0
102
RTVSPost2010PropOp38
 70
     0
102
RTVSPost2010Prop39
140
1.0
102
RTVSPost2010PropOp39
 70
     0
102
RTVSPost2010Prop40
 90
        0
102
RTVSPost2010PropOp40
 70
     0
102
RTVSPost2010Prop41ColorIndex
 90
       18
102
RTVSPost2010Prop41ColorRGB
 90
        0
102
RTVSPost2010PropOp41
 70
     0
102
RTVSPost2010Prop42
 90
       50
102
RTVSPost2010PropOp42
 70
     0
102
RTVSPost2010Prop43
 90
        3
102
RTVSPost2010PropOp43
 70
     0
102
RTVSPost2010Prop44ColorIndex
 90
        5
102
RTVSPost2010Prop44ColorRGB
 90
      255
102
RTVSPost2010PropOp44
 70
     0
102
RTVSPost2010Prop45
280
     0
102
RTVSPost2010PropOp45
 70
     1
102
RTVSPost2010Prop46
 90
       50
102
RTVSPost2010PropOp46
 70
     0
102
RTVSPost2010Prop47
 90
       50
102
RTVSPost2010PropOp47
 70
     0
102
RTVSPost2010Prop48
 90
       50
102
RTVSPost2010PropOp48
 70
     0
102
RTVSPost2010Prop49
280
     0
102
RTVSPost2010PropOp49
 70
     1
102
RTVSPost2010Prop50
 90
       50
102
RTVSPost2010PropOp50
 70
     0
102
RTVSPost2010Prop51ColorIndex
 90
      256
102
RTVSPost2010Prop51ColorRGB
 90
-16777216
102
RTVSPost2010PropOp51
 70
     0
102
RTVSPost2010Prop52
140
1.0
102
RTVSPost2010PropOp52
 70
     0
102
RTVSPost2010Prop53
 90
        2
102
RTVSPost2010PropOp53
 70
     0
102
RTVSPost2010Prop54
  1
strokes_ogs.tif
102
RTVSPost2010PropOp54
 70
     0
102
RTVSPost2010Prop55
280
     0
102
RTVSPost2010PropOp55
 70
     1
102
RTVSPost2010Prop56
140
1.0
102
RTVSPost2010PropOp56
 70
     0
102
RTVSPost2010Prop57
140
1.0
102
RTVSPost2010PropOp57
 70
     0
  0
XRECORD
  5
1332
102
{ACAD_REACTORS
330
1331
102
}
330
1331
100
AcDbXrecord
280
     1
102
RTVSPost2010Prop28
280
     0
102
RTVSPost2010PropOp28
 70
     1
102
RTVSPost2010Prop29
280
     1
102
RTVSPost2010PropOp29
 70
     1
102
RTVSPost2010Prop30
280
     1
102
RTVSPost2010PropOp30
 70
     1
102
RTVSPost2010Prop31
280
     0
102
RTVSPost2010PropOp31
 70
     1
102
RTVSPost2010Prop32
280
     0
102
RTVSPost2010PropOp32
 70
     1
102
RTVSPost2010Prop33
280
     0
102
RTVSPost2010PropOp33
 70
     1
102
RTVSPost2010Prop34
280
     0
102
RTVSPost2010PropOp34
 70
     1
102
RTVSPost2010Prop35
280
     0
102
RTVSPost2010PropOp35
 70
     1
102
RTVSPost2010Prop36
280
     0
102
RTVSPost2010PropOp36
 70
     1
102
RTVSPost2010Prop37
 90
       50
102
RTVSPost2010PropOp37
 70
     1
102
RTVSPost2010Prop38
140
0.0
102
RTVSPost2010PropOp38
 70
     1
102
RTVSPost2010Prop39
140
1.0
102
RTVSPost2010PropOp39
 70
     1
102
RTVSPost2010Prop40
 90
        0
102
RTVSPost2010PropOp40
 70
     1
102
RTVSPost2010Prop41ColorIndex
 90
       18
102
RTVSPost2010Prop41ColorRGB
 90
        0
102
RTVSPost2010PropOp41
 70
     1
102
RTVSPost2010Prop42
 90
       50
102
RTVSPost2010PropOp42
 70
     1
102
RTVSPost2010Prop43
 90
        3
102
RTVSPost2010PropOp43
 70
     1
102
RTVSPost2010Prop44ColorIndex
 90
        5
102
RTVSPost2010Prop44ColorRGB
 90
      255
102
RTVSPost2010PropOp44
 70
     1
102
RTVSPost2010Prop45
280
     0
102
RTVSPost2010PropOp45
 70
     1
102
RTVSPost2010Prop46
 90
       50
102
RTVSPost2010PropOp46
 70
     1
102
RTVSPost2010Prop47
 90
       50
102
RTVSPost2010PropOp47
 70
     1
102
RTVSPost2010Prop48
 90
       50
102
RTVSPost2010PropOp48
 70
     1
102
RTVSPost2010Prop49
280
     0
102
RTVSPost2010PropOp49
 70
     1
102
RTVSPost2010Prop50
 90
       50
102
RTVSPost2010PropOp50
 70
     1
102
RTVSPost2010Prop51ColorIndex
 90
      256
102
RTVSPost2010Prop51ColorRGB
 90
-16777216
102
RTVSPost2010PropOp51
 70
     0
102
RTVSPost2010Prop52
140
1.0
102
RTVSPost2010PropOp52
 70
     0
102
RTVSPost2010Prop53
 90
        2
102
RTVSPost2010PropOp53
 70
     1
102
RTVSPost2010Prop54
  1
strokes_ogs.tif
102
RTVSPost2010PropOp54
 70
     1
102
RTVSPost2010Prop55
280
     0
102
RTVSPost2010PropOp55
 70
     1
102
RTVSPost2010Prop56
140
1.0
102
RTVSPost2010PropOp56
 70
     1
102
RTVSPost2010Prop57
140
1.0
102
RTVSPost2010PropOp57
 70
     1
  0
XRECORD
  5
1344
102
{ACAD_REACTORS
330
1343
102
}
330
1343
100
AcDbXrecord
280
     1
102
RTVSPost2010Prop28
280
     0
102
RTVSPost2010PropOp28
 70
     1
102
RTVSPost2010Prop29
280
     1
102
RTVSPost2010PropOp29
 70
     1
102
RTVSPost2010Prop30
280
     1
102
RTVSPost2010PropOp30
 70
     1
102
RTVSPost2010Prop31
280
     0
102
RTVSPost2010PropOp31
 70
     1
102
RTVSPost2010Prop32
280
     0
102
RTVSPost2010PropOp32
 70
     1
102
RTVSPost2010Prop33
280
     0
102
RTVSPost2010PropOp33
 70
     1
102
RTVSPost2010Prop34
280
     0
102
RTVSPost2010PropOp34
 70
     1
102
RTVSPost2010Prop35
280
     0
102
RTVSPost2010PropOp35
 70
     1
102
RTVSPost2010Prop36
280
     0
102
RTVSPost2010PropOp36
 70
     1
102
RTVSPost2010Prop37
 90
       50
102
RTVSPost2010PropOp37
 70
     0
102
RTVSPost2010Prop38
140
0.0
102
RTVSPost2010PropOp38
 70
     0
102
RTVSPost2010Prop39
140
1.0
102
RTVSPost2010PropOp39
 70
     0
102
RTVSPost2010Prop40
 90
        0
102
RTVSPost2010PropOp40
 70
     0
102
RTVSPost2010Prop41ColorIndex
 90
       18
102
RTVSPost2010Prop41ColorRGB
 90
        0
102
RTVSPost2010PropOp41
 70
     0
102
RTVSPost2010Prop42
 90
       50
102
RTVSPost2010PropOp42
 70
     0
102
RTVSPost2010Prop43
 90
        3
102
RTVSPost2010PropOp43
 70
     0
102
RTVSPost2010Prop44ColorIndex
 90
        5
102
RTVSPost2010Prop44ColorRGB
 90
      255
102
RTVSPost2010PropOp44
 70
     0
102
RTVSPost2010Prop45
280
     0
102
RTVSPost2010PropOp45
 70
     1
102
RTVSPost2010Prop46
 90
       50
102
RTVSPost2010PropOp46
 70
     0
102
RTVSPost2010Prop47
 90
       50
102
RTVSPost2010PropOp47
 70
     0
102
RTVSPost2010Prop48
 90
       50
102
RTVSPost2010PropOp48
 70
     0
102
RTVSPost2010Prop49
280
     0
102
RTVSPost2010PropOp49
 70
     1
102
RTVSPost2010Prop50
 90
       50
102
RTVSPost2010PropOp50
 70
     0
102
RTVSPost2010Prop51ColorIndex
 90
      256
102
RTVSPost2010Prop51ColorRGB
 90
-16777216
102
RTVSPost2010PropOp51
 70
     0
102
RTVSPost2010Prop52
140
1.0
102
RTVSPost2010PropOp52
 70
     0
102
RTVSPost2010Prop53
 90
        2
102
RTVSPost2010PropOp53
 70
     0
102
RTVSPost2010Prop54
  1
strokes_ogs.tif
102
RTVSPost2010PropOp54
 70
     0
102
RTVSPost2010Prop55
280
     0
102
RTVSPost2010PropOp55
 70
     1
102
RTVSPost2010Prop56
140
1.0
102
RTVSPost2010PropOp56
 70
     0
102
RTVSPost2010Prop57
140
1.0
102
RTVSPost2010PropOp57
 70
     0
  0
XRECORD
  5
132A
102
{ACAD_REACTORS
330
1329
102
}
330
1329
100
AcDbXrecord
280
     1
102
RTVSPost2010Prop28
280
     0
102
RTVSPost2010PropOp28
 70
     1
102
RTVSPost2010Prop29
280
     1
102
RTVSPost2010PropOp29
 70
     1
102
RTVSPost2010Prop30
280
     1
102
RTVSPost2010PropOp30
 70
     1
102
RTVSPost2010Prop31
280
     0
102
RTVSPost2010PropOp31
 70
     1
102
RTVSPost2010Prop32
280
     0
102
RTVSPost2010PropOp32
 70
     1
102
RTVSPost2010Prop33
280
     0
102
RTVSPost2010PropOp33
 70
     1
102
RTVSPost2010Prop34
280
     0
102
RTVSPost2010PropOp34
 70
     1
102
RTVSPost2010Prop35
280
     0
102
RTVSPost2010PropOp35
 70
     1
102
RTVSPost2010Prop36
280
     0
102
RTVSPost2010PropOp36
 70
     1
102
RTVSPost2010Prop37
 90
       50
102
RTVSPost2010PropOp37
 70
     1
102
RTVSPost2010Prop38
140
0.0
102
RTVSPost2010PropOp38
 70
     1
102
RTVSPost2010Prop39
140
1.0
102
RTVSPost2010PropOp39
 70
     1
102
RTVSPost2010Prop40
 90
        0
102
RTVSPost2010PropOp40
 70
     1
102
RTVSPost2010Prop41ColorIndex
 90
       18
102
RTVSPost2010Prop41ColorRGB
 90
        0
102
RTVSPost2010PropOp41
 70
     1
102
RTVSPost2010Prop42
 90
       50
102
RTVSPost2010PropOp42
 70
     1
102
RTVSPost2010Prop43
 90
        3
102
RTVSPost2010PropOp43
 70
     1
102
RTVSPost2010Prop44ColorIndex
 90
        5
102
RTVSPost2010Prop44ColorRGB
 90
      255
102
RTVSPost2010PropOp44
 70
     1
102
RTVSPost2010Prop45
280
     0
102
RTVSPost2010PropOp45
 70
     1
102
RTVSPost2010Prop46
 90
       50
102
RTVSPost2010PropOp46
 70
     1
102
RTVSPost2010Prop47
 90
       50
102
RTVSPost2010PropOp47
 70
     1
102
RTVSPost2010Prop48
 90
       50
102
RTVSPost2010PropOp48
 70
     1
102
RTVSPost2010Prop49
280
     0
102
RTVSPost2010PropOp49
 70
     1
102
RTVSPost2010Prop50
 90
       50
102
RTVSPost2010PropOp50
 70
     1
102
RTVSPost2010Prop51ColorIndex
 90
      256
102
RTVSPost2010Prop51ColorRGB
 90
-16777216
102
RTVSPost2010PropOp51
 70
     0
102
RTVSPost2010Prop52
140
1.0
102
RTVSPost2010PropOp52
 70
     0
102
RTVSPost2010Prop53
 90
        2
102
RTVSPost2010PropOp53
 70
     1
102
RTVSPost2010Prop54
  1
strokes_ogs.tif
102
RTVSPost2010PropOp54
 70
     1
102
RTVSPost2010Prop55
280
     0
102
RTVSPost2010PropOp55
 70
     1
102
RTVSPost2010Prop56
140
1.0
102
RTVSPost2010PropOp56
 70
     1
102
RTVSPost2010Prop57
140
1.0
102
RTVSPost2010PropOp57
 70
     1
  0
XRECORD
  5
1340
102
{ACAD_REACTORS
330
133F
102
}
330
133F
100
AcDbXrecord
280
     1
102
RTVSPost2010Prop28
280
     0
102
RTVSPost2010PropOp28
 70
     1
102
RTVSPost2010Prop29
280
     1
102
RTVSPost2010PropOp29
 70
     1
102
RTVSPost2010Prop30
280
     1
102
RTVSPost2010PropOp30
 70
     1
102
RTVSPost2010Prop31
280
     0
102
RTVSPost2010PropOp31
 70
     1
102
RTVSPost2010Prop32
280
     0
102
RTVSPost2010PropOp32
 70
     1
102
RTVSPost2010Prop33
280
     0
102
RTVSPost2010PropOp33
 70
     1
102
RTVSPost2010Prop34
280
     0
102
RTVSPost2010PropOp34
 70
     1
102
RTVSPost2010Prop35
280
     0
102
RTVSPost2010PropOp35
 70
     1
102
RTVSPost2010Prop36
280
     0
102
RTVSPost2010PropOp36
 70
     1
102
RTVSPost2010Prop37
 90
       50
102
RTVSPost2010PropOp37
 70
     1
102
RTVSPost2010Prop38
140
0.0
102
RTVSPost2010PropOp38
 70
     1
102
RTVSPost2010Prop39
140
1.0
102
RTVSPost2010PropOp39
 70
     1
102
RTVSPost2010Prop40
 90
        0
102
RTVSPost2010PropOp40
 70
     1
102
RTVSPost2010Prop41ColorIndex
 90
       18
102
RTVSPost2010Prop41ColorRGB
 90
        0
102
RTVSPost2010PropOp41
 70
     1
102
RTVSPost2010Prop42
 90
       50
102
RTVSPost2010PropOp42
 70
     1
102
RTVSPost2010Prop43
 90
        3
102
RTVSPost2010PropOp43
 70
     1
102
RTVSPost2010Prop44ColorIndex
 90
        5
102
RTVSPost2010Prop44ColorRGB
 90
      255
102
RTVSPost2010PropOp44
 70
     1
102
RTVSPost2010Prop45
280
     0
102
RTVSPost2010PropOp45
 70
     1
102
RTVSPost2010Prop46
 90
       50
102
RTVSPost2010PropOp46
 70
     1
102
RTVSPost2010Prop47
 90
       50
102
RTVSPost2010PropOp47
 70
     1
102
RTVSPost2010Prop48
 90
       50
102
RTVSPost2010PropOp48
 70
     1
102
RTVSPost2010Prop49
280
     0
102
RTVSPost2010PropOp49
 70
     1
102
RTVSPost2010Prop50
 90
       50
102
RTVSPost2010PropOp50
 70
     1
102
RTVSPost2010Prop51ColorIndex
 90
      256
102
RTVSPost2010Prop51ColorRGB
 90
-16777216
102
RTVSPost2010PropOp51
 70
     0
102
RTVSPost2010Prop52
140
1.0
102
RTVSPost2010PropOp52
 70
     0
102
RTVSPost2010Prop53
 90
        2
102
RTVSPost2010PropOp53
 70
     1
102
RTVSPost2010Prop54
  1
strokes_ogs.tif
102
RTVSPost2010PropOp54
 70
     1
102
RTVSPost2010Prop55
280
     0
102
RTVSPost2010PropOp55
 70
     1
102
RTVSPost2010Prop56
140
1.0
102
RTVSPost2010PropOp56
 70
     1
102
RTVSPost2010Prop57
140
1.0
102
RTVSPost2010PropOp57
 70
     1
  0
XRECORD
  5
133E
102
{ACAD_REACTORS
330
133D
102
}
330
133D
100
AcDbXrecord
280
     1
102
RTVSPost2010Prop28
280
     0
102
RTVSPost2010PropOp28
 70
     1
102
RTVSPost2010Prop29
280
     1
102
RTVSPost2010PropOp29
 70
     1
102
RTVSPost2010Prop30
280
     1
102
RTVSPost2010PropOp30
 70
     1
102
RTVSPost2010Prop31
280
     0
102
RTVSPost2010PropOp31
 70
     1
102
RTVSPost2010Prop32
280
     0
102
RTVSPost2010PropOp32
 70
     1
102
RTVSPost2010Prop33
280
     0
102
RTVSPost2010PropOp33
 70
     1
102
RTVSPost2010Prop34
280
     0
102
RTVSPost2010PropOp34
 70
     1
102
RTVSPost2010Prop35
280
     0
102
RTVSPost2010PropOp35
 70
     1
102
RTVSPost2010Prop36
280
     0
102
RTVSPost2010PropOp36
 70
     1
102
RTVSPost2010Prop37
 90
       50
102
RTVSPost2010PropOp37
 70
     1
102
RTVSPost2010Prop38
140
0.0
102
RTVSPost2010PropOp38
 70
     1
102
RTVSPost2010Prop39
140
1.0
102
RTVSPost2010PropOp39
 70
     1
102
RTVSPost2010Prop40
 90
        0
102
RTVSPost2010PropOp40
 70
     1
102
RTVSPost2010Prop41ColorIndex
 90
       18
102
RTVSPost2010Prop41ColorRGB
 90
        0
102
RTVSPost2010PropOp41
 70
     1
102
RTVSPost2010Prop42
 90
       50
102
RTVSPost2010PropOp42
 70
     1
102
RTVSPost2010Prop43
 90
        3
102
RTVSPost2010PropOp43
 70
     1
102
RTVSPost2010Prop44ColorIndex
 90
        5
102
RTVSPost2010Prop44ColorRGB
 90
      255
102
RTVSPost2010PropOp44
 70
     1
102
RTVSPost2010Prop45
280
     0
102
RTVSPost2010PropOp45
 70
     1
102
RTVSPost2010Prop46
 90
       50
102
RTVSPost2010PropOp46
 70
     1
102
RTVSPost2010Prop47
 90
       50
102
RTVSPost2010PropOp47
 70
     1
102
RTVSPost2010Prop48
 90
       50
102
RTVSPost2010PropOp48
 70
     1
102
RTVSPost2010Prop49
280
     0
102
RTVSPost2010PropOp49
 70
     1
102
RTVSPost2010Prop50
 90
       50
102
RTVSPost2010PropOp50
 70
     1
102
RTVSPost2010Prop51ColorIndex
 90
      256
102
RTVSPost2010Prop51ColorRGB
 90
-16777216
102
RTVSPost2010PropOp51
 70
     0
102
RTVSPost2010Prop52
140
1.0
102
RTVSPost2010PropOp52
 70
     0
102
RTVSPost2010Prop53
 90
        2
102
RTVSPost2010PropOp53
 70
     1
102
RTVSPost2010Prop54
  1
strokes_ogs.tif
102
RTVSPost2010PropOp54
 70
     1
102
RTVSPost2010Prop55
280
     0
102
RTVSPost2010PropOp55
 70
     1
102
RTVSPost2010Prop56
140
1.0
102
RTVSPost2010PropOp56
 70
     1
102
RTVSPost2010Prop57
140
1.0
102
RTVSPost2010PropOp57
 70
     1
  0
XRECORD
  5
1338
102
{ACAD_REACTORS
330
1337
102
}
330
1337
100
AcDbXrecord
280
     1
102
RTVSPost2010Prop28
280
     0
102
RTVSPost2010PropOp28
 70
     1
102
RTVSPost2010Prop29
280
     1
102
RTVSPost2010PropOp29
 70
     1
102
RTVSPost2010Prop30
280
     1
102
RTVSPost2010PropOp30
 70
     1
102
RTVSPost2010Prop31
280
     0
102
RTVSPost2010PropOp31
 70
     1
102
RTVSPost2010Prop32
280
     0
102
RTVSPost2010PropOp32
 70
     1
102
RTVSPost2010Prop33
280
     0
102
RTVSPost2010PropOp33
 70
     1
102
RTVSPost2010Prop34
280
     0
102
RTVSPost2010PropOp34
 70
     1
102
RTVSPost2010Prop35
280
     0
102
RTVSPost2010PropOp35
 70
     1
102
RTVSPost2010Prop36
280
     0
102
RTVSPost2010PropOp36
 70
     1
102
RTVSPost2010Prop37
 90
       50
102
RTVSPost2010PropOp37
 70
     1
102
RTVSPost2010Prop38
140
0.0
102
RTVSPost2010PropOp38
 70
     1
102
RTVSPost2010Prop39
140
1.0
102
RTVSPost2010PropOp39
 70
     1
102
RTVSPost2010Prop40
 90
        0
102
RTVSPost2010PropOp40
 70
     1
102
RTVSPost2010Prop41ColorIndex
 90
       18
102
RTVSPost2010Prop41ColorRGB
 90
        0
102
RTVSPost2010PropOp41
 70
     1
102
RTVSPost2010Prop42
 90
       50
102
RTVSPost2010PropOp42
 70
     1
102
RTVSPost2010Prop43
 90
        3
102
RTVSPost2010PropOp43
 70
     1
102
RTVSPost2010Prop44ColorIndex
 90
        5
102
RTVSPost2010Prop44ColorRGB
 90
      255
102
RTVSPost2010PropOp44
 70
     1
102
RTVSPost2010Prop45
280
     0
102
RTVSPost2010PropOp45
 70
     1
102
RTVSPost2010Prop46
 90
       50
102
RTVSPost2010PropOp46
 70
     1
102
RTVSPost2010Prop47
 90
       50
102
RTVSPost2010PropOp47
 70
     1
102
RTVSPost2010Prop48
 90
       50
102
RTVSPost2010PropOp48
 70
     1
102
RTVSPost2010Prop49
280
     0
102
RTVSPost2010PropOp49
 70
     1
102
RTVSPost2010Prop50
 90
       50
102
RTVSPost2010PropOp50
 70
     1
102
RTVSPost2010Prop51ColorIndex
 90
      256
102
RTVSPost2010Prop51ColorRGB
 90
-16777216
102
RTVSPost2010PropOp51
 70
     0
102
RTVSPost2010Prop52
140
1.0
102
RTVSPost2010PropOp52
 70
     0
102
RTVSPost2010Prop53
 90
        2
102
RTVSPost2010PropOp53
 70
     1
102
RTVSPost2010Prop54
  1
strokes_ogs.tif
102
RTVSPost2010PropOp54
 70
     1
102
RTVSPost2010Prop55
280
     0
102
RTVSPost2010PropOp55
 70
     1
102
RTVSPost2010Prop56
140
1.0
102
RTVSPost2010PropOp56
 70
     1
102
RTVSPost2010Prop57
140
1.0
102
RTVSPost2010PropOp57
 70
     1
  0
XRECORD
  5
133A
102
{ACAD_REACTORS
330
1339
102
}
330
1339
100
AcDbXrecord
280
     1
102
RTVSPost2010Prop28
280
     0
102
RTVSPost2010PropOp28
 70
     1
102
RTVSPost2010Prop29
280
     1
102
RTVSPost2010PropOp29
 70
     1
102
RTVSPost2010Prop30
280
     1
102
RTVSPost2010PropOp30
 70
     1
102
RTVSPost2010Prop31
280
     0
102
RTVSPost2010PropOp31
 70
     1
102
RTVSPost2010Prop32
280
     0
102
RTVSPost2010PropOp32
 70
     1
102
RTVSPost2010Prop33
280
     0
102
RTVSPost2010PropOp33
 70
     1
102
RTVSPost2010Prop34
280
     0
102
RTVSPost2010PropOp34
 70
     1
102
RTVSPost2010Prop35
280
     0
102
RTVSPost2010PropOp35
 70
     1
102
RTVSPost2010Prop36
280
     0
102
RTVSPost2010PropOp36
 70
     1
102
RTVSPost2010Prop37
 90
       50
102
RTVSPost2010PropOp37
 70
     1
102
RTVSPost2010Prop38
140
0.0
102
RTVSPost2010PropOp38
 70
     1
102
RTVSPost2010Prop39
140
1.0
102
RTVSPost2010PropOp39
 70
     1
102
RTVSPost2010Prop40
 90
        0
102
RTVSPost2010PropOp40
 70
     1
102
RTVSPost2010Prop41ColorIndex
 90
       18
102
RTVSPost2010Prop41ColorRGB
 90
        0
102
RTVSPost2010PropOp41
 70
     1
102
RTVSPost2010Prop42
 90
       50
102
RTVSPost2010PropOp42
 70
     1
102
RTVSPost2010Prop43
 90
        3
102
RTVSPost2010PropOp43
 70
     1
102
RTVSPost2010Prop44ColorIndex
 90
        5
102
RTVSPost2010Prop44ColorRGB
 90
      255
102
RTVSPost2010PropOp44
 70
     1
102
RTVSPost2010Prop45
280
     0
102
RTVSPost2010PropOp45
 70
     1
102
RTVSPost2010Prop46
 90
       50
102
RTVSPost2010PropOp46
 70
     1
102
RTVSPost2010Prop47
 90
       50
102
RTVSPost2010PropOp47
 70
     1
102
RTVSPost2010Prop48
 90
       50
102
RTVSPost2010PropOp48
 70
     1
102
RTVSPost2010Prop49
280
     0
102
RTVSPost2010PropOp49
 70
     1
102
RTVSPost2010Prop50
 90
       50
102
RTVSPost2010PropOp50
 70
     1
102
RTVSPost2010Prop51ColorIndex
 90
      256
102
RTVSPost2010Prop51ColorRGB
 90
-16777216
102
RTVSPost2010PropOp51
 70
     0
102
RTVSPost2010Prop52
140
1.0
102
RTVSPost2010PropOp52
 70
     0
102
RTVSPost2010Prop53
 90
        2
102
RTVSPost2010PropOp53
 70
     1
102
RTVSPost2010Prop54
  1
strokes_ogs.tif
102
RTVSPost2010PropOp54
 70
     1
102
RTVSPost2010Prop55
280
     0
102
RTVSPost2010PropOp55
 70
     1
102
RTVSPost2010Prop56
140
1.0
102
RTVSPost2010PropOp56
 70
     1
102
RTVSPost2010Prop57
140
1.0
102
RTVSPost2010PropOp57
 70
     1
  0
XRECORD
  5
1330
102
{ACAD_REACTORS
330
132F
102
}
330
132F
100
AcDbXrecord
280
     1
102
RTVSPost2010Prop28
280
     0
102
RTVSPost2010PropOp28
 70
     1
102
RTVSPost2010Prop29
280
     1
102
RTVSPost2010PropOp29
 70
     1
102
RTVSPost2010Prop30
280
     1
102
RTVSPost2010PropOp30
 70
     1
102
RTVSPost2010Prop31
280
     0
102
RTVSPost2010PropOp31
 70
     1
102
RTVSPost2010Prop32
280
     0
102
RTVSPost2010PropOp32
 70
     1
102
RTVSPost2010Prop33
280
     0
102
RTVSPost2010PropOp33
 70
     1
102
RTVSPost2010Prop34
280
     0
102
RTVSPost2010PropOp34
 70
     1
102
RTVSPost2010Prop35
280
     0
102
RTVSPost2010PropOp35
 70
     1
102
RTVSPost2010Prop36
280
     0
102
RTVSPost2010PropOp36
 70
     1
102
RTVSPost2010Prop37
 90
       50
102
RTVSPost2010PropOp37
 70
     1
102
RTVSPost2010Prop38
140
0.0
102
RTVSPost2010PropOp38
 70
     1
102
RTVSPost2010Prop39
140
1.0
102
RTVSPost2010PropOp39
 70
     1
102
RTVSPost2010Prop40
 90
        0
102
RTVSPost2010PropOp40
 70
     1
102
RTVSPost2010Prop41ColorIndex
 90
       18
102
RTVSPost2010Prop41ColorRGB
 90
        0
102
RTVSPost2010PropOp41
 70
     1
102
RTVSPost2010Prop42
 90
       50
102
RTVSPost2010PropOp42
 70
     1
102
RTVSPost2010Prop43
 90
        3
102
RTVSPost2010PropOp43
 70
     1
102
RTVSPost2010Prop44ColorIndex
 90
        5
102
RTVSPost2010Prop44ColorRGB
 90
      255
102
RTVSPost2010PropOp44
 70
     1
102
RTVSPost2010Prop45
280
     0
102
RTVSPost2010PropOp45
 70
     1
102
RTVSPost2010Prop46
 90
       50
102
RTVSPost2010PropOp46
 70
     1
102
RTVSPost2010Prop47
 90
       50
102
RTVSPost2010PropOp47
 70
     1
102
RTVSPost2010Prop48
 90
       50
102
RTVSPost2010PropOp48
 70
     1
102
RTVSPost2010Prop49
280
     0
102
RTVSPost2010PropOp49
 70
     1
102
RTVSPost2010Prop50
 90
       50
102
RTVSPost2010PropOp50
 70
     1
102
RTVSPost2010Prop51ColorIndex
 90
      256
102
RTVSPost2010Prop51ColorRGB
 90
-16777216
102
RTVSPost2010PropOp51
 70
     0
102
RTVSPost2010Prop52
140
1.0
102
RTVSPost2010PropOp52
 70
     0
102
RTVSPost2010Prop53
 90
        2
102
RTVSPost2010PropOp53
 70
     1
102
RTVSPost2010Prop54
  1
strokes_ogs.tif
102
RTVSPost2010PropOp54
 70
     1
102
RTVSPost2010Prop55
280
     0
102
RTVSPost2010PropOp55
 70
     1
102
RTVSPost2010Prop56
140
1.0
102
RTVSPost2010PropOp56
 70
     1
102
RTVSPost2010Prop57
140
1.0
102
RTVSPost2010PropOp57
 70
     1
  0
XRECORD
  5
1324
102
{ACAD_REACTORS
330
1323
102
}
330
1323
100
AcDbXrecord
280
     1
102
RTVSPost2010Prop28
280
     0
102
RTVSPost2010PropOp28
 70
     1
102
RTVSPost2010Prop29
280
     1
102
RTVSPost2010PropOp29
 70
     1
102
RTVSPost2010Prop30
280
     1
102
RTVSPost2010PropOp30
 70
     1
102
RTVSPost2010Prop31
280
     0
102
RTVSPost2010PropOp31
 70
     1
102
RTVSPost2010Prop32
280
     0
102
RTVSPost2010PropOp32
 70
     1
102
RTVSPost2010Prop33
280
     0
102
RTVSPost2010PropOp33
 70
     1
102
RTVSPost2010Prop34
280
     0
102
RTVSPost2010PropOp34
 70
     1
102
RTVSPost2010Prop35
280
     0
102
RTVSPost2010PropOp35
 70
     1
102
RTVSPost2010Prop36
280
     0
102
RTVSPost2010PropOp36
 70
     1
102
RTVSPost2010Prop37
 90
       50
102
RTVSPost2010PropOp37
 70
     1
102
RTVSPost2010Prop38
140
0.0
102
RTVSPost2010PropOp38
 70
     1
102
RTVSPost2010Prop39
140
1.0
102
RTVSPost2010PropOp39
 70
     1
102
RTVSPost2010Prop40
 90
        0
102
RTVSPost2010PropOp40
 70
     1
102
RTVSPost2010Prop41ColorIndex
 90
       18
102
RTVSPost2010Prop41ColorRGB
 90
        0
102
RTVSPost2010PropOp41
 70
     1
102
RTVSPost2010Prop42
 90
       50
102
RTVSPost2010PropOp42
 70
     1
102
RTVSPost2010Prop43
 90
        3
102
RTVSPost2010PropOp43
 70
     1
102
RTVSPost2010Prop44ColorIndex
 90
        5
102
RTVSPost2010Prop44ColorRGB
 90
      255
102
RTVSPost2010PropOp44
 70
     1
102
RTVSPost2010Prop45
280
     0
102
RTVSPost2010PropOp45
 70
     1
102
RTVSPost2010Prop46
 90
       50
102
RTVSPost2010PropOp46
 70
     1
102
RTVSPost2010Prop47
 90
       50
102
RTVSPost2010PropOp47
 70
     1
102
RTVSPost2010Prop48
 90
       50
102
RTVSPost2010PropOp48
 70
     1
102
RTVSPost2010Prop49
280
     0
102
RTVSPost2010PropOp49
 70
     1
102
RTVSPost2010Prop50
 90
       50
102
RTVSPost2010PropOp50
 70
     1
102
RTVSPost2010Prop51ColorIndex
 90
      256
102
RTVSPost2010Prop51ColorRGB
 90
-16777216
102
RTVSPost2010PropOp51
 70
     0
102
RTVSPost2010Prop52
140
1.0
102
RTVSPost2010PropOp52
 70
     0
102
RTVSPost2010Prop53
 90
        2
102
RTVSPost2010PropOp53
 70
     1
102
RTVSPost2010Prop54
  1
strokes_ogs.tif
102
RTVSPost2010PropOp54
 70
     1
102
RTVSPost2010Prop55
280
     0
102
RTVSPost2010PropOp55
 70
     1
102
RTVSPost2010Prop56
140
1.0
102
RTVSPost2010PropOp56
 70
     1
102
RTVSPost2010Prop57
140
1.0
102
RTVSPost2010PropOp57
 70
     1
  0
XRECORD
  5
133C
102
{ACAD_REACTORS
330
133B
102
}
330
133B
100
AcDbXrecord
280
     1
102
RTVSPost2010Prop28
280
     0
102
RTVSPost2010PropOp28
 70
     1
102
RTVSPost2010Prop29
280
     1
102
RTVSPost2010PropOp29
 70
     1
102
RTVSPost2010Prop30
280
     1
102
RTVSPost2010PropOp30
 70
     1
102
RTVSPost2010Prop31
280
     0
102
RTVSPost2010PropOp31
 70
     1
102
RTVSPost2010Prop32
280
     0
102
RTVSPost2010PropOp32
 70
     1
102
RTVSPost2010Prop33
280
     0
102
RTVSPost2010PropOp33
 70
     1
102
RTVSPost2010Prop34
280
     0
102
RTVSPost2010PropOp34
 70
     1
102
RTVSPost2010Prop35
280
     0
102
RTVSPost2010PropOp35
 70
     1
102
RTVSPost2010Prop36
280
     0
102
RTVSPost2010PropOp36
 70
     1
102
RTVSPost2010Prop37
 90
       50
102
RTVSPost2010PropOp37
 70
     1
102
RTVSPost2010Prop38
140
0.0
102
RTVSPost2010PropOp38
 70
     1
102
RTVSPost2010Prop39
140
1.0
102
RTVSPost2010PropOp39
 70
     1
102
RTVSPost2010Prop40
 90
        0
102
RTVSPost2010PropOp40
 70
     1
102
RTVSPost2010Prop41ColorIndex
 90
       18
102
RTVSPost2010Prop41ColorRGB
 90
        0
102
RTVSPost2010PropOp41
 70
     1
102
RTVSPost2010Prop42
 90
       50
102
RTVSPost2010PropOp42
 70
     1
102
RTVSPost2010Prop43
 90
        3
102
RTVSPost2010PropOp43
 70
     1
102
RTVSPost2010Prop44ColorIndex
 90
        5
102
RTVSPost2010Prop44ColorRGB
 90
      255
102
RTVSPost2010PropOp44
 70
     1
102
RTVSPost2010Prop45
280
     0
102
RTVSPost2010PropOp45
 70
     1
102
RTVSPost2010Prop46
 90
       50
102
RTVSPost2010PropOp46
 70
     1
102
RTVSPost2010Prop47
 90
       50
102
RTVSPost2010PropOp47
 70
     1
102
RTVSPost2010Prop48
 90
       50
102
RTVSPost2010PropOp48
 70
     1
102
RTVSPost2010Prop49
280
     0
102
RTVSPost2010PropOp49
 70
     1
102
RTVSPost2010Prop50
 90
       50
102
RTVSPost2010PropOp50
 70
     1
102
RTVSPost2010Prop51ColorIndex
 90
      256
102
RTVSPost2010Prop51ColorRGB
 90
-16777216
102
RTVSPost2010PropOp51
 70
     0
102
RTVSPost2010Prop52
140
1.0
102
RTVSPost2010PropOp52
 70
     0
102
RTVSPost2010Prop53
 90
        2
102
RTVSPost2010PropOp53
 70
     1
102
RTVSPost2010Prop54
  1
strokes_ogs.tif
102
RTVSPost2010PropOp54
 70
     1
102
RTVSPost2010Prop55
280
     0
102
RTVSPost2010PropOp55
 70
     1
102
RTVSPost2010Prop56
140
1.0
102
RTVSPost2010PropOp56
 70
     1
102
RTVSPost2010Prop57
140
1.0
102
RTVSPost2010PropOp57
 70
     1
  0
ENDSEC
  0
EOF
