  0
SECTION
  2
HEADER
  9
$ACADVER
  1
AC1027
  9
$ACADMAINTVER
 70
   125
  9
$DWGCODEPAGE
  3
ANSI_1252
  9
$LASTSAVEDBY
  1
kaschu
  9
$REQUIREDVERSIONS
160
                 0
  9
$INSBASE
 10
0.0
 20
0.0
 30
0.0
  9
$EXTMIN
 10
56.01859680289544
 20
-179.728364405074
 30
-0.0000000000000048
  9
$EXTMAX
 10
1666.456666902081
 20
1033.782716326536
 30
0.0000000000000048
  9
$LIMMIN
 10
0.0
 20
0.0
  9
$LIMMAX
 10
420.0
 20
297.0
  9
$ORTHOMODE
 70
     0
  9
$REGENMODE
 70
     1
  9
$FILLMODE
 70
     1
  9
$QTEXTMODE
 70
     0
  9
$MIRRTEXT
 70
     1
  9
$LTSCALE
 40
1.0
  9
$ATTMODE
 70
     1
  9
$TEXTSIZE
 40
2.5
  9
$TRACEWID
 40
1.0
  9
$TEXTSTYLE
  7
Standard
  9
$CLAYER
  8
0
  9
$CELTYPE
  6
ByLayer
  9
$CECOLOR
 62
   256
  9
$CELTSCALE
 40
1.0
  9
$DISPSILH
 70
     0
  9
$DIMSCALE
 40
1.0
  9
$DIMASZ
 40
2.5
  9
$DIMEXO
 40
0.625
  9
$DIMDLI
 40
3.75
  9
$DIMRND
 40
0.0
  9
$DIMDLE
 40
0.0
  9
$DIMEXE
 40
1.25
  9
$DIMTP
 40
0.0
  9
$DIMTM
 40
0.0
  9
$DIMTXT
 40
2.5
  9
$DIMCEN
 40
2.5
  9
$DIMTSZ
 40
0.0
  9
$DIMTOL
 70
     0
  9
$DIMLIM
 70
     0
  9
$DIMTIH
 70
     0
  9
$DIMTOH
 70
     0
  9
$DIMSE1
 70
     0
  9
$DIMSE2
 70
     0
  9
$DIMTAD
 70
     1
  9
$DIMZIN
 70
     8
  9
$DIMBLK
  1

  9
$DIMASO
 70
     1
  9
$DIMSHO
 70
     1
  9
$DIMPOST
  1

  9
$DIMAPOST
  1

  9
$DIMALT
 70
     0
  9
$DIMALTD
 70
     3
  9
$DIMALTF
 40
0.03937007874016
  9
$DIMLFAC
 40
1.0
  9
$DIMTOFL
 70
     1
  9
$DIMTVP
 40
0.0
  9
$DIMTIX
 70
     0
  9
$DIMSOXD
 70
     0
  9
$DIMSAH
 70
     0
  9
$DIMBLK1
  1

  9
$DIMBLK2
  1

  9
$DIMSTYLE
  2
ISO-25
  9
$DIMCLRD
 70
     0
  9
$DIMCLRE
 70
     0
  9
$DIMCLRT
 70
     0
  9
$DIMTFAC
 40
1.0
  9
$DIMGAP
 40
0.625
  9
$DIMJUST
 70
     0
  9
$DIMSD1
 70
     0
  9
$DIMSD2
 70
     0
  9
$DIMTOLJ
 70
     0
  9
$DIMTZIN
 70
     8
  9
$DIMALTZ
 70
     0
  9
$DIMALTTZ
 70
     0
  9
$DIMUPT
 70
     0
  9
$DIMDEC
 70
     2
  9
$DIMTDEC
 70
     2
  9
$DIMALTU
 70
     2
  9
$DIMALTTD
 70
     3
  9
$DIMTXSTY
  7
Standard
  9
$DIMAUNIT
 70
     0
  9
$DIMADEC
 70
     0
  9
$DIMALTRND
 40
0.0
  9
$DIMAZIN
 70
     0
  9
$DIMDSEP
 70
    44
  9
$DIMATFIT
 70
     3
  9
$DIMFRAC
 70
     0
  9
$DIMLDRBLK
  1

  9
$DIMLUNIT
 70
     2
  9
$DIMLWD
 70
    -2
  9
$DIMLWE
 70
    -2
  9
$DIMTMOVE
 70
     0
  9
$DIMFXL
 40
1.0
  9
$DIMFXLON
 70
     0
  9
$DIMJOGANG
 40
0.7853981633974483
  9
$DIMTFILL
 70
     0
  9
$DIMTFILLCLR
 70
     0
  9
$DIMARCSYM
 70
     0
  9
$DIMLTYPE
  6

  9
$DIMLTEX1
  6

  9
$DIMLTEX2
  6

  9
$DIMTXTDIRECTION
 70
     0
  9
$LUNITS
 70
     2
  9
$LUPREC
 70
     4
  9
$SKETCHINC
 40
1.0
  9
$FILLETRAD
 40
10.0
  9
$AUNITS
 70
     0
  9
$AUPREC
 70
     0
  9
$MENU
  1
.
  9
$ELEVATION
 40
0.0
  9
$PELEVATION
 40
0.0
  9
$THICKNESS
 40
0.0
  9
$LIMCHECK
 70
     0
  9
$CHAMFERA
 40
0.0
  9
$CHAMFERB
 40
0.0
  9
$CHAMFERC
 40
0.0
  9
$CHAMFERD
 40
0.0
  9
$SKPOLY
 70
     0
  9
$TDCREATE
 40
2459312.722430555
  9
$TDUCREATE
 40
2459312.639101586
  9
$TDUPDATE
 40
2459313.417812500
  9
$TDUUPDATE
 40
2459313.334479167
  9
$TDINDWG
 40
0.0135995486
  9
$TDUSRTIMER
 40
0.0135995486
  9
$USRTIMER
 70
     1
  9
$ANGBASE
 50
0.0
  9
$ANGDIR
 70
     0
  9
$PDMODE
 70
     0
  9
$PDSIZE
 40
0.0
  9
$PLINEWID
 40
0.0
  9
$SPLFRAME
 70
     0
  9
$SPLINETYPE
 70
     6
  9
$SPLINESEGS
 70
     8
  9
$HANDSEED
  5
8F0
  9
$SURFTAB1
 70
     6
  9
$SURFTAB2
 70
     6
  9
$SURFTYPE
 70
     6
  9
$SURFU
 70
     6
  9
$SURFV
 70
     6
  9
$UCSBASE
  2

  9
$UCSNAME
  2

  9
$UCSORG
 10
0.0
 20
0.0
 30
0.0
  9
$UCSXDIR
 10
1.0
 20
0.0
 30
0.0
  9
$UCSYDIR
 10
0.0
 20
1.0
 30
0.0
  9
$UCSORTHOREF
  2

  9
$UCSORTHOVIEW
 70
     0
  9
$UCSORGTOP
 10
0.0
 20
0.0
 30
0.0
  9
$UCSORGBOTTOM
 10
0.0
 20
0.0
 30
0.0
  9
$UCSORGLEFT
 10
0.0
 20
0.0
 30
0.0
  9
$UCSORGRIGHT
 10
0.0
 20
0.0
 30
0.0
  9
$UCSORGFRONT
 10
0.0
 20
0.0
 30
0.0
  9
$UCSORGBACK
 10
0.0
 20
0.0
 30
0.0
  9
$PUCSBASE
  2

  9
$PUCSNAME
  2

  9
$PUCSORG
 10
0.0
 20
0.0
 30
0.0
  9
$PUCSXDIR
 10
1.0
 20
0.0
 30
0.0
  9
$PUCSYDIR
 10
0.0
 20
1.0
 30
0.0
  9
$PUCSORTHOREF
  2

  9
$PUCSORTHOVIEW
 70
     0
  9
$PUCSORGTOP
 10
0.0
 20
0.0
 30
0.0
  9
$PUCSORGBOTTOM
 10
0.0
 20
0.0
 30
0.0
  9
$PUCSORGLEFT
 10
0.0
 20
0.0
 30
0.0
  9
$PUCSORGRIGHT
 10
0.0
 20
0.0
 30
0.0
  9
$PUCSORGFRONT
 10
0.0
 20
0.0
 30
0.0
  9
$PUCSORGBACK
 10
0.0
 20
0.0
 30
0.0
  9
$USERI1
 70
     0
  9
$USERI2
 70
     0
  9
$USERI3
 70
     0
  9
$USERI4
 70
     0
  9
$USERI5
 70
     0
  9
$USERR1
 40
0.0
  9
$USERR2
 40
0.0
  9
$USERR3
 40
0.0
  9
$USERR4
 40
0.0
  9
$USERR5
 40
0.0
  9
$WORLDVIEW
 70
     1
  9
$SHADEDGE
 70
     3
  9
$SHADEDIF
 70
    70
  9
$TILEMODE
 70
     1
  9
$MAXACTVP
 70
    64
  9
$PINSBASE
 10
0.0
 20
0.0
 30
0.0
  9
$PLIMCHECK
 70
     0
  9
$PEXTMIN
 10
1.000000000000000E+20
 20
1.000000000000000E+20
 30
1.000000000000000E+20
  9
$PEXTMAX
 10
-1.000000000000000E+20
 20
-1.000000000000000E+20
 30
-1.000000000000000E+20
  9
$PLIMMIN
 10
0.0
 20
0.0
  9
$PLIMMAX
 10
420.0
 20
297.0
  9
$UNITMODE
 70
     0
  9
$VISRETAIN
 70
     1
  9
$PLINEGEN
 70
     0
  9
$PSLTSCALE
 70
     1
  9
$TREEDEPTH
 70
  3020
  9
$CMLSTYLE
  2
Standard
  9
$CMLJUST
 70
     0
  9
$CMLSCALE
 40
20.0
  9
$PROXYGRAPHICS
 70
     1
  9
$MEASUREMENT
 70
     1
  9
$CELWEIGHT
370
    -1
  9
$ENDCAPS
280
     0
  9
$JOINSTYLE
280
     0
  9
$LWDISPLAY
290
     0
  9
$INSUNITS
 70
     5
  9
$HYPERLINKBASE
  1

  9
$STYLESHEET
  1

  9
$XEDIT
290
     1
  9
$CEPSNTYPE
380
     0
  9
$PSTYLEMODE
290
     1
  9
$FINGERPRINTGUID
  2
{491A22BE-B035-494D-AAED-8B5E40F3F458}
  9
$VERSIONGUID
  2
{41A47761-F5F2-7440-8163-EBB4D8EA8FED}
  9
$EXTNAMES
290
     1
  9
$PSVPSCALE
 40
0.0
  9
$OLESTARTUP
290
     0
  9
$SORTENTS
280
   127
  9
$INDEXCTL
280
     0
  9
$HIDETEXT
280
     1
  9
$XCLIPFRAME
280
     2
  9
$HALOGAP
280
     0
  9
$OBSCOLOR
 70
   257
  9
$OBSLTYPE
280
     0
  9
$INTERSECTIONDISPLAY
280
     0
  9
$INTERSECTIONCOLOR
 70
   257
  9
$DIMASSOC
280
     2
  9
$PROJECTNAME
  1

  9
$CAMERADISPLAY
290
     0
  9
$LENSLENGTH
 40
50.0
  9
$CAMERAHEIGHT
 40
0.0
  9
$STEPSPERSEC
 40
2.0
  9
$STEPSIZE
 40
6.0
  9
$3DDWFPREC
 40
2.0
  9
$PSOLWIDTH
 40
5.0
  9
$PSOLHEIGHT
 40
80.0
  9
$LOFTANG1
 40
1.570796326794897
  9
$LOFTANG2
 40
1.570796326794897
  9
$LOFTMAG1
 40
0.0
  9
$LOFTMAG2
 40
0.0
  9
$LOFTPARAM
 70
     7
  9
$LOFTNORMALS
280
     1
  9
$LATITUDE
 40
37.795
  9
$LONGITUDE
 40
-122.394
  9
$NORTHDIRECTION
 40
0.0
  9
$TIMEZONE
 70
 -8000
  9
$LIGHTGLYPHDISPLAY
280
     1
  9
$TILEMODELIGHTSYNCH
280
     1
  9
$CMATERIAL
347
44
  9
$SOLIDHIST
280
     0
  9
$SHOWHIST
280
     1
  9
$DWFFRAME
280
     2
  9
$DGNFRAME
280
     2
  9
$REALWORLDSCALE
290
     1
  9
$INTERFERECOLOR
 62
   256
  9
$INTERFEREOBJVS
345
33
  9
$INTERFEREVPVS
346
30
  9
$CSHADOW
280
     0
  9
$SHADOWPLANELOCATION
 40
0.0
  0
ENDSEC
  0
SECTION
  2
CLASSES
  0
CLASS
  1
ACDBDICTIONARYWDFLT
  2
AcDbDictionaryWithDefault
  3
ObjectDBX Classes
 90
        0
 91
        1
280
     0
281
     0
  0
CLASS
  1
VISUALSTYLE
  2
AcDbVisualStyle
  3
ObjectDBX Classes
 90
     4095
 91
       25
280
     0
281
     0
  0
CLASS
  1
MATERIAL
  2
AcDbMaterial
  3
ObjectDBX Classes
 90
     1153
 91
        3
280
     0
281
     0
  0
CLASS
  1
SCALE
  2
AcDbScale
  3
ObjectDBX Classes
 90
     1153
 91
       33
280
     0
281
     0
  0
CLASS
  1
TABLESTYLE
  2
AcDbTableStyle
  3
ObjectDBX Classes
 90
     4095
 91
        1
280
     0
281
     0
  0
CLASS
  1
MLEADERSTYLE
  2
AcDbMLeaderStyle
  3
ACDB_MLEADERSTYLE_CLASS
 90
     4095
 91
        1
280
     0
281
     0
  0
CLASS
  1
SUN
  2
AcDbSun
  3
SCENEOE
 90
     1153
 91
        1
280
     0
281
     0
  0
CLASS
  1
DICTIONARYVAR
  2
AcDbDictionaryVar
  3
ObjectDBX Classes
 90
        0
 91
        7
280
     0
281
     0
  0
CLASS
  1
CELLSTYLEMAP
  2
AcDbCellStyleMap
  3
ObjectDBX Classes
 90
     1152
 91
        1
280
     0
281
     0
  0
CLASS
  1
ACDBSECTIONVIEWSTYLE
  2
AcDbSectionViewStyle
  3
ObjectDBX Classes
 90
     1025
 91
        1
280
     0
281
     0
  0
CLASS
  1
ACDBDETAILVIEWSTYLE
  2
AcDbDetailViewStyle
  3
ObjectDBX Classes
 90
     1025
 91
        1
280
     0
281
     0
  0
CLASS
  1
DIMASSOC
  2
AcDbDimAssoc
  3
"AcDbDimAssoc|Product Desc:     AcDim ARX App For Dimension|Company:          Autodesk, Inc.|WEB Address:      www.autodesk.com"
 90
        0
 91
        3
280
     0
281
     0
  0
CLASS
  1
SORTENTSTABLE
  2
AcDbSortentsTable
  3
ObjectDBX Classes
 90
        0
 91
        0
280
     0
281
     0
  0
ENDSEC
  0
SECTION
  2
TABLES
  0
TABLE
  2
VPORT
  5
8
330
0
100
AcDbSymbolTable
 70
     1
1001
ACAD
1000
DbSaveVer
1071
      224
  0
VPORT
  5
29
330
8
100
AcDbSymbolTableRecord
100
AcDbViewportTableRecord
  2
*Active
 70
     0
 10
0.0
 20
0.0
 11
1.0
 21
1.0
 12
775.8368431667435
 22
633.556326128545
 13
0.0
 23
0.0
 14
10.0
 24
10.0
 15
10.0
 25
10.0
 16
0.0
 26
0.0
 36
1.0
 17
0.0
 27
0.0
 37
0.0
 40
1556.783892990616
 41
2.078193832599119
 42
50.0
 43
0.0
 44
0.0
 50
0.0
 51
0.0
 71
     0
 72
   100
 73
     1
 74
     3
 75
     0
 76
     0
 77
     0
 78
     0
281
     0
 65
     1
110
0.0
120
0.0
130
0.0
111
1.0
121
0.0
131
0.0
112
0.0
122
1.0
132
0.0
 79
     0
146
0.0
348
2F
 60
     3
 61
     5
292
     1
282
     1
141
0.0
142
0.0
361
6D
1001
ACAD_NAV_VCDISPLAY
1070
     3
  0
ENDTAB
  0
TABLE
  2
LTYPE
  5
5
330
0
100
AcDbSymbolTable
 70
    11
  0
LTYPE
  5
14
330
5
100
AcDbSymbolTableRecord
100
AcDbLinetypeTableRecord
  2
ByBlock
 70
     0
  3

 72
    65
 73
     0
 40
0.0
  0
LTYPE
  5
15
330
5
100
AcDbSymbolTableRecord
100
AcDbLinetypeTableRecord
  2
ByLayer
 70
     0
  3

 72
    65
 73
     0
 40
0.0
  0
LTYPE
  5
16
330
5
100
AcDbSymbolTableRecord
100
AcDbLinetypeTableRecord
  2
Continuous
 70
     0
  3
Solid line
 72
    65
 73
     0
 40
0.0
  0
LTYPE
  5
6F
330
5
100
AcDbSymbolTableRecord
100
AcDbLinetypeTableRecord
  2
CUSTOM
 70
     0
  3

 72
    65
 73
     0
 40
0.0
  0
LTYPE
  5
70
330
5
100
AcDbSymbolTableRecord
100
AcDbLinetypeTableRecord
  2
SOLID
 70
     0
  3

 72
    65
 73
     0
 40
0.0
  0
LTYPE
  5
71
330
5
100
AcDbSymbolTableRecord
100
AcDbLinetypeTableRecord
  2
DASHED
 70
     0
  3

 72
    65
 73
     2
 40
4.253602097401779
 49
2.126801048700889
 74
     0
 49
-2.126801048700889
 74
     0
  0
LTYPE
  5
72
330
5
100
AcDbSymbolTableRecord
100
AcDbLinetypeTableRecord
  2
LONG_DASH
 70
     0
  3

 72
    65
 73
     2
 40
4.253602097401779
 49
3.190201573051335
 74
     0
 49
-1.063400524350444
 74
     0
  0
LTYPE
  5
73
330
5
100
AcDbSymbolTableRecord
100
AcDbLinetypeTableRecord
  2
SHORT_DASH
 70
     0
  3

 72
    65
 73
     4
 40
4.253602097401779
 49
0.8507204194803559
 74
     0
 49
-1.276080629220534
 74
     0
 49
0.8507204194803559
 74
     0
 49
-1.276080629220534
 74
     0
  0
LTYPE
  5
74
330
5
100
AcDbSymbolTableRecord
100
AcDbLinetypeTableRecord
  2
DOTTED
 70
     0
  3

 72
    65
 73
     8
 40
4.253602097401779
 49
0.212680104870089
 74
     0
 49
-0.8507204194803559
 74
     0
 49
0.212680104870089
 74
     0
 49
-0.8507204194803559
 74
     0
 49
0.212680104870089
 74
     0
 49
-0.8507204194803559
 74
     0
 49
0.212680104870089
 74
     0
 49
-0.8507204194803559
 74
     0
  0
LTYPE
  5
75
330
5
100
AcDbSymbolTableRecord
100
AcDbLinetypeTableRecord
  2
DOTDASH
 70
     0
  3

 72
    65
 73
     4
 40
4.253602097401779
 49
0.212680104870089
 74
     0
 49
-1.063400524350444
 74
     0
 49
1.9141209438308
 74
     0
 49
-1.063400524350444
 74
     0
  0
LTYPE
  5
76
330
5
100
AcDbSymbolTableRecord
100
AcDbLinetypeTableRecord
  2
DOTDOTDASH
 70
     0
  3

 72
    65
 73
     6
 40
4.253602097401779
 49
0.212680104870089
 74
     0
 49
-0.6380403146102671
 74
     0
 49
0.212680104870089
 74
     0
 49
-0.6380403146102671
 74
     0
 49
1.9141209438308
 74
     0
 49
-0.6380403146102671
 74
     0
  0
LTYPE
  5
77
330
5
100
AcDbSymbolTableRecord
100
AcDbLinetypeTableRecord
  2
DASHDASHDOT
 70
     0
  3

 72
    65
 73
     6
 40
4.253602097401779
 49
0.212680104870089
 74
     0
 49
-0.6380403146102671
 74
     0
 49
0.212680104870089
 74
     0
 49
-0.6380403146102671
 74
     0
 49
1.9141209438308
 74
     0
 49
-0.6380403146102671
 74
     0
  0
ENDTAB
  0
TABLE
  2
LAYER
  5
2
102
{ACAD_XDICTIONARY
360
7C8
102
}
330
0
100
AcDbSymbolTable
 70
     3
  0
LAYER
  5
10
330
2
100
AcDbSymbolTableRecord
100
AcDbLayerTableRecord
  2
0
 70
     0
 62
     7
  6
Continuous
370
    -3
390
F
347
46
348
0
  0
LAYER
  5
756
330
2
100
AcDbSymbolTableRecord
100
AcDbLayerTableRecord
  2
Defpoints
 70
     0
 62
     7
  6
Continuous
290
     0
370
    -3
390
F
347
46
348
0
  0
LAYER
  5
7C2
102
{ACAD_XDICTIONARY
360
7C3
102
}
330
2
100
AcDbSymbolTableRecord
100
AcDbLayerTableRecord
  2
HEWI
 70
     0
 62
   250
  6
Continuous
290
     0
370
    -3
390
F
347
46
348
0
  0
ENDTAB
  0
TABLE
  2
STYLE
  5
3
330
0
100
AcDbSymbolTable
 70
     2
  0
STYLE
  5
11
330
3
100
AcDbSymbolTableRecord
100
AcDbTextStyleTableRecord
  2
Standard
 70
     0
 40
0.0
 41
1.0
 50
0.0
 71
     0
 42
2.5
  3
txt
  4

  0
STYLE
  5
7C4
330
3
100
AcDbSymbolTableRecord
100
AcDbTextStyleTableRecord
  2
HEWI
 70
     0
 40
0.0
 41
1.0
 50
0.0
 71
     0
 42
90.0
  3
arial.ttf
  4

1001
ACAD
1000
Arial
1071
       34
  0
ENDTAB
  0
TABLE
  2
VIEW
  5
6
330
0
100
AcDbSymbolTable
 70
     0
  0
ENDTAB
  0
TABLE
  2
UCS
  5
7
330
0
100
AcDbSymbolTable
 70
     0
  0
ENDTAB
  0
TABLE
  2
APPID
  5
9
330
0
100
AcDbSymbolTable
 70
     4
  0
APPID
  5
12
330
9
100
AcDbSymbolTableRecord
100
AcDbRegAppTableRecord
  2
ACAD
 70
     0
  0
APPID
  5
110
330
9
100
AcDbSymbolTableRecord
100
AcDbRegAppTableRecord
  2
ACAD_NAV_VCDISPLAY
 70
     0
  0
APPID
  5
78A
330
9
100
AcDbSymbolTableRecord
100
AcDbRegAppTableRecord
  2
ACAD_EXEMPT_FROM_CAD_STANDARDS
 70
     0
  0
APPID
  5
7C6
330
9
100
AcDbSymbolTableRecord
100
AcDbRegAppTableRecord
  2
ACAD_PSEXT
 70
     0
  0
ENDTAB
  0
TABLE
  2
DIMSTYLE
  5
A
330
0
100
AcDbSymbolTable
 70
     3
100
AcDbDimStyleTable
 71
     1
340
27
  0
DIMSTYLE
105
27
330
A
100
AcDbSymbolTableRecord
100
AcDbDimStyleTableRecord
  2
ISO-25
 70
     0
 41
2.5
 42
0.625
 43
3.75
 44
1.25
 73
     0
 74
     0
 77
     1
 78
     8
140
2.5
141
2.5
143
0.03937007874016
147
0.625
171
     3
172
     1
271
     2
272
     2
274
     3
278
    44
283
     0
284
     8
340
11
  0
DIMSTYLE
105
7C5
330
A
100
AcDbSymbolTableRecord
100
AcDbDimStyleTableRecord
  2
STANDARD
 70
     0
340
11
  0
ENDTAB
  0
TABLE
  2
BLOCK_RECORD
  5
1
330
0
100
AcDbSymbolTable
 70
    11
  0
BLOCK_RECORD
  5
1F
330
1
100
AcDbSymbolTableRecord
100
AcDbBlockTableRecord
  2
*Model_Space
340
22
 70
     0
280
     1
281
     0
  0
BLOCK_RECORD
  5
1B
330
1
100
AcDbSymbolTableRecord
100
AcDbBlockTableRecord
  2
*Paper_Space
340
1E
 70
     0
280
     1
281
     0
  0
BLOCK_RECORD
  5
23
330
1
100
AcDbSymbolTableRecord
100
AcDbBlockTableRecord
  2
*Paper_Space0
340
26
 70
     0
280
     1
281
     0
  0
BLOCK_RECORD
  5
84A
330
1
100
AcDbSymbolTableRecord
100
AcDbBlockTableRecord
  2
*D5
340
0
 70
     0
280
     1
281
     0
  0
BLOCK_RECORD
  5
8AF
330
1
100
AcDbSymbolTableRecord
100
AcDbBlockTableRecord
  2
*D9
340
0
 70
     0
280
     1
281
     0
  0
BLOCK_RECORD
  5
8CA
330
1
100
AcDbSymbolTableRecord
100
AcDbBlockTableRecord
  2
*D10
340
0
 70
     0
280
     1
281
     0
  0
ENDTAB
  0
ENDSEC
  0
SECTION
  2
BLOCKS
  0
BLOCK
  5
20
330
1F
100
AcDbEntity
  8
0
100
AcDbBlockBegin
  2
*Model_Space
 70
     0
 10
0.0
 20
0.0
 30
0.0
  3
*Model_Space
  1

  0
ENDBLK
  5
21
330
1F
100
AcDbEntity
  8
0
100
AcDbBlockEnd
  0
BLOCK
  5
1C
330
1B
100
AcDbEntity
 67
     1
  8
0
100
AcDbBlockBegin
  2
*Paper_Space
 70
     0
 10
0.0
 20
0.0
 30
0.0
  3
*Paper_Space
  1

  0
ENDBLK
  5
1D
330
1B
100
AcDbEntity
 67
     1
  8
0
100
AcDbBlockEnd
  0
BLOCK
  5
24
330
23
100
AcDbEntity
 67
     1
  8
0
100
AcDbBlockBegin
  2
*Paper_Space0
 70
     0
 10
0.0
 20
0.0
 30
0.0
  3
*Paper_Space0
  1

  0
ENDBLK
  5
25
330
23
100
AcDbEntity
 67
     1
  8
0
100
AcDbBlockEnd
  0
BLOCK
  5
84B
330
84A
100
AcDbEntity
  8
0
100
AcDbBlockBegin
  2
*D5
 70
     1
 10
0.0
 20
0.0
 30
0.0
  3
*D5
  1

  0
LINE
  5
857
330
84A
100
AcDbEntity
  8
0
 62
     0
440
 16777216
370
    -2
100
AcDbLine
 10
677.2122030396576
 20
681.2367705846123
 30
0.0
 11
677.2122030396576
 21
556.5153340112228
 31
0.0
  0
LINE
  5
858
330
84A
100
AcDbEntity
  8
0
 62
     0
440
 16777216
370
    -2
100
AcDbLine
 10
710.2122030396576
 20
681.2367705846123
 30
0.0
 11
710.2122030396576
 21
556.5153340112228
 31
0.0
  0
LINE
  5
859
330
84A
100
AcDbEntity
  8
0
 62
     0
440
 16777216
370
    -2
100
AcDbLine
 10
679.7122030396576
 20
557.7653340112228
 30
0.0
 11
707.7122030396576
 21
557.7653340112228
 31
0.0
  0
SOLID
  5
85A
330
84A
100
AcDbEntity
  8
0
 62
     0
440
 16777216
100
AcDbTrace
 10
679.7122030396576
 20
558.1820006778895
 30
0.0
 11
679.7122030396576
 21
557.3486673445562
 31
0.0
 12
677.2122030396576
 22
557.7653340112228
 32
0.0
 13
677.2122030396576
 23
557.7653340112228
 33
0.0
  0
SOLID
  5
85B
330
84A
100
AcDbEntity
  8
0
 62
     0
440
 16777216
100
AcDbTrace
 10
707.7122030396576
 20
558.1820006778895
 30
0.0
 11
707.7122030396576
 21
557.3486673445562
 31
0.0
 12
710.2122030396576
 22
557.7653340112228
 32
0.0
 13
710.2122030396576
 23
557.7653340112228
 33
0.0
  0
MTEXT
  5
85C
330
84A
100
AcDbEntity
  8
0
 62
     0
440
 16777216
100
AcDbMText
 10
693.7122030396576
 20
559.6403340112228
 30
0.0
 40
2.5
 41
0.0
 46
0.0
 71
     5
 72
     1
  1
33
 73
     1
 44
1.0
  0
POINT
  5
85D
330
84A
100
AcDbEntity
  8
Defpoints
 62
     0
440
 16777216
100
AcDbPoint
 10
677.2122030396576
 20
681.8617705846123
 30
-0.000000000000002
  0
POINT
  5
85E
330
84A
100
AcDbEntity
  8
Defpoints
 62
     0
440
 16777216
100
AcDbPoint
 10
710.2122030396576
 20
681.8617705846123
 30
0.000000000000002
  0
POINT
  5
85F
330
84A
100
AcDbEntity
  8
Defpoints
 62
     0
440
 16777216
100
AcDbPoint
 10
710.2122030396576
 20
557.7653340112228
 30
0.0
  0
ENDBLK
  5
84C
330
84A
100
AcDbEntity
  8
0
100
AcDbBlockEnd
  0
BLOCK
  5
8B0
330
8AF
100
AcDbEntity
  8
0
100
AcDbBlockBegin
  2
*D9
 70
     1
 10
0.0
 20
0.0
 30
0.0
  3
*D9
  1

  0
LINE
  5
8BC
330
8AF
100
AcDbEntity
  8
0
 62
     0
440
 16777216
370
    -2
100
AcDbLine
 10
1315.243961192472
 20
293.9186048867247
 30
0.0
 11
1315.243961192472
 21
384.7293433245368
 31
0.0
  0
LINE
  5
8BD
330
8AF
100
AcDbEntity
  8
0
 62
     0
440
 16777216
370
    -2
100
AcDbLine
 10
714.629802421668
 20
293.9186048867247
 30
0.0
 11
714.629802421668
 21
384.7293433245368
 31
0.0
  0
LINE
  5
8BE
330
8AF
100
AcDbEntity
  8
0
 62
     0
440
 16777216
370
    -2
100
AcDbLine
 10
1312.743961192472
 20
383.4793433245368
 30
0.0
 11
717.129802421668
 21
383.4793433245368
 31
0.0
  0
SOLID
  5
8BF
330
8AF
100
AcDbEntity
  8
0
 62
     0
440
 16777216
100
AcDbTrace
 10
1312.743961192472
 20
383.8960099912035
 30
0.0
 11
1312.743961192472
 21
383.0626766578701
 31
0.0
 12
1315.243961192472
 22
383.4793433245368
 32
0.0
 13
1315.243961192472
 23
383.4793433245368
 33
0.0
  0
SOLID
  5
8C0
330
8AF
100
AcDbEntity
  8
0
 62
     0
440
 16777216
100
AcDbTrace
 10
717.129802421668
 20
383.8960099912035
 30
0.0
 11
717.129802421668
 21
383.0626766578701
 31
0.0
 12
714.629802421668
 22
383.4793433245368
 32
0.0
 13
714.629802421668
 23
383.4793433245368
 33
0.0
  0
MTEXT
  5
8C1
330
8AF
100
AcDbEntity
  8
0
 62
     0
440
 16777216
100
AcDbMText
 10
1014.93688180707
 20
385.5626766578701
 30
0.0
 40
2.5
 41
0.0
 46
0.0
 71
     5
 72
     1
  1
600,61
 73
     1
 44
1.0
  0
POINT
  5
8C2
330
8AF
100
AcDbEntity
  8
Defpoints
 62
     0
440
 16777216
100
AcDbPoint
 10
1315.243961192472
 20
293.2936048867247
 30
0.0
  0
POINT
  5
8C3
330
8AF
100
AcDbEntity
  8
Defpoints
 62
     0
440
 16777216
100
AcDbPoint
 10
714.629802421668
 20
293.2936048867247
 30
0.0
  0
POINT
  5
8C4
330
8AF
100
AcDbEntity
  8
Defpoints
 62
     0
440
 16777216
100
AcDbPoint
 10
714.629802421668
 20
383.4793433245368
 30
0.0
  0
ENDBLK
  5
8B1
330
8AF
100
AcDbEntity
  8
0
100
AcDbBlockEnd
  0
BLOCK
  5
8CB
330
8CA
100
AcDbEntity
  8
0
100
AcDbBlockBegin
  2
*D10
 70
     1
 10
0.0
 20
0.0
 30
0.0
  3
*D10
  1

  0
LINE
  5
8D7
330
8CA
100
AcDbEntity
  8
0
 62
     0
440
 16777216
370
    -2
100
AcDbLine
 10
558.480748293046
 20
458.0714842548255
 30
0.0
 11
597.6728829698871
 21
458.0714842548255
 31
0.0
  0
LINE
  5
8D8
330
8CA
100
AcDbEntity
  8
0
 62
     0
440
 16777216
370
    -2
100
AcDbLine
 10
558.4807482930457
 20
-142.5489295490804
 30
0.0
 11
597.6728829698872
 21
-142.5489295490804
 31
0.0
  0
LINE
  5
8D9
330
8CA
100
AcDbEntity
  8
0
 62
     0
440
 16777216
370
    -2
100
AcDbLine
 10
596.4228829698871
 20
455.5714842548256
 30
0.0
 11
596.4228829698872
 21
-140.0489295490804
 31
0.0
  0
SOLID
  5
8DA
330
8CA
100
AcDbEntity
  8
0
 62
     0
440
 16777216
100
AcDbTrace
 10
596.0062163032205
 20
455.5714842548256
 30
0.0
 11
596.8395496365538
 21
455.5714842548256
 31
0.0
 12
596.4228829698871
 22
458.0714842548255
 32
0.0
 13
596.4228829698871
 23
458.0714842548255
 33
0.0
  0
SOLID
  5
8DB
330
8CA
100
AcDbEntity
  8
0
 62
     0
440
 16777216
100
AcDbTrace
 10
596.0062163032206
 20
-140.0489295490804
 30
0.0
 11
596.8395496365539
 21
-140.0489295490804
 31
0.0
 12
596.4228829698872
 22
-142.5489295490804
 32
0.0
 13
596.4228829698872
 23
-142.5489295490804
 33
0.0
  0
MTEXT
  5
8DC
330
8CA
100
AcDbEntity
  8
0
 62
     0
440
 16777216
100
AcDbMText
 10
594.3395496365537
 20
157.7612773528724
 30
0.0
 40
2.5
 41
0.0
 46
0.0
 71
     5
 72
     1
  1
600,62
 11
0.0000000000000001
 21
1.0
 31
0.0
 73
     1
 44
1.0
  0
POINT
  5
8DD
330
8CA
100
AcDbEntity
  8
Defpoints
 62
     0
440
 16777216
100
AcDbPoint
 10
557.855748293046
 20
458.0714842548255
 30
0.0
  0
POINT
  5
8DE
330
8CA
100
AcDbEntity
  8
Defpoints
 62
     0
440
 16777216
100
AcDbPoint
 10
557.8557482930457
 20
-142.5489295490804
 30
0.0
  0
POINT
  5
8DF
330
8CA
100
AcDbEntity
  8
Defpoints
 62
     0
440
 16777216
100
AcDbPoint
 10
596.4228829698872
 20
-142.5489295490804
 30
0.0
  0
ENDBLK
  5
8CC
330
8CA
100
AcDbEntity
  8
0
100
AcDbBlockEnd
  0
ENDSEC
  0
SECTION
  2
ENTITIES
  0
LWPOLYLINE
  5
78
330
1F
100
AcDbEntity
  8
HEWI
  6
CUSTOM
370
     9
100
AcDbPolyline
 90
       32
 70
     0
 43
0.0
 10
134.0185958976503
 20
642.3748973509503
 10
134.0185958976503
 20
642.6381542766559
 10
134.0185958976503
 20
643.4147242522508
 10
134.0185958976503
 20
644.6656668164867
 10
134.0185958976503
 20
646.3282544857094
 10
134.0185958976503
 20
648.3191181718246
 10
134.0185958976503
 20
650.5384276564864
 10
134.0185958976503
 20
652.8748974951047
 10
134.0185958976503
 20
657.8748975637497
 10
133.9935238103494
 20
657.8748975637497
 10
133.9195647675952
 20
657.8748975637497
 10
133.8004273846176
 20
657.8748975637497
 10
133.6420857072739
 20
657.8748975637497
 10
133.4524796484434
 20
657.8748975637497
 10
133.2411168476411
 20
657.8748975637497
 10
133.0185959182734
 20
657.8748975637497
 10
57.01859748565539
 20
657.8748975637498
 10
56.79607655628911
 20
657.8748975637498
 10
56.58471375548583
 20
657.8748975637498
 10
56.39510769665526
 20
657.8748975637498
 10
56.23676601931151
 20
657.8748975637498
 10
56.11762863633464
 20
657.8748975637498
 10
56.04366959357992
 20
657.8748975637498
 10
56.01859750627887
 20
657.8748975637498
 10
56.01859750627887
 20
652.8748974951049
 10
56.01859750627887
 20
650.5384276564864
 10
56.01859750627887
 20
648.3191181718247
 10
56.01859750627887
 20
646.3282544857094
 10
56.01859750627887
 20
644.6656668164867
 10
56.01859750627887
 20
643.4147242522509
 10
56.01859750627887
 20
642.6381542766559
 10
56.01859750627887
 20
642.3748973509503
  0
LWPOLYLINE
  5
79
330
1F
100
AcDbEntity
  8
HEWI
  6
CUSTOM
370
     9
100
AcDbPolyline
 90
        8
 70
     0
 43
0.0
 10
57.01859748565539
 20
641.374897337222
 10
56.79607655628911
 20
641.3999694253842
 10
56.58471375548583
 20
641.4739284706793
 10
56.39510769665526
 20
641.5930658577488
 10
56.23676601931151
 20
641.7514075405323
 10
56.11762863633464
 20
641.9410136058765
 10
56.04366959357992
 20
642.1523764139396
 10
56.01859750627887
 20
642.3748973509503
  0
LINE
  5
7A
330
1F
100
AcDbEntity
  8
HEWI
  6
CUSTOM
370
     9
100
AcDbLine
 10
56.01935345403467
 20
641.3749275751334
 30
0.0
 11
56.01913223120255
 21
641.3750121710726
 31
0.0
  0
LINE
  5
7B
330
1F
100
AcDbEntity
  8
HEWI
  6
CUSTOM
370
     9
100
AcDbLine
 10
134.0185958976503
 20
641.3758973372353
 30
0.0
 11
134.0185958976503
 21
642.3748973509503
 31
0.0
  0
LWPOLYLINE
  5
7C
330
1F
100
AcDbEntity
  8
HEWI
  6
CUSTOM
370
     9
100
AcDbPolyline
 90
        8
 70
     0
 43
0.0
 10
134.0185958976503
 20
642.3748973509503
 10
133.9935238103494
 20
642.1523764139396
 10
133.9195647675952
 20
641.9410136058764
 10
133.8004273846176
 20
641.7514075405322
 10
133.6420857072739
 20
641.5930658577488
 10
133.4524796484434
 20
641.4739284706793
 10
133.2411168476411
 20
641.3999694253841
 10
133.0185959182734
 20
641.3748973372219
  0
LINE
  5
7D
330
1F
100
AcDbEntity
  8
HEWI
  6
CUSTOM
370
     9
100
AcDbLine
 10
133.0185959182734
 20
641.3748973372219
 30
0.0
 11
134.0175958976707
 21
641.3748973372219
 31
0.0
  0
LINE
  5
7E
330
1F
100
AcDbEntity
  8
HEWI
  6
CUSTOM
370
     9
100
AcDbLine
 10
56.01859750627887
 20
642.3748973509503
 30
0.0
 11
56.01859750627887
 21
641.3758973372353
 31
0.0
  0
LINE
  5
7F
330
1F
100
AcDbEntity
  8
HEWI
  6
CUSTOM
370
     9
100
AcDbLine
 10
57.01859748565539
 20
641.374897337222
 30
0.0
 11
133.0185959182734
 21
641.3748973372219
 31
0.0
  0
LWPOLYLINE
  5
80
330
1F
100
AcDbEntity
  8
HEWI
  6
CUSTOM
370
     9
100
AcDbPolyline
 90
        3
 70
     0
 43
0.0
 10
117.5185962379365
 20
641.3748973372219
 10
117.5185962379365
 20
616.8748970008611
 10
117.7185961920886
 20
616.8748970008611
  0
LINE
  5
81
330
1F
100
AcDbEntity
  8
HEWI
  6
CUSTOM
370
     9
100
AcDbLine
 10
134.0178399498946
 20
641.3749275751333
 30
0.0
 11
134.0180611727266
 21
641.3750121710725
 31
0.0
  0
LINE
  5
82
330
1F
100
AcDbEntity
  8
HEWI
  6
CUSTOM
370
     9
100
AcDbLine
 10
56.01959750625837
 20
641.374897337222
 30
0.0
 11
57.01859748565539
 21
641.374897337222
 31
0.0
  0
LWPOLYLINE
  5
83
330
1F
100
AcDbEntity
  8
HEWI
  6
CUSTOM
370
     9
100
AcDbPolyline
 90
        3
 70
     0
 43
0.0
 10
56.11326205829527
 20
641.9534925687437
 10
56.10639782845487
 20
641.9651513861256
 10
56.10199859544571
 20
641.9856816977366
  0
LWPOLYLINE
  5
84
330
1F
100
AcDbEntity
  8
HEWI
  6
CUSTOM
370
     9
100
AcDbPolyline
 90
        3
 70
     0
 43
0.0
 10
56.16494154160921
 20
641.8657155460671
 10
56.21772774028648
 20
641.7760587797617
 10
56.22846357933759
 20
641.7646207987424
  0
LWPOLYLINE
  5
85
330
1F
100
AcDbEntity
  8
HEWI
  6
CUSTOM
370
     9
100
AcDbPolyline
 90
       10
 70
     0
 43
0.0
 10
117.5185962379365
 20
625.0421582932017
 10
117.5185962379365
 20
619.7171065156855
 10
117.5185962379365
 20
614.2326874887726
 10
117.5185962379365
 20
608.907635711256
 10
117.5185962379365
 20
604.0514238366695
 10
117.5185962379365
 20
599.9462772475506
 10
117.5185962379365
 20
596.8307721420599
 10
117.5185962379365
 20
594.8859703525281
 10
117.5185962379365
 20
594.2248966898951
 10
116.1421092347314
 20
594.2248966898951
  0
LWPOLYLINE
  5
87
330
1F
100
AcDbEntity
  8
HEWI
  6
CUSTOM
370
     9
100
AcDbPolyline
 90
        3
 70
     0
 43
0.0
 10
133.4679249781991
 20
641.4836334160083
 10
133.4838709740226
 20
641.4897311885368
 10
133.5656197429803
 20
641.5450191061554
  0
LWPOLYLINE
  5
88
330
1F
100
AcDbEntity
  8
HEWI
  6
CUSTOM
370
     9
100
AcDbPolyline
 90
       19
 70
     0
 43
0.0
 10
72.51859716599176
 20
639.7248973145634
 10
86.8203479163966
 20
639.7242094242913
 10
86.99797093290158
 20
639.6575575032386
 10
87.4506084419686
 20
639.4995453172298
 10
88.15500797954474
 20
639.2750112675135
 10
89.08791708157981
 20
639.0087937553398
 10
90.22360537997508
 20
638.7333262901002
 10
91.5245000474332
 20
638.4880231305378
 10
92.94964988247603
 20
638.3019136716852
 10
93.97125464197108
 20
638.223777950046
 10
95.01859670196415
 20
638.1957007656335
 10
96.89880523308113
 20
638.2841181314529
 10
98.66094453131996
 20
638.5126512239398
 10
100.2248769535467
 20
638.8262215356417
 10
101.5128470146128
 20
639.1657235500083
 10
102.4701607362998
 20
639.4609299748135
 10
103.0522615131471
 20
639.662386021552
 10
103.2182959103374
 20
639.7247770737144
 10
117.5185962379365
 20
639.7248973145633
  0
LWPOLYLINE
  5
89
330
1F
100
AcDbEntity
  8
HEWI
  6
CUSTOM
370
     9
100
AcDbPolyline
 90
        3
 70
     0
 43
0.0
 10
133.8722518590018
 20
641.8657155404316
 10
133.8194656636425
 20
641.7760587797616
 10
133.8087298223186
 20
641.7646207963205
  0
LINE
  5
8A
330
1F
100
AcDbEntity
  8
HEWI
  6
CUSTOM
370
     9
100
AcDbLine
 10
116.1421092347314
 20
594.2248966898951
 30
0.0
 11
115.5975270391127
 21
594.2982031069464
 31
0.0
  0
LWPOLYLINE
  5
8B
330
1F
100
AcDbEntity
  8
HEWI
  6
CUSTOM
370
     9
100
AcDbPolyline
 90
        3
 70
     0
 43
0.0
 10
56.30355064424998
 20
641.6846229132326
 10
56.37028981272727
 20
641.6135188906544
 10
56.38377468609963
 20
641.6043988686943
  0
LWPOLYLINE
  5
8D
330
1F
100
AcDbEntity
  8
HEWI
  6
CUSTOM
370
     9
100
AcDbPolyline
 90
       11
 70
     0
 43
0.0
 10
73.90757926010497
 20
594.2248769979488
 10
73.89499458137573
 20
594.2248966898951
 10
72.51859716599176
 20
594.2248966898951
 10
72.51859716599176
 20
594.8859703525281
 10
72.51859716599176
 20
596.8307721420599
 10
72.51859716599176
 20
599.9462772475506
 10
72.51859716599176
 20
604.0514238366696
 10
72.51859716599176
 20
608.9076357112561
 10
72.51859716599176
 20
614.2326874887727
 10
72.51859716599176
 20
619.7171065156857
 10
72.51859716599176
 20
625.0421582932017
  0
LWPOLYLINE
  5
8E
330
1F
100
AcDbEntity
  8
HEWI
  6
CUSTOM
370
     9
100
AcDbPolyline
 90
        3
 70
     1
 43
0.0
 10
115.5975270391127
 20
594.2982031069464
 10
114.8406038747014
 20
594.5032457247077
 10
115.053052162961
 20
594.4360169821757
  0
LWPOLYLINE
  5
8F
330
1F
100
AcDbEntity
  8
HEWI
  6
CUSTOM
370
     9
100
AcDbPolyline
 90
        3
 70
     0
 43
0.0
 10
56.5692684257308
 20
641.4836334160085
 10
56.55332242990721
 20
641.4897311885368
 10
56.47157365549469
 20
641.5450191098448
  0
LWPOLYLINE
  5
90
330
1F
100
AcDbEntity
  8
HEWI
  6
CUSTOM
370
     9
100
AcDbPolyline
 90
        3
 70
     0
 43
0.0
 10
133.6534187219215
 20
641.6043988714611
 10
133.6669035912025
 20
641.6135188906544
 10
133.7336427596794
 20
641.6846229132326
  0
LWPOLYLINE
  5
91
330
1F
100
AcDbEntity
  8
HEWI
  6
CUSTOM
370
     9
100
AcDbPolyline
 90
        3
 70
     0
 43
0.0
 10
133.2521696547288
 20
641.4038369707277
 10
133.2626481421481
 20
641.4051352484802
 10
133.3355496404162
 20
641.4330128898848
  0
LWPOLYLINE
  5
93
330
1F
100
AcDbEntity
  8
HEWI
  6
CUSTOM
370
     9
100
AcDbPolyline
 90
        3
 70
     0
 43
0.0
 10
72.31859717458679
 20
616.8748970008613
 10
72.51859716599176
 20
616.8748970008613
 10
72.51859716599176
 20
641.374897337222
  0
LWPOLYLINE
  5
94
330
1F
100
AcDbEntity
  8
HEWI
  6
CUSTOM
370
     9
100
AcDbPolyline
 90
        3
 70
     0
 43
0.0
 10
133.9351948084836
 20
641.9856816977366
 10
133.9307955754743
 20
641.9651513861256
 10
133.9239313452192
 20
641.9534925680391
  0
LWPOLYLINE
  5
96
330
1F
100
AcDbEntity
  8
HEWI
  6
CUSTOM
370
     9
100
AcDbPolyline
 90
        3
 70
     0
 43
0.0
 10
56.70164376351294
 20
641.4330128898849
 10
56.77454526178087
 20
641.4051352484802
 10
56.78502374556365
 20
641.4038369711784
  0
LINE
  5
98
330
1F
100
AcDbEntity
  8
HEWI
  6
CUSTOM
370
     9
100
AcDbLine
 10
100.5788985911679
 20
638.9195397445885
 30
0.0
 11
100.076598856239
 21
638.7964916020348
 31
0.0
  0
LWPOLYLINE
  5
99
330
1F
100
AcDbEntity
  8
HEWI
  6
CUSTOM
370
     9
100
AcDbPolyline
 90
        7
 70
     0
 43
0.0
 10
106.4167699332744
 20
641.374897334721
 10
106.6166349561232
 20
641.1583944349644
 10
106.837443460275
 20
640.7742145901104
 10
106.9649512123699
 20
640.3679586112134
 10
106.9959056972893
 20
640.1537569132847
 10
107.0146652094026
 20
639.9899168776196
 10
107.0146652094026
 20
639.7248079615308
  0
LINE
  5
9A
330
1F
100
AcDbEntity
  8
HEWI
  6
CUSTOM
370
     9
100
AcDbLine
 10
98.98713656253324
 20
638.5780531143303
 30
0.0
 11
98.60913166288515
 21
638.5059315784944
 31
0.0
  0
LINE
  5
9B
330
1F
100
AcDbEntity
  8
HEWI
  6
CUSTOM
370
     9
100
AcDbLine
 10
90.80464358395033
 20
638.6237628405853
 30
0.0
 11
90.08068403566268
 21
638.7679926520943
 31
0.0
  0
LINE
  5
9C
330
1F
100
AcDbEntity
  8
HEWI
  6
CUSTOM
370
     9
100
AcDbLine
 10
97.03746813503062
 20
638.3021014215871
 30
0.0
 11
96.52638252123313
 21
638.2666048429937
 31
0.0
  0
LINE
  5
9D
330
1F
100
AcDbEntity
  8
HEWI
  6
CUSTOM
370
     9
100
AcDbLine
 10
89.50207230164755
 20
638.9083381208211
 30
0.0
 11
88.95677076756362
 21
639.0462180287579
 31
0.0
  0
LINE
  5
9F
330
1F
100
AcDbEntity
  8
HEWI
  6
CUSTOM
370
     9
100
AcDbLine
 10
88.46423090520749
 20
639.1867705614181
 30
0.0
 11
88.0673318562458
 21
639.3029588654019
 31
0.0
  0
LINE
  5
A0
330
1F
100
AcDbEntity
  8
HEWI
  6
CUSTOM
370
     9
100
AcDbLine
 10
87.63860455935605
 20
639.4396197674828
 30
0.0
 11
87.39486276733021
 21
639.5190056927276
 31
0.0
  0
LWPOLYLINE
  5
A3
330
1F
100
AcDbEntity
  8
HEWI
  6
CUSTOM
370
     9
100
AcDbPolyline
 90
        7
 70
     0
 43
0.0
 10
110.4032535751802
 20
589.4834711331728
 10
110.8114865757834
 20
589.3260631577398
 10
111.0067185014202
 20
589.2569294641592
 10
111.2304900195058
 20
589.2357972874073
 10
111.3820799144926
 20
589.2530126139501
 10
111.5002687626041
 20
589.39691830124
 10
112.1313732809482
 20
591.825424155254
  0
LWPOLYLINE
  5
A4
330
1F
100
AcDbEntity
  8
HEWI
  6
CUSTOM
370
     9
100
AcDbPolyline
 90
        3
 70
     0
 43
0.0
 10
116.1421092347314
 20
594.2248966898951
 10
115.838717400728
 20
594.2505237542932
 10
115.5975270391127
 20
594.2982031069464
  0
LWPOLYLINE
  5
A5
330
1F
100
AcDbEntity
  8
HEWI
  6
CUSTOM
370
     9
100
AcDbPolyline
 90
        6
 70
     0
 43
0.0
 10
77.9149488647098
 20
591.795326427924
 10
78.54074607325128
 20
589.3887371040618
 10
78.56415141362993
 20
589.3315121015356
 10
78.63607333173717
 20
589.2737397698274
 10
78.83946302973413
 20
589.2261286199666
 10
78.80669153288454
 20
589.2357965675334
  0
LINE
  5
A6
330
1F
100
AcDbEntity
  8
HEWI
  6
CUSTOM
370
     9
100
AcDbLine
 10
102.5405656003031
 20
639.4852960058642
 30
0.0
 11
102.3246056432369
 21
639.416045212778
 31
0.0
  0
LINE
  5
A7
330
1F
100
AcDbEntity
  8
HEWI
  6
CUSTOM
370
     9
100
AcDbLine
 10
101.7008476822732
 20
639.2236972361254
 30
0.0
 11
101.3473659989438
 21
639.1221036399258
 31
0.0
  0
LINE
  5
A8
330
1F
100
AcDbEntity
  8
HEWI
  6
CUSTOM
370
     9
100
AcDbLine
 10
87.09076203001336
 20
639.6251648627139
 30
0.0
 11
86.96546457930287
 21
639.6697553082926
 31
0.0
  0
LWPOLYLINE
  5
AA
330
1F
100
AcDbEntity
  8
HEWI
  6
CUSTOM
370
     9
100
AcDbPolyline
 90
        5
 70
     0
 43
0.0
 10
83.05456206760345
 20
639.7243905839552
 10
83.05573907838924
 20
639.9301175695236
 10
83.20559767671317
 20
640.769355849663
 10
83.42584744048611
 20
641.1549759879733
 10
83.62797374715865
 20
641.3748973309277
  0
LINE
  5
AB
330
1F
100
AcDbEntity
  8
HEWI
  6
CUSTOM
370
     9
100
AcDbLine
 10
116.1295987074696
 20
594.2248775850528
 30
0.0
 11
116.1421092347314
 21
594.2248966898951
 31
0.0
  0
LINE
  5
AF
330
1F
100
AcDbEntity
  8
HEWI
  6
CUSTOM
370
     9
100
AcDbLine
 10
77.93591640394857
 20
591.7743818185247
 30
0.0
 11
76.07098968490618
 21
593.6372653698117
 31
0.0
  0
LWPOLYLINE
  5
B0
330
1F
100
AcDbEntity
  8
HEWI
  6
CUSTOM
370
     9
100
AcDbPolyline
 90
       12
 70
     0
 43
0.0
 10
78.99755794448686
 20
579.9748964942558
 10
80.40777947717254
 20
579.9748964942558
 10
82.66728935858282
 20
579.9748964942558
 10
85.64474822647616
 20
579.9748964942558
 10
89.16708423371574
 20
579.9748964942558
 10
93.02955325919958
 20
579.9748964942558
 10
97.00764014472952
 20
579.9748964942558
 10
100.8701091702135
 20
579.9748964942558
 10
104.392445177453
 20
579.9748964942558
 10
107.3699040453467
 20
579.9748964942558
 10
109.6294139267563
 20
579.9748964942558
 10
111.0396354594425
 20
579.9748964942558
  0
LINE
  5
B1
330
1F
100
AcDbEntity
  8
HEWI
  6
CUSTOM
370
     9
100
AcDbLine
 10
117.7185961920886
 20
596.7248967242176
 30
0.0
 11
117.5185962379365
 21
596.7248967242176
 31
0.0
  0
LINE
  5
B2
330
1F
100
AcDbEntity
  8
HEWI
  6
CUSTOM
370
     9
100
AcDbLine
 10
78.51899533224457
 20
59.97488935518322
 30
0.0
 11
78.51859722643166
 21
59.97488935518322
 31
0.0
  0
LINE
  5
B4
330
1F
100
AcDbEntity
  8
HEWI
  6
CUSTOM
370
     9
100
AcDbLine
 10
113.908547245433
 20
593.6192581019245
 30
0.0
 11
116.2395575926932
 21
594.2248966750537
 31
0.0
  0
LINE
  5
B5
330
1F
100
AcDbEntity
  8
HEWI
  6
CUSTOM
370
     9
100
AcDbLine
 10
78.51859722643166
 20
59.97488935518322
 30
0.0
 11
78.51859722643178
 21
579.9748964942558
 31
0.0
  0
LINE
  5
B6
330
1F
100
AcDbEntity
  8
HEWI
  6
CUSTOM
370
     9
100
AcDbLine
 10
76.10687729454184
 20
593.6279567992405
 30
0.0
 11
73.80546877328345
 21
594.224896676722
 31
0.0
  0
LINE
  5
B7
330
1F
100
AcDbEntity
  8
HEWI
  6
CUSTOM
370
     9
100
AcDbLine
 10
112.1297641160804
 20
591.8238225372942
 30
0.0
 11
113.9425669475454
 21
593.6280970665429
 31
0.0
  0
LINE
  5
B8
330
1F
100
AcDbEntity
  8
HEWI
  6
CUSTOM
370
     9
100
AcDbLine
 10
92.17428384904371
 20
638.4031682550207
 30
0.0
 11
91.35165890328698
 21
638.5206149135845
 31
0.0
  0
LINE
  5
B9
330
1F
100
AcDbEntity
  8
HEWI
  6
CUSTOM
370
     9
100
AcDbLine
 10
111.515335848488
 20
589.4548968203742
 30
0.0
 11
111.5089445193259
 21
579.9748964942564
 31
0.0
  0
LINE
  5
BA
330
1F
100
AcDbEntity
  8
HEWI
  6
CUSTOM
370
     9
100
AcDbLine
 10
94.07971002518809
 20
638.2208704742711
 30
0.0
 11
92.77044491742106
 21
638.3253159396661
 31
0.0
  0
LINE
  5
BB
330
1F
100
AcDbEntity
  8
HEWI
  6
CUSTOM
370
     9
100
AcDbLine
 10
111.5185961774972
 20
59.97488935518322
 30
0.0
 11
111.5185961774973
 21
579.9748964942558
 31
0.0
  0
LINE
  5
BC
330
1F
100
AcDbEntity
  8
HEWI
  6
CUSTOM
370
     9
100
AcDbLine
 10
111.5181980924487
 20
59.97488935518322
 30
0.0
 11
111.5185961774972
 21
59.97488935518322
 31
0.0
  0
LINE
  5
BD
330
1F
100
AcDbEntity
  8
HEWI
  6
CUSTOM
370
     9
100
AcDbLine
 10
95.29979922261338
 20
638.2089243974114
 30
0.0
 11
94.30465060796757
 21
638.2148402586365
 31
0.0
  0
LINE
  5
BE
330
1F
100
AcDbEntity
  8
HEWI
  6
CUSTOM
370
     9
100
AcDbLine
 10
78.53901398729362
 20
589.395398076672
 30
0.0
 11
78.52824888460259
 21
579.9748964942564
 31
0.0
  0
LINE
  5
BF
330
1F
100
AcDbEntity
  8
HEWI
  6
CUSTOM
370
     9
100
AcDbLine
 10
72.51859716599176
 20
596.7248967242176
 30
0.0
 11
72.31859717458679
 21
596.7248967242176
 31
0.0
  0
LWPOLYLINE
  5
C3
330
1F
100
AcDbEntity
  8
HEWI
  6
CUSTOM
370
     9
100
AcDbPolyline
 90
        4
 70
     0
 43
0.0
 10
95.8320617663411
 20
57.25699441991309
 10
95.94413682590005
 20
57.25894714784818
 10
97.83251063110753
 20
57.29465298913033
 10
100.350436896973
 20
57.34486053042224
  0
LWPOLYLINE
  5
C6
330
1F
100
AcDbEntity
  8
HEWI
  6
CUSTOM
370
     9
100
AcDbPolyline
 90
       20
 70
     0
 43
0.0
 10
95.8320617663411
 20
57.25699441991309
 10
95.01859670196404
 20
57.2544837598441
 10
94.20513163758778
 20
57.25699441991309
 10
93.76061831954496
 20
57.25894714784818
 10
93.22487615664783
 20
57.26452633352733
 10
92.14142172087248
 20
57.27707930091629
 10
91.1197164468855
 20
57.29465298913033
 10
90.52359866240534
 20
57.30915784592117
 10
88.60852586548423
 20
57.36605793726425
 10
87.22748643265493
 20
57.41514363073111
 10
85.38978850579406
 20
57.50549483350596
 10
83.38845587099251
 20
57.61590455310829
 10
79.4362886804563
 20
57.89685056113808
 10
79.19411264694748
 20
57.94756589856319
 10
78.97180010254044
 20
58.05619240655232
 10
78.78296524493896
 20
58.21607590382632
 10
78.63916693614772
 20
58.41742978028332
 10
78.5492071883275
 20
58.64792887410022
 10
78.51859704225114
 20
58.89345748664528
 10
78.518995322357
 20
59.97488935518322
  0
LWPOLYLINE
  5
C7
330
1F
100
AcDbEntity
  8
HEWI
  6
CUSTOM
370
     9
100
AcDbPolyline
 90
       12
 70
     0
 43
0.0
 10
95.8320617663411
 20
57.25699441991309
 10
96.81231724728105
 20
57.26452633352733
 10
97.61826083836139
 20
57.27233710140126
 10
99.77322195002841
 20
57.31724693205524
 10
102.8097069712732
 20
57.41514363073111
 10
104.751252725003
 20
57.50549483350596
 10
108.638532418637
 20
57.74636107583114
 10
110.5476832414532
 20
57.89685056113808
 10
111.0521565184734
 20
58.05619185684623
 10
111.3845163609895
 20
58.41743037108518
 10
111.5049863001708
 20
58.89345748664528
 10
111.5181980815712
 20
59.97488935518322
  0
LINE
  5
CC
330
1F
100
AcDbEntity
  8
HEWI
  6
CUSTOM
370
     9
100
AcDbLine
 10
125.2685960781048
 20
657.9748975651173
 30
0.0
 11
120.7685961709108
 21
657.9748975651173
 31
0.0
  0
LINE
  5
CD
330
1F
100
AcDbEntity
  8
HEWI
  6
CUSTOM
370
     9
100
AcDbLine
 10
120.7685961709108
 20
657.9748975651173
 30
0.0
 11
69.26859723301845
 21
657.9748975651174
 31
0.0
  0
LWPOLYLINE
  5
CE
330
1F
100
AcDbEntity
  8
HEWI
  6
CUSTOM
370
     9
100
AcDbPolyline
 90
       10
 70
     0
 43
0.0
 10
64.76859732582375
 20
657.9748975651174
 10
64.51911140956702
 20
657.9748975651174
 10
63.34846920985365
 20
657.9748975651174
 10
62.22281413337134
 20
657.9748975651174
 10
60.99209780073272
 20
657.9748975651174
 10
59.95628480163509
 20
657.9748975651174
 10
59.17261432731527
 20
657.9748975651174
 10
58.684392132948
 20
657.9748975651174
 10
58.51859745472018
 20
657.9748975651174
 10
58.51990652636686
 20
657.8748975664146
  0
LINE
  5
CF
330
1F
100
AcDbEntity
  8
HEWI
  6
CUSTOM
370
     9
100
AcDbLine
 10
64.76859732582375
 20
657.9748975651174
 30
0.0
 11
64.76859732582375
 21
657.8748975673579
 31
0.0
  0
LWPOLYLINE
  5
D0
330
1F
100
AcDbEntity
  8
HEWI
  6
CUSTOM
370
     9
100
AcDbPolyline
 90
       30
 70
     0
 43
0.0
 10
56.01859750627887
 20
641.3758973370677
 10
56.01859750627887
 20
616.974897002229
 10
56.01859750627887
 20
611.951317351666
 10
56.01859750627887
 20
607.2196898904242
 10
56.01859750627887
 20
603.0549996077854
 10
56.01859750627887
 20
599.6992831649434
 10
56.01859750627887
 20
597.3475626040235
 10
56.01859750627887
 20
596.1365113758689
 10
56.0553779573728
 20
595.808784275647
 10
56.16391557517613
 20
595.497129109865
 10
56.33888760951868
 20
595.2168296356172
 10
56.57171332642167
 20
594.9816319079924
 10
56.85097481245747
 20
594.8030701652531
 10
57.16297691610487
 20
594.6899011828425
 10
57.49241886622804
 20
594.6476748358368
 10
71.80987097739012
 20
594.3995849113735
 10
71.92255302369369
 20
594.4103558496725
 10
72.02990630694137
 20
594.4460138604476
 10
72.12642791174289
 20
594.504731118686
 10
72.20717015314358
 20
594.5834977853402
 10
72.26799419431017
 20
594.6782762912808
 10
72.30578220277369
 20
594.7842083025761
 10
72.31859717011684
 20
594.8958637580513
 10
72.31859717011684
 20
596.1790169161824
 10
72.31859717011684
 20
598.6707510349658
 10
72.31859717011684
 20
602.2262555845035
 10
72.31859717011684
 20
606.6388975641091
 10
72.31859717011684
 20
611.6522302612285
 10
72.31859717011684
 20
616.974897002229
 10
72.31859717011684
 20
641.3748979690255
  0
LINE
  5
D1
330
1F
100
AcDbEntity
  8
HEWI
  6
CUSTOM
370
     9
100
AcDbLine
 10
110.0185963926123
 20
657.9748975651173
 30
0.0
 11
129.5184246602863
 21
657.9748998079519
 31
0.0
  0
LINE
  5
D2
330
1F
100
AcDbEntity
  8
HEWI
  6
CUSTOM
370
     9
100
AcDbLine
 10
129.5184246602863
 20
657.9748998079519
 30
0.0
 11
131.5185959492081
 21
657.9748975651173
 31
0.0
  0
LWPOLYLINE
  5
D3
330
1F
100
AcDbEntity
  8
HEWI
  6
CUSTOM
370
     9
100
AcDbPolyline
 90
        9
 70
     0
 43
0.0
 10
131.5185959492081
 20
657.9748975651173
 10
131.3528012709807
 20
657.9748975651173
 10
130.8645790766129
 20
657.9748975651173
 10
130.0809086022931
 20
657.9748975651173
 10
129.0450956031959
 20
657.9748975651173
 10
127.8143792705564
 20
657.9748975651173
 10
126.688724194075
 20
657.9748975651173
 10
125.5180819943608
 20
657.9748975651173
 10
125.2685960781048
 20
657.9748975651173
  0
LINE
  5
D5
330
1F
100
AcDbEntity
  8
HEWI
  6
CUSTOM
370
     9
100
AcDbLine
 10
129.9087857549411
 20
657.9748975651173
 30
0.0
 11
129.5184246602863
 21
657.9748998079519
 31
0.0
  0
LINE
  5
D6
330
1F
100
AcDbEntity
  8
HEWI
  6
CUSTOM
370
     9
100
AcDbLine
 10
69.26859723301845
 20
657.9748975651174
 30
0.0
 11
64.76859732582375
 21
657.9748975651174
 31
0.0
  0
LINE
  5
D7
330
1F
100
AcDbEntity
  8
HEWI
  6
CUSTOM
370
     9
100
AcDbLine
 10
80.45446974093612
 20
657.9748975651173
 30
0.0
 11
60.51876874364245
 21
657.9748998079519
 31
0.0
  0
LINE
  5
D9
330
1F
100
AcDbEntity
  8
HEWI
  6
CUSTOM
370
     9
100
AcDbLine
 10
129.5185959904555
 20
657.9748975651173
 30
0.0
 11
129.5184246602863
 21
657.9748998079519
 31
0.0
  0
LINE
  5
DA
330
1F
100
AcDbEntity
  8
HEWI
  6
CUSTOM
370
     9
100
AcDbLine
 10
103.5395677271999
 20
657.9748975651173
 30
0.0
 11
129.5184246602863
 21
657.9748998079519
 31
0.0
  0
LINE
  5
DB
330
1F
100
AcDbEntity
  8
HEWI
  6
CUSTOM
370
     9
100
AcDbLine
 10
69.26859723301845
 20
657.8748975965269
 30
0.0
 11
69.26859723301845
 21
657.9748975651174
 31
0.0
  0
LINE
  5
DE
330
1F
100
AcDbEntity
  8
HEWI
  6
CUSTOM
370
     9
100
AcDbLine
 10
129.5184246602863
 20
657.9748998079519
 30
0.0
 11
100.8442474863755
 21
657.9748975651173
 31
0.0
  0
LINE
  5
DF
330
1F
100
AcDbEntity
  8
HEWI
  6
CUSTOM
370
     9
100
AcDbLine
 10
129.5184246602863
 20
657.9748998079519
 30
0.0
 11
106.2462576929772
 21
657.9748975651173
 31
0.0
  0
LINE
  5
E0
330
1F
100
AcDbEntity
  8
HEWI
  6
CUSTOM
370
     9
100
AcDbLine
 10
125.2685960781048
 20
657.8748975965268
 30
0.0
 11
125.2685960781048
 21
657.9748975651173
 31
0.0
  0
LINE
  5
E1
330
1F
100
AcDbEntity
  8
HEWI
  6
CUSTOM
370
     9
100
AcDbLine
 10
120.7685961709108
 20
657.9748975651173
 30
0.0
 11
120.7685961709108
 21
657.8748975673579
 31
0.0
  0
LINE
  5
E2
330
1F
100
AcDbEntity
  8
HEWI
  6
CUSTOM
370
     9
100
AcDbLine
 10
131.5172868808497
 20
657.8748978175974
 30
0.0
 11
131.5185959492081
 21
657.9748975651173
 31
0.0
  0
LWPOLYLINE
  5
E4
330
1F
100
AcDbEntity
  8
HEWI
  6
CUSTOM
370
     9
100
AcDbPolyline
 90
       30
 70
     0
 43
0.0
 10
117.7185962338124
 20
641.3748973415468
 10
117.7185962338124
 20
616.974897002229
 10
117.7185962338124
 20
611.6522302612284
 10
117.7185962338124
 20
606.6388975641091
 10
117.7185962338124
 20
602.2262555845034
 10
117.7185962338124
 20
598.6707510349658
 10
117.7185962338124
 20
596.1790169161824
 10
117.7185962338124
 20
594.8958637580513
 10
117.7314112011554
 20
594.784208302576
 10
117.769199209619
 20
594.6782762912808
 10
117.8300232507857
 20
594.5834977853401
 10
117.9107654921862
 20
594.5047311186859
 10
118.0072870969884
 20
594.4460138604476
 10
118.1146403802356
 20
594.4103558496724
 10
118.2273224265389
 20
594.3995849113735
 10
132.5447745377016
 20
594.6476748358368
 10
132.8742164878242
 20
594.6899011828425
 10
133.1862185914713
 20
594.803070165253
 10
133.4654800775083
 20
594.9816319079923
 10
133.6983057944106
 20
595.2168296356171
 10
133.873277828753
 20
595.497129109865
 10
133.9818154465562
 20
595.8087842756469
 10
134.0185958976503
 20
596.1365113758688
 10
134.0185958976503
 20
597.3475626040235
 10
134.0185958976503
 20
599.6992831649434
 10
134.0185958976503
 20
603.0549996077854
 10
134.0185958976503
 20
607.2196898904242
 10
134.0185958976503
 20
611.9513173516659
 10
134.0185958976503
 20
616.974897002229
 10
134.0185958976503
 20
641.3758968236761
  0
LINE
  5
213
330
1F
100
AcDbEntity
  8
HEWI
  6
CUSTOM
370
     9
100
AcDbLine
 10
992.4641615341457
 20
959.1713580030454
 30
0.0
 11
472.4641357082632
 21
959.1713580030454
 31
0.0
  0
LWPOLYLINE
  5
214
330
1F
100
AcDbEntity
  8
HEWI
  6
CUSTOM
370
     9
100
AcDbPolyline
 90
        3
 70
     0
 43
0.0
 10
472.4641357082632
 20
959.3384952436867
 10
472.4641357082632
 20
959.2622514063785
 10
472.4641357082632
 20
959.2072791652554
  0
LWPOLYLINE
  5
217
330
1F
100
AcDbEntity
  8
HEWI
  6
CUSTOM
370
     9
100
AcDbPolyline
 90
        3
 70
     0
 43
0.0
 10
992.4641615341457
 20
959.2072791652554
 10
992.4641615341457
 20
959.2622514063785
 10
992.4641615341457
 20
959.3384952436855
  0
LWPOLYLINE
  5
21A
330
1F
100
AcDbEntity
  8
HEWI
  6
CUSTOM
370
     9
100
AcDbPolyline
 90
        7
 70
     0
 43
0.0
 10
472.4641357082632
 20
970.2802505960235
 10
472.4641357082632
 20
974.2293989509104
 10
472.4641357082632
 20
977.9491370107106
 10
472.4641357082632
 20
981.2232461925814
 10
472.4641357082632
 20
983.8614111474337
 10
472.4641357082632
 20
985.7102822902524
 10
472.4641357082632
 20
986.6571226953835
  0
LWPOLYLINE
  5
21C
330
1F
100
AcDbEntity
  8
HEWI
  6
CUSTOM
370
     9
100
AcDbPolyline
 90
        8
 70
     0
 43
0.0
 10
472.4641357082632
 20
986.6571226953835
 10
472.4641357082632
 20
986.6623896078465
 10
992.4641615341457
 20
986.6623896073466
 10
992.4641615341457
 20
986.7827160458956
 10
993.5455934415468
 20
986.6968177718836
 10
994.0216205742112
 20
986.6621466515764
 10
994.382859101433
 20
986.3295124261385
 10
994.5422004028664
 20
985.8650243832855
  0
LINE
  5
225
330
1F
100
AcDbEntity
  8
HEWI
  6
CUSTOM
370
     9
100
AcDbLine
 10
456.6801938780438
 20
982.4954214232986
 30
0.0
 11
457.4528967192953
 21
980.1167144827026
 31
0.0
  0
LWPOLYLINE
  5
226
330
1F
100
AcDbEntity
  8
HEWI
  6
CUSTOM
370
     9
100
AcDbPolyline
 90
       13
 70
     0
 43
0.0
 10
465.4641353606057
 20
945.7918057535053
 10
465.920689741431
 20
948.4466279492584
 10
466.9581779754762
 20
950.4380909520415
 10
468.6422278743498
 20
952.1662263680376
 10
470.2370563410156
 20
953.1029589740445
 10
473.464135757927
 20
953.7827158488497
 10
758.2233193995375
 20
953.7829476013264
 10
758.5543901783189
 20
953.7259823717166
 10
758.7863079071389
 20
953.6083517693086
 10
759.2103434765313
 20
952.9338926346355
 10
759.0054994607744
 20
952.1614341610376
 10
758.511000632749
 20
951.8244468080876
 10
755.3263352431913
 20
950.6425840938936
  0
LINE
  5
227
330
1F
100
AcDbEntity
  8
HEWI
  6
CUSTOM
370
     9
100
AcDbLine
 10
847.4641543326965
 20
953.8892331472016
 30
0.0
 11
987.4641612858185
 21
953.8892331472016
 31
0.0
  0
LINE
  5
228
330
1F
100
AcDbEntity
  8
HEWI
  6
CUSTOM
370
     9
100
AcDbLine
 10
455.7998436332898
 20
984.4819772716116
 30
0.0
 11
456.6801938780438
 21
982.4954214232986
 31
0.0
  0
LINE
  5
229
330
1F
100
AcDbEntity
  8
HEWI
  6
CUSTOM
370
     9
100
AcDbLine
 10
458.1804648524053
 20
973.1007527675416
 30
0.0
 11
458.0856210393924
 21
971.9065111110746
 31
0.0
  0
LWPOLYLINE
  5
22A
330
1F
100
AcDbEntity
  8
HEWI
  6
CUSTOM
370
     9
100
AcDbPolyline
 90
       12
 70
     0
 43
0.0
 10
847.4641543326965
 20
959.1713580201805
 10
847.4641543326965
 20
959.1657754909226
 10
847.4641543326965
 20
959.1138270144286
 10
847.4641543326965
 20
959.0533460422575
 10
847.4641543326965
 20
958.9874369674525
 10
847.4641543326965
 20
958.9194827990175
 10
847.4641543326965
 20
958.8529715173887
 10
847.4641543326965
 20
958.7913170418955
 10
847.4641543326965
 20
958.7376839996617
 10
847.4641543326965
 20
956.3775042475326
 10
847.4641543326965
 20
954.7331377013854
 10
847.4641543326965
 20
953.8892331472016
  0
LINE
  5
22B
330
1F
100
AcDbEntity
  8
HEWI
  6
CUSTOM
370
     9
100
AcDbLine
 10
455.6082594547226
 20
984.8551681983815
 30
0.0
 11
455.7998436332898
 21
984.4819772716116
 31
0.0
  0
LINE
  5
22E
330
1F
100
AcDbEntity
  8
HEWI
  6
CUSTOM
370
     9
100
AcDbLine
 10
452.4927542372731
 20
989.3687565363146
 30
0.0
 11
453.1796976356168
 21
988.5613863216965
 31
0.0
  0
LINE
  5
22F
330
1F
100
AcDbEntity
  8
HEWI
  6
CUSTOM
370
     9
100
AcDbLine
 10
455.6082594547226
 20
963.7102637441326
 30
0.0
 11
454.6646627766635
 21
962.0799336023555
 31
0.0
  0
LWPOLYLINE
  5
231
330
1F
100
AcDbEntity
  8
HEWI
  6
CUSTOM
370
     9
100
AcDbPolyline
 90
        6
 70
     0
 43
0.0
 10
453.1552975384977
 20
988.5900639525065
 10
454.2195849583447
 20
987.6157873620195
 10
455.5731874129926
 20
986.9727853912715
 10
457.0176118630217
 20
986.7608001108086
 10
457.024329284852
 20
986.7606880749287
 10
472.4641357082621
 20
986.6571226720486
  0
LINE
  5
234
330
1F
100
AcDbEntity
  8
HEWI
  6
CUSTOM
370
     9
100
AcDbLine
 10
458.2141350005331
 20
974.2827159712566
 30
0.0
 11
458.1804648524053
 21
973.1007527675416
 31
0.0
  0
LINE
  5
237
330
1F
100
AcDbEntity
  8
HEWI
  6
CUSTOM
370
     9
100
AcDbLine
 10
448.3876075006314
 20
955.5598329103805
 30
0.0
 11
448.1528047424265
 21
955.3999155497553
 31
0.0
  0
LINE
  5
239
330
1F
100
AcDbEntity
  8
HEWI
  6
CUSTOM
370
     9
100
AcDbLine
 10
443.5313954515309
 20
953.0110963231495
 30
0.0
 11
444.1472090017559
 21
953.2549552954955
 31
0.0
  0
LWPOLYLINE
  5
23C
330
1F
100
AcDbEntity
  8
HEWI
  6
CUSTOM
370
     9
100
AcDbPolyline
 90
       12
 70
     0
 43
0.0
 10
803.4641521474291
 20
941.0698125471336
 10
814.0599282508059
 20
944.1915787035538
 10
821.6654644532978
 20
946.4323494868095
 10
824.4486710743791
 20
947.2523479608476
 10
828.3068813576692
 20
948.3890679301275
 10
832.767748817735
 20
949.7033449523335
 10
835.409921840633
 20
950.4817915938836
 10
839.7946812400437
 20
951.7736453819944
 10
843.4690079235478
 20
952.8561888952106
 10
846.4548574112678
 20
953.7592102109236
 10
846.7561284201947
 20
953.7842904260095
 10
847.4641543326965
 20
953.8892331472016
  0
LINE
  5
23D
330
1F
100
AcDbEntity
  8
HEWI
  6
CUSTOM
370
     9
100
AcDbLine
 10
455.6082594547226
 20
984.8551681983815
 30
0.0
 11
454.9196586714788
 21
986.0797513210965
 31
0.0
  0
LWPOLYLINE
  5
23E
330
1F
100
AcDbEntity
  8
HEWI
  6
CUSTOM
370
     9
100
AcDbPolyline
 90
        3
 70
     0
 43
0.0
 10
438.2063434826522
 20
951.6985889506747
 10
439.7952440191334
 20
951.9487957443505
 10
440.5238255893729
 20
952.1559534674175
  0
LWPOLYLINE
  5
23F
330
1F
100
AcDbEntity
  8
HEWI
  6
CUSTOM
370
     9
100
AcDbPolyline
 90
        3
 70
     0
 43
0.0
 10
457.5530613141436
 20
979.7271473663075
 10
458.0049772163492
 20
977.3511455477116
 10
458.0226383485603
 20
977.0920495707596
  0
LINE
  5
241
330
1F
100
AcDbEntity
  8
HEWI
  6
CUSTOM
370
     9
100
AcDbLine
 10
452.4927542372731
 20
959.1966754061987
 30
0.0
 11
451.8399438233791
 21
958.4904361407065
 31
0.0
  0
LINE
  5
242
330
1F
100
AcDbEntity
  8
HEWI
  6
CUSTOM
370
     9
100
AcDbLine
 10
457.5530613141436
 20
979.7271473663075
 30
0.0
 11
457.4528967192953
 21
980.1167144827026
 31
0.0
  0
LINE
  5
243
330
1F
100
AcDbEntity
  8
HEWI
  6
CUSTOM
370
     9
100
AcDbLine
 10
457.5530613141436
 20
968.8382845762056
 30
0.0
 11
457.1841533474355
 21
967.5148860591374
 31
0.0
  0
LINE
  5
244
330
1F
100
AcDbEntity
  8
HEWI
  6
CUSTOM
370
     9
100
AcDbLine
 10
457.5530613141436
 20
968.8382845762056
 30
0.0
 11
457.7446535771616
 21
969.6921071187086
 31
0.0
  0
LWPOLYLINE
  5
246
330
1F
100
AcDbEntity
  8
HEWI
  6
CUSTOM
370
     9
100
AcDbPolyline
 90
        4
 70
     0
 43
0.0
 10
455.6082594547226
 20
963.7102637441326
 10
456.4435324992318
 20
965.4835619921755
 10
456.4450837949991
 20
965.4870591366503
 10
456.675920918052
 20
966.1204200040995
  0
LINE
  5
247
330
1F
100
AcDbEntity
  8
HEWI
  6
CUSTOM
370
     9
100
AcDbLine
 10
993.9931719966272
 20
953.8290617162187
 30
0.0
 11
993.9939930572275
 21
953.8290533909966
 31
0.0
  0
LWPOLYLINE
  5
248
330
1F
100
AcDbEntity
  8
HEWI
  6
CUSTOM
370
     9
100
AcDbPolyline
 90
       38
 70
     0
 43
0.0
 10
465.7188364681895
 20
876.7162952888465
 10
465.8328862489955
 20
876.1664243539344
 10
466.7615973794795
 20
873.9310926458303
 10
468.2004538121065
 20
871.9842056889374
 10
470.0800147424984
 20
870.4305519388777
 10
471.0319722372937
 20
869.8932571594903
 10
471.9896826924879
 20
869.4804275272867
 10
474.6598660624995
 20
868.8898573055336
 10
478.2900977455414
 20
869.2650590954725
 10
488.5632806184
 20
872.2603066159626
 10
493.7230635115249
 20
873.8111324796186
 10
498.8562128914277
 20
875.2827089602616
 10
504.0887299580279
 20
876.8382681957925
 10
509.2715631812791
 20
878.3395041757104
 10
513.1738435270799
 20
879.5224380921444
 10
515.3276127760546
 20
880.1217177639424
 10
519.6351512740038
 20
881.2693791151104
 10
523.1067411490057
 20
882.4471805071695
 10
524.8425360865066
 20
882.9810705668435
 10
527.4589382081463
 20
883.7095641568486
 10
530.0264953667324
 20
884.4296358765795
 10
533.0470156628421
 20
885.3982870026586
 10
534.564802175173
 20
885.7347016816275
 10
536.7342318779542
 20
886.3808311982175
 10
540.4770511247376
 20
887.5169634035076
 10
544.7784435370449
 20
888.8194676090053
 10
546.9291397431979
 20
889.4662130129995
 10
548.2316518191187
 20
889.8260965617625
 10
550.8366759709601
 20
890.5201993152205
 10
556.023791602988
 20
892.0622614515275
 10
561.2219563413209
 20
893.6572422885717
 10
571.5705320812369
 20
896.6005259096153
 10
576.786660660649
 20
898.2825775115726
 10
579.3947249503548
 20
898.9806905383176
 10
584.548242731953
 20
900.3069427211865
 10
588.4627964843976
 20
901.7177770758026
 10
594.9953569518391
 20
903.6447610306726
 10
604.5511957923781
 20
906.2926694955605
  0
LWPOLYLINE
  5
249
330
1F
100
AcDbEntity
  8
HEWI
  6
CUSTOM
370
     9
100
AcDbPolyline
 90
       19
 70
     0
 43
0.0
 10
690.8183463022829
 20
931.6325530290924
 10
696.2297474210418
 20
933.4758786886405
 10
702.2824388161116
 20
935.2585923064204
 10
705.3087845136474
 20
936.1497933600565
 10
706.6062725993279
 20
936.5293326333874
 10
708.3377179740605
 20
937.0416216352465
 10
711.8006087235253
 20
938.0635650342926
 10
713.5286444904449
 20
938.5618748649436
 10
714.3926623739048
 20
938.8028092427076
 10
721.311431585791
 20
940.8315841233967
 10
723.4742872293882
 20
941.4361408492545
 10
726.5016071005838
 20
942.3908179653654
 10
732.5562468429752
 20
944.0718572781955
 10
736.8817854300978
 20
945.3321894785597
 10
740.3418448732691
 20
946.4698847264637
 10
743.8025233606508
 20
947.4093804787674
 10
745.2441632082882
 20
947.9019665706974
 10
748.1274429035624
 20
948.7223417353286
 10
750.3616105552764
 20
949.2282095108317
  0
LWPOLYLINE
  5
24C
330
1F
100
AcDbEntity
  8
HEWI
  6
CUSTOM
370
     9
100
AcDbPolyline
 90
        9
 70
     0
 43
0.0
 10
434.7621814560065
 20
869.4507521057815
 10
432.6955742709401
 20
863.8972432825887
 10
429.3649047732936
 20
858.9715710435866
 10
426.6743497742391
 20
856.3040466633745
 10
423.3118308204653
 20
853.8914804280626
 10
420.2734429036822
 20
852.3432605812725
 10
417.5259435356601
 20
851.3567433487105
 10
416.3624901410787
 20
850.9954539320554
 10
411.8995609187305
 20
849.6894573548615
  0
LINE
  5
24D
330
1F
100
AcDbEntity
  8
HEWI
  6
CUSTOM
370
     9
100
AcDbLine
 10
758.5131926309754
 20
951.5504713128246
 30
0.0
 11
748.1274429035624
 21
948.5917291128686
 31
0.0
  0
LWPOLYLINE
  5
24E
330
1F
100
AcDbEntity
  8
HEWI
  6
CUSTOM
370
     9
100
AcDbPolyline
 90
       10
 70
     0
 43
0.0
 10
687.143677670047
 20
930.6775293266577
 10
680.6588861185587
 20
928.8879409370116
 10
678.0635751890927
 20
928.0816088064376
 10
673.7387264895247
 20
926.8388100312105
 10
670.2781445378509
 20
925.7855035849134
 10
668.548104630593
 20
925.2971867772625
 10
665.0880248160756
 20
924.2997517876554
 10
659.8980724733519
 20
922.6711262391065
 10
657.3030963019901
 20
921.7645088412924
 10
652.0962783495797
 20
920.1637564480524
  0
LWPOLYLINE
  5
24F
330
1F
100
AcDbEntity
  8
HEWI
  6
CUSTOM
370
     9
100
AcDbPolyline
 90
       20
 70
     0
 43
0.0
 10
803.4641521474291
 20
941.0698125471336
 10
803.3325073891806
 20
941.1235707899994
 10
802.9507447259538
 20
941.2656188552336
 10
802.2236999692795
 20
941.5020238987615
 10
801.3437098171056
 20
941.7428379229173
 10
800.5525633088131
 20
941.9216733163716
 10
799.6594982823276
 20
942.0697186842387
 10
798.6805964305294
 20
942.1554534605146
 10
797.6345206904966
 20
942.1475123546397
 10
796.1999902612251
 20
941.9513502371637
 10
794.6377301343114
 20
941.4870693219906
 10
792.8620849518011
 20
940.6360041641194
 10
791.1234896682713
 20
939.4974875020006
 10
789.8024951764059
 20
938.4592219074036
 10
788.9581908254617
 20
937.7359856020005
 10
788.3328785604012
 20
937.1726555483087
 10
787.9589568130982
 20
936.8257468675194
 10
787.6815480739842
 20
936.5641783138103
 10
787.5129923709528
 20
936.4030587821195
 10
787.4676625448487
 20
936.3592347330115
  0
LWPOLYLINE
  5
250
330
1F
100
AcDbEntity
  8
HEWI
  6
CUSTOM
370
     9
100
AcDbPolyline
 90
       12
 70
     0
 43
0.0
 10
605.8231063816276
 20
906.6753406218653
 10
608.8381860347497
 20
907.7192341050295
 10
611.4359731410591
 20
908.4763478086626
 10
613.1791971797984
 20
908.9021692128675
 10
618.3754409086259
 20
910.5382091562885
 10
623.5649469072106
 20
911.9768105136417
 10
625.2836394442758
 20
912.5468828083075
 10
627.8787272016725
 20
913.3188476907365
 10
631.3502101794006
 20
914.2212000728916
 10
641.731230725195
 20
917.4182999598576
 10
649.5161592392805
 20
919.4701224040104
 10
653.882812821382
 20
920.7129977177386
  0
LINE
  5
251
330
1F
100
AcDbEntity
  8
HEWI
  6
CUSTOM
370
     9
100
AcDbLine
 10
607.9667413944316
 20
907.3202815685986
 30
0.0
 11
602.7897225450796
 21
905.7627069767745
 31
0.0
  0
LWPOLYLINE
  5
254
330
1F
100
AcDbEntity
  8
HEWI
  6
CUSTOM
370
     9
100
AcDbPolyline
 90
       26
 70
     1
 43
0.0
 10
443.3804860585926
 20
870.5649299756005
 10
444.4760483328605
 20
868.9777340765466
 10
445.9196164160748
 20
867.6988444076874
 10
447.6272953783961
 20
866.8025853880015
 10
449.499841125694
 20
866.3410443339445
 10
451.4284281055624
 20
866.3410443339445
 10
453.3009738528606
 20
866.8025853880015
 10
455.0086528151816
 20
867.6988444076874
 10
456.4522208983967
 20
868.9777340765466
 10
457.5477831726648
 20
870.5649299755995
 10
458.2316695408126
 20
872.3681900484177
 10
458.46413501295
 20
874.2827153741497
 10
458.2316695408126
 20
876.1972406998816
 10
457.5477831726648
 20
878.0005007726984
 10
456.4522208983967
 20
879.5876966717516
 10
455.0086528151816
 20
880.8665863406117
 10
453.3009738528606
 20
881.7628453602965
 10
451.4284281055624
 20
882.2243864143546
 10
449.499841125694
 20
882.2243864143546
 10
447.6272953783961
 20
881.7628453602965
 10
445.9196164160748
 20
880.8665863406117
 10
444.4760483328605
 20
879.5876966717516
 10
443.3804860585926
 20
878.0005007726984
 10
442.6965996904439
 20
876.1972406998816
 10
442.4641342183074
 20
874.2827153741497
 10
442.6965996904439
 20
872.3681900484177
  0
LWPOLYLINE
  5
255
330
1F
100
AcDbEntity
  8
HEWI
  6
CUSTOM
370
     9
100
AcDbPolyline
 90
        3
 70
     0
 43
0.0
 10
465.767219382265
 20
876.3270444101934
 10
465.4641353606057
 20
878.7654200649367
 10
465.4641353606057
 20
945.8644849074195
  0
LWPOLYLINE
  5
256
330
1F
100
AcDbEntity
  8
HEWI
  6
CUSTOM
370
     9
100
AcDbPolyline
 90
       10
 70
     0
 43
0.0
 10
431.0372598397757
 20
950.2809515493735
 10
432.136545790735
 20
949.0619654974567
 10
432.9251674093625
 20
947.9902391496898
 10
433.6605853762512
 20
946.7699696400995
 10
434.3048910522802
 20
945.4229631512024
 10
434.9451588487616
 20
943.5523080952465
 10
435.3338240939438
 20
941.6136919666268
 10
435.464133870651
 20
939.6407975149804
 10
435.464133870651
 20
875.2895517609497
 10
434.7489076316328
 20
869.3403414257586
  0
LWPOLYLINE
  5
257
330
1F
100
AcDbEntity
  8
HEWI
  6
CUSTOM
370
     9
100
AcDbPolyline
 90
        3
 70
     0
 43
0.0
 10
411.0641326601398
 20
849.1332716988575
 10
411.278453698801
 20
849.3213749266695
 10
411.8995609187305
 20
849.6894573548615
  0
LWPOLYLINE
  5
258
330
1F
100
AcDbEntity
  8
HEWI
  6
CUSTOM
370
     9
100
AcDbPolyline
 90
        3
 70
     0
 43
0.0
 10
411.8995609187305
 20
849.6894573548615
 10
411.2779748330579
 20
849.3387433585924
 10
411.0641326597742
 20
849.1506936115525
  0
LINE
  5
259
330
1F
100
AcDbEntity
  8
HEWI
  6
CUSTOM
370
     9
100
AcDbLine
 10
458.2141546924797
 20
974.2803309674824
 30
0.0
 11
458.2141350005331
 21
974.2827159712566
 31
0.0
  0
LINE
  5
25B
330
1F
100
AcDbEntity
  8
HEWI
  6
CUSTOM
370
     9
100
AcDbLine
 10
451.8439467909368
 20
958.4945926819786
 30
0.0
 11
451.8399438233791
 21
958.4904361407065
 31
0.0
  0
LWPOLYLINE
  5
25C
330
1F
100
AcDbEntity
  8
HEWI
  6
CUSTOM
370
     9
100
AcDbPolyline
 90
        3
 70
     0
 43
0.0
 10
452.2059110264449
 20
958.8863556916704
 10
452.1620917748696
 20
958.8314146149965
 10
451.8399438233791
 20
958.4904361407065
  0
LWPOLYLINE
  5
25D
330
1F
100
AcDbEntity
  8
HEWI
  6
CUSTOM
370
     9
100
AcDbPolyline
 90
        3
 70
     0
 43
0.0
 10
456.6801938780438
 20
982.4954214232986
 10
457.3136845126462
 20
980.6194184117215
 10
457.4528967192953
 20
980.1167144827026
  0
LINE
  5
25F
330
1F
100
AcDbEntity
  8
HEWI
  6
CUSTOM
370
     9
100
AcDbLine
 10
457.1849202721534
 20
967.5171900872786
 30
0.0
 11
457.1841533474355
 21
967.5148860591374
 31
0.0
  0
LINE
  5
261
330
1F
100
AcDbEntity
  8
HEWI
  6
CUSTOM
370
     9
100
AcDbLine
 10
455.8034681836898
 20
984.4745963395576
 30
0.0
 11
455.7998436332898
 21
984.4819772716116
 31
0.0
  0
LWPOLYLINE
  5
264
330
1F
100
AcDbEntity
  8
HEWI
  6
CUSTOM
370
     9
100
AcDbPolyline
 90
        3
 70
     0
 43
0.0
 10
458.1804648524053
 20
973.1007527675416
 10
458.1268838231617
 20
972.3010053203367
 10
458.0856210393924
 20
971.9065111110746
  0
LWPOLYLINE
  5
265
330
1F
100
AcDbEntity
  8
HEWI
  6
CUSTOM
370
     9
100
AcDbPolyline
 90
        3
 70
     0
 43
0.0
 10
454.6660301473012
 20
962.0822961218653
 10
454.6674509466002
 20
962.0844518337944
 10
454.6646627766635
 20
962.0799336023555
  0
LWPOLYLINE
  5
266
330
1F
100
AcDbEntity
  8
HEWI
  6
CUSTOM
370
     9
100
AcDbPolyline
 90
        3
 70
     0
 43
0.0
 10
456.6801938780438
 20
982.4954214232986
 10
456.3690442144786
 20
983.2560214287545
 10
455.7998436332898
 20
984.4819772716116
  0
LWPOLYLINE
  5
267
330
1F
100
AcDbEntity
  8
HEWI
  6
CUSTOM
370
     9
100
AcDbPolyline
 90
        3
 70
     0
 43
0.0
 10
458.0254817471679
 20
971.4849184942265
 10
457.836170786861
 20
970.1577977350355
 10
457.7446535771616
 20
969.6921071187086
  0
LWPOLYLINE
  5
268
330
1F
100
AcDbEntity
  8
HEWI
  6
CUSTOM
370
     9
100
AcDbPolyline
 90
        3
 70
     0
 43
0.0
 10
454.1383087858969
 20
987.2966759741737
 10
454.3935592278826
 20
986.9013199115103
 10
454.9196586714788
 20
986.0797513210965
  0
LWPOLYLINE
  5
269
330
1F
100
AcDbEntity
  8
HEWI
  6
CUSTOM
370
     9
100
AcDbPolyline
 90
        3
 70
     0
 43
0.0
 10
453.1619524496547
 20
960.0850513162404
 10
454.2431088060582
 20
961.4406174689555
 10
454.6646627766635
 20
962.0799336023555
  0
LINE
  5
26A
330
1F
100
AcDbEntity
  8
HEWI
  6
CUSTOM
370
     9
100
AcDbLine
 10
455.3084455204543
 20
985.4072032904124
 30
0.0
 11
454.9196586714788
 21
986.0797513210965
 31
0.0
  0
LINE
  5
26C
330
1F
100
AcDbEntity
  8
HEWI
  6
CUSTOM
370
     9
100
AcDbLine
 10
468.0079783401949
 20
872.0247378949386
 30
0.0
 11
466.635601843833
 21
874.0447165334826
 31
0.0
  0
LWPOLYLINE
  5
26D
330
1F
100
AcDbEntity
  8
HEWI
  6
CUSTOM
370
     9
100
AcDbPolyline
 90
       12
 70
     1
 43
0.0
 10
450.4015113019238
 20
876.2967487448566
 10
447.8702611762084
 20
876.2967487448566
 10
447.8702611762084
 20
872.2467487206746
 10
450.4015113019238
 20
872.2467487206746
 10
450.4015113019238
 20
872.9251269647246
 10
448.6853369466894
 20
872.9251269647246
 10
448.6853369466894
 20
874.0388769713755
 10
450.2648386451357
 20
874.0388769713755
 10
450.2648386451357
 20
874.6818244652144
 10
448.6853369466894
 20
874.6818244652144
 10
448.6853369466894
 20
875.5879987406245
 10
450.4015113019238
 20
875.5879987406245
  0
LINE
  5
26E
330
1F
100
AcDbEntity
  8
HEWI
  6
CUSTOM
370
     9
100
AcDbLine
 10
472.4641357082621
 20
958.7376839996617
 30
0.0
 11
472.4641357082621
 21
958.7913170418955
 31
0.0
  0
LWPOLYLINE
  5
26F
330
1F
100
AcDbEntity
  8
HEWI
  6
CUSTOM
370
     9
100
AcDbPolyline
 90
       13
 70
     1
 43
0.0
 10
450.5230104979573
 20
876.2967487448566
 10
451.662060634529
 20
872.2467487206746
 10
452.4568872140037
 20
872.2467487206746
 10
453.1150122466897
 20
875.0108704971786
 10
453.763010658873
 20
872.2467487206746
 10
454.5578372383476
 20
872.2467487206746
 10
455.7728372986912
 20
876.2967487448566
 10
454.8767607141871
 20
876.2967487448566
 10
454.1528372182336
 20
873.4718753479896
 10
453.5351857275577
 20
876.2967487448566
 10
452.7100122265753
 20
876.2967487448566
 10
452.0873098456489
 20
873.4921204881105
 10
451.3836355407006
 20
876.2967487448566
  0
LWPOLYLINE
  5
273
330
1F
100
AcDbEntity
  8
HEWI
  6
CUSTOM
370
     9
100
AcDbPolyline
 90
       12
 70
     1
 43
0.0
 10
446.5084369985731
 20
872.2467487206746
 10
447.3235127690543
 20
872.2467487206746
 10
447.3235127690543
 20
876.2967487448566
 10
446.5084369985731
 20
876.2967487448566
 10
446.5084391585732
 20
874.6818244652144
 10
444.8732615673622
 20
874.6818244652144
 10
444.8732615673622
 20
876.2967487448566
 10
444.0581857968811
 20
876.2967487448566
 10
444.0581857968811
 20
872.2467487206746
 10
444.8732615673622
 20
872.2467487206746
 10
444.8732615673622
 20
874.0388769713755
 10
446.5084369985731
 20
874.0388769713755
  0
LWPOLYLINE
  5
275
330
1F
100
AcDbEntity
  8
HEWI
  6
CUSTOM
370
     9
100
AcDbPolyline
 90
        4
 70
     1
 43
0.0
 10
456.8308866212396
 20
872.2467487206746
 10
456.8308866212396
 20
876.2967487448566
 10
455.9905107695022
 20
876.2967487448566
 10
455.9905107695022
 20
872.2467487206746
  0
LINE
  5
277
330
1F
100
AcDbEntity
  8
HEWI
  6
CUSTOM
370
     9
100
AcDbLine
 10
438.2063434826522
 20
951.6985889506747
 30
0.0
 11
439.6134845525479
 21
952.0454180594125
 31
0.0
  0
LINE
  5
278
330
1F
100
AcDbEntity
  8
HEWI
  6
CUSTOM
370
     9
100
AcDbLine
 10
454.3040745465159
 20
961.6012444903805
 30
0.0
 11
454.6646627766635
 21
962.0799336023555
 31
0.0
  0
LWPOLYLINE
  5
279
330
1F
100
AcDbEntity
  8
HEWI
  6
CUSTOM
370
     9
100
AcDbPolyline
 90
        3
 70
     0
 43
0.0
 10
435.4138052466606
 20
951.5415956800975
 10
435.2705103668549
 20
951.5335398076485
 10
435.1461166000276
 20
951.5415956800975
  0
LINE
  5
27A
330
1F
100
AcDbEntity
  8
HEWI
  6
CUSTOM
370
     9
100
AcDbLine
 10
442.1242543816352
 20
952.6642672144115
 30
0.0
 11
443.5313954515309
 21
953.0110963231495
 31
0.0
  0
LINE
  5
27B
330
1F
100
AcDbEntity
  8
HEWI
  6
CUSTOM
370
     9
100
AcDbLine
 10
457.5530613141436
 20
968.8382845762056
 30
0.0
 11
457.7277495500111
 21
970.2769715717465
 31
0.0
  0
LINE
  5
27C
330
1F
100
AcDbEntity
  8
HEWI
  6
CUSTOM
370
     9
100
AcDbLine
 10
458.0394467646658
 20
972.8440289757156
 30
0.0
 11
458.2141350005331
 21
974.2827159712566
 31
0.0
  0
LINE
  5
27D
330
1F
100
AcDbEntity
  8
HEWI
  6
CUSTOM
370
     9
100
AcDbLine
 10
448.3876075006314
 20
955.5598329103805
 30
0.0
 11
449.4723895093023
 21
956.5208658675265
 31
0.0
  0
LWPOLYLINE
  5
27E
330
1F
100
AcDbEntity
  8
HEWI
  6
CUSTOM
370
     9
100
AcDbPolyline
 90
        3
 70
     0
 43
0.0
 10
444.8146459171312
 20
994.8808338490154
 10
443.5313954515302
 20
995.5543356193643
 10
442.1242543816346
 20
995.9011647281025
  0
LWPOLYLINE
  5
27F
330
1F
100
AcDbEntity
  8
HEWI
  6
CUSTOM
370
     9
100
AcDbPolyline
 90
        3
 70
     0
 43
0.0
 10
690.8342549753361
 20
931.6379721262252
 10
689.3093646199381
 20
931.3676760134736
 10
687.1247264407452
 20
930.6722994158555
  0
LINE
  5
280
330
1F
100
AcDbEntity
  8
HEWI
  6
CUSTOM
370
     9
100
AcDbLine
 10
458.2141350005331
 20
974.2827159712566
 30
0.0
 11
458.0394467646658
 21
975.7214029667975
 31
0.0
  0
LINE
  5
281
330
1F
100
AcDbEntity
  8
HEWI
  6
CUSTOM
370
     9
100
AcDbLine
 10
453.3160242016919
 20
988.1760441346285
 30
0.0
 11
452.4927542372731
 21
989.3687565363146
 31
0.0
  0
LINE
  5
282
330
1F
100
AcDbEntity
  8
HEWI
  6
CUSTOM
370
     9
100
AcDbLine
 10
452.4927542372731
 20
989.3687565363146
 30
0.0
 11
451.4079722286021
 21
990.3297894934604
 31
0.0
  0
LINE
  5
283
330
1F
100
AcDbEntity
  8
HEWI
  6
CUSTOM
370
     9
100
AcDbLine
 10
458.2141350005331
 20
974.2827159712566
 30
0.0
 11
458.0394467782659
 21
976.8454630856185
 31
0.0
  0
LINE
  5
284
330
1F
100
AcDbEntity
  8
HEWI
  6
CUSTOM
370
     9
100
AcDbLine
 10
787.4676625448487
 20
936.3592347330115
 30
0.0
 11
787.5405865692092
 21
936.4294356072354
 31
0.0
  0
LINE
  5
285
330
1F
100
AcDbEntity
  8
HEWI
  6
CUSTOM
370
     9
100
AcDbLine
 10
438.2063434826522
 20
951.6985889506747
 30
0.0
 11
435.5075277604848
 21
951.5468646514525
 31
0.0
  0
LINE
  5
286
330
1F
100
AcDbEntity
  8
HEWI
  6
CUSTOM
370
     9
100
AcDbLine
 10
458.0127547849158
 20
971.4332831855537
 30
0.0
 11
457.7446535771616
 21
969.6921071187086
 31
0.0
  0
LWPOLYLINE
  5
287
330
1F
100
AcDbEntity
  8
HEWI
  6
CUSTOM
370
     9
100
AcDbPolyline
 90
        6
 70
     0
 43
0.0
 10
787.5985956737727
 20
936.4848855243407
 10
787.6164099724674
 20
936.5019139093456
 10
787.6734569030595
 20
936.4727232021454
 10
787.7662686780381
 20
936.4588174803095
 10
787.8615057446909
 20
936.4815215444366
 10
787.99183565057
 20
936.6079492669015
  0
LINE
  5
288
330
1F
100
AcDbEntity
  8
HEWI
  6
CUSTOM
370
     9
100
AcDbLine
 10
436.7570897326945
 20
951.6985889506747
 30
0.0
 11
438.2063434826522
 21
951.6985889506747
 31
0.0
  0
LINE
  5
289
330
1F
100
AcDbEntity
  8
HEWI
  6
CUSTOM
370
     9
100
AcDbLine
 10
452.4927542372731
 20
959.1966754061987
 30
0.0
 11
453.8181603795044
 21
960.9561823345597
 31
0.0
  0
LINE
  5
28A
330
1F
100
AcDbEntity
  8
HEWI
  6
CUSTOM
370
     9
100
AcDbLine
 10
455.6082594547226
 20
984.8551681983815
 30
0.0
 11
454.7849894903038
 21
986.0478806000687
 31
0.0
  0
LINE
  5
28B
330
1F
100
AcDbEntity
  8
HEWI
  6
CUSTOM
370
     9
100
AcDbLine
 10
443.5313954515309
 20
953.0110963231495
 30
0.0
 11
444.8146459171316
 21
953.6845980934975
 31
0.0
  0
LWPOLYLINE
  5
28C
330
1F
100
AcDbEntity
  8
HEWI
  6
CUSTOM
370
     9
100
AcDbPolyline
 90
        3
 70
     0
 43
0.0
 10
449.472389509302
 20
992.0445660749875
 10
448.387607500631
 20
993.0055990321337
 10
447.10435703503
 20
993.6791008024824
  0
LINE
  5
28D
330
1F
100
AcDbEntity
  8
HEWI
  6
CUSTOM
370
     9
100
AcDbLine
 10
455.0141603893616
 20
985.9116928296694
 30
0.0
 11
455.3084455204543
 21
985.4072032904124
 31
0.0
  0
LINE
  5
28E
330
1F
100
AcDbEntity
  8
HEWI
  6
CUSTOM
370
     9
100
AcDbLine
 10
457.0391488518439
 20
967.4832088394316
 30
0.0
 11
457.5530613141436
 21
968.8382845762056
 31
0.0
  0
LINE
  5
28F
330
1F
100
AcDbEntity
  8
HEWI
  6
CUSTOM
370
     9
100
AcDbLine
 10
455.3084455204543
 20
985.4072032904124
 30
0.0
 11
455.4889271890429
 21
985.0673844524214
 31
0.0
  0
LINE
  5
290
330
1F
100
AcDbEntity
  8
HEWI
  6
CUSTOM
370
     9
100
AcDbLine
 10
447.1043570350307
 20
954.8863311400316
 30
0.0
 11
448.3876075006314
 21
955.5598329103805
 31
0.0
  0
LINE
  5
291
330
1F
100
AcDbEntity
  8
HEWI
  6
CUSTOM
370
     9
100
AcDbLine
 10
455.6082594547226
 20
963.7102637441326
 30
0.0
 11
456.1221719170226
 21
965.0653394809065
 31
0.0
  0
LINE
  5
292
330
1F
100
AcDbEntity
  8
HEWI
  6
CUSTOM
370
     9
100
AcDbLine
 10
451.4079722286021
 20
958.2356424490525
 30
0.0
 11
452.4927542372731
 21
959.1966754061987
 31
0.0
  0
LWPOLYLINE
  5
293
330
1F
100
AcDbEntity
  8
HEWI
  6
CUSTOM
370
     9
100
AcDbPolyline
 90
        6
 70
     0
 43
0.0
 10
803.0684679342511
 20
941.0800469214265
 10
803.2489360455382
 20
941.0064047951536
 10
803.3058705192388
 20
941.0303783239355
 10
803.3592185483362
 20
941.0666566395025
 10
803.390196694384
 20
941.0996078042234
 10
803.4641521474291
 20
941.0698125471336
  0
LINE
  5
294
330
1F
100
AcDbEntity
  8
HEWI
  6
CUSTOM
370
     9
100
AcDbLine
 10
452.4927542372731
 20
959.1966754061987
 30
0.0
 11
453.3160242016919
 21
960.3893878078855
 31
0.0
  0
LINE
  5
295
330
1F
100
AcDbEntity
  8
HEWI
  6
CUSTOM
370
     9
100
AcDbLine
 10
457.5530613141436
 20
979.7271473663075
 30
0.0
 11
457.0391488518439
 21
981.0822231030826
 31
0.0
  0
LINE
  5
296
330
1F
100
AcDbEntity
  8
HEWI
  6
CUSTOM
370
     9
100
AcDbLine
 10
443.5313954515309
 20
953.0110963231495
 30
0.0
 11
441.563111685182
 21
952.4514538616305
 31
0.0
  0
LINE
  5
297
330
1F
100
AcDbEntity
  8
HEWI
  6
CUSTOM
370
     9
100
AcDbLine
 10
457.7277495500111
 20
978.2884603707666
 30
0.0
 11
457.5530613141436
 21
979.7271473663075
 31
0.0
  0
LINE
  5
298
330
1F
100
AcDbEntity
  8
HEWI
  6
CUSTOM
370
     9
100
AcDbLine
 10
454.3689769799985
 20
986.9374184670526
 30
0.0
 11
454.530015114024
 21
986.6866073016616
 31
0.0
  0
LWPOLYLINE
  5
299
330
1F
100
AcDbEntity
  8
HEWI
  6
CUSTOM
370
     9
100
AcDbPolyline
 90
        3
 70
     0
 43
0.0
 10
439.6134845525478
 20
996.5200138831017
 10
438.2063434826522
 20
996.8668429918395
 10
436.7570897326941
 20
996.8668429918395
  0
LINE
  5
29A
330
1F
100
AcDbEntity
  8
HEWI
  6
CUSTOM
370
     9
100
AcDbLine
 10
454.7849894903038
 20
962.5175513424455
 30
0.0
 11
455.6082594547226
 21
963.7102637441326
 31
0.0
  0
LINE
  5
29B
330
1F
100
AcDbEntity
  8
HEWI
  6
CUSTOM
370
     9
100
AcDbLine
 10
448.3876075006314
 20
955.5598329103805
 30
0.0
 11
449.7257428497869
 21
956.6957430333333
 31
0.0
  0
LINE
  5
29C
330
1F
100
AcDbEntity
  8
HEWI
  6
CUSTOM
370
     9
100
AcDbLine
 10
458.0856210393924
 20
971.9065111110746
 30
0.0
 11
458.0394467753085
 21
971.6066335976524
 31
0.0
  0
LINE
  5
29D
330
1F
100
AcDbEntity
  8
HEWI
  6
CUSTOM
370
     9
100
AcDbLine
 10
456.1221719170226
 20
983.5000924616066
 30
0.0
 11
455.6082594547226
 21
984.8551681983815
 31
0.0
  0
LINE
  5
29E
330
1F
100
AcDbEntity
  8
HEWI
  6
CUSTOM
370
     9
100
AcDbLine
 10
451.0081871771194
 20
957.7843784202254
 30
0.0
 11
451.8399438233791
 21
958.4904361407065
 31
0.0
  0
LINE
  5
29F
330
1F
100
AcDbEntity
  8
HEWI
  6
CUSTOM
370
     9
100
AcDbLine
 10
450.6207901710895
 20
957.3470976103436
 30
0.0
 11
451.8399438233791
 21
958.4904361407065
 31
0.0
  0
LINE
  5
2A0
330
1F
100
AcDbEntity
  8
HEWI
  6
CUSTOM
370
     9
100
AcDbLine
 10
455.3084455204543
 20
985.4072032904124
 30
0.0
 11
455.487006013267
 21
985.0708010019666
 31
0.0
  0
LINE
  5
2A1
330
1F
100
AcDbEntity
  8
HEWI
  6
CUSTOM
370
     9
100
AcDbLine
 10
458.0394467669955
 20
971.5828170400126
 30
0.0
 11
458.0856210393924
 21
971.9065111110746
 31
0.0
  0
LINE
  5
2A2
330
1F
100
AcDbEntity
  8
HEWI
  6
CUSTOM
370
     9
100
AcDbLine
 10
433.7267792328839
 20
946.6315826016586
 30
0.0
 11
433.5946456385495
 21
946.8793825930925
 31
0.0
  0
LWPOLYLINE
  5
2A3
330
1F
100
AcDbEntity
  8
HEWI
  6
CUSTOM
370
     9
100
AcDbPolyline
 90
        3
 70
     0
 43
0.0
 10
450.4849741957448
 20
957.2198025768003
 10
450.1737803024512
 20
956.9278858027855
 10
448.5772940087968
 20
955.7208531130655
  0
LINE
  5
2A4
330
1F
100
AcDbEntity
  8
HEWI
  6
CUSTOM
370
     9
100
AcDbLine
 10
433.1765338745653
 20
947.5731500282115
 30
0.0
 11
432.8302439940175
 21
948.1192388154036
 31
0.0
  0
LINE
  5
2A5
330
1F
100
AcDbEntity
  8
HEWI
  6
CUSTOM
370
     9
100
AcDbLine
 10
457.1841533474355
 20
967.5148860591374
 30
0.0
 11
456.7603464901001
 21
966.3520632200606
 31
0.0
  0
LINE
  5
2A6
330
1F
100
AcDbEntity
  8
HEWI
  6
CUSTOM
370
     9
100
AcDbLine
 10
432.5430387937116
 20
948.5095468842015
 30
0.0
 11
431.9079484106623
 21
949.3154546119546
 31
0.0
  0
LINE
  5
2A7
330
1F
100
AcDbEntity
  8
HEWI
  6
CUSTOM
370
     9
100
AcDbLine
 10
431.5390024405419
 20
949.7245747190795
 30
0.0
 11
429.5415600412625
 21
951.5415956022975
 31
0.0
  0
LWPOLYLINE
  5
2A8
330
1F
100
AcDbEntity
  8
HEWI
  6
CUSTOM
370
     9
100
AcDbPolyline
 90
        3
 70
     0
 43
0.0
 10
995.144397996516
 20
966.3838355886054
 10
995.1619716853615
 20
967.4055408897636
 10
995.1789182574962
 20
968.8262095112916
  0
LWPOLYLINE
  5
2AA
330
1F
100
AcDbEntity
  8
HEWI
  6
CUSTOM
370
     9
100
AcDbPolyline
 90
        5
 70
     0
 43
0.0
 10
995.1748997151986
 20
972.0818132697504
 10
995.1745246532023
 20
972.1516112726304
 10
995.144397996516
 20
974.1273302428215
 10
995.0239073505844
 20
978.0314568534356
 10
994.5422004028664
 20
985.8650243832855
  0
LWPOLYLINE
  5
2AB
330
1F
100
AcDbEntity
  8
HEWI
  6
CUSTOM
370
     9
100
AcDbPolyline
 90
        4
 70
     0
 43
0.0
 10
803.2131608920348
 20
941.1679778063156
 10
803.1769138859022
 20
941.1329484037976
 10
803.1257600147268
 20
941.0964829486175
 10
803.0684679342511
 20
941.0800469214265
  0
LWPOLYLINE
  5
2AC
330
1F
100
AcDbEntity
  8
HEWI
  6
CUSTOM
370
     9
100
AcDbPolyline
 90
        5
 70
     0
 43
0.0
 10
995.1745246532023
 20
972.1334663097785
 10
995.1820565670869
 20
971.0961810333836
 10
995.1845672272456
 20
970.2827159473725
 10
995.1820565670869
 20
969.4692508613616
 10
995.1789182574962
 20
968.8262095112916
  0
LWPOLYLINE
  5
2AD
330
1F
100
AcDbEntity
  8
HEWI
  6
CUSTOM
370
     9
100
AcDbPolyline
 90
        3
 70
     0
 43
0.0
 10
988.4641613354851
 20
953.8301324653597
 10
987.4641612858185
 20
953.8301324653597
 10
987.4641612858185
 20
953.8892331462093
  0
LWPOLYLINE
  5
2AE
330
1F
100
AcDbEntity
  8
HEWI
  6
CUSTOM
370
     9
100
AcDbPolyline
 90
       12
 70
     0
 43
0.0
 10
989.3476742231255
 20
953.8064243677665
 10
989.3315274218704
 20
953.8072827406736
 10
989.2437486387358
 20
953.8116728855966
 10
989.1172467154888
 20
953.8171651215415
 10
989.0894009148947
 20
953.8182446523194
 10
988.9854169999525
 20
953.8218692472385
 10
988.8772453051201
 20
953.8249475207706
 10
988.8505263725978
 20
953.8255953530736
 10
988.6967336333887
 20
953.8284710270025
 10
988.659658804152
 20
953.8289529695285
 10
988.5807563884149
 20
953.8297075515805
 10
988.4641613354851
 20
953.8301324653597
  0
LWPOLYLINE
  5
2AF
330
1F
100
AcDbEntity
  8
HEWI
  6
CUSTOM
370
     9
100
AcDbPolyline
 90
        3
 70
     0
 43
0.0
 10
995.1789182574962
 20
968.8262095112916
 10
995.1745246532023
 20
968.4889953543525
 10
995.144397996516
 20
966.3838355886054
  0
LWPOLYLINE
  5
2B0
330
1F
100
AcDbEntity
  8
HEWI
  6
CUSTOM
370
     9
100
AcDbPolyline
 90
       10
 70
     0
 43
0.0
 10
989.7132658755936
 20
953.7827926936346
 10
993.5455934415468
 20
953.8434621345984
 10
994.0216205742112
 20
953.9592293032855
 10
994.382859101433
 20
954.2907274142006
 10
994.5422004028664
 20
954.7536289948954
 10
994.7604231925648
 20
957.7227447521485
 10
994.8231464209925
 20
958.7919029696253
 10
995.0239073505844
 20
962.4916054708625
 10
995.1218040527782
 20
965.5280905728616
 10
995.144397996516
 20
966.3838355886054
  0
LWPOLYLINE
  5
2B1
330
1F
100
AcDbEntity
  8
HEWI
  6
CUSTOM
370
     9
100
AcDbPolyline
 90
        3
 70
     0
 43
0.0
 10
992.4641615341457
 20
958.7913170418955
 10
992.4641615341457
 20
958.7376839996617
 10
992.4641615341457
 20
961.2472927736236
  0
LINE
  5
2B2
330
1F
100
AcDbEntity
  8
HEWI
  6
CUSTOM
370
     9
100
AcDbLine
 10
787.9919076229884
 20
936.6079723170425
 30
0.0
 11
787.950889352403
 21
936.5682289342155
 31
0.0
  0
LINE
  5
2B3
330
1F
100
AcDbEntity
  8
HEWI
  6
CUSTOM
370
     9
100
AcDbLine
 10
803.0709521231729
 20
941.0790332190465
 30
0.0
 11
803.0305562306807
 21
941.0937943999103
 31
0.0
  0
LWPOLYLINE
  5
2B4
330
1F
100
AcDbEntity
  8
HEWI
  6
CUSTOM
370
     9
100
AcDbPolyline
 90
        3
 70
     0
 43
0.0
 10
995.002599965905
 20
978.3779597184885
 10
994.8978647145368
 20
980.1345155686716
 10
994.5422004028664
 20
985.8650243832855
  0
LWPOLYLINE
  5
2B5
330
1F
100
AcDbEntity
  8
HEWI
  6
CUSTOM
370
     9
100
AcDbPolyline
 90
        3
 70
     0
 43
0.0
 10
787.99183565057
 20
936.6079492669015
 10
802.5465825513332
 20
941.2692921253945
 10
803.0684679342511
 20
941.0800469214265
  0
LWPOLYLINE
  5
2B6
330
1F
100
AcDbEntity
  8
HEWI
  6
CUSTOM
370
     9
100
AcDbPolyline
 90
        4
 70
     0
 43
0.0
 10
992.4641615341457
 20
981.9904402703315
 10
992.4641615341457
 20
984.0258028791897
 10
992.4641615341457
 20
985.5376734322945
 10
992.4641615341457
 20
986.4684628139125
  0
LINE
  5
2B7
330
1F
100
AcDbEntity
  8
HEWI
  6
CUSTOM
370
     9
100
AcDbLine
 10
802.5949852718527
 20
941.2517404119505
 30
0.0
 11
800.0865004433459
 21
940.4814195336825
 31
0.0
  0
LINE
  5
2B8
330
1F
100
AcDbEntity
  8
HEWI
  6
CUSTOM
370
     9
100
AcDbLine
 10
796.3201420043292
 20
941.8857216471923
 30
0.0
 11
796.4202871984812
 21
941.9814743231755
 31
0.0
  0
LINE
  5
2B9
330
1F
100
AcDbEntity
  8
HEWI
  6
CUSTOM
370
     9
100
AcDbLine
 10
989.6232471102585
 20
953.7893526571046
 30
0.0
 11
989.6538320091368
 21
953.7871790103853
 31
0.0
  0
LWPOLYLINE
  5
2BA
330
1F
100
AcDbEntity
  8
HEWI
  6
CUSTOM
370
     9
100
AcDbPolyline
 90
       17
 70
     0
 43
0.0
 10
394.5641317439791
 20
1030.682716308025
 10
394.4641318343797
 20
1030.682716308025
 10
394.4641318343797
 20
1030.567427989756
 10
394.4641318343797
 20
1030.225993500366
 10
394.4641318343797
 20
1029.536818267433
 10
394.4641318343797
 20
1028.579404585447
 10
394.4641318343797
 20
1027.406659286901
 10
394.4641318343797
 20
1026.083388463698
 10
394.4641318343797
 20
1024.682716272199
 10
394.4641318343797
 20
1021.53271625339
 10
394.4641318343797
 20
1021.142556613614
 10
394.4641318343797
 20
1020.767388959766
 10
394.4641318343797
 20
1020.357201190835
 10
394.4641318343797
 20
1020.011965518566
 10
394.4641318343797
 20
1019.750757649832
 10
394.4641318343797
 20
1019.588010405851
 10
394.4641295915449
 20
1019.532716241448
  0
LINE
  5
2BB
330
1F
100
AcDbEntity
  8
HEWI
  6
CUSTOM
370
     9
100
AcDbLine
 10
989.5450413048106
 20
953.7946501856605
 30
0.0
 11
989.5865638226306
 21
953.7918873732923
 31
0.0
  0
LWPOLYLINE
  5
2BC
330
1F
100
AcDbEntity
  8
HEWI
  6
CUSTOM
370
     9
100
AcDbPolyline
 90
       12
 70
     0
 43
0.0
 10
987.4641612858185
 20
953.8892331472016
 10
987.4641612858185
 20
954.7331377013854
 10
987.4641612858185
 20
956.3775042475326
 10
987.4641612858185
 20
958.7376839996617
 10
987.4641612858185
 20
958.7913170418955
 10
987.4641612858185
 20
958.8529715173887
 10
987.4641612858185
 20
958.9194827990175
 10
987.4641612858185
 20
958.9874369674525
 10
987.4641612858185
 20
959.0533460422575
 10
987.4641612858185
 20
959.1138270144286
 10
987.4641612858185
 20
959.1657754909226
 10
987.4641612858185
 20
959.1713580028645
  0
LWPOLYLINE
  5
2BD
330
1F
100
AcDbEntity
  8
HEWI
  6
CUSTOM
370
     9
100
AcDbPolyline
 90
       11
 70
     0
 43
0.0
 10
989.7132658755936
 20
953.7827926936346
 10
989.7101350786847
 20
953.7830292115396
 10
989.7036963172858
 20
953.7835112867117
 10
989.6833505056493
 20
953.7850214013046
 10
989.652789450657
 20
953.7872552145923
 10
989.6282989562788
 20
953.7890035881755
 10
989.5804991190262
 20
953.7923064279496
 10
989.5296962757674
 20
953.7956644904324
 10
989.5231056635557
 20
953.7960890569335
 10
989.4120172612975
 20
953.8028485444115
 10
989.3476742231255
 20
953.8064243677665
  0
LINE
  5
2BE
330
1F
100
AcDbEntity
  8
HEWI
  6
CUSTOM
370
     9
100
AcDbLine
 10
394.4641295915449
 20
1019.532716241448
 30
0.0
 11
394.4641318343797
 21
1001.032716130983
 31
0.0
  0
LINE
  5
2BF
330
1F
100
AcDbEntity
  8
HEWI
  6
CUSTOM
370
     9
100
AcDbLine
 10
988.4641613354851
 20
953.8301324653597
 30
0.0
 11
988.5904139345388
 21
953.8296151917865
 31
0.0
  0
LWPOLYLINE
  5
2C0
330
1F
100
AcDbEntity
  8
HEWI
  6
CUSTOM
370
     9
100
AcDbPolyline
 90
        3
 70
     0
 43
0.0
 10
995.1649754502081
 20
972.7778520695766
 10
995.1745246532023
 20
972.1572612582756
 10
995.1750108482402
 20
972.0665081680076
  0
LINE
  5
2C1
330
1F
100
AcDbEntity
  8
HEWI
  6
CUSTOM
370
     9
100
AcDbLine
 10
989.5166441022839
 20
953.7964822288735
 30
0.0
 11
989.5316743120998
 21
953.7955337424486
 31
0.0
  0
LINE
  5
2C2
330
1F
100
AcDbEntity
  8
HEWI
  6
CUSTOM
370
     9
100
AcDbLine
 10
989.221761495672
 20
953.8126274843445
 30
0.0
 11
989.2531555866167
 21
953.8112024089956
 31
0.0
  0
LINE
  5
2C3
330
1F
100
AcDbEntity
  8
HEWI
  6
CUSTOM
370
     9
100
AcDbLine
 10
989.056466089069
 20
953.8193926702874
 30
0.0
 11
989.1421652705117
 21
953.8160832519555
 31
0.0
  0
LINE
  5
2C4
330
1F
100
AcDbEntity
  8
HEWI
  6
CUSTOM
370
     9
100
AcDbLine
 10
989.3468580131997
 20
953.8064677579388
 30
0.0
 11
989.4420602812875
 21
953.8010204920446
 31
0.0
  0
LWPOLYLINE
  5
2C5
330
1F
100
AcDbEntity
  8
HEWI
  6
CUSTOM
370
     9
100
AcDbPolyline
 90
        3
 70
     0
 43
0.0
 10
989.6988639246337
 20
953.7838691068854
 10
989.7059536106949
 20
953.7833356210505
 10
989.7132658755936
 20
953.7827926936346
  0
LINE
  5
2C6
330
1F
100
AcDbEntity
  8
HEWI
  6
CUSTOM
370
     9
100
AcDbLine
 10
989.3146702704239
 20
953.8081258298054
 30
0.0
 11
989.3442201376442
 21
953.8066079888626
 31
0.0
  0
LINE
  5
2C7
330
1F
100
AcDbEntity
  8
HEWI
  6
CUSTOM
370
     9
100
AcDbLine
 10
988.9390345850156
 20
953.8231891651745
 30
0.0
 11
988.9930484693177
 21
953.8216032350785
 31
0.0
  0
LINE
  5
2C8
330
1F
100
AcDbEntity
  8
HEWI
  6
CUSTOM
370
     9
100
AcDbLine
 10
988.8249396695741
 20
953.8260737827775
 30
0.0
 11
988.8882475790255
 21
953.8246344258444
 31
0.0
  0
LINE
  5
2C9
330
1F
100
AcDbEntity
  8
HEWI
  6
CUSTOM
370
     9
100
AcDbLine
 10
394.4641318343797
 20
1026.782716284738
 30
0.0
 11
394.4641295915449
 21
1019.532716241448
 31
0.0
  0
LINE
  5
2CA
330
1F
100
AcDbEntity
  8
HEWI
  6
CUSTOM
370
     9
100
AcDbLine
 10
988.6122593711675
 20
953.8294062732855
 30
0.0
 11
988.7271370401153
 21
953.8279025327586
 31
0.0
  0
LINE
  5
2CB
330
1F
100
AcDbEntity
  8
HEWI
  6
CUSTOM
370
     9
100
AcDbLine
 10
394.4641295915449
 20
789.0327148651155
 30
0.0
 11
394.4641318343797
 21
807.5327149755805
 31
0.0
  0
LWPOLYLINE
  5
2CC
330
1F
100
AcDbEntity
  8
HEWI
  6
CUSTOM
370
     9
100
AcDbPolyline
 90
       16
 70
     0
 43
0.0
 10
411.0641326544907
 20
997.0238363321996
 10
435.464133870651
 20
997.0238362581374
 10
440.906440416546
 20
996.3630206329055
 10
446.0324598879728
 20
994.4189779593804
 10
450.5442866655748
 20
991.3046889314395
 10
454.179709776861
 20
987.2011447074065
 10
456.7274516448292
 20
982.3468283618066
 10
458.0394467727769
 20
977.0238551159247
 10
458.0394467727769
 20
971.5415768265895
 10
456.7274516448292
 20
966.2186035807065
 10
454.179709776861
 20
961.3642872351066
 10
450.5442866655748
 20
957.2607430110746
 10
446.0324598879728
 20
954.1464539831336
 10
440.906440416546
 20
952.2024113096085
 10
435.464133870651
 20
951.5415956843755
 10
411.0641320270121
 20
951.5415956103074
  0
LINE
  5
2CD
330
1F
100
AcDbEntity
  8
HEWI
  6
CUSTOM
370
     9
100
AcDbLine
 10
394.4641317609683
 20
1001.032716130983
 30
0.0
 11
394.4641295915449
 21
1001.032716130983
 31
0.0
  0
LINE
  5
2CE
330
1F
100
AcDbEntity
  8
HEWI
  6
CUSTOM
370
     9
100
AcDbLine
 10
394.4641295915449
 20
895.0327154980495
 30
0.0
 11
394.4641318343797
 21
876.6147830493526
 31
0.0
  0
LWPOLYLINE
  5
2CF
330
1F
100
AcDbEntity
  8
HEWI
  6
CUSTOM
370
     9
100
AcDbPolyline
 90
       17
 70
     0
 43
0.0
 10
394.4641318343797
 20
789.0327148651155
 10
394.4641318343797
 20
788.9942561709236
 10
394.4641318343797
 20
788.8804247472866
 10
394.4641318343797
 20
788.6506884210604
 10
394.4641318343797
 20
788.3315523253826
 10
394.4641318343797
 20
787.9406500569595
 10
394.4641318343797
 20
787.4995805920467
 10
394.4641318343797
 20
787.0327148531726
 10
394.4641318343797
 20
783.5827148325725
 10
394.4641318343797
 20
782.4121728934865
 10
394.4641318343797
 20
781.2866142246718
 10
394.4641318343797
 20
780.0560032977594
 10
394.4641318343797
 20
779.0202790117294
 10
394.4641318343797
 20
778.2366756555205
 10
394.4641318343797
 20
777.7484952753504
 10
394.4641318343797
 20
777.5827147967466
 10
394.5641318371113
 20
777.5827147967466
  0
LINE
  5
2D0
330
1F
100
AcDbEntity
  8
HEWI
  6
CUSTOM
370
     9
100
AcDbLine
 10
394.5641319227929
 20
807.5327279395517
 30
0.0
 11
394.4641318343797
 21
807.5327149755805
 31
0.0
  0
LINE
  5
2D1
330
1F
100
AcDbEntity
  8
HEWI
  6
CUSTOM
370
     9
100
AcDbLine
 10
394.4641318343797
 20
996.9379581181275
 30
0.0
 11
394.4641295915449
 21
1001.032716130983
 31
0.0
  0
LINE
  5
2D3
330
1F
100
AcDbEntity
  8
HEWI
  6
CUSTOM
370
     9
100
AcDbLine
 10
394.4641318343797
 20
913.5327156085136
 30
0.0
 11
394.4641318343797
 21
1001.032716130983
 31
0.0
  0
LINE
  5
2D4
330
1F
100
AcDbEntity
  8
HEWI
  6
CUSTOM
370
     9
100
AcDbLine
 10
394.5641319479043
 20
789.0327148651155
 30
0.0
 11
394.4641317609683
 21
789.0327148651155
 31
0.0
  0
LINE
  5
2D5
330
1F
100
AcDbEntity
  8
HEWI
  6
CUSTOM
370
     9
100
AcDbLine
 10
394.5641319227929
 20
913.5327285724855
 30
0.0
 11
394.4641318343797
 21
913.5327156085136
 31
0.0
  0
LINE
  5
2D6
330
1F
100
AcDbEntity
  8
HEWI
  6
CUSTOM
370
     9
100
AcDbLine
 10
410.9641326538551
 20
995.2741526435945
 30
0.0
 11
410.9641326538551
 21
953.2912792989186
 31
0.0
  0
LINE
  5
2D7
330
1F
100
AcDbEntity
  8
HEWI
  6
CUSTOM
370
     9
100
AcDbLine
 10
394.4641295915449
 20
913.5327156085136
 30
0.0
 11
394.4641318343797
 21
895.0327154980495
 31
0.0
  0
LINE
  5
2D8
330
1F
100
AcDbEntity
  8
HEWI
  6
CUSTOM
370
     9
100
AcDbLine
 10
394.4641317609683
 20
895.0327154980495
 30
0.0
 11
394.4641295915449
 21
895.0327154980495
 31
0.0
  0
LINE
  5
2D9
330
1F
100
AcDbEntity
  8
HEWI
  6
CUSTOM
370
     9
100
AcDbLine
 10
394.4641318343797
 20
895.0327154980495
 30
0.0
 11
394.5641318445619
 21
895.0327025340886
 31
0.0
  0
LINE
  5
2DA
330
1F
100
AcDbEntity
  8
HEWI
  6
CUSTOM
370
     9
100
AcDbLine
 10
394.4641317609683
 20
789.0327148651155
 30
0.0
 11
394.4641295915449
 21
789.0327148651155
 31
0.0
  0
LINE
  5
2DB
330
1F
100
AcDbEntity
  8
HEWI
  6
CUSTOM
370
     9
100
AcDbLine
 10
394.4641295915449
 20
1019.532716241448
 30
0.0
 11
394.56413184137
 21
1019.532716241448
 31
0.0
  0
LINE
  5
2DC
330
1F
100
AcDbEntity
  8
HEWI
  6
CUSTOM
370
     9
100
AcDbLine
 10
394.4641318343797
 20
807.5327149755805
 30
0.0
 11
394.4641318343797
 21
895.0327154980495
 31
0.0
  0
LINE
  5
2DD
330
1F
100
AcDbEntity
  8
HEWI
  6
CUSTOM
370
     9
100
AcDbLine
 10
394.4641318343797
 20
1001.032716130983
 30
0.0
 11
394.5641318445619
 21
1001.032703167021
 31
0.0
  0
LINE
  5
2DE
330
1F
100
AcDbEntity
  8
HEWI
  6
CUSTOM
370
     9
100
AcDbLine
 10
394.4641295915449
 20
789.0327148651155
 30
0.0
 11
394.4641318343797
 21
781.7827148218246
 31
0.0
  0
LINE
  5
2DF
330
1F
100
AcDbEntity
  8
HEWI
  6
CUSTOM
370
     9
100
AcDbLine
 10
394.4641295915449
 20
913.5327156085136
 30
0.0
 11
394.4641318343797
 21
913.5327156085136
 31
0.0
  0
LWPOLYLINE
  5
2EA
330
1F
100
AcDbEntity
  8
HEWI
  6
CUSTOM
370
     9
100
AcDbPolyline
 90
        7
 70
     0
 43
0.0
 10
411.0641326588156
 20
951.5327158354146
 10
411.0641326588156
 20
951.5394962335076
 10
411.0641326588156
 20
951.6581409067146
 10
411.0641326588156
 20
951.8163338043237
 10
411.0641326588156
 20
955.1911156199896
 10
411.0641326588156
 20
964.1905337950996
 10
411.0641326588156
 20
997.0186506305104
  0
LWPOLYLINE
  5
2EB
330
1F
100
AcDbEntity
  8
HEWI
  6
CUSTOM
370
     9
100
AcDbPolyline
 90
       38
 70
     0
 43
0.0
 10
411.0641326588156
 20
997.3662581656686
 10
411.0641326588156
 20
998.6147676017386
 10
411.0641326588156
 20
1000.279446849831
 10
411.0641326588156
 20
1004.718591511414
 10
411.0641326588156
 20
1022.282716257868
 10
410.7758036345865
 20
1024.841707013646
 10
409.9252745831318
 20
1027.272379287514
 10
408.5551945825911
 20
1029.452849022057
 10
406.7342651651475
 20
1031.273778359937
 10
404.5537953353305
 20
1032.643858300613
 10
402.1231229552563
 20
1033.494387314905
 10
399.5641320876666
 20
1033.782716326536
 10
394.5641318393407
 20
1033.782716326536
 10
394.5641318393407
 20
1033.757644238568
 10
394.5641318393407
 20
1033.683685193847
 10
394.5641318393407
 20
1033.564547807701
 10
394.5641318393407
 20
1033.406206126146
 10
394.5641318393407
 20
1033.216600062273
 10
394.5641318393407
 20
1033.00523725585
 10
394.5641318393407
 20
1032.782716320564
 10
394.5641318393407
 20
775.7827147859987
 10
394.5641318393407
 20
775.5601938507136
 10
394.5641318393407
 20
775.3488310442905
 10
394.5641318393407
 20
775.1592249804165
 10
394.5641318393407
 20
775.0008832988616
 10
394.5641318393407
 20
774.8817459127166
 10
394.5641318393407
 20
774.8077868679956
 10
394.5641318393407
 20
774.7827147800275
 10
399.5641320876666
 20
774.7827147800275
 10
402.1231229552563
 20
775.0710437916576
 10
404.5537953353305
 20
775.9215728059496
 10
406.7342651651475
 20
777.2916527466255
 10
408.5551945825911
 20
779.1125820845054
 10
409.9252745831318
 20
781.2930518190495
 10
410.7758036345865
 20
783.7237240929176
 10
411.0641326588156
 20
786.2827148486947
 10
411.0641326588156
 20
868.9027633375166
 10
411.0641326588156
 20
951.5228118263374
  0
LINE
  5
2EC
330
1F
100
AcDbEntity
  8
HEWI
  6
CUSTOM
370
     9
100
AcDbLine
 10
411.0641326588156
 20
951.5228118263374
 30
0.0
 11
411.0641326588156
 21
951.5327158354146
 31
0.0
  0
LINE
  5
2ED
330
1F
100
AcDbEntity
  8
HEWI
  6
CUSTOM
370
     9
100
AcDbLine
 10
411.0641326588156
 20
997.0327161070986
 30
0.0
 11
411.0641326588156
 21
997.0443768266825
 31
0.0
  0
LINE
  5
2F0
330
1F
100
AcDbEntity
  8
HEWI
  6
CUSTOM
370
     9
100
AcDbLine
 10
411.0631326587663
 20
951.5409090281224
 30
0.0
 11
411.0631326587663
 21
951.5327158354146
 31
0.0
  0
LINE
  5
2F2
330
1F
100
AcDbEntity
  8
HEWI
  6
CUSTOM
370
     9
100
AcDbLine
 10
411.0641326588156
 20
997.0443768266825
 30
0.0
 11
411.0641326588156
 21
997.1321626464055
 31
0.0
  0
LINE
  5
2F3
330
1F
100
AcDbEntity
  8
HEWI
  6
CUSTOM
370
     9
100
AcDbLine
 10
411.0641326588156
 20
997.1321626464055
 30
0.0
 11
411.0641326588156
 21
997.3662581656686
 31
0.0
  0
LWPOLYLINE
  5
2F4
330
1F
100
AcDbEntity
  8
HEWI
  6
CUSTOM
370
     9
100
AcDbPolyline
 90
        4
 70
     0
 43
0.0
 10
411.0631326587663
 20
997.0327161070986
 10
411.0631326587663
 20
997.0177347257095
 10
411.0631326587663
 20
997.0013088047865
 10
411.0631326587663
 20
996.9575063489914
  0
LWPOLYLINE
  5
2F5
330
1F
100
AcDbEntity
  8
HEWI
  6
CUSTOM
370
     9
100
AcDbPolyline
 90
        3
 70
     0
 43
0.0
 10
411.0635424047455
 20
996.8406998002054
 10
410.0641326091504
 20
997.0427161071587
 10
411.0631326587663
 20
997.0327161070986
  0
LWPOLYLINE
  5
2F6
330
1F
100
AcDbEntity
  8
HEWI
  6
CUSTOM
370
     9
100
AcDbPolyline
 90
        3
 70
     0
 43
0.0
 10
411.0631326587663
 20
951.5327158354146
 10
410.0641326091504
 20
951.5203997849885
 10
411.0641326588156
 20
951.5228118263374
  0
LINE
  5
2F7
330
1F
100
AcDbEntity
  8
HEWI
  6
CUSTOM
370
     9
100
AcDbLine
 10
411.0641326588156
 20
997.0186506305104
 30
0.0
 11
411.0641326588156
 21
997.0327161070986
 31
0.0
  0
LINE
  5
2F8
330
1F
100
AcDbEntity
  8
HEWI
  6
CUSTOM
370
     9
100
AcDbLine
 10
411.0641326588156
 20
997.0186506305104
 30
0.0
 11
411.0641024209034
 21
996.8406998002054
 31
0.0
  0
LINE
  5
2F9
330
1F
100
AcDbEntity
  8
HEWI
  6
CUSTOM
370
     9
100
AcDbLine
 10
411.0631326587663
 20
997.0327161070986
 30
0.0
 11
411.0635424047455
 21
996.8406998002054
 31
0.0
  0
LWPOLYLINE
  5
2FA
330
1F
100
AcDbEntity
  8
HEWI
  6
CUSTOM
370
     9
100
AcDbPolyline
 90
        4
 70
     0
 43
0.0
 10
411.0641326588156
 20
997.3662581656686
 10
410.0641326091504
 20
997.3697270553266
 10
410.6938115287948
 20
997.0364130214488
 10
411.0635424047455
 20
996.8406998002054
  0
LINE
  5
2FB
330
1F
100
AcDbEntity
  8
HEWI
  6
CUSTOM
370
     9
100
AcDbLine
 10
411.0641326588156
 20
997.0327161070986
 30
0.0
 11
411.0641024209034
 21
996.8406998002054
 31
0.0
  0
LINE
  5
2FC
330
1F
100
AcDbEntity
  8
HEWI
  6
CUSTOM
370
     9
100
AcDbLine
 10
411.0641024209034
 20
996.8406998002054
 30
0.0
 11
411.0641326588156
 21
997.1321626464055
 31
0.0
  0
LINE
  5
2FD
330
1F
100
AcDbEntity
  8
HEWI
  6
CUSTOM
370
     9
100
AcDbLine
 10
411.0640178249607
 20
996.8406998002054
 30
0.0
 11
411.0641326588156
 21
997.3662581656686
 31
0.0
  0
LINE
  5
2FE
330
1F
100
AcDbEntity
  8
HEWI
  6
CUSTOM
370
     9
100
AcDbLine
 10
411.0641326588156
 20
951.5327158354146
 30
0.0
 11
411.0631326587663
 21
951.5327158354146
 31
0.0
  0
LINE
  5
2FF
330
1F
100
AcDbEntity
  8
HEWI
  6
CUSTOM
370
     9
100
AcDbLine
 10
411.0641024209034
 20
996.8406998002054
 30
0.0
 11
411.0640178249607
 21
996.8406998002054
 31
0.0
  0
LINE
  5
300
330
1F
100
AcDbEntity
  8
HEWI
  6
CUSTOM
370
     9
100
AcDbLine
 10
411.0641326588156
 20
997.0443768266825
 30
0.0
 11
411.0641024209034
 21
996.8406998002054
 31
0.0
  0
LINE
  5
538
330
1F
100
AcDbEntity
  8
HEWI
  6
CUSTOM
370
     9
100
AcDbLine
 10
56.01959680289269
 20
997.0186482021615
 30
0.0
 11
56.01959680289269
 21
997.0327136785956
 31
0.0
  0
LINE
  5
539
330
1F
100
AcDbEntity
  8
HEWI
  6
CUSTOM
370
     9
100
AcDbLine
 10
56.01959680289269
 20
951.5327139040852
 30
0.0
 11
56.01959680289269
 21
951.5394943021046
 31
0.0
  0
LWPOLYLINE
  5
53B
330
1F
100
AcDbEntity
  8
HEWI
  6
CUSTOM
370
     9
100
AcDbPolyline
 90
       50
 70
     0
 43
0.0
 10
56.01859680289544
 20
951.5203978537943
 10
56.01859680289544
 20
951.5135614394905
 10
56.01859680289544
 20
951.4953310013485
 10
56.01859680289544
 20
951.3981019979246
 10
56.01859680289544
 20
951.2684633266916
 10
56.01859680289544
 20
950.9227602034044
 10
56.01859680289544
 20
949.0790102125426
 10
56.01859680289544
 20
939.2456769279416
 10
56.01859680289544
 20
926.1345658818065
 10
56.01859680289544
 20
891.1716030921136
 10
56.01859680289544
 20
786.2827147230356
 10
56.01859680289544
 20
783.9462449280732
 10
56.01859680289544
 20
781.7269354848794
 10
56.01859680289544
 20
779.7360718359636
 10
56.01859680289544
 20
778.0734841978054
 10
56.01859680289544
 20
776.8225416569434
 10
56.01859680289544
 20
776.0459716958586
 10
56.01859680289544
 20
775.7827147750723
 10
56.04366889064909
 20
775.5601938422186
 10
56.11762793473679
 20
775.3488310381043
 10
56.23676531986302
 20
775.1592249763035
 10
56.39510700006258
 20
775.0008832964787
 10
56.58471306231286
 20
774.8817459116343
 10
56.79607586692691
 20
774.8077868677215
 10
57.01859680030793
 20
774.7827147800275
 10
133.0185966036213
 20
774.7827147800275
 10
133.2411175370023
 20
774.8077868677215
 10
133.4524803416158
 20
774.8817459116343
 10
133.6420864038673
 20
775.0008832964787
 10
133.8004280840661
 20
775.1592249763035
 10
133.9195654691924
 20
775.3488310381043
 10
133.9935245132808
 20
775.5601938422186
 10
134.0185966010338
 20
775.7827147750723
 10
134.0185966010338
 20
776.0459716958586
 10
134.0185966010338
 20
776.8225416569434
 10
134.0185966010338
 20
778.0734841978054
 10
134.0185966010338
 20
779.7360718359636
 10
134.0185966010338
 20
781.7269354848794
 10
134.0185966010338
 20
783.9462449280732
 10
134.0185966010338
 20
786.2827147230356
 10
134.0185966010338
 20
891.1716030921136
 10
134.0185966010338
 20
926.1345658818065
 10
134.0185966010338
 20
939.2456769279416
 10
134.0185966010338
 20
949.0790102125426
 10
134.0185966010338
 20
950.9227602034044
 10
134.0185966010338
 20
951.2684633266916
 10
134.0185966010338
 20
951.3981019979246
 10
134.0185966010338
 20
951.4953310013485
 10
134.0185966010338
 20
951.5135614394905
 10
134.0185966010338
 20
951.5203978537943
  0
LWPOLYLINE
  5
53D
330
1F
100
AcDbEntity
  8
HEWI
  6
CUSTOM
370
     9
100
AcDbPolyline
 90
       34
 70
     0
 43
0.0
 10
134.0185966010338
 20
997.3697246231415
 10
134.0185966010338
 20
1009.650222925416
 10
134.0185966010338
 20
1022.282713553461
 10
134.0185966010338
 20
1024.619183348423
 10
134.0185966010338
 20
1026.838492791618
 10
134.0185966010338
 20
1028.829356440534
 10
134.0185966010338
 20
1030.491944078692
 10
134.0185966010338
 20
1031.742886619554
 10
134.0185966010338
 20
1032.519456580638
 10
134.0185966010338
 20
1032.782713501424
 10
133.9935245132808
 20
1033.005234434278
 10
133.9195654691924
 20
1033.216597238392
 10
133.8004280840661
 20
1033.406203300194
 10
133.6420864038673
 20
1033.564544980018
 10
133.4524803416163
 20
1033.683682364862
 10
133.2411175370023
 20
1033.757641408775
 10
133.0185966036213
 20
1033.782713496469
 10
57.01859680030793
 20
1033.782713496469
 10
56.79607586692691
 20
1033.757641408775
 10
56.58471306231286
 20
1033.683682364862
 10
56.39510700006258
 20
1033.564544980018
 10
56.23676531986302
 20
1033.406203300194
 10
56.11762793473679
 20
1033.216597238392
 10
56.04366889064909
 20
1033.005234434278
 10
56.01859680289544
 20
1032.782713501424
 10
56.01859680289544
 20
1032.519456580638
 10
56.01859680289544
 20
1031.742886619554
 10
56.01859680289544
 20
1030.491944078692
 10
56.01859680289544
 20
1028.829356440534
 10
56.01859680289544
 20
1026.838492791618
 10
56.01859680289544
 20
1024.619183348423
 10
56.01859680289544
 20
1022.282713553461
 10
56.01859680289544
 20
1009.650222925416
 10
56.01859680289544
 20
997.3697246231415
  0
LINE
  5
53E
330
1F
100
AcDbEntity
  8
HEWI
  6
CUSTOM
370
     9
100
AcDbLine
 10
134.017596601036
 20
997.0327136785956
 30
0.0
 11
134.017596601036
 21
997.0186482021615
 31
0.0
  0
LINE
  5
53F
330
1F
100
AcDbEntity
  8
HEWI
  6
CUSTOM
370
     9
100
AcDbLine
 10
134.017596601036
 20
951.5394943021046
 30
0.0
 11
134.017596601036
 21
951.5327139040852
 31
0.0
  0
LWPOLYLINE
  5
542
330
1F
100
AcDbEntity
  8
HEWI
  6
CUSTOM
370
     9
100
AcDbPolyline
 90
        4
 70
     0
 43
0.0
 10
56.01859680289544
 20
997.0177322973704
 10
56.01859680289544
 20
997.0013063766264
 10
56.01859680289544
 20
996.9575039213106
 10
56.01859680289544
 20
996.8406973738005
  0
LWPOLYLINE
  5
543
330
1F
100
AcDbEntity
  8
HEWI
  6
CUSTOM
370
     9
100
AcDbPolyline
 90
        5
 70
     0
 43
0.0
 10
56.01859680289544
 20
997.3697246231415
 10
56.01859680289544
 20
997.1937284602564
 10
56.01859680289544
 20
997.1057303788132
 10
56.01859680289544
 20
997.0617313380913
 10
56.01859680289544
 20
997.0427136785463
  0
LINE
  5
544
330
1F
100
AcDbEntity
  8
HEWI
  6
CUSTOM
370
     9
100
AcDbLine
 10
56.01859680289544
 20
997.0327136785956
 30
0.0
 11
56.01859680289544
 21
997.0177322973704
 31
0.0
  0
LINE
  5
545
330
1F
100
AcDbEntity
  8
HEWI
  6
CUSTOM
370
     9
100
AcDbLine
 10
56.01859680289544
 20
997.0427136785463
 30
0.0
 11
56.01859680289544
 21
997.0327136785956
 31
0.0
  0
LINE
  5
546
330
1F
100
AcDbEntity
  8
HEWI
  6
CUSTOM
370
     9
100
AcDbLine
 10
56.01859680289544
 20
951.5327139040852
 30
0.0
 11
56.01859680289544
 21
951.5203978537943
 31
0.0
  0
LWPOLYLINE
  5
547
330
1F
100
AcDbEntity
  8
HEWI
  6
CUSTOM
370
     9
100
AcDbPolyline
 90
        3
 70
     0
 43
0.0
 10
56.01859680289544
 20
953.2912766727173
 10
56.01859680289544
 20
951.5409070967033
 10
56.01859680289544
 20
951.5327139040852
  0
LWPOLYLINE
  5
548
330
1F
100
AcDbEntity
  8
HEWI
  6
CUSTOM
370
     9
100
AcDbPolyline
 90
        3
 70
     0
 43
0.0
 10
56.01859680289544
 20
996.8406973738005
 10
56.01859680289544
 20
995.5947608670284
 10
56.01859680289544
 20
995.2741502386293
  0
LINE
  5
549
330
1F
100
AcDbEntity
  8
HEWI
  6
CUSTOM
370
     9
100
AcDbLine
 10
56.01959680289269
 20
997.0186482021615
 30
0.0
 11
56.01935275066466
 21
996.8406973738005
 31
0.0
  0
LINE
  5
54A
330
1F
100
AcDbEntity
  8
HEWI
  6
CUSTOM
370
     9
100
AcDbLine
 10
56.01959680289269
 20
997.0327136785956
 30
0.0
 11
56.01935275066466
 21
996.8406973738005
 31
0.0
  0
LINE
  5
54B
330
1F
100
AcDbEntity
  8
HEWI
  6
CUSTOM
370
     9
100
AcDbLine
 10
56.01859680289544
 20
997.3697246231415
 30
0.0
 11
56.01868460321918
 21
996.8406973738005
 31
0.0
  0
LINE
  5
54C
330
1F
100
AcDbEntity
  8
HEWI
  6
CUSTOM
370
     9
100
AcDbLine
 10
56.01959680289269
 20
951.5327139040852
 30
0.0
 11
56.01859680289544
 21
951.5327139040852
 31
0.0
  0
LINE
  5
54D
330
1F
100
AcDbEntity
  8
HEWI
  6
CUSTOM
370
     9
100
AcDbLine
 10
56.01859680289544
 20
997.0427136785463
 30
0.0
 11
56.01868460321918
 21
996.8406973738005
 31
0.0
  0
LINE
  5
54E
330
1F
100
AcDbEntity
  8
HEWI
  6
CUSTOM
370
     9
100
AcDbLine
 10
56.01935275066466
 20
996.8406973738005
 30
0.0
 11
56.01913152782845
 21
996.8406973738005
 31
0.0
  0
LWPOLYLINE
  5
550
330
1F
100
AcDbEntity
  8
HEWI
  6
CUSTOM
370
     9
100
AcDbPolyline
 90
        5
 70
     0
 43
0.0
 10
134.0185966010338
 20
997.0427136785463
 10
134.0185966010338
 20
997.0617313380913
 10
134.0185966010338
 20
997.1057303788132
 10
134.0185966010338
 20
997.1937284602564
 10
134.0185966010338
 20
997.3697246231415
  0
LINE
  5
551
330
1F
100
AcDbEntity
  8
HEWI
  6
CUSTOM
370
     9
100
AcDbLine
 10
134.0178406532644
 20
996.8406973738005
 30
0.0
 11
134.017596601036
 21
997.0327136785956
 31
0.0
  0
LINE
  5
552
330
1F
100
AcDbEntity
  8
HEWI
  6
CUSTOM
370
     9
100
AcDbLine
 10
134.0185088007094
 20
996.8406973738005
 30
0.0
 11
134.0185966010338
 21
997.0427136785463
 31
0.0
  0
LWPOLYLINE
  5
553
330
1F
100
AcDbEntity
  8
HEWI
  6
CUSTOM
370
     9
100
AcDbPolyline
 90
        4
 70
     0
 43
0.0
 10
134.0185966010338
 20
996.8406973738005
 10
134.0185966010338
 20
996.9575039213106
 10
134.0185966010338
 20
997.0013063766264
 10
134.0185966010338
 20
997.0177322973704
  0
LINE
  5
554
330
1F
100
AcDbEntity
  8
HEWI
  6
CUSTOM
370
     9
100
AcDbLine
 10
134.0185088007094
 20
996.8406973738005
 30
0.0
 11
134.0185966010338
 21
997.3697246231415
 31
0.0
  0
LINE
  5
555
330
1F
100
AcDbEntity
  8
HEWI
  6
CUSTOM
370
     9
100
AcDbLine
 10
134.0178406532644
 20
996.8406973738005
 30
0.0
 11
134.0180618761009
 21
996.8406973738005
 31
0.0
  0
LINE
  5
556
330
1F
100
AcDbEntity
  8
HEWI
  6
CUSTOM
370
     9
100
AcDbLine
 10
134.0185966010338
 20
997.0327136785956
 30
0.0
 11
134.0185966010338
 21
997.0427136785463
 31
0.0
  0
LINE
  5
557
330
1F
100
AcDbEntity
  8
HEWI
  6
CUSTOM
370
     9
100
AcDbLine
 10
134.0178406532644
 20
996.8406973738005
 30
0.0
 11
134.017596601036
 21
997.0186482021615
 31
0.0
  0
LINE
  5
558
330
1F
100
AcDbEntity
  8
HEWI
  6
CUSTOM
370
     9
100
AcDbLine
 10
134.0185966010338
 20
951.5327139040852
 30
0.0
 11
134.017596601036
 21
951.5327139040852
 31
0.0
  0
LWPOLYLINE
  5
559
330
1F
100
AcDbEntity
  8
HEWI
  6
CUSTOM
370
     9
100
AcDbPolyline
 90
        3
 70
     0
 43
0.0
 10
134.0185966010338
 20
951.5327139040852
 10
134.0185966010338
 20
951.5409070967033
 10
134.0185966010338
 20
953.2912773695114
  0
LINE
  5
55A
330
1F
100
AcDbEntity
  8
HEWI
  6
CUSTOM
370
     9
100
AcDbLine
 10
134.0185966010338
 20
951.5203978537943
 30
0.0
 11
134.0185966010338
 21
951.5327139040852
 31
0.0
  0
LWPOLYLINE
  5
55B
330
1F
100
AcDbEntity
  8
HEWI
  6
CUSTOM
370
     9
100
AcDbPolyline
 90
        3
 70
     0
 43
0.0
 10
134.0185966010338
 20
995.2741500405933
 10
134.0185966010338
 20
995.5947608670284
 10
134.0185966010338
 20
996.8406973738005
  0
LINE
  5
55C
330
1F
100
AcDbEntity
  8
HEWI
  6
CUSTOM
370
     9
100
AcDbLine
 10
134.0185966010338
 20
997.0177322973704
 30
0.0
 11
134.0185966010338
 21
997.0327136785956
 31
0.0
  0
LINE
  5
55E
330
1F
100
AcDbEntity
  8
HEWI
  6
CUSTOM
370
     9
100
AcDbLine
 10
72.51859676019399
 20
994.5327136909856
 30
0.0
 11
72.31859676518195
 21
994.5327136909856
 31
0.0
  0
LINE
  5
560
330
1F
100
AcDbEntity
  8
HEWI
  6
CUSTOM
370
     9
100
AcDbLine
 10
72.31859680243485
 20
954.0327138916962
 30
0.0
 11
72.51859676019399
 21
954.0327138916962
 31
0.0
  0
LINE
  5
562
330
1F
100
AcDbEntity
  8
HEWI
  6
CUSTOM
370
     9
100
AcDbLine
 10
117.5185966437352
 20
954.0327138916962
 30
0.0
 11
117.7185966387472
 21
954.0327138916962
 31
0.0
  0
LINE
  5
563
330
1F
100
AcDbEntity
  8
HEWI
  6
CUSTOM
370
     9
100
AcDbLine
 10
117.7185966014942
 20
994.5327136909856
 30
0.0
 11
117.5185966437352
 21
994.5327136909856
 31
0.0
  0
LINE
  5
564
330
1F
100
AcDbEntity
  8
HEWI
  6
CUSTOM
370
     9
100
AcDbLine
 10
111.0396549328361
 20
974.2292385911214
 30
0.0
 11
111.0396357483891
 21
974.2293967715763
 31
0.0
  0
LWPOLYLINE
  5
579
330
1F
100
AcDbEntity
  8
HEWI
  6
CUSTOM
370
     9
100
AcDbPolyline
 90
        4
 70
     0
 43
0.0
 10
89.5827481829915
 20
938.3926245865037
 10
88.50080028640617
 20
939.3749183180762
 10
87.87656178684882
 20
940.1136251964135
 10
87.43013845577252
 20
940.8007583567245
  0
LWPOLYLINE
  5
57A
330
1F
100
AcDbEntity
  8
HEWI
  6
CUSTOM
370
     9
100
AcDbPolyline
 90
        8
 70
     0
 43
0.0
 10
91.59488396404924
 20
941.3658311612854
 10
91.72317082286133
 20
941.2832470133706
 10
91.74507429901769
 20
941.2692903062135
 10
93.33755770125163
 20
941.0800451043133
 10
95.01859670196518
 20
941.0064029788442
 10
95.85233326928994
 20
941.0251198550765
 10
96.67163520265638
 20
941.0775343308616
 10
98.17990381021481
 20
941.2522944274293
  0
LWPOLYLINE
  5
57B
330
1F
100
AcDbEntity
  8
HEWI
  6
CUSTOM
370
     9
100
AcDbPolyline
 90
       25
 70
     0
 43
0.0
 10
89.42477885923267
 20
938.5360439450586
 10
89.50903656407502
 20
938.4357265177124
 10
89.54215468435632
 20
938.4068406937222
 10
89.89060387904624
 20
938.1452569938643
 10
90.97222400487202
 20
937.4764680332024
 10
91.08368090271005
 20
937.4186486527875
 10
91.98975264126103
 20
937.0170842486665
 10
92.07874798376691
 20
936.9839140331993
 10
92.99339188240276
 20
936.7040335747756
 10
93.49675121266761
 20
936.5958774919432
 10
93.96701454836568
 20
936.5237165881216
 10
94.57138285883718
 20
936.4704066027085
 10
95.06453417364207
 20
936.4588157136914
 10
95.6553784192364
 20
936.4823822014024
 10
96.26582414355652
 20
936.5503359197486
 10
96.60808953042147
 20
936.6085307006063
 10
97.41834054658717
 20
936.8055644596292
 10
97.52324109167956
 20
936.8372357363035
 10
98.38122014132842
 20
937.1514738871766
 10
98.3873786624539
 20
937.1540959138862
 10
99.26658815183044
 20
937.5860529035763
 10
99.41406465175226
 20
937.6703617255403
 10
100.4299917749256
 20
938.3560974579406
 10
100.4633963144392
 20
938.3858351883624
 10
100.5014838894501
 20
938.4429272880906
  0
LWPOLYLINE
  5
57C
330
1F
100
AcDbEntity
  8
HEWI
  6
CUSTOM
370
     9
100
AcDbPolyline
 90
       13
 70
     0
 43
0.0
 10
100.386608260484
 20
938.3401533861423
 10
101.4959382014149
 20
939.3326194869166
 10
102.3190349295179
 20
940.3070590776424
 10
102.3415156970567
 20
940.3464943613165
 10
102.3893717634162
 20
940.4402241520644
 10
102.7184088723255
 20
940.9634102413873
 10
102.7406047303057
 20
941.0012361202962
 10
102.7551190210238
 20
941.0427131303624
 10
102.8303752536817
 20
941.2950005022567
 10
102.944488447507
 20
941.5002118148006
 10
102.959932939161
 20
941.5403144260336
 10
102.9685318989888
 20
941.5819400616557
 10
103.0047204796793
 20
941.8399848957957
  0
LWPOLYLINE
  5
57D
330
1F
100
AcDbEntity
  8
HEWI
  6
CUSTOM
370
     9
100
AcDbPolyline
 90
        4
 70
     0
 43
0.0
 10
101.4835257019392
 20
939.3215145982644
 10
101.5371934080874
 20
939.3578447445927
 10
101.5702254867949
 20
939.3916219236883
 10
101.6153009062975
 20
939.4739294212623
  0
LWPOLYLINE
  5
57E
330
1F
100
AcDbEntity
  8
HEWI
  6
CUSTOM
370
     9
100
AcDbPolyline
 90
        3
 70
     0
 43
0.0
 10
99.55937858585356
 20
941.4910306192076
 10
99.58504389912832
 20
941.5113947732203
 10
99.61878522740086
 20
941.5682082148784
  0
LINE
  5
57F
330
1F
100
AcDbEntity
  8
HEWI
  6
CUSTOM
370
     9
100
AcDbLine
 10
98.20129366910533
 20
941.2659685236725
 30
0.0
 11
98.21637422357651
 21
941.3026824862955
 31
0.0
  0
LWPOLYLINE
  5
580
330
1F
100
AcDbEntity
  8
HEWI
  6
CUSTOM
370
     9
100
AcDbPolyline
 90
        3
 70
     0
 43
0.0
 10
102.9000939183789
 20
941.7936222095637
 10
102.9316239058591
 20
941.8242321330987
 10
102.98639655752
 20
941.8928022211563
  0
LWPOLYLINE
  5
581
330
1F
100
AcDbEntity
  8
HEWI
  6
CUSTOM
370
     9
100
AcDbPolyline
 90
        3
 70
     0
 43
0.0
 10
87.09715243991036
 20
941.6791894745944
 10
87.07043120498827
 20
941.7122632813113
 10
87.0573614752916
 20
941.7345929999386
  0
LWPOLYLINE
  5
582
330
1F
100
AcDbEntity
  8
HEWI
  6
CUSTOM
370
     9
100
AcDbPolyline
 90
        4
 70
     0
 43
0.0
 10
87.87762030389206
 20
940.1123725761685
 10
87.85112619599614
 20
940.1334968074484
 10
87.82041093811825
 20
940.1657906632385
 10
87.79800373432966
 20
940.2051831402625
  0
LWPOLYLINE
  5
583
330
1F
100
AcDbEntity
  8
HEWI
  6
CUSTOM
370
     9
100
AcDbPolyline
 90
        3
 70
     0
 43
0.0
 10
90.30176491321412
 20
941.5266168227834
 10
90.27576906886315
 20
941.5484570300005
 10
90.20512108220112
 20
941.6155300335335
  0
LWPOLYLINE
  5
584
330
1F
100
AcDbEntity
  8
HEWI
  6
CUSTOM
370
     9
100
AcDbPolyline
 90
        4
 70
     0
 43
0.0
 10
88.50329453023528
 20
939.3726538093444
 10
88.46809956353354
 20
939.3931255050965
 10
88.43591190907636
 20
939.4243417893722
 10
88.38224844674085
 20
939.5152093457564
  0
LWPOLYLINE
  5
585
330
1F
100
AcDbEntity
  8
HEWI
  6
CUSTOM
370
     9
100
AcDbPolyline
 90
        3
 70
     0
 43
0.0
 10
87.44875045536559
 20
940.7721108345524
 10
87.37556359870859
 20
940.8561013464833
 10
87.35332208802516
 20
940.8941148799923
  0
LINE
  5
586
330
1F
100
AcDbEntity
  8
HEWI
  6
CUSTOM
370
     9
100
AcDbLine
 10
102.8178639636638
 20
941.2530579224165
 30
0.0
 11
102.847385353042
 21
941.3255899943514
 31
0.0
  0
LINE
  5
587
330
1F
100
AcDbEntity
  8
HEWI
  6
CUSTOM
370
     9
100
AcDbLine
 10
98.21637422357651
 20
941.3026824862955
 30
0.0
 11
98.22107005676457
 21
941.3232362995124
 31
0.0
  0
LINE
  5
588
330
1F
100
AcDbEntity
  8
HEWI
  6
CUSTOM
370
     9
100
AcDbLine
 10
87.13260928154852
 20
942.0095100548534
 30
0.0
 11
87.16957039026135
 21
941.8857198212744
 31
0.0
  0
LINE
  5
589
330
1F
100
AcDbEntity
  8
HEWI
  6
CUSTOM
370
     9
100
AcDbLine
 10
87.0582830412801
 20
941.6743363414372
 30
0.0
 11
87.11570726628883
 21
941.4248607471916
 31
0.0
  0
LINE
  5
58A
330
1F
100
AcDbEntity
  8
HEWI
  6
CUSTOM
370
     9
100
AcDbLine
 10
98.22359248562896
 20
941.3235342849244
 30
0.0
 11
98.21637422357651
 21
941.3026824862955
 31
0.0
  0
LWPOLYLINE
  5
5CA
330
1F
100
AcDbEntity
  8
HEWI
  6
CUSTOM
370
     9
100
AcDbPolyline
 90
       28
 70
     0
 43
0.0
 10
83.0336920265031
 20
951.5597464216886
 10
72.51859676019399
 20
951.6985870175336
 10
72.51859676019399
 20
953.0110943756666
 10
72.51859676019399
 20
955.5598309350472
 10
72.51859676019399
 20
959.1966733911268
 10
72.51859676019399
 20
963.7102616797404
 10
72.51859676019399
 20
968.8382824557807
 10
72.51859676019399
 20
974.2827137913407
 10
72.51859676019399
 20
979.7271451269015
 10
72.51859676019399
 20
984.8551659029414
 10
72.51859676019399
 20
989.3687541915554
 10
72.51859676019399
 20
993.0055966476343
 10
72.51859676019399
 20
995.5543332070153
 10
72.51859676019399
 20
996.8668405651484
 10
117.5185966437352
 20
996.8668405651484
 10
117.5185966437352
 20
995.5543332070153
 10
117.5185966437352
 20
993.0055966476343
 10
117.5185966437352
 20
989.3687541915554
 10
117.5185966437352
 20
984.8551659029414
 10
117.5185966437352
 20
979.7271451269015
 10
117.5185966437352
 20
974.2827137913407
 10
117.5185966437352
 20
968.8382824557807
 10
117.5185966437352
 20
963.7102616797404
 10
117.5185966437352
 20
959.1966733911268
 10
117.5185966437352
 20
955.5598309350472
 10
117.5185966437352
 20
953.0110943756666
 10
117.5185966437352
 20
951.6985870175336
 10
107.0146655136282
 20
951.5598938321756
  0
LINE
  5
5D6
330
1F
100
AcDbEntity
  8
HEWI
  6
CUSTOM
370
     9
100
AcDbLine
 10
110.4032538526498
 20
976.2426184419206
 30
0.0
 11
111.0067187897735
 21
974.3576248285375
 31
0.0
  0
LWPOLYLINE
  5
5DE
330
1F
100
AcDbEntity
  8
HEWI
  6
CUSTOM
370
     9
100
AcDbPolyline
 90
       29
 70
     0
 43
0.0
 10
107.0146654257569
 20
958.7832593486384
 10
107.0146654257569
 20
838.1746757641764
 10
107.0036928268437
 20
837.2827145836785
 10
106.8574963915561
 20
835.9538083753113
 10
106.5599009302007
 20
834.6559955643805
 10
105.6757460042031
 20
832.4560159700055
 10
104.3790692837669
 20
830.4767737483466
 10
102.7157163373165
 20
828.7961620930795
 10
102.2703221956731
 20
828.4566764124434
 10
100.724473334371
 20
827.4517467925527
 10
100.0735420780304
 20
827.1220383868314
 10
98.5474096640844
 20
826.5320285999607
 10
97.64786776368191
 20
826.2926631893645
 10
96.22597542890311
 20
826.0611592297797
 10
95.09388284535157
 20
825.9993952242664
 10
93.86125852389374
 20
826.0552341899494
 10
92.54211437044887
 20
826.2590807411076
 10
91.53887870677181
 20
826.5174690060584
 10
90.09878330904928
 20
827.0591498935992
 10
89.35252807946744
 20
827.4287904127884
 10
87.88839847697692
 20
828.3637298531145
 10
87.35775194063227
 20
828.7694721157514
 10
85.66973238752098
 20
830.4567968474934
 10
84.36419555726741
 20
832.4434860064073
 10
83.48269572963886
 20
834.6419045455965
 10
83.05573886263301
 20
836.9708308941763
 10
83.03369167043275
 20
838.4188035909746
 10
83.03369167043275
 20
856.5266637949743
 10
83.03682567267435
 20
858.6077175854054
  0
LWPOLYLINE
  5
5E9
330
1F
100
AcDbEntity
  8
HEWI
  6
CUSTOM
370
     9
100
AcDbPolyline
 90
        7
 70
     0
 43
0.0
 10
83.04394353965291
 20
958.9408410676004
 10
83.02984075592531
 20
958.8984740180405
 10
83.02252797817175
 20
958.8398684993036
 10
83.03369167043275
 20
957.8306411132572
 10
83.03369167043275
 20
955.5898703544864
 10
83.15355284513293
 20
954.3969365741874
 10
83.15355284513293
 20
951.2751704518784
  0
LWPOLYLINE
  5
5EB
330
1F
100
AcDbEntity
  8
HEWI
  6
CUSTOM
370
     9
100
AcDbPolyline
 90
       21
 70
     0
 43
0.0
 10
83.12610175002509
 20
954.6701471695255
 10
83.03369167043275
 20
952.4681042321775
 10
83.03369167043275
 20
951.3015521080735
 10
83.03369167043275
 20
950.1517862617985
 10
83.03369167043275
 20
949.1828287139993
 10
83.03369167043275
 20
948.1237083529073
 10
83.03369167043275
 20
947.1841696238312
 10
83.03369167043275
 20
943.6343902565385
 10
83.03369167043275
 20
940.8269746023735
 10
83.03369167043275
 20
940.0865437005265
 10
83.03369167043275
 20
939.2244889259787
 10
83.02203257273106
 20
938.0091134682468
 10
83.0220778146794
 20
937.8203020401336
 10
83.03020426412865
 20
935.4736562943031
 10
83.03055794768829
 20
934.7007094704705
 10
83.02871962023653
 20
933.9785975320893
 10
83.02066752484506
 20
933.1643718589374
 10
83.02067238410449
 20
931.9532924053692
 10
83.01947636139528
 20
930.7918270681806
 10
83.02090823509889
 20
930.1176800252994
 10
83.02401451416756
 20
929.5216063118456
  0
LWPOLYLINE
  5
5F2
330
1F
100
AcDbEntity
  8
HEWI
  6
CUSTOM
370
     9
100
AcDbPolyline
 90
       37
 70
     1
 43
0.0
 10
87.6939677355797
 20
942.1554516316502
 10
87.3190158450966
 20
942.1475105258615
 10
87.05404642162443
 20
941.9513484105284
 10
87.0611471271418
 20
941.4870675004284
 10
87.44531513919412
 20
940.6360023518585
 10
88.2908577857953
 20
939.4974857021795
 10
89.36650676590238
 20
938.4592201189276
 10
90.36331512105789
 20
937.7359838214273
 10
91.39299335198074
 20
937.1726537738906
 10
92.25026190754432
 20
936.8257450968913
 10
93.17793659889991
 20
936.5641765460415
 10
94.15223176048788
 20
936.4030570161107
 10
95.2526404574038
 20
936.3592329674817
 10
96.34244511462828
 20
936.4636798685664
 10
97.87024163085881
 20
936.8548124260454
 10
99.32125147496254
 20
937.5229515965662
 10
100.7864859693084
 20
938.5565889588363
 10
101.8065194241728
 20
939.5648381460695
 10
102.3847274619849
 20
940.3097064041322
 10
102.7856100028476
 20
940.9910077741935
 10
102.9805724292434
 20
941.5040533827074
 10
103.0164232281524
 20
941.8062526229524
 10
102.9431799951007
 20
942.0173707022435
 10
102.7588020927392
 20
942.1365050958073
 10
102.4105174393299
 20
942.1611176153216
 10
101.9220607683283
 20
942.0885625472523
 10
100.9405753728488
 20
941.8605514908874
 10
99.70961466724908
 20
941.5843310022093
 10
98.2738069203814
 20
941.3294662830818
 10
96.6908783554876
 20
941.1424695874867
 10
95.01859670196461
 20
941.0698107301312
 10
93.58943087042417
 20
941.1235689724106
 10
92.2170795120229
 20
941.2656170360914
 10
90.74932063533868
 20
941.5020220770374
 10
89.59476828861614
 20
941.7428360985615
 10
88.84565068151857
 20
941.9216714900613
 10
88.2077557776571
 20
942.0697168563107
  0
LWPOLYLINE
  5
615
330
1F
100
AcDbEntity
  8
HEWI
  6
CUSTOM
370
     9
100
AcDbPolyline
 90
        3
 70
     0
 43
0.0
 10
110.4032538526498
 20
976.2426184419206
 10
110.8114868606159
 20
975.0589893391456
 10
111.0067187897735
 20
974.3576248285375
  0
LINE
  5
63C
330
1F
100
AcDbEntity
  8
HEWI
  6
CUSTOM
370
     9
100
AcDbLine
 10
110.4032538526498
 20
976.2426184419206
 30
0.0
 11
110.2697978094208
 21
976.5465408630065
 31
0.0
  0
LINE
  5
641
330
1F
100
AcDbEntity
  8
HEWI
  6
CUSTOM
370
     9
100
AcDbLine
 10
111.0067187897735
 20
974.3576248285375
 30
0.0
 11
111.031677627566
 21
974.2521629434364
 31
0.0
  0
LINE
  5
67E
330
1F
100
AcDbEntity
  8
HEWI
  6
CUSTOM
370
     9
100
AcDbLine
 10
117.5185966437352
 20
994.3850683922024
 30
0.0
 11
117.7185966387472
 21
994.3850683922024
 31
0.0
  0
LINE
  5
688
330
1F
100
AcDbEntity
  8
HEWI
  6
CUSTOM
370
     9
100
AcDbLine
 10
117.5185966437352
 20
954.1803591904793
 30
0.0
 11
117.7185966387472
 21
954.1803591904793
 31
0.0
  0
LINE
  5
68C
330
1F
100
AcDbEntity
  8
HEWI
  6
CUSTOM
370
     9
100
AcDbLine
 10
72.31859680243485
 20
994.3850683922024
 30
0.0
 11
72.51859676019399
 21
994.3850683922024
 31
0.0
  0
LINE
  5
697
330
1F
100
AcDbEntity
  8
HEWI
  6
CUSTOM
370
     9
100
AcDbLine
 10
72.51859676019399
 20
954.1803591904793
 30
0.0
 11
72.31859676518195
 21
954.1803591904793
 31
0.0
  0
LWPOLYLINE
  5
69F
330
1F
100
AcDbEntity
  8
HEWI
  6
CUSTOM
370
     9
100
AcDbPolyline
 90
       44
 70
     0
 43
0.0
 10
56.01859680289544
 20
953.2912773483745
 10
56.05537725465286
 20
952.9611432046685
 10
56.16391487441342
 20
952.6471990382676
 10
56.33888691191157
 20
952.3648408602317
 10
56.57171263301347
 20
952.1279156857241
 10
56.85097412408675
 20
951.9480424680455
 10
57.1629762333606
 20
951.8340422981564
 10
57.49241818942528
 20
951.7915058130723
 10
71.80987055880928
 20
951.5415937529494
 10
71.92255260714546
 20
951.5524438001076
 10
72.029905892329
 20
951.5883637067773
 10
72.12642749887208
 20
951.6475122231993
 10
72.20716974172842
 20
951.7268574040846
 10
72.26799378399244
 20
951.8223320257426
 10
72.30578179313773
 20
951.9290420714353
 10
72.31859676071167
 20
952.0415175980502
 10
72.31859676071167
 20
952.6878063376985
 10
72.31859676071167
 20
954.5891126042562
 10
72.31859676071167
 20
957.6349393884807
 10
72.31859676071167
 20
961.6482743088019
 10
72.31859676071167
 20
966.3958769275287
 10
72.31859676071167
 20
971.6018338372943
 10
72.31859676071167
 20
976.9635937453873
 10
72.31859676071167
 20
982.1695506551535
 10
72.31859676071167
 20
986.9171532738803
 10
72.31859676071167
 20
990.9304881942007
 10
72.31859676071167
 20
993.9763149784257
 10
72.31859676071167
 20
995.8776212449835
 10
72.31859676071167
 20
996.5239099846316
 10
72.30578179313773
 20
996.6363855112454
 10
72.26799378399244
 20
996.7430955569394
 10
72.20716974172842
 20
996.8385701785964
 10
72.12642749887208
 20
996.9179153594826
 10
72.029905892329
 20
996.9770638759033
 10
71.92255260714546
 20
997.0129837825744
 10
71.80987055880928
 20
997.0238338297317
 10
57.49241818942528
 20
996.7739217696092
 10
57.1629762333606
 20
996.7313852845247
 10
56.85097412408675
 20
996.6173851146365
 10
56.57171263301347
 20
996.4375118969575
 10
56.33888691191157
 20
996.2005867224503
 10
56.16391487441342
 20
995.9182285444144
 10
56.05537725465286
 20
995.6042843780123
 10
56.01859680289544
 20
995.2741502343075
  0
LWPOLYLINE
  5
6A1
330
1F
100
AcDbEntity
  8
HEWI
  6
CUSTOM
370
     9
100
AcDbPolyline
 90
       14
 70
     0
 43
0.0
 10
56.01859680289544
 20
995.2741502343075
 10
56.01859680289544
 20
994.6641772416583
 10
56.01859680289544
 20
992.8697076768823
 10
56.01859680289544
 20
989.9950295884515
 10
56.01859680289544
 20
986.207208817837
 10
56.01859680289544
 20
981.7263797400594
 10
56.01859680289544
 20
976.8129518539664
 10
56.01859680289544
 20
971.7524757287147
 10
56.01859680289544
 20
966.8390478426225
 10
56.01859680289544
 20
962.3582187648436
 10
56.01859680289544
 20
958.5703979942293
 10
56.01859680289544
 20
955.6957199057993
 10
56.01859680289544
 20
953.9012503410233
 10
56.01859680289544
 20
953.2912773483745
  0
LWPOLYLINE
  5
6A4
330
1F
100
AcDbEntity
  8
HEWI
  6
CUSTOM
370
     9
100
AcDbPolyline
 90
       26
 70
     1
 43
0.0
 10
103.6264702836552
 20
1016.908624149863
 10
101.5513412724661
 20
1018.747028028761
 10
99.09655289240038
 20
1020.035400355481
 10
96.40476852131349
 20
1020.698865613438
 10
93.63242488261574
 20
1020.698865613438
 10
90.94064051152896
 20
1020.035400355481
 10
88.48585213146305
 20
1018.747028028761
 10
86.41072312027404
 20
1016.908624149863
 10
84.83585243330537
 20
1014.627030069904
 10
83.8527658304622
 20
1012.034843743554
 10
83.51859673172624
 20
1009.282713617888
 10
83.8527658304622
 20
1006.530583492219
 10
84.83585243330537
 20
1003.938397165869
 10
86.41072312027404
 20
1001.65680308591
 10
88.48585213146305
 20
999.8183992070133
 10
90.94064051152896
 20
998.5300268802935
 10
93.63242488261574
 20
997.8665616223358
 10
96.40476852131349
 20
997.8665616223358
 10
99.09655289240038
 20
998.5300268802935
 10
101.5513412724661
 20
999.8183992070133
 10
103.6264702836552
 20
1001.65680308591
 10
105.2013409706238
 20
1003.938397165869
 10
106.184427573467
 20
1006.530583492219
 10
106.518596672203
 20
1009.282713617888
 10
106.184427573467
 20
1012.034843743554
 10
105.2013409706238
 20
1014.627030069904
  0
LWPOLYLINE
  5
6A5
330
1F
100
AcDbEntity
  8
HEWI
  6
CUSTOM
370
     9
100
AcDbPolyline
 90
       14
 70
     0
 43
0.0
 10
134.0185966010338
 20
953.2912773483745
 10
134.0185966010338
 20
953.9012503410233
 10
134.0185966010338
 20
955.6957199057993
 10
134.0185966010338
 20
958.5703979942293
 10
134.0185966010338
 20
962.3582187648436
 10
134.0185966010338
 20
966.8390478426225
 10
134.0185966010338
 20
971.7524757287147
 10
134.0185966010338
 20
976.8129518539664
 10
134.0185966010338
 20
981.7263797400594
 10
134.0185966010338
 20
986.207208817837
 10
134.0185966010338
 20
989.9950295884515
 10
134.0185966010338
 20
992.8697076768823
 10
134.0185966010338
 20
994.6641772416583
 10
134.0185966010338
 20
995.2741502343075
  0
LWPOLYLINE
  5
6A6
330
1F
100
AcDbEntity
  8
HEWI
  6
CUSTOM
370
     9
100
AcDbPolyline
 90
       44
 70
     0
 43
0.0
 10
134.0185966010338
 20
995.2741502343075
 10
133.9818161492765
 20
995.6042843780123
 10
133.8732785295164
 20
995.9182285444144
 10
133.6983064920176
 20
996.2005867224503
 10
133.4654807709156
 20
996.4375118969575
 10
133.186219279843
 20
996.6173851146365
 10
132.8742171705687
 20
996.7313852845247
 10
132.5447752145039
 20
996.7739217696092
 10
118.2273228451199
 20
997.0238338297317
 10
118.1146407967836
 20
997.0129837825744
 10
118.0072875116002
 20
996.9770638759033
 10
117.9107659050571
 20
996.9179153594826
 10
117.8300236622008
 20
996.8385701785964
 10
117.7691996199368
 20
996.7430955569394
 10
117.731411610792
 20
996.6363855112454
 10
117.7185966432175
 20
996.5239099846316
 10
117.7185966432175
 20
995.8776212449835
 10
117.7185966432175
 20
993.9763149784257
 10
117.7185966432175
 20
990.9304881942007
 10
117.7185966432175
 20
986.9171532738803
 10
117.7185966432175
 20
982.1695506551535
 10
117.7185966432175
 20
976.9635937453873
 10
117.7185966432175
 20
971.6018338372943
 10
117.7185966432175
 20
966.3958769275287
 10
117.7185966432175
 20
961.6482743088019
 10
117.7185966432175
 20
957.6349393884807
 10
117.7185966432175
 20
954.5891126042562
 10
117.7185966432175
 20
952.6878063376985
 10
117.7185966432175
 20
952.0415175980502
 10
117.731411610792
 20
951.9290420714353
 10
117.7691996199368
 20
951.8223320257426
 10
117.8300236622008
 20
951.7268574040846
 10
117.9107659050571
 20
951.6475122231993
 10
118.0072875116002
 20
951.5883637067773
 10
118.1146407967836
 20
951.5524438001076
 10
118.2273228451199
 20
951.5415937529494
 10
132.5447752145039
 20
951.7915058130723
 10
132.8742171705687
 20
951.8340422981564
 10
133.186219279843
 20
951.9480424680455
 10
133.4654807709156
 20
952.1279156857241
 10
133.6983064920176
 20
952.3648408602303
 10
133.8732785295164
 20
952.6471990382676
 10
133.9818161492765
 20
952.9611432046685
 10
134.0185966010338
 20
953.2912773483745
  0
LWPOLYLINE
  5
6C4
330
1F
100
AcDbEntity
  8
HEWI
  6
CUSTOM
370
     9
100
AcDbPolyline
 90
        3
 70
     0
 43
0.0
 10
110.6692894106076
 20
975.2598263145024
 10
110.2294977864608
 20
976.6763424049237
 10
109.8848608101127
 20
977.4410229424235
  0
LINE
  5
6FF
330
1F
100
AcDbEntity
  8
HEWI
  6
CUSTOM
370
     9
100
AcDbLine
 10
109.8845829838816
 20
977.4417954711244
 30
0.0
 11
111.1049072113337
 21
973.9543092032473
 31
0.0
  0
LWPOLYLINE
  5
71A
330
1F
100
AcDbEntity
  8
HEWI
  6
CUSTOM
370
     9
100
AcDbPolyline
 90
        3
 70
     0
 43
0.0
 10
111.1049072113337
 20
973.9543092032473
 10
111.0391366480339
 20
974.2314222523395
 10
109.8845829838816
 20
977.4417954711244
  0
SPLINE
  5
845
330
1F
100
AcDbEntity
  8
HEWI
  6
CUSTOM
370
     9
100
AcDbSpline
210
0.0
220
0.0
230
1.0
 70
     8
 71
     3
 72
    42
 73
    38
 74
     0
 42
0.000000001
 43
0.0000000001
 40
26.21588118668894
 40
26.21588118668894
 40
26.21588118668894
 40
26.21588118668894
 40
29.46229922291184
 40
29.46229922291184
 40
32.70871725913472
 40
32.70871725913472
 40
35.95513529535762
 40
35.95513529535762
 40
39.20155333158049
 40
39.20155333158049
 40
42.50910559202984
 40
42.50910559202984
 40
45.8166578524792
 40
45.8166578524792
 40
49.12421011292853
 40
49.12421011292853
 40
50.77798624315322
 40
50.77798624315322
 40
52.43176237337789
 40
52.43176237337789
 40
54.08553850360258
 40
54.08553850360258
 40
55.73931463382725
 40
55.73931463382725
 40
59.04686689427662
 40
59.04686689427662
 40
62.35441915472598
 40
62.35441915472598
 40
65.66197141517534
 40
65.66197141517534
 40
68.90838945139825
 40
68.90838945139825
 40
72.15480748762115
 40
72.15480748762115
 40
75.40122552384406
 40
75.40122552384406
 40
78.64764356006697
 40
78.64764356006697
 40
78.64764356006697
 40
78.64764356006697
 10
111.5185967019646
 20
594.4748975651174
 30
0.0
 10
111.5185967019646
 20
594.4748975651174
 30
0.0
 10
111.4104319811089
 20
594.5546072215249
 30
0.0
 10
110.9705359904222
 20
594.8741844016049
 30
0.0
 10
110.6389943970283
 20
595.1138758675179
 30
0.0
 10
109.781478120873
 20
595.7181311733758
 30
0.0
 10
109.2547845007979
 20
596.0830390218498
 30
0.0
 10
108.0586279767052
 20
596.8790490860421
 30
0.0
 10
107.3891129103725
 20
597.3097762353492
 30
0.0
 10
105.9693610899998
 20
598.1707842030147
 30
0.0
 10
105.1633425382937
 20
598.6350097473452
 30
0.0
 10
103.4066602899551
 20
599.5451750249604
 30
0.0
 10
102.4560584618087
 20
599.9907127001107
 30
0.0
 10
100.4518115965005
 20
600.7679041210841
 30
0.0
 10
99.39613183658037
 20
601.0990405374115
 30
0.0
 10
97.77228946406138
 20
601.440972421714
 30
0.0
 10
97.22426766803289
 20
601.5293375542125
 30
0.0
 10
96.12305338824478
 20
601.6477920256558
 30
0.0
 10
95.56985541203937
 20
601.677839024339
 30
0.0
 10
94.46733799188985
 20
601.677839024339
 30
0.0
 10
93.91414001568444
 20
601.6477920256558
 30
0.0
 10
92.81292573589633
 20
601.5293375542125
 30
0.0
 10
92.26490393987148
 20
601.440972421714
 30
0.0
 10
90.64106156735249
 20
601.0990405374115
 30
0.0
 10
89.58538180742868
 20
600.7679041210841
 30
0.0
 10
87.58113494212409
 20
599.9907127001107
 30
0.0
 10
86.63053311397414
 20
599.5451750249604
 30
0.0
 10
84.87385086563552
 20
598.6350097473452
 30
0.0
 10
84.06783231392944
 20
598.1707842030147
 30
0.0
 10
82.64808049355668
 20
597.3097762353492
 30
0.0
 10
81.97856542722764
 20
596.8790490860421
 30
0.0
 10
80.78240890313134
 20
596.0830390218498
 30
0.0
 10
80.25571528305624
 20
595.7181311733758
 30
0.0
 10
79.39819900690088
 20
595.1138758675179
 30
0.0
 10
79.06665741350696
 20
594.8741844016049
 30
0.0
 10
78.62676142282032
 20
594.5546072215249
 30
0.0
 10
78.51859670196461
 20
594.4748975651174
 30
0.0
 10
78.51859670196461
 20
594.4748975651174
 30
0.0
  0
LINE
  5
847
330
1F
100
AcDbEntity
  8
HEWI
  6
CUSTOM
370
     9
100
AcDbLine
 10
78.51859670196438
 20
594.374897337222
 30
0.0
 11
78.51859670196438
 21
58.89346021613687
 31
0.0
  0
LINE
  5
893
330
1F
100
AcDbEntity
  8
HEWI
100
AcDbLine
 10
107.0146655136282
 20
951.5598938321756
 30
0.0
 11
107.0146654257569
 21
838.1746757641764
 31
0.0
  0
LINE
  5
894
330
1F
100
AcDbEntity
  8
HEWI
100
AcDbLine
 10
83.03369167043275
 20
856.5266637949743
 30
0.0
 11
83.03369167043275
 21
951.8848281701254
 31
0.0
  0
CIRCLE
  5
8AA
330
1F
100
AcDbEntity
  8
HEWI
100
AcDbCircle
 10
95.01859670196461
 20
970.2576238264512
 30
0.0
 40
16.5
  0
ELLIPSE
  5
8AC
330
1F
100
AcDbEntity
  8
HEWI
100
AcDbEllipse
 10
95.01859670196461
 20
970.5704712912959
 30
0.0
 11
21.44068818905528
 21
0.0
 31
0.0
210
0.0
220
0.0
230
1.0
 40
0.8407602558416208
 41
5.306171604900611
 42
10.40241973807017
  0
LINE
  5
8C6
330
1F
100
AcDbEntity
  8
HEWI
100
AcDbLine
 10
992.4641615341457
 20
986.6623896073466
 30
0.0
 11
992.4641615341457
 21
953.8263420246567
 31
0.0
  0
LINE
  5
8C7
330
1F
100
AcDbEntity
  8
HEWI
100
AcDbLine
 10
413.0268939872633
 20
826.0948162835715
 30
0.0
 11
787.4676625448487
 21
936.3592347330115
 31
0.0
  0
LINE
  5
8E1
330
1F
100
AcDbEntity
  8
HEWI
  6
CUSTOM
370
     9
100
AcDbLine
 10
78.51859704225114
 20
58.89345748664528
 30
0.0
 11
111.5049863001708
 21
58.89345748664528
 31
0.0
  0
ENDSEC
  0
SECTION
  2
OBJECTS
  0
DICTIONARY
  5
C
330
0
100
AcDbDictionary
281
     1
  3
ACAD_CIP_PREVIOUS_PRODUCT_INFO
350
10F
  3
ACAD_COLOR
350
10A
  3
ACAD_DETAILVIEWSTYLE
350
104
  3
ACAD_GROUP
350
D
  3
ACAD_IMAGE_DICT
350
6E
  3
ACAD_LAYOUT
350
1A
  3
ACAD_MATERIAL
350
43
  3
ACAD_MLEADERSTYLE
350
6B
  3
ACAD_MLINESTYLE
350
17
  3
ACAD_PLOTSETTINGS
350
19
  3
ACAD_PLOTSTYLENAME
350
E
  3
ACAD_SCALELIST
350
47
  3
ACAD_SECTIONVIEWSTYLE
350
105
  3
ACAD_TABLESTYLE
350
69
  3
ACAD_VISUALSTYLE
350
2A
  3
ACDB_RECOMPOSE_DATA
350
8E3
  3
AcDbVariableDictionary
350
FD
  3
AcDsDecomposeData
350
8E9
  0
SUN
  5
6D
330
29
100
AcDbSun
 90
        1
290
     1
 63
     7
421
 16777215
 40
1.0
291
     1
 91
  2455826
 92
 54000000
292
     0
 70
     0
 71
   256
280
     1
1001
ACAD
1000
AcDbSavedByObjectVersion
1070
     0
  0
DICTIONARY
  5
7C8
330
2
100
AcDbDictionary
280
     1
281
     1
  3
ACAD_LAYERSTATES
360
7C9
  0
DICTIONARY
  5
7C3
330
7C2
100
AcDbDictionary
280
     1
281
     1
  0
XRECORD
  5
10F
102
{ACAD_REACTORS
330
C
102
}
330
C
100
AcDbXrecord
280
     1
300
ACDLT
300
2021
300
ACDLT_F_S
  0
DICTIONARY
  5
10A
102
{ACAD_REACTORS
330
C
102
}
330
C
100
AcDbDictionary
281
     1
  0
DICTIONARY
  5
104
102
{ACAD_REACTORS
330
C
102
}
330
C
100
AcDbDictionary
281
     1
  3
Metric50
350
10C
  0
DICTIONARY
  5
D
102
{ACAD_REACTORS
330
C
102
}
330
C
100
AcDbDictionary
281
     1
  3
*A1
350
8AD
  0
DICTIONARY
  5
6E
102
{ACAD_REACTORS
330
C
102
}
330
C
100
AcDbDictionary
281
     1
  0
DICTIONARY
  5
1A
102
{ACAD_REACTORS
330
C
102
}
330
C
100
AcDbDictionary
281
     1
  3
Layout1
350
1E
  3
Layout2
350
26
  3
Model
350
22
  0
DICTIONARY
  5
43
102
{ACAD_REACTORS
330
C
102
}
330
C
100
AcDbDictionary
281
     1
  3
ByBlock
350
45
  3
ByLayer
350
44
  3
Global
350
46
  0
DICTIONARY
  5
6B
102
{ACAD_REACTORS
330
C
102
}
330
C
100
AcDbDictionary
281
     1
  3
Standard
350
6C
  0
DICTIONARY
  5
17
102
{ACAD_REACTORS
330
C
102
}
330
C
100
AcDbDictionary
281
     1
  3
Standard
350
18
  0
DICTIONARY
  5
19
102
{ACAD_REACTORS
330
C
102
}
330
C
100
AcDbDictionary
281
     1
  0
ACDBDICTIONARYWDFLT
  5
E
102
{ACAD_REACTORS
330
C
102
}
330
C
100
AcDbDictionary
281
     1
  3
Normal
350
F
100
AcDbDictionaryWithDefault
340
F
  0
DICTIONARY
  5
47
102
{ACAD_REACTORS
330
C
102
}
330
C
100
AcDbDictionary
281
     1
  3
A0
350
48
  3
A1
350
49
  3
A2
350
4A
  3
A3
350
4B
  3
A4
350
4C
  3
A5
350
4D
  3
A6
350
4E
  3
A7
350
4F
  3
A8
350
50
  3
A9
350
51
  3
B0
350
52
  3
B1
350
53
  3
B2
350
54
  3
B3
350
55
  3
B4
350
56
  3
B5
350
57
  3
B6
350
58
  3
B7
350
59
  3
B8
350
5A
  3
B9
350
5B
  3
C0
350
5C
  3
C1
350
5D
  3
C2
350
5E
  3
C3
350
5F
  3
C4
350
60
  3
C5
350
61
  3
C6
350
62
  3
C7
350
63
  3
C8
350
64
  3
C9
350
65
  3
D0
350
66
  3
D1
350
67
  3
D2
350
68
  0
DICTIONARY
  5
105
102
{ACAD_REACTORS
330
C
102
}
330
C
100
AcDbDictionary
281
     1
  3
Metric50
350
10B
  0
DICTIONARY
  5
69
102
{ACAD_REACTORS
330
C
102
}
330
C
100
AcDbDictionary
281
     1
  3
Standard
350
6A
  0
DICTIONARY
  5
2A
102
{ACAD_REACTORS
330
C
102
}
330
C
100
AcDbDictionary
281
     1
  3
2dWireframe
350
2F
  3
3dWireframe
350
7C7
  3
Basic
350
32
  3
Brighten
350
36
  3
ColorChange
350
3A
  3
Conceptual
350
34
  3
Dim
350
35
  3
EdgeColorOff
350
3D
  3
Facepattern
350
39
  3
Flat
350
2B
  3
FlatWithEdges
350
2C
  3
Gouraud
350
2D
  3
GouraudWithEdges
350
2E
  3
Hidden
350
31
  3
JitterOff
350
3B
  3
Linepattern
350
38
  3
OverhangOff
350
3C
  3
Realistic
350
33
  3
Shaded
350
42
  3
Shaded with edges
350
41
  3
Shades of Gray
350
3E
  3
Sketchy
350
3F
  3
Thicken
350
37
  3
Wireframe
350
30
  3
X-Ray
350
40
  0
XRECORD
  5
8E3
102
{ACAD_REACTORS
330
C
102
}
330
C
100
AcDbXrecord
280
     1
 90
        1
330
6A
  0
DICTIONARY
  5
FD
102
{ACAD_REACTORS
330
C
102
}
330
C
100
AcDbDictionary
281
     1
  3
CANNOSCALE
350
FE
  3
CENTEREXE
350
106
  3
CENTERLTYPEFILE
350
107
  3
CMLEADERSTYLE
350
103
  3
CTABLESTYLE
350
102
  3
CVIEWDETAILSTYLE
350
89C
  3
CVIEWSECTIONSTYLE
350
89D
  0
DICTIONARY
  5
8E9
102
{ACAD_REACTORS
330
C
102
}
330
C
100
AcDbDictionary
281
     1
  3
AcDsRecords
350
8EB
  3
AcDsSchemas
350
8EA
1001
ACAD
1070
     2
  0
DICTIONARY
  5
7C9
102
{ACAD_REACTORS
330
7C8
102
}
330
7C8
100
AcDbDictionary
281
     1
  0
ACDBDETAILVIEWSTYLE
  5
10C
102
{ACAD_XDICTIONARY
360
8EE
102
}
102
{ACAD_REACTORS
330
104
102
}
330
104
100
AcDbModelDocViewStyle
 70
     0
  3
Metric50
290
     0
100
AcDbDetailViewStyle
 70
     0
 71
     0
 90
        3
 71
     1
340
11
 62
   256
 40
5.0
340
0
 62
   256
 40
5.0
300

 40
0.0
280
     1
 71
     2
340
16
 90
       25
 62
   256
 71
     3
340
11
 62
   256
 40
5.0
 90
        0
 40
15.0
 90
        1
300
%<\AcVar ViewDetailId>% (%<\AcVar ViewScale \f "%sn">%)
 71
     4
340
16
 90
       25
 62
   256
340
16
 90
       25
 62
   256
280
     0
  0
GROUP
  5
8AD
102
{ACAD_REACTORS
330
D
102
}
330
D
100
AcDbGroup
300

 70
     1
 71
     1
  0
LAYOUT
  5
1E
102
{ACAD_REACTORS
330
1A
102
}
330
1A
100
AcDbPlotSettings
  1

  2
none_device
  4

  6

 40
0.0
 41
0.0
 42
0.0
 43
0.0
 44
0.0
 45
0.0
 46
0.0
 47
0.0
 48
0.0
 49
0.0
140
0.0
141
0.0
142
1.0
143
1.0
 70
   688
 72
     1
 73
     0
 74
     5
  7

 75
    16
147
1.0
 76
     0
 77
     2
 78
   300
148
0.0
149
0.0
100
AcDbLayout
  1
Layout1
 70
     1
 71
     1
 10
0.0
 20
0.0
 11
420.0
 21
297.0
 12
0.0
 22
0.0
 32
0.0
 14
1.000000000000000E+20
 24
1.000000000000000E+20
 34
1.000000000000000E+20
 15
-1.000000000000000E+20
 25
-1.000000000000000E+20
 35
-1.000000000000000E+20
146
0.0
 13
0.0
 23
0.0
 33
0.0
 16
1.0
 26
0.0
 36
0.0
 17
0.0
 27
1.0
 37
0.0
 76
     0
330
1B
  0
LAYOUT
  5
26
102
{ACAD_REACTORS
330
1A
102
}
330
1A
100
AcDbPlotSettings
  1

  2
none_device
  4

  6

 40
0.0
 41
0.0
 42
0.0
 43
0.0
 44
0.0
 45
0.0
 46
0.0
 47
0.0
 48
0.0
 49
0.0
140
0.0
141
0.0
142
1.0
143
1.0
 70
   688
 72
     1
 73
     0
 74
     5
  7

 75
    16
147
1.0
 76
     0
 77
     2
 78
   300
148
0.0
149
0.0
100
AcDbLayout
  1
Layout2
 70
     1
 71
     2
 10
0.0
 20
0.0
 11
0.0
 21
0.0
 12
0.0
 22
0.0
 32
0.0
 14
0.0
 24
0.0
 34
0.0
 15
0.0
 25
0.0
 35
0.0
146
0.0
 13
0.0
 23
0.0
 33
0.0
 16
1.0
 26
0.0
 36
0.0
 17
0.0
 27
1.0
 37
0.0
 76
     0
330
23
  0
LAYOUT
  5
22
102
{ACAD_REACTORS
330
1A
102
}
330
1A
100
AcDbPlotSettings
  1

  2
none_device
  4
Letter_(8.50_x_11.00_Inches)
  6

 40
6.349999999999999
 41
6.349999999999999
 42
6.350005079999999
 43
6.350005079999999
 44
215.9
 45
279.4
 46
0.0
 47
0.0
 48
0.0
 49
0.0
140
0.0
141
0.0
142
1.0
143
1.0
 70
  1712
 72
     1
 73
     0
 74
     0
  7

 75
     0
147
1.0
 76
     0
 77
     2
 78
   300
148
0.0
149
0.0
100
AcDbLayout
  1
Model
 70
     1
 71
     0
 10
0.0
 20
0.0
 11
420.0
 21
297.0
 12
0.0
 22
0.0
 32
0.0
 14
55.37809648607012
 24
81.22273586517383
 34
0.0
 15
140.4501384341057
 25
89.02273570431097
 35
0.0
146
0.0
 13
0.0
 23
0.0
 33
0.0
 16
1.0
 26
0.0
 36
0.0
 17
0.0
 27
1.0
 37
0.0
 76
     0
330
1F
331
29
  0
MATERIAL
  5
45
102
{ACAD_REACTORS
330
43
102
}
330
43
100
AcDbMaterial
  1
ByBlock
  0
MATERIAL
  5
44
102
{ACAD_REACTORS
330
43
102
}
330
43
100
AcDbMaterial
  1
ByLayer
  0
MATERIAL
  5
46
102
{ACAD_REACTORS
330
43
102
}
330
43
100
AcDbMaterial
  1
Global
  0
MLEADERSTYLE
  5
6C
102
{ACAD_REACTORS
330
6B
102
}
330
6B
100
AcDbMLeaderStyle
179
     2
170
     2
171
     1
172
     0
 90
        2
 40
0.0
 41
0.0
173
     1
 91
-1056964608
340
14
 92
       -2
290
     1
 42
2.0
291
     1
 43
8.0
  3
Standard
 44
4.0
300

342
11
174
     1
178
     6
175
     1
176
     0
 93
-1056964608
 45
4.0
292
     0
297
     0
 46
4.0
 94
-1056964608
 47
1.0
 49
1.0
140
1.0
293
     1
141
0.0
294
     1
177
     0
142
1.0
295
     0
296
     0
143
3.75
271
     0
272
     9
273
     9
298
     0
  0
MLINESTYLE
  5
18
102
{ACAD_REACTORS
330
17
102
}
330
17
100
AcDbMlineStyle
  2
STANDARD
 70
     0
  3

 62
   256
 51
90.0
 52
90.0
 71
     2
 49
0.5
 62
   256
  6
BYLAYER
 49
-0.5
 62
   256
  6
BYLAYER
  0
ACDBPLACEHOLDER
  5
F
102
{ACAD_REACTORS
330
E
102
}
330
E
  0
SCALE
  5
48
102
{ACAD_REACTORS
330
47
102
}
330
47
100
AcDbScale
 70
     0
300
1:1
140
1.0
141
1.0
290
     1
  0
SCALE
  5
49
102
{ACAD_REACTORS
330
47
102
}
330
47
100
AcDbScale
 70
     0
300
1:2
140
1.0
141
2.0
290
     0
  0
SCALE
  5
4A
102
{ACAD_REACTORS
330
47
102
}
330
47
100
AcDbScale
 70
     0
300
1:4
140
1.0
141
4.0
290
     0
  0
SCALE
  5
4B
102
{ACAD_REACTORS
330
47
102
}
330
47
100
AcDbScale
 70
     0
300
1:5
140
1.0
141
5.0
290
     0
  0
SCALE
  5
4C
102
{ACAD_REACTORS
330
47
102
}
330
47
100
AcDbScale
 70
     0
300
1:8
140
1.0
141
8.0
290
     0
  0
SCALE
  5
4D
102
{ACAD_REACTORS
330
47
102
}
330
47
100
AcDbScale
 70
     0
300
1:10
140
1.0
141
10.0
290
     0
  0
SCALE
  5
4E
102
{ACAD_REACTORS
330
47
102
}
330
47
100
AcDbScale
 70
     0
300
1:16
140
1.0
141
16.0
290
     0
  0
SCALE
  5
4F
102
{ACAD_REACTORS
330
47
102
}
330
47
100
AcDbScale
 70
     0
300
1:20
140
1.0
141
20.0
290
     0
  0
SCALE
  5
50
102
{ACAD_REACTORS
330
47
102
}
330
47
100
AcDbScale
 70
     0
300
1:30
140
1.0
141
30.0
290
     0
  0
SCALE
  5
51
102
{ACAD_REACTORS
330
47
102
}
330
47
100
AcDbScale
 70
     0
300
1:40
140
1.0
141
40.0
290
     0
  0
SCALE
  5
52
102
{ACAD_REACTORS
330
47
102
}
330
47
100
AcDbScale
 70
     0
300
1:50
140
1.0
141
50.0
290
     0
  0
SCALE
  5
53
102
{ACAD_REACTORS
330
47
102
}
330
47
100
AcDbScale
 70
     0
300
1:100
140
1.0
141
100.0
290
     0
  0
SCALE
  5
54
102
{ACAD_REACTORS
330
47
102
}
330
47
100
AcDbScale
 70
     0
300
2:1
140
2.0
141
1.0
290
     0
  0
SCALE
  5
55
102
{ACAD_REACTORS
330
47
102
}
330
47
100
AcDbScale
 70
     0
300
4:1
140
4.0
141
1.0
290
     0
  0
SCALE
  5
56
102
{ACAD_REACTORS
330
47
102
}
330
47
100
AcDbScale
 70
     0
300
8:1
140
8.0
141
1.0
290
     0
  0
SCALE
  5
57
102
{ACAD_REACTORS
330
47
102
}
330
47
100
AcDbScale
 70
     0
300
10:1
140
10.0
141
1.0
290
     0
  0
SCALE
  5
58
102
{ACAD_REACTORS
330
47
102
}
330
47
100
AcDbScale
 70
     0
300
100:1
140
100.0
141
1.0
290
     0
  0
SCALE
  5
59
102
{ACAD_REACTORS
330
47
102
}
330
47
100
AcDbScale
 70
     0
300
1/128" = 1'-0"
140
0.0078125
141
12.0
290
     0
  0
SCALE
  5
5A
102
{ACAD_REACTORS
330
47
102
}
330
47
100
AcDbScale
 70
     0
300
1/64" = 1'-0"
140
0.015625
141
12.0
290
     0
  0
SCALE
  5
5B
102
{ACAD_REACTORS
330
47
102
}
330
47
100
AcDbScale
 70
     0
300
1/32" = 1'-0"
140
0.03125
141
12.0
290
     0
  0
SCALE
  5
5C
102
{ACAD_REACTORS
330
47
102
}
330
47
100
AcDbScale
 70
     0
300
1/16" = 1'-0"
140
0.0625
141
12.0
290
     0
  0
SCALE
  5
5D
102
{ACAD_REACTORS
330
47
102
}
330
47
100
AcDbScale
 70
     0
300
3/32" = 1'-0"
140
0.09375
141
12.0
290
     0
  0
SCALE
  5
5E
102
{ACAD_REACTORS
330
47
102
}
330
47
100
AcDbScale
 70
     0
300
1/8" = 1'-0"
140
0.125
141
12.0
290
     0
  0
SCALE
  5
5F
102
{ACAD_REACTORS
330
47
102
}
330
47
100
AcDbScale
 70
     0
300
3/16" = 1'-0"
140
0.1875
141
12.0
290
     0
  0
SCALE
  5
60
102
{ACAD_REACTORS
330
47
102
}
330
47
100
AcDbScale
 70
     0
300
1/4" = 1'-0"
140
0.25
141
12.0
290
     0
  0
SCALE
  5
61
102
{ACAD_REACTORS
330
47
102
}
330
47
100
AcDbScale
 70
     0
300
3/8" = 1'-0"
140
0.375
141
12.0
290
     0
  0
SCALE
  5
62
102
{ACAD_REACTORS
330
47
102
}
330
47
100
AcDbScale
 70
     0
300
1/2" = 1'-0"
140
0.5
141
12.0
290
     0
  0
SCALE
  5
63
102
{ACAD_REACTORS
330
47
102
}
330
47
100
AcDbScale
 70
     0
300
3/4" = 1'-0"
140
0.75
141
12.0
290
     0
  0
SCALE
  5
64
102
{ACAD_REACTORS
330
47
102
}
330
47
100
AcDbScale
 70
     0
300
1" = 1'-0"
140
1.0
141
12.0
290
     0
  0
SCALE
  5
65
102
{ACAD_REACTORS
330
47
102
}
330
47
100
AcDbScale
 70
     0
300
1-1/2" = 1'-0"
140
1.5
141
12.0
290
     0
  0
SCALE
  5
66
102
{ACAD_REACTORS
330
47
102
}
330
47
100
AcDbScale
 70
     0
300
3" = 1'-0"
140
3.0
141
12.0
290
     0
  0
SCALE
  5
67
102
{ACAD_REACTORS
330
47
102
}
330
47
100
AcDbScale
 70
     0
300
6" = 1'-0"
140
6.0
141
12.0
290
     0
  0
SCALE
  5
68
102
{ACAD_REACTORS
330
47
102
}
330
47
100
AcDbScale
 70
     0
300
1'-0" = 1'-0"
140
12.0
141
12.0
290
     0
  0
ACDBSECTIONVIEWSTYLE
  5
10B
102
{ACAD_XDICTIONARY
360
8EC
102
}
102
{ACAD_REACTORS
330
105
102
}
330
105
100
AcDbModelDocViewStyle
 70
     0
  3
Metric50
290
     0
100
AcDbSectionViewStyle
 70
     0
 71
     0
 90
      102
 71
     1
340
11
 62
   256
 40
5.0
340
0
340
0
 62
   256
 40
5.0
300
I, O, Q, S, X, Z
 40
10.0
 90
        0
 40
2.5
 90
        0
 71
     2
340
16
 90
       25
 62
   256
340
16
 90
       50
 62
   256
 40
5.0
 40
2.5
 40
5.0
 71
     3
340
11
 62
   256
 40
5.0
 90
        0
 40
15.0
 90
        1
300
%<\AcVar ViewSectionStartId>%-%<\AcVar ViewSectionEndId>% (%<\AcVar ViewScale \f "%sn">%)
 71
     4
 62
   256
 62
   257
300
ANSI31
 40
1.0
 90
        0
290
     0
290
     0
 90
        6
 40
0.0
 40
1.570796326794896
 40
0.2617993877991494
 40
1.308996938995747
 40
-0.2617993877991494
 40
1.832595714594046
  0
TABLESTYLE
  5
6A
102
{ACAD_XDICTIONARY
360
FF
102
}
102
{ACAD_REACTORS
330
69
102
}
330
69
100
AcDbTableStyle
280
     0
  3
Standard
 70
     0
 71
     0
 40
1.5
 41
1.5
280
     0
281
     0
  7
Standard
140
4.5
170
     2
 62
     0
 63
     7
283
     0
 90
        4
 91
        0
  1

274
    -2
284
     1
 64
     0
275
    -2
285
     1
 65
     0
276
    -2
286
     1
 66
     0
277
    -2
287
     1
 67
     0
278
    -2
288
     1
 68
     0
279
    -2
289
     1
 69
     0
  7
Standard
140
6.0
170
     5
 62
     0
 63
     7
283
     0
 90
        4
 91
        0
  1

274
    -2
284
     1
 64
     0
275
    -2
285
     1
 65
     0
276
    -2
286
     1
 66
     0
277
    -2
287
     1
 67
     0
278
    -2
288
     1
 68
     0
279
    -2
289
     1
 69
     0
  7
Standard
140
4.5
170
     5
 62
     0
 63
     7
283
     0
 90
        4
 91
        0
  1

274
    -2
284
     1
 64
     0
275
    -2
285
     1
 65
     0
276
    -2
286
     1
 66
     0
277
    -2
287
     1
 67
     0
278
    -2
288
     1
 68
     0
279
    -2
289
     1
 69
     0
  0
VISUALSTYLE
  5
2F
102
{ACAD_REACTORS
330
2A
102
}
330
2A
100
AcDbVisualStyle
  2
2dWireframe
 70
     4
177
     3
291
     0
 70
    58
 90
        0
176
     1
 90
        2
176
     1
 90
        0
176
     1
 90
        0
176
     1
 40
0.6
176
     1
 40
30.0
176
     1
 62
     7
420
 16777215
176
     1
 90
        1
176
     1
 90
        4
176
     1
 62
     7
176
     1
 62
   257
176
     1
 90
        1
176
     1
 90
        1
176
     1
 40
1.0
176
     1
 90
        0
176
     1
 62
   257
176
     1
 40
1.0
176
     1
 90
        1
176
     1
 90
        6
176
     1
 90
        2
176
     1
 62
     7
176
     1
 90
        5
176
     1
 90
        0
176
     1
 90
        0
176
     1
290
     0
176
     1
 90
        1
176
     1
 40
0.0
176
     1
 90
        0
176
     1
290
     1
176
     1
290
     1
176
     1
290
     0
176
     1
290
     0
176
     1
290
     0
176
     1
290
     0
176
     1
290
     0
176
     1
290
     0
176
     1
290
     0
176
     1
 90
       50
176
     1
 40
0.0
176
     1
 40
1.0
176
     1
 90
        0
176
     1
 62
    18
176
     1
 90
       50
176
     1
 90
        3
176
     1
 62
     5
420
      255
176
     1
290
     0
176
     1
 90
       50
176
     1
 90
       50
176
     1
 90
       50
176
     1
290
     0
176
     1
 90
       50
176
     1
 62
   256
176
     0
 40
1.0
176
     0
 90
        2
176
     1
  1
strokes_ogs.tif
176
     1
290
     0
176
     1
 40
1.0
176
     1
 40
1.0
176
     1
1001
ACAD
1000
AcDbSavedByObjectVersion
1070
     0
  0
VISUALSTYLE
  5
7C7
102
{ACAD_REACTORS
330
2A
102
}
330
2A
100
AcDbVisualStyle
  2
3dWireframe
 70
     5
177
     3
291
     0
 70
    58
 90
        0
176
     1
 90
        2
176
     1
 90
        0
176
     1
 90
        0
176
     1
 40
0.6
176
     1
 40
30.0
176
     1
 62
     7
420
 16777215
176
     1
 90
        1
176
     1
 90
        4
176
     1
 62
     7
176
     1
 62
   257
176
     1
 90
        1
176
     1
 90
        1
176
     1
 40
1.0
176
     1
 90
        0
176
     1
 62
   257
176
     1
 40
1.0
176
     1
 90
        1
176
     1
 90
        6
176
     1
 90
        2
176
     1
 62
     7
176
     1
 90
        5
176
     1
 90
        0
176
     1
 90
        0
176
     1
290
     0
176
     1
 90
        1
176
     1
 40
0.0
176
     1
 90
        0
176
     1
290
     0
176
     1
290
     1
176
     1
290
     1
176
     1
290
     0
176
     1
290
     0
176
     1
290
     0
176
     1
290
     0
176
     1
290
     0
176
     1
290
     0
176
     1
 90
       50
176
     1
 40
0.0
176
     1
 40
1.0
176
     1
 90
        0
176
     1
 62
    18
420
        0
176
     1
 90
       50
176
     1
 90
        3
176
     1
 62
     5
420
      255
176
     1
290
     0
176
     1
 90
       50
176
     1
 90
       50
176
     1
 90
       50
176
     1
290
     0
176
     1
 90
       50
176
     1
 62
   256
176
     0
 40
1.0
176
     0
 90
        2
176
     1
  1
strokes_ogs.tif
176
     1
290
     0
176
     1
 40
1.0
176
     1
 40
1.0
176
     1
1001
ACAD
1000
AcDbSavedByObjectVersion
1070
     0
  0
VISUALSTYLE
  5
32
102
{ACAD_REACTORS
330
2A
102
}
330
2A
100
AcDbVisualStyle
  2
Basic
 70
     7
177
     3
291
     1
 70
    58
 90
        1
176
     1
 90
        0
176
     1
 90
        1
176
     1
 90
        0
176
     1
 40
0.6
176
     1
 40
30.0
176
     1
 62
     7
420
 16777215
176
     1
 90
        0
176
     1
 90
        4
176
     1
 62
     7
176
     1
 62
   257
176
     1
 90
        1
176
     1
 90
        1
176
     1
 40
1.0
176
     1
 90
        8
176
     1
 62
     7
176
     1
 40
1.0
176
     1
 90
        1
176
     1
 90
        6
176
     1
 90
        2
176
     1
 62
     7
176
     1
 90
        5
176
     1
 90
        0
176
     1
 90
        0
176
     1
290
     0
176
     1
 90
        1
176
     1
 40
0.0
176
     1
 90
        0
176
     1
290
     0
176
     1
290
     1
176
     1
290
     1
176
     1
290
     0
176
     1
290
     0
176
     1
290
     0
176
     1
290
     0
176
     1
290
     0
176
     1
290
     0
176
     1
 90
       50
176
     1
 40
0.0
176
     1
 40
1.0
176
     1
 90
        0
176
     1
 62
    18
176
     1
 90
       50
176
     1
 90
        3
176
     1
 62
     5
420
      255
176
     1
290
     0
176
     1
 90
       50
176
     1
 90
       50
176
     1
 90
       50
176
     1
290
     0
176
     1
 90
       50
176
     1
 62
   256
176
     0
 40
1.0
176
     0
 90
        2
176
     1
  1
strokes_ogs.tif
176
     1
290
     0
176
     1
 40
1.0
176
     1
 40
1.0
176
     1
1001
ACAD
1000
AcDbSavedByObjectVersion
1070
     0
  0
VISUALSTYLE
  5
36
102
{ACAD_REACTORS
330
2A
102
}
330
2A
100
AcDbVisualStyle
  2
Brighten
 70
    12
177
     3
291
     1
 70
    58
 90
        2
176
     1
 90
        2
176
     1
 90
        0
176
     1
 90
        0
176
     1
 40
0.6
176
     1
 40
30.0
176
     1
 62
     7
420
 16777215
176
     1
 90
        1
176
     1
 90
        4
176
     1
 62
     7
176
     1
 62
   257
176
     1
 90
        1
176
     1
 90
        1
176
     1
 40
1.0
176
     1
 90
        8
176
     1
 62
     7
176
     1
 40
1.0
176
     1
 90
        1
176
     1
 90
        6
176
     1
 90
        2
176
     1
 62
     7
176
     1
 90
        5
176
     1
 90
        0
176
     1
 90
        0
176
     1
290
     0
176
     1
 90
        1
176
     1
 40
50.0
176
     1
 90
        0
176
     1
290
     0
176
     1
290
     1
176
     1
290
     1
176
     1
290
     0
176
     1
290
     0
176
     1
290
     0
176
     1
290
     0
176
     1
290
     0
176
     1
290
     0
176
     1
 90
       50
176
     1
 40
0.0
176
     1
 40
1.0
176
     1
 90
        0
176
     1
 62
    18
176
     1
 90
       50
176
     1
 90
        3
176
     1
 62
     5
420
      255
176
     1
290
     0
176
     1
 90
       50
176
     1
 90
       50
176
     1
 90
       50
176
     1
290
     0
176
     1
 90
       50
176
     1
 62
   256
176
     0
 40
1.0
176
     0
 90
        2
176
     1
  1
strokes_ogs.tif
176
     1
290
     0
176
     1
 40
1.0
176
     1
 40
1.0
176
     1
1001
ACAD
1000
AcDbSavedByObjectVersion
1070
     0
  0
VISUALSTYLE
  5
3A
102
{ACAD_REACTORS
330
2A
102
}
330
2A
100
AcDbVisualStyle
  2
ColorChange
 70
    16
177
     3
291
     1
 70
    58
 90
        2
176
     1
 90
        2
176
     1
 90
        3
176
     1
 90
        0
176
     1
 40
0.6
176
     1
 40
30.0
176
     1
 62
     8
420
  8421504
176
     1
 90
        1
176
     1
 90
        4
176
     1
 62
     7
176
     1
 62
   257
176
     1
 90
        1
176
     1
 90
        1
176
     1
 40
1.0
176
     1
 90
        8
176
     1
 62
     8
420
  8421504
176
     1
 40
1.0
176
     1
 90
        1
176
     1
 90
        6
176
     1
 90
        2
176
     1
 62
     7
176
     1
 90
        5
176
     1
 90
        0
176
     1
 90
        0
176
     1
290
     0
176
     1
 90
        1
176
     1
 40
0.0
176
     1
 90
        0
176
     1
290
     0
176
     1
290
     1
176
     1
290
     1
176
     1
290
     0
176
     1
290
     0
176
     1
290
     0
176
     1
290
     0
176
     1
290
     0
176
     1
290
     0
176
     1
 90
       50
176
     1
 40
0.0
176
     1
 40
1.0
176
     1
 90
        0
176
     1
 62
    18
176
     1
 90
       50
176
     1
 90
        3
176
     1
 62
     5
420
      255
176
     1
290
     0
176
     1
 90
       50
176
     1
 90
       50
176
     1
 90
       50
176
     1
290
     0
176
     1
 90
       50
176
     1
 62
   256
176
     0
 40
1.0
176
     0
 90
        2
176
     1
  1
strokes_ogs.tif
176
     1
290
     0
176
     1
 40
1.0
176
     1
 40
1.0
176
     1
1001
ACAD
1000
AcDbSavedByObjectVersion
1070
     0
  0
VISUALSTYLE
  5
34
102
{ACAD_REACTORS
330
2A
102
}
330
2A
100
AcDbVisualStyle
  2
Conceptual
 70
     9
177
     3
291
     0
 70
    58
 90
        3
176
     1
 90
        2
176
     1
 90
        0
176
     1
 90
        0
176
     1
 40
0.6
176
     1
 40
30.0
176
     1
 62
     7
420
 16777215
176
     1
 90
        2
176
     1
 90
        2
176
     1
 62
     7
176
     1
 62
   257
176
     1
 90
        1
176
     1
 90
        1
176
     1
 40
179.0
176
     1
 90
        8
176
     1
 62
     7
176
     1
 40
1.0
176
     1
 90
        1
176
     1
 90
        6
176
     1
 90
        2
176
     1
 62
     7
176
     1
 90
        3
176
     1
 90
        0
176
     1
 90
        0
176
     1
290
     0
176
     1
 90
        1
176
     1
 40
0.0
176
     1
 90
        0
176
     1
290
     0
176
     1
290
     1
176
     1
290
     1
176
     1
290
     0
176
     1
290
     0
176
     1
290
     0
176
     1
290
     0
176
     1
290
     0
176
     1
290
     0
176
     1
 90
       50
176
     1
 40
0.0
176
     1
 40
1.0
176
     1
 90
        0
176
     1
 62
    18
176
     1
 90
       50
176
     1
 90
        3
176
     1
 62
     5
420
      255
176
     1
290
     0
176
     1
 90
       50
176
     1
 90
       50
176
     1
 90
       50
176
     1
290
     0
176
     1
 90
       50
176
     1
 62
   256
176
     0
 40
1.0
176
     0
 90
        2
176
     1
  1
strokes_ogs.tif
176
     1
290
     0
176
     1
 40
1.0
176
     1
 40
1.0
176
     1
1001
ACAD
1000
AcDbSavedByObjectVersion
1070
     0
  0
VISUALSTYLE
  5
35
102
{ACAD_REACTORS
330
2A
102
}
330
2A
100
AcDbVisualStyle
  2
Dim
 70
    11
177
     3
291
     1
 70
    58
 90
        2
176
     1
 90
        2
176
     1
 90
        0
176
     1
 90
        0
176
     1
 40
0.6
176
     1
 40
30.0
176
     1
 62
     7
420
 16777215
176
     1
 90
        1
176
     1
 90
        4
176
     1
 62
     7
176
     1
 62
   257
176
     1
 90
        1
176
     1
 90
        1
176
     1
 40
1.0
176
     1
 90
        8
176
     1
 62
     7
176
     1
 40
1.0
176
     1
 90
        1
176
     1
 90
        6
176
     1
 90
        2
176
     1
 62
     7
176
     1
 90
        5
176
     1
 90
        0
176
     1
 90
        0
176
     1
290
     0
176
     1
 90
        1
176
     1
 40
-50.0
176
     1
 90
        0
176
     1
290
     0
176
     1
290
     1
176
     1
290
     1
176
     1
290
     0
176
     1
290
     0
176
     1
290
     0
176
     1
290
     0
176
     1
290
     0
176
     1
290
     0
176
     1
 90
       50
176
     1
 40
0.0
176
     1
 40
1.0
176
     1
 90
        0
176
     1
 62
    18
176
     1
 90
       50
176
     1
 90
        3
176
     1
 62
     5
420
      255
176
     1
290
     0
176
     1
 90
       50
176
     1
 90
       50
176
     1
 90
       50
176
     1
290
     0
176
     1
 90
       50
176
     1
 62
   256
176
     0
 40
1.0
176
     0
 90
        2
176
     1
  1
strokes_ogs.tif
176
     1
290
     0
176
     1
 40
1.0
176
     1
 40
1.0
176
     1
1001
ACAD
1000
AcDbSavedByObjectVersion
1070
     0
  0
VISUALSTYLE
  5
3D
102
{ACAD_REACTORS
330
2A
102
}
330
2A
100
AcDbVisualStyle
  2
EdgeColorOff
 70
    22
177
     3
291
     1
 70
    58
 90
        2
176
     0
 90
        2
176
     0
 90
        0
176
     0
 90
        0
176
     0
 40
0.6
176
     0
 40
30.0
176
     0
 62
     7
420
 16777215
176
     0
 90
        1
176
     0
 90
        4
176
     0
 62
     7
176
     0
 62
   257
176
     0
 90
        1
176
     0
 90
        1
176
     0
 40
1.0
176
     0
 90
        8
176
     2
 62
     7
176
     0
 40
1.0
176
     0
 90
        1
176
     0
 90
        6
176
     0
 90
        2
176
     0
 62
     7
176
     0
 90
        5
176
     0
 90
        0
176
     0
 90
        0
176
     0
290
     0
176
     0
 90
        1
176
     0
 40
0.0
176
     0
 90
        0
176
     0
290
     0
176
     0
290
     1
176
     0
290
     1
176
     0
290
     0
176
     0
290
     0
176
     0
290
     0
176
     0
290
     0
176
     0
290
     0
176
     0
290
     0
176
     0
 90
       50
176
     0
 40
0.0
176
     0
 40
1.0
176
     0
 90
        0
176
     0
 62
    18
176
     0
 90
       50
176
     0
 90
        3
176
     0
 62
     5
420
      255
176
     0
290
     0
176
     0
 90
       50
176
     0
 90
       50
176
     0
 90
       50
176
     0
290
     0
176
     0
 90
       50
176
     0
 62
   256
176
     0
 40
1.0
176
     0
 90
        2
176
     0
  1
strokes_ogs.tif
176
     0
290
     0
176
     0
 40
1.0
176
     0
 40
1.0
176
     0
1001
ACAD
1000
AcDbSavedByObjectVersion
1070
     0
  0
VISUALSTYLE
  5
39
102
{ACAD_REACTORS
330
2A
102
}
330
2A
100
AcDbVisualStyle
  2
Facepattern
 70
    15
177
     3
291
     1
 70
    58
 90
        2
176
     1
 90
        2
176
     1
 90
        0
176
     1
 90
        0
176
     1
 40
0.6
176
     1
 40
30.0
176
     1
 62
     7
420
 16777215
176
     1
 90
        1
176
     1
 90
        4
176
     1
 62
     7
176
     1
 62
   257
176
     1
 90
        1
176
     1
 90
        1
176
     1
 40
1.0
176
     1
 90
        8
176
     1
 62
     7
176
     1
 40
1.0
176
     1
 90
        1
176
     1
 90
        6
176
     1
 90
        2
176
     1
 62
     7
176
     1
 90
        5
176
     1
 90
        0
176
     1
 90
        0
176
     1
290
     0
176
     1
 90
        1
176
     1
 40
0.0
176
     1
 90
        0
176
     1
290
     0
176
     1
290
     1
176
     1
290
     1
176
     1
290
     0
176
     1
290
     0
176
     1
290
     0
176
     1
290
     0
176
     1
290
     0
176
     1
290
     0
176
     1
 90
       50
176
     1
 40
0.0
176
     1
 40
1.0
176
     1
 90
        0
176
     1
 62
    18
176
     1
 90
       50
176
     1
 90
        3
176
     1
 62
     5
420
      255
176
     1
290
     0
176
     1
 90
       50
176
     1
 90
       50
176
     1
 90
       50
176
     1
290
     0
176
     1
 90
       50
176
     1
 62
   256
176
     0
 40
1.0
176
     0
 90
        2
176
     1
  1
strokes_ogs.tif
176
     1
290
     0
176
     1
 40
1.0
176
     1
 40
1.0
176
     1
1001
ACAD
1000
AcDbSavedByObjectVersion
1070
     0
  0
VISUALSTYLE
  5
2B
102
{ACAD_REACTORS
330
2A
102
}
330
2A
100
AcDbVisualStyle
  2
Flat
 70
     0
177
     3
291
     1
 70
    58
 90
        2
176
     1
 90
        1
176
     1
 90
        1
176
     1
 90
        2
176
     1
 40
0.6
176
     1
 40
30.0
176
     1
 62
     7
420
 16777215
176
     1
 90
        0
176
     1
 90
        0
176
     1
 62
     7
176
     1
 62
   257
176
     1
 90
        1
176
     1
 90
        1
176
     1
 40
1.0
176
     1
 90
        8
176
     1
 62
     7
176
     1
 40
1.0
176
     1
 90
        1
176
     1
 90
        6
176
     1
 90
        2
176
     1
 62
     7
176
     1
 90
        5
176
     1
 90
        0
176
     1
 90
        0
176
     1
290
     0
176
     1
 90
       13
176
     1
 40
0.0
176
     1
 90
        0
176
     1
290
     0
176
     1
290
     1
176
     1
290
     1
176
     1
290
     0
176
     1
290
     0
176
     1
290
     0
176
     1
290
     0
176
     1
290
     0
176
     1
290
     0
176
     1
 90
       50
176
     1
 40
0.0
176
     1
 40
1.0
176
     1
 90
        0
176
     1
 62
    18
176
     1
 90
       50
176
     1
 90
        3
176
     1
 62
     5
420
      255
176
     1
290
     0
176
     1
 90
       50
176
     1
 90
       50
176
     1
 90
       50
176
     1
290
     0
176
     1
 90
       50
176
     1
 62
   256
176
     0
 40
1.0
176
     0
 90
        2
176
     1
  1
strokes_ogs.tif
176
     1
290
     0
176
     1
 40
1.0
176
     1
 40
1.0
176
     1
1001
ACAD
1000
AcDbSavedByObjectVersion
1070
     0
  0
VISUALSTYLE
  5
2C
102
{ACAD_REACTORS
330
2A
102
}
330
2A
100
AcDbVisualStyle
  2
FlatWithEdges
 70
     1
177
     3
291
     1
 70
    58
 90
        2
176
     1
 90
        1
176
     1
 90
        1
176
     1
 90
        2
176
     1
 40
0.6
176
     1
 40
30.0
176
     1
 62
     7
420
 16777215
176
     1
 90
        1
176
     1
 90
        0
176
     1
 62
     7
176
     1
 62
   257
176
     1
 90
        1
176
     1
 90
        1
176
     1
 40
1.0
176
     1
 90
        0
176
     1
 62
   257
176
     1
 40
1.0
176
     1
 90
        1
176
     1
 90
        6
176
     1
 90
        2
176
     1
 62
     7
176
     1
 90
        5
176
     1
 90
        0
176
     1
 90
        0
176
     1
290
     0
176
     1
 90
       13
176
     1
 40
0.0
176
     1
 90
        0
176
     1
290
     0
176
     1
290
     1
176
     1
290
     1
176
     1
290
     0
176
     1
290
     0
176
     1
290
     0
176
     1
290
     0
176
     1
290
     0
176
     1
290
     0
176
     1
 90
       50
176
     1
 40
0.0
176
     1
 40
1.0
176
     1
 90
        0
176
     1
 62
    18
176
     1
 90
       50
176
     1
 90
        3
176
     1
 62
     5
420
      255
176
     1
290
     0
176
     1
 90
       50
176
     1
 90
       50
176
     1
 90
       50
176
     1
290
     0
176
     1
 90
       50
176
     1
 62
   256
176
     0
 40
1.0
176
     0
 90
        2
176
     1
  1
strokes_ogs.tif
176
     1
290
     0
176
     1
 40
1.0
176
     1
 40
1.0
176
     1
1001
ACAD
1000
AcDbSavedByObjectVersion
1070
     0
  0
VISUALSTYLE
  5
2D
102
{ACAD_REACTORS
330
2A
102
}
330
2A
100
AcDbVisualStyle
  2
Gouraud
 70
     2
177
     3
291
     1
 70
    58
 90
        2
176
     1
 90
        2
176
     1
 90
        1
176
     1
 90
        2
176
     1
 40
0.6
176
     1
 40
30.0
176
     1
 62
     7
420
 16777215
176
     1
 90
        0
176
     1
 90
        0
176
     1
 62
     7
176
     1
 62
   257
176
     1
 90
        1
176
     1
 90
        1
176
     1
 40
1.0
176
     1
 90
        0
176
     1
 62
     7
176
     1
 40
1.0
176
     1
 90
        1
176
     1
 90
        6
176
     1
 90
        2
176
     1
 62
     7
176
     1
 90
        5
176
     1
 90
        0
176
     1
 90
        0
176
     1
290
     0
176
     1
 90
       13
176
     1
 40
0.0
176
     1
 90
        0
176
     1
290
     0
176
     1
290
     1
176
     1
290
     1
176
     1
290
     0
176
     1
290
     0
176
     1
290
     0
176
     1
290
     0
176
     1
290
     0
176
     1
290
     0
176
     1
 90
       50
176
     1
 40
0.0
176
     1
 40
1.0
176
     1
 90
        0
176
     1
 62
    18
176
     1
 90
       50
176
     1
 90
        3
176
     1
 62
     5
420
      255
176
     1
290
     0
176
     1
 90
       50
176
     1
 90
       50
176
     1
 90
       50
176
     1
290
     0
176
     1
 90
       50
176
     1
 62
   256
176
     0
 40
1.0
176
     0
 90
        2
176
     1
  1
strokes_ogs.tif
176
     1
290
     0
176
     1
 40
1.0
176
     1
 40
1.0
176
     1
1001
ACAD
1000
AcDbSavedByObjectVersion
1070
     0
  0
VISUALSTYLE
  5
2E
102
{ACAD_REACTORS
330
2A
102
}
330
2A
100
AcDbVisualStyle
  2
GouraudWithEdges
 70
     3
177
     3
291
     1
 70
    58
 90
        2
176
     1
 90
        2
176
     1
 90
        1
176
     1
 90
        2
176
     1
 40
0.6
176
     1
 40
30.0
176
     1
 62
     7
420
 16777215
176
     1
 90
        1
176
     1
 90
        0
176
     1
 62
     7
176
     1
 62
   257
176
     1
 90
        1
176
     1
 90
        1
176
     1
 40
1.0
176
     1
 90
        0
176
     1
 62
   257
176
     1
 40
1.0
176
     1
 90
        1
176
     1
 90
        6
176
     1
 90
        2
176
     1
 62
     7
176
     1
 90
        5
176
     1
 90
        0
176
     1
 90
        0
176
     1
290
     0
176
     1
 90
       13
176
     1
 40
0.0
176
     1
 90
        0
176
     1
290
     0
176
     1
290
     1
176
     1
290
     1
176
     1
290
     0
176
     1
290
     0
176
     1
290
     0
176
     1
290
     0
176
     1
290
     0
176
     1
290
     0
176
     1
 90
       50
176
     1
 40
0.0
176
     1
 40
1.0
176
     1
 90
        0
176
     1
 62
    18
176
     1
 90
       50
176
     1
 90
        3
176
     1
 62
     5
420
      255
176
     1
290
     0
176
     1
 90
       50
176
     1
 90
       50
176
     1
 90
       50
176
     1
290
     0
176
     1
 90
       50
176
     1
 62
   256
176
     0
 40
1.0
176
     0
 90
        2
176
     1
  1
strokes_ogs.tif
176
     1
290
     0
176
     1
 40
1.0
176
     1
 40
1.0
176
     1
1001
ACAD
1000
AcDbSavedByObjectVersion
1070
     0
  0
VISUALSTYLE
  5
31
102
{ACAD_REACTORS
330
2A
102
}
330
2A
100
AcDbVisualStyle
  2
Hidden
 70
     6
177
     3
291
     0
 70
    58
 90
        1
176
     1
 90
        2
176
     1
 90
        2
176
     1
 90
        0
176
     1
 40
0.6
176
     1
 40
30.0
176
     1
 62
     7
420
 16777215
176
     1
 90
        2
176
     1
 90
        2
176
     1
 62
     7
176
     1
 62
   257
176
     1
 90
        2
176
     1
 90
        1
176
     1
 40
40.0
176
     1
 90
        0
176
     1
 62
   257
176
     1
 40
1.0
176
     1
 90
        1
176
     1
 90
        6
176
     1
 90
        2
176
     1
 62
     7
176
     1
 90
        3
176
     1
 90
        0
176
     1
 90
        0
176
     1
290
     0
176
     1
 90
        1
176
     1
 40
0.0
176
     1
 90
        0
176
     1
290
     0
176
     1
290
     1
176
     1
290
     1
176
     1
290
     0
176
     1
290
     0
176
     1
290
     0
176
     1
290
     0
176
     1
290
     0
176
     1
290
     0
176
     1
 90
       50
176
     1
 40
0.0
176
     1
 40
1.0
176
     1
 90
        0
176
     1
 62
    18
176
     1
 90
       50
176
     1
 90
        3
176
     1
 62
     5
420
      255
176
     1
290
     0
176
     1
 90
       50
176
     1
 90
       50
176
     1
 90
       50
176
     1
290
     0
176
     1
 90
       50
176
     1
 62
   256
176
     0
 40
1.0
176
     0
 90
        2
176
     1
  1
strokes_ogs.tif
176
     1
290
     0
176
     1
 40
1.0
176
     1
 40
1.0
176
     1
1001
ACAD
1000
AcDbSavedByObjectVersion
1070
     0
  0
VISUALSTYLE
  5
3B
102
{ACAD_REACTORS
330
2A
102
}
330
2A
100
AcDbVisualStyle
  2
JitterOff
 70
    20
177
     3
291
     1
 70
    58
 90
        2
176
     0
 90
        2
176
     0
 90
        0
176
     0
 90
        0
176
     0
 40
0.6
176
     0
 40
30.0
176
     0
 62
     7
420
 16777215
176
     0
 90
        1
176
     0
 90
        4
176
     0
 62
     7
176
     0
 62
   257
176
     0
 90
        1
176
     0
 90
        1
176
     0
 40
1.0
176
     0
 90
       10
176
     2
 62
     7
176
     0
 40
1.0
176
     0
 90
        1
176
     0
 90
        6
176
     0
 90
        2
176
     0
 62
     7
176
     0
 90
        5
176
     0
 90
        0
176
     0
 90
        0
176
     0
290
     0
176
     0
 90
        1
176
     0
 40
0.0
176
     0
 90
        0
176
     0
290
     0
176
     0
290
     1
176
     0
290
     1
176
     0
290
     0
176
     0
290
     0
176
     0
290
     0
176
     0
290
     0
176
     0
290
     0
176
     0
290
     0
176
     0
 90
       50
176
     0
 40
0.0
176
     0
 40
1.0
176
     0
 90
        0
176
     0
 62
    18
176
     0
 90
       50
176
     0
 90
        3
176
     0
 62
     5
420
      255
176
     0
290
     0
176
     0
 90
       50
176
     0
 90
       50
176
     0
 90
       50
176
     0
290
     0
176
     0
 90
       50
176
     0
 62
   256
176
     0
 40
1.0
176
     0
 90
        2
176
     0
  1
strokes_ogs.tif
176
     0
290
     0
176
     0
 40
1.0
176
     0
 40
1.0
176
     0
1001
ACAD
1000
AcDbSavedByObjectVersion
1070
     0
  0
VISUALSTYLE
  5
38
102
{ACAD_REACTORS
330
2A
102
}
330
2A
100
AcDbVisualStyle
  2
Linepattern
 70
    14
177
     3
291
     1
 70
    58
 90
        2
176
     1
 90
        2
176
     1
 90
        0
176
     1
 90
        0
176
     1
 40
0.6
176
     1
 40
30.0
176
     1
 62
     7
420
 16777215
176
     1
 90
        1
176
     1
 90
        4
176
     1
 62
     7
176
     1
 62
   257
176
     1
 90
        7
176
     1
 90
        7
176
     1
 40
1.0
176
     1
 90
        8
176
     1
 62
     7
176
     1
 40
1.0
176
     1
 90
        1
176
     1
 90
        6
176
     1
 90
        2
176
     1
 62
     7
176
     1
 90
        5
176
     1
 90
        0
176
     1
 90
        0
176
     1
290
     0
176
     1
 90
        1
176
     1
 40
0.0
176
     1
 90
        0
176
     1
290
     0
176
     1
290
     1
176
     1
290
     1
176
     1
290
     0
176
     1
290
     0
176
     1
290
     0
176
     1
290
     0
176
     1
290
     0
176
     1
290
     0
176
     1
 90
       50
176
     1
 40
0.0
176
     1
 40
1.0
176
     1
 90
        0
176
     1
 62
    18
176
     1
 90
       50
176
     1
 90
        3
176
     1
 62
     5
420
      255
176
     1
290
     0
176
     1
 90
       50
176
     1
 90
       50
176
     1
 90
       50
176
     1
290
     0
176
     1
 90
       50
176
     1
 62
   256
176
     0
 40
1.0
176
     0
 90
        2
176
     1
  1
strokes_ogs.tif
176
     1
290
     0
176
     1
 40
1.0
176
     1
 40
1.0
176
     1
1001
ACAD
1000
AcDbSavedByObjectVersion
1070
     0
  0
VISUALSTYLE
  5
3C
102
{ACAD_REACTORS
330
2A
102
}
330
2A
100
AcDbVisualStyle
  2
OverhangOff
 70
    21
177
     3
291
     1
 70
    58
 90
        2
176
     0
 90
        2
176
     0
 90
        0
176
     0
 90
        0
176
     0
 40
0.6
176
     0
 40
30.0
176
     0
 62
     7
420
 16777215
176
     0
 90
        1
176
     0
 90
        4
176
     0
 62
     7
176
     0
 62
   257
176
     0
 90
        1
176
     0
 90
        1
176
     0
 40
1.0
176
     0
 90
        9
176
     2
 62
     7
176
     0
 40
1.0
176
     0
 90
        1
176
     0
 90
        6
176
     0
 90
        2
176
     0
 62
     7
176
     0
 90
        5
176
     0
 90
        0
176
     0
 90
        0
176
     0
290
     0
176
     0
 90
        1
176
     0
 40
0.0
176
     0
 90
        0
176
     0
290
     0
176
     0
290
     1
176
     0
290
     1
176
     0
290
     0
176
     0
290
     0
176
     0
290
     0
176
     0
290
     0
176
     0
290
     0
176
     0
290
     0
176
     0
 90
       50
176
     0
 40
0.0
176
     0
 40
1.0
176
     0
 90
        0
176
     0
 62
    18
176
     0
 90
       50
176
     0
 90
        3
176
     0
 62
     5
420
      255
176
     0
290
     0
176
     0
 90
       50
176
     0
 90
       50
176
     0
 90
       50
176
     0
290
     0
176
     0
 90
       50
176
     0
 62
   256
176
     0
 40
1.0
176
     0
 90
        2
176
     0
  1
strokes_ogs.tif
176
     0
290
     0
176
     0
 40
1.0
176
     0
 40
1.0
176
     0
1001
ACAD
1000
AcDbSavedByObjectVersion
1070
     0
  0
VISUALSTYLE
  5
33
102
{ACAD_REACTORS
330
2A
102
}
330
2A
100
AcDbVisualStyle
  2
Realistic
 70
     8
177
     3
291
     0
 70
    58
 90
        2
176
     1
 90
        3
176
     1
 90
        0
176
     1
 90
        2
176
     1
 40
0.6
176
     1
 40
30.0
176
     1
 62
     7
420
 16777215
176
     1
 90
        0
176
     1
 90
        0
176
     1
 62
     7
176
     1
 62
   257
176
     1
 90
        1
176
     1
 90
        1
176
     1
 40
1.0
176
     1
 90
        8
176
     1
 62
   257
176
     1
 40
1.0
176
     1
 90
        1
176
     1
 90
        6
176
     1
 90
        2
176
     1
 62
     7
176
     1
 90
        3
176
     1
 90
        0
176
     1
 90
        0
176
     1
290
     0
176
     1
 90
       13
176
     1
 40
0.0
176
     1
 90
        0
176
     1
290
     0
176
     1
290
     1
176
     1
290
     1
176
     1
290
     0
176
     1
290
     0
176
     1
290
     0
176
     1
290
     0
176
     1
290
     0
176
     1
290
     0
176
     1
 90
       50
176
     1
 40
0.0
176
     1
 40
1.0
176
     1
 90
        0
176
     1
 62
    18
176
     1
 90
       50
176
     1
 90
        3
176
     1
 62
     5
420
      255
176
     1
290
     0
176
     1
 90
       50
176
     1
 90
       50
176
     1
 90
       50
176
     1
290
     0
176
     1
 90
       50
176
     1
 62
   256
176
     0
 40
1.0
176
     0
 90
        2
176
     1
  1
strokes_ogs.tif
176
     1
290
     0
176
     1
 40
1.0
176
     1
 40
1.0
176
     1
1001
ACAD
1000
AcDbSavedByObjectVersion
1070
     0
  0
VISUALSTYLE
  5
42
102
{ACAD_REACTORS
330
2A
102
}
330
2A
100
AcDbVisualStyle
  2
Shaded
 70
    27
177
     3
291
     0
 70
    58
 90
        2
176
     1
 90
        2
176
     1
 90
        1
176
     1
 90
        2
176
     1
 40
0.6
176
     1
 40
30.0
176
     1
 62
     7
420
 16777215
176
     1
 90
        0
176
     1
 90
        4
176
     1
 62
     7
176
     1
 62
   257
176
     1
 90
        1
176
     1
 90
        1
176
     1
 40
1.0
176
     1
 90
        8
176
     1
 62
   257
176
     1
 40
1.0
176
     1
 90
        1
176
     1
 90
        6
176
     1
 90
        2
176
     1
 62
     8
420
  7895160
176
     1
 90
        3
176
     1
 90
        0
176
     1
 90
        0
176
     1
290
     0
176
     1
 90
        5
176
     1
 40
0.0
176
     1
 90
        0
176
     1
290
     0
176
     1
290
     1
176
     1
290
     1
176
     1
290
     0
176
     1
290
     0
176
     1
290
     0
176
     1
290
     0
176
     1
290
     0
176
     1
290
     0
176
     1
 90
       50
176
     1
 40
0.0
176
     1
 40
1.0
176
     1
 90
        0
176
     1
 62
    18
176
     1
 90
       50
176
     1
 90
        3
176
     1
 62
     5
420
      255
176
     1
290
     0
176
     1
 90
       50
176
     1
 90
       50
176
     1
 90
       50
176
     1
290
     0
176
     1
 90
       50
176
     1
 62
   256
176
     0
 40
1.0
176
     0
 90
        2
176
     1
  1
strokes_ogs.tif
176
     1
290
     0
176
     1
 40
1.0
176
     1
 40
1.0
176
     1
1001
ACAD
1000
AcDbSavedByObjectVersion
1070
     0
  0
VISUALSTYLE
  5
41
102
{ACAD_REACTORS
330
2A
102
}
330
2A
100
AcDbVisualStyle
  2
Shaded with edges
 70
    26
177
     3
291
     0
 70
    58
 90
        2
176
     1
 90
        2
176
     1
 90
        1
176
     1
 90
        2
176
     1
 40
0.6
176
     1
 40
30.0
176
     1
 62
     7
420
 16777215
176
     1
 90
        1
176
     1
 90
        2
176
     1
 62
     7
176
     1
 62
   257
176
     1
 90
        2
176
     1
 90
        1
176
     1
 40
1.0
176
     1
 90
        8
176
     1
 62
   257
176
     1
 40
1.0
176
     1
 90
        1
176
     1
 90
        6
176
     1
 90
        2
176
     1
 62
     7
176
     1
 90
        3
176
     1
 90
        0
176
     1
 90
        0
176
     1
290
     0
176
     1
 90
        5
176
     1
 40
0.0
176
     1
 90
        0
176
     1
290
     0
176
     1
290
     1
176
     1
290
     1
176
     1
290
     0
176
     1
290
     0
176
     1
290
     0
176
     1
290
     0
176
     1
290
     0
176
     1
290
     0
176
     1
 90
       50
176
     1
 40
0.0
176
     1
 40
1.0
176
     1
 90
        0
176
     1
 62
    18
176
     1
 90
       50
176
     1
 90
        3
176
     1
 62
     5
420
      255
176
     1
290
     0
176
     1
 90
       50
176
     1
 90
       50
176
     1
 90
       50
176
     1
290
     0
176
     1
 90
       50
176
     1
 62
   256
176
     0
 40
1.0
176
     0
 90
        2
176
     1
  1
strokes_ogs.tif
176
     1
290
     0
176
     1
 40
1.0
176
     1
 40
1.0
176
     1
1001
ACAD
1000
AcDbSavedByObjectVersion
1070
     0
  0
VISUALSTYLE
  5
3E
102
{ACAD_REACTORS
330
2A
102
}
330
2A
100
AcDbVisualStyle
  2
Shades of Gray
 70
    23
177
     3
291
     0
 70
    58
 90
        2
176
     1
 90
        2
176
     1
 90
        3
176
     1
 90
        0
176
     1
 40
0.6
176
     1
 40
30.0
176
     1
 62
     7
420
 16777215
176
     1
 90
        2
176
     1
 90
        2
176
     1
 62
     7
176
     1
 62
     7
176
     1
 90
        1
176
     1
 90
        1
176
     1
 40
40.0
176
     1
 90
        8
176
     1
 62
     7
176
     1
 40
1.0
176
     1
 90
        1
176
     1
 90
        6
176
     1
 90
        2
176
     1
 62
     7
176
     1
 90
        3
176
     1
 90
        0
176
     1
 90
        0
176
     1
290
     0
176
     1
 90
        1
176
     1
 40
0.0
176
     1
 90
        0
176
     1
290
     0
176
     1
290
     1
176
     1
290
     1
176
     1
290
     0
176
     1
290
     0
176
     1
290
     0
176
     1
290
     0
176
     1
290
     0
176
     1
290
     0
176
     1
 90
       50
176
     1
 40
0.0
176
     1
 40
1.0
176
     1
 90
        0
176
     1
 62
    18
176
     1
 90
       50
176
     1
 90
        3
176
     1
 62
     5
420
      255
176
     1
290
     0
176
     1
 90
       50
176
     1
 90
       50
176
     1
 90
       50
176
     1
290
     0
176
     1
 90
       50
176
     1
 62
   256
176
     0
 40
1.0
176
     0
 90
        2
176
     1
  1
strokes_ogs.tif
176
     1
290
     0
176
     1
 40
1.0
176
     1
 40
1.0
176
     1
1001
ACAD
1000
AcDbSavedByObjectVersion
1070
     0
  0
VISUALSTYLE
  5
3F
102
{ACAD_REACTORS
330
2A
102
}
330
2A
100
AcDbVisualStyle
  2
Sketchy
 70
    24
177
     3
291
     0
 70
    58
 90
        1
176
     1
 90
        2
176
     1
 90
        2
176
     1
 90
        0
176
     1
 40
0.6
176
     1
 40
30.0
176
     1
 62
     7
420
 16777215
176
     1
 90
        2
176
     1
 90
        2
176
     1
 62
     7
176
     1
 62
     7
176
     1
 90
        1
176
     1
 90
        1
176
     1
 40
40.0
176
     1
 90
       11
176
     1
 62
     7
176
     1
 40
1.0
176
     1
 90
        1
176
     1
 90
        6
176
     1
 90
        2
176
     1
 62
     7
176
     1
 90
        6
176
     1
 90
        0
176
     1
 90
        0
176
     1
290
     0
176
     1
 90
        1
176
     1
 40
0.0
176
     1
 90
        0
176
     1
290
     0
176
     1
290
     1
176
     1
290
     1
176
     1
290
     0
176
     1
290
     0
176
     1
290
     0
176
     1
290
     0
176
     1
290
     0
176
     1
290
     0
176
     1
 90
       50
176
     1
 40
0.0
176
     1
 40
1.0
176
     1
 90
        0
176
     1
 62
    18
176
     1
 90
       50
176
     1
 90
        3
176
     1
 62
     5
420
      255
176
     1
290
     0
176
     1
 90
       50
176
     1
 90
       50
176
     1
 90
       50
176
     1
290
     0
176
     1
 90
       50
176
     1
 62
   256
176
     0
 40
1.0
176
     0
 90
        2
176
     1
  1
strokes_ogs.tif
176
     1
290
     0
176
     1
 40
1.0
176
     1
 40
1.0
176
     1
1001
ACAD
1000
AcDbSavedByObjectVersion
1070
     0
  0
VISUALSTYLE
  5
37
102
{ACAD_REACTORS
330
2A
102
}
330
2A
100
AcDbVisualStyle
  2
Thicken
 70
    13
177
     3
291
     1
 70
    58
 90
        2
176
     1
 90
        2
176
     1
 90
        0
176
     1
 90
        0
176
     1
 40
0.6
176
     1
 40
30.0
176
     1
 62
     7
420
 16777215
176
     1
 90
        1
176
     1
 90
        4
176
     1
 62
     7
176
     1
 62
   257
176
     1
 90
        1
176
     1
 90
        1
176
     1
 40
1.0
176
     1
 90
       12
176
     1
 62
     7
176
     1
 40
1.0
176
     1
 90
        1
176
     1
 90
        6
176
     1
 90
        2
176
     1
 62
     7
176
     1
 90
        5
176
     1
 90
        0
176
     1
 90
        0
176
     1
290
     0
176
     1
 90
        1
176
     1
 40
0.0
176
     1
 90
        0
176
     1
290
     0
176
     1
290
     1
176
     1
290
     1
176
     1
290
     0
176
     1
290
     0
176
     1
290
     0
176
     1
290
     0
176
     1
290
     0
176
     1
290
     0
176
     1
 90
       50
176
     1
 40
0.0
176
     1
 40
1.0
176
     1
 90
        0
176
     1
 62
    18
176
     1
 90
       50
176
     1
 90
        3
176
     1
 62
     5
420
      255
176
     1
290
     0
176
     1
 90
       50
176
     1
 90
       50
176
     1
 90
       50
176
     1
290
     0
176
     1
 90
       50
176
     1
 62
   256
176
     0
 40
1.0
176
     0
 90
        2
176
     1
  1
strokes_ogs.tif
176
     1
290
     0
176
     1
 40
1.0
176
     1
 40
1.0
176
     1
1001
ACAD
1000
AcDbSavedByObjectVersion
1070
     0
  0
VISUALSTYLE
  5
30
102
{ACAD_REACTORS
330
2A
102
}
330
2A
100
AcDbVisualStyle
  2
Wireframe
 70
     5
177
     3
291
     0
 70
    58
 90
        0
176
     1
 90
        2
176
     1
 90
        0
176
     1
 90
        0
176
     1
 40
0.6
176
     1
 40
30.0
176
     1
 62
     7
420
 16777215
176
     1
 90
        1
176
     1
 90
        4
176
     1
 62
     7
176
     1
 62
   257
176
     1
 90
        1
176
     1
 90
        1
176
     1
 40
1.0
176
     1
 90
        0
176
     1
 62
   257
176
     1
 40
1.0
176
     1
 90
        1
176
     1
 90
        6
176
     1
 90
        2
176
     1
 62
     7
176
     1
 90
        3
176
     1
 90
        0
176
     1
 90
        0
176
     1
290
     0
176
     1
 90
        1
176
     1
 40
0.0
176
     1
 90
        0
176
     1
290
     0
176
     1
290
     1
176
     1
290
     1
176
     1
290
     0
176
     1
290
     0
176
     1
290
     0
176
     1
290
     0
176
     1
290
     0
176
     1
290
     0
176
     1
 90
       50
176
     1
 40
0.0
176
     1
 40
1.0
176
     1
 90
        0
176
     1
 62
    18
176
     1
 90
       50
176
     1
 90
        3
176
     1
 62
     5
420
      255
176
     1
290
     0
176
     1
 90
       50
176
     1
 90
       50
176
     1
 90
       50
176
     1
290
     0
176
     1
 90
       50
176
     1
 62
   256
176
     0
 40
1.0
176
     0
 90
        2
176
     1
  1
strokes_ogs.tif
176
     1
290
     0
176
     1
 40
1.0
176
     1
 40
1.0
176
     1
1001
ACAD
1000
AcDbSavedByObjectVersion
1070
     0
  0
VISUALSTYLE
  5
40
102
{ACAD_REACTORS
330
2A
102
}
330
2A
100
AcDbVisualStyle
  2
X-Ray
 70
    25
177
     3
291
     0
 70
    58
 90
        2
176
     1
 90
        2
176
     1
 90
        1
176
     1
 90
        1
176
     1
 40
0.5
176
     1
 40
30.0
176
     1
 62
     7
420
 16777215
176
     1
 90
        1
176
     1
 90
        0
176
     1
 62
     7
176
     1
 62
   257
176
     1
 90
        1
176
     1
 90
        1
176
     1
 40
1.0
176
     1
 90
        8
176
     1
 62
     7
176
     1
 40
1.0
176
     1
 90
        1
176
     1
 90
        6
176
     1
 90
        2
176
     1
 62
     7
176
     1
 90
        3
176
     1
 90
        0
176
     1
 90
        0
176
     1
290
     0
176
     1
 90
       13
176
     1
 40
0.0
176
     1
 90
        0
176
     1
290
     0
176
     1
290
     1
176
     1
290
     1
176
     1
290
     0
176
     1
290
     0
176
     1
290
     0
176
     1
290
     0
176
     1
290
     0
176
     1
290
     0
176
     1
 90
       50
176
     1
 40
0.0
176
     1
 40
1.0
176
     1
 90
        0
176
     1
 62
    18
176
     1
 90
       50
176
     1
 90
        3
176
     1
 62
     5
420
      255
176
     1
290
     0
176
     1
 90
       50
176
     1
 90
       50
176
     1
 90
       50
176
     1
290
     0
176
     1
 90
       50
176
     1
 62
   256
176
     0
 40
1.0
176
     0
 90
        2
176
     1
  1
strokes_ogs.tif
176
     1
290
     0
176
     1
 40
1.0
176
     1
 40
1.0
176
     1
1001
ACAD
1000
AcDbSavedByObjectVersion
1070
     0
  0
DICTIONARYVAR
  5
FE
102
{ACAD_REACTORS
330
FD
102
}
330
FD
100
DictionaryVariables
280
     0
  1
1:1
  0
DICTIONARYVAR
  5
106
102
{ACAD_REACTORS
330
FD
102
}
330
FD
100
DictionaryVariables
280
     0
  1
3.500000
  0
DICTIONARYVAR
  5
107
102
{ACAD_REACTORS
330
FD
102
}
330
FD
100
DictionaryVariables
280
     0
  1
acadiso.lin
  0
DICTIONARYVAR
  5
103
102
{ACAD_REACTORS
330
FD
102
}
330
FD
100
DictionaryVariables
280
     0
  1
STANDARD
  0
DICTIONARYVAR
  5
102
102
{ACAD_REACTORS
330
FD
102
}
330
FD
100
DictionaryVariables
280
     0
  1
STANDARD
  0
DICTIONARYVAR
  5
89C
102
{ACAD_REACTORS
330
FD
102
}
330
FD
100
DictionaryVariables
280
     0
  1
Metric50
  0
DICTIONARYVAR
  5
89D
102
{ACAD_REACTORS
330
FD
102
}
330
FD
100
DictionaryVariables
280
     0
  1
Metric50
  0
DICTIONARY
  5
8EB
102
{ACAD_REACTORS
330
8E9
102
}
330
8E9
100
AcDbDictionary
281
     1
  0
DICTIONARY
  5
8EA
102
{ACAD_REACTORS
330
8E9
102
}
330
8E9
100
AcDbDictionary
281
     1
  3
1775157275328
350
8E4
  3
1775157275344
350
8E5
  3
1775157275360
350
8E6
  3
1775157275376
350
8E7
  3
1775157275392
350
8E8
  0
DICTIONARY
  5
8EE
330
10C
100
AcDbDictionary
280
     1
281
     1
  3
ACAD_XREC_ROUNDTRIP
360
8EF
  0
DICTIONARY
  5
8EC
330
10B
100
AcDbDictionary
280
     1
281
     1
  3
ACAD_XREC_ROUNDTRIP
360
8ED
  0
DICTIONARY
  5
FF
330
6A
100
AcDbDictionary
280
     1
281
     1
  3
ACAD_ROUNDTRIP_2008_TABLESTYLE_CELLSTYLEMAP
360
8E2
  0
XRECORD
  5
8E4
102
{ACAD_REACTORS
330
8EA
102
}
330
8EA
100
AcDbXrecord
280
     1
  1
AcDb_Thumbnail_Schema
102
{ATTRRECORD
341
8E5
  2
AcDbDs::TreatedAsObjectData
280
     1
291
     1
102
ATTRRECORD}
102
{ATTRRECORD
341
8E6
  2
AcDbDs::Legacy
280
     1
291
     1
102
ATTRRECORD}
  2
AcDbDs::ID
280
    10
 91
        8
102
{ATTRRECORD
341
8E7
  2
AcDs:Indexable
280
     1
291
     1
102
ATTRRECORD}
102
{ATTRRECORD
341
8E8
  2
AcDbDs::HandleAttribute
280
     7
282
     1
102
ATTRRECORD}
  2
Thumbnail_Data
280
    15
 91
        0
  0
XRECORD
  5
8E5
102
{ACAD_REACTORS
330
8EA
102
}
330
8EA
100
AcDbXrecord
280
     1
  1
AcDbDs::TreatedAsObjectDataSchema
  2
AcDbDs::TreatedAsObjectData
280
     1
 91
        0
  0
XRECORD
  5
8E6
102
{ACAD_REACTORS
330
8EA
102
}
330
8EA
100
AcDbXrecord
280
     1
  1
AcDbDs::LegacySchema
  2
AcDbDs::Legacy
280
     1
 91
        0
  0
XRECORD
  5
8E7
102
{ACAD_REACTORS
330
8EA
102
}
330
8EA
100
AcDbXrecord
280
     1
  1
AcDbDs::IndexedPropertySchema
  2
AcDs:Indexable
280
     1
 91
        0
  0
XRECORD
  5
8E8
102
{ACAD_REACTORS
330
8EA
102
}
330
8EA
100
AcDbXrecord
280
     1
  1
AcDbDs::HandleAttributeSchema
  2
AcDbDs::HandleAttribute
280
     7
 91
        1
284
     1
  0
XRECORD
  5
8EF
102
{ACAD_REACTORS
330
8EE
102
}
330
8EE
100
AcDbXrecord
280
     1
102
DISPLAYNAME
  1
Metric50
102
FLAGS
 90
        0
  0
XRECORD
  5
8ED
102
{ACAD_REACTORS
330
8EC
102
}
330
8EC
100
AcDbXrecord
280
     1
102
DISPLAYNAME
  1
Metric50
102
FLAGS
 90
        0
  0
CELLSTYLEMAP
  5
8E2
102
{ACAD_REACTORS
330
FF
102
}
330
FF
100
AcDbCellStyleMap
 90
        3
300
CELLSTYLE
  1
TABLEFORMAT_BEGIN
 90
        5
170
     1
 91
        0
 92
    32768
 62
   257
 93
        1
300
CONTENTFORMAT
  1
CONTENTFORMAT_BEGIN
 90
        0
 91
        0
 92
        4
 93
        0
300

 40
0.0
140
1.0
 94
        5
 62
     0
340
11
144
6.0
309
CONTENTFORMAT_END
171
     1
301
MARGIN
  1
CELLMARGIN_BEGIN
 40
1.5
 40
1.5
 40
1.5
 40
1.5
 40
0.18
 40
0.18
309
CELLMARGIN_END
 94
        6
 95
        1
302
GRIDFORMAT
  1
GRIDFORMAT_BEGIN
 90
        0
 91
        1
 62
     0
 92
       -2
340
14
 93
        0
 40
0.045
309
GRIDFORMAT_END
 95
        2
302
GRIDFORMAT
  1
GRIDFORMAT_BEGIN
 90
        0
 91
        1
 62
     0
 92
       -2
340
14
 93
        0
 40
0.045
309
GRIDFORMAT_END
 95
        4
302
GRIDFORMAT
  1
GRIDFORMAT_BEGIN
 90
        0
 91
        1
 62
     0
 92
       -2
340
14
 93
        0
 40
0.045
309
GRIDFORMAT_END
 95
        8
302
GRIDFORMAT
  1
GRIDFORMAT_BEGIN
 90
        0
 91
        1
 62
     0
 92
       -2
340
14
 93
        0
 40
0.045
309
GRIDFORMAT_END
 95
       16
302
GRIDFORMAT
  1
GRIDFORMAT_BEGIN
 90
        0
 91
        1
 62
     0
 92
       -2
340
14
 93
        0
 40
0.045
309
GRIDFORMAT_END
 95
       32
302
GRIDFORMAT
  1
GRIDFORMAT_BEGIN
 90
        0
 91
        1
 62
     0
 92
       -2
340
14
 93
        0
 40
0.045
309
GRIDFORMAT_END
309
TABLEFORMAT_END
  1
CELLSTYLE_BEGIN
 90
        1
 91
        1
300
_TITLE
309
CELLSTYLE_END
300
CELLSTYLE
  1
TABLEFORMAT_BEGIN
 90
        5
170
     1
 91
        0
 92
        0
 62
   257
 93
        1
300
CONTENTFORMAT
  1
CONTENTFORMAT_BEGIN
 90
        0
 91
        0
 92
        4
 93
        0
300

 40
0.0
140
1.0
 94
        5
 62
     0
340
11
144
4.5
309
CONTENTFORMAT_END
171
     1
301
MARGIN
  1
CELLMARGIN_BEGIN
 40
1.5
 40
1.5
 40
1.5
 40
1.5
 40
0.18
 40
0.18
309
CELLMARGIN_END
 94
        6
 95
        1
302
GRIDFORMAT
  1
GRIDFORMAT_BEGIN
 90
        0
 91
        1
 62
     0
 92
       -2
340
14
 93
        0
 40
0.045
309
GRIDFORMAT_END
 95
        2
302
GRIDFORMAT
  1
GRIDFORMAT_BEGIN
 90
        0
 91
        1
 62
     0
 92
       -2
340
14
 93
        0
 40
0.045
309
GRIDFORMAT_END
 95
        4
302
GRIDFORMAT
  1
GRIDFORMAT_BEGIN
 90
        0
 91
        1
 62
     0
 92
       -2
340
14
 93
        0
 40
0.045
309
GRIDFORMAT_END
 95
        8
302
GRIDFORMAT
  1
GRIDFORMAT_BEGIN
 90
        0
 91
        1
 62
     0
 92
       -2
340
14
 93
        0
 40
0.045
309
GRIDFORMAT_END
 95
       16
302
GRIDFORMAT
  1
GRIDFORMAT_BEGIN
 90
        0
 91
        1
 62
     0
 92
       -2
340
14
 93
        0
 40
0.045
309
GRIDFORMAT_END
 95
       32
302
GRIDFORMAT
  1
GRIDFORMAT_BEGIN
 90
        0
 91
        1
 62
     0
 92
       -2
340
14
 93
        0
 40
0.045
309
GRIDFORMAT_END
309
TABLEFORMAT_END
  1
CELLSTYLE_BEGIN
 90
        2
 91
        1
300
_HEADER
309
CELLSTYLE_END
300
CELLSTYLE
  1
TABLEFORMAT_BEGIN
 90
        5
170
     1
 91
        0
 92
        0
 62
   257
 93
        1
300
CONTENTFORMAT
  1
CONTENTFORMAT_BEGIN
 90
        0
 91
        0
 92
        4
 93
        0
300

 40
0.0
140
1.0
 94
        2
 62
     0
340
11
144
4.5
309
CONTENTFORMAT_END
171
     1
301
MARGIN
  1
CELLMARGIN_BEGIN
 40
1.5
 40
1.5
 40
1.5
 40
1.5
 40
0.18
 40
0.18
309
CELLMARGIN_END
 94
        6
 95
        1
302
GRIDFORMAT
  1
GRIDFORMAT_BEGIN
 90
        0
 91
        1
 62
     0
 92
       -2
340
14
 93
        0
 40
0.045
309
GRIDFORMAT_END
 95
        2
302
GRIDFORMAT
  1
GRIDFORMAT_BEGIN
 90
        0
 91
        1
 62
     0
 92
       -2
340
14
 93
        0
 40
0.045
309
GRIDFORMAT_END
 95
        4
302
GRIDFORMAT
  1
GRIDFORMAT_BEGIN
 90
        0
 91
        1
 62
     0
 92
       -2
340
14
 93
        0
 40
0.045
309
GRIDFORMAT_END
 95
        8
302
GRIDFORMAT
  1
GRIDFORMAT_BEGIN
 90
        0
 91
        1
 62
     0
 92
       -2
340
14
 93
        0
 40
0.045
309
GRIDFORMAT_END
 95
       16
302
GRIDFORMAT
  1
GRIDFORMAT_BEGIN
 90
        0
 91
        1
 62
     0
 92
       -2
340
14
 93
        0
 40
0.045
309
GRIDFORMAT_END
 95
       32
302
GRIDFORMAT
  1
GRIDFORMAT_BEGIN
 90
        0
 91
        1
 62
     0
 92
       -2
340
14
 93
        0
 40
0.045
309
GRIDFORMAT_END
309
TABLEFORMAT_END
  1
CELLSTYLE_BEGIN
 90
        3
 91
        2
300
_DATA
309
CELLSTYLE_END
  0
ENDSEC
  0
SECTION
  2
ACDSDATA
 70
     2
 71
     8
  0
ACDSSCHEMA
 90
        0
  1
AcDb_Thumbnail_Schema
  2
AcDbDs::ID
280
    10
 91
        8
  2
Thumbnail_Data
280
    15
 91
        0
101
ACDSRECORD
 95
        0
 90
        1
  2
AcDbDs::TreatedAsObjectData
280
     1
291
     1
101
ACDSRECORD
 95
        0
 90
        2
  2
AcDbDs::Legacy
280
     1
291
     1
101
ACDSRECORD
  1
AcDbDs::ID
 90
        3
  2
AcDs:Indexable
280
     1
291
     1
101
ACDSRECORD
  1
AcDbDs::ID
 90
        4
  2
AcDbDs::HandleAttribute
280
     7
282
     1
  0
ACDSSCHEMA
 90
        1
  1
AcDbDs::TreatedAsObjectDataSchema
  2
AcDbDs::TreatedAsObjectData
280
     1
 91
        0
  0
ACDSSCHEMA
 90
        2
  1
AcDbDs::LegacySchema
  2
AcDbDs::Legacy
280
     1
 91
        0
  0
ACDSSCHEMA
 90
        3
  1
AcDbDs::IndexedPropertySchema
  2
AcDs:Indexable
280
     1
 91
        0
  0
ACDSSCHEMA
 90
        4
  1
AcDbDs::HandleAttributeSchema
  2
AcDbDs::HandleAttribute
280
     7
 91
        1
284
     1
  0
ACDSRECORD
 90
        0
  2
AcDbDs::ID
280
    10
320
22
  2
Thumbnail_Data
280
    15
 94
     1176
310
89504E470D0A1A0A0000000D49484452000001000000007B0803000000AC3EAEE200000300504C5445FFFFFFFFFFFFFFFFFF0000000000000000000000000000000000000000000000000000330000660000990000CC0000FF0033000033330033660033990033CC0033FF0066000066330066660066990066CC0066FF0099
310
000099330099660099990099CC0099FF00CC0000CC3300CC6600CC9900CCCC00CCFF00FF0000FF3300FF6600FF9900FFCC00FFFF3300003300333300663300993300CC3300FF3333003333333333663333993333CC3333FF3366003366333366663366993366CC3366FF3399003399333399663399993399CC3399FF33CC00
310
33CC3333CC6633CC9933CCCC33CCFF33FF0033FF3333FF6633FF9933FFCC33FFFF6600006600336600666600996600CC6600FF6633006633336633666633996633CC6633FF6666006666336666666666996666CC6666FF6699006699336699666699996699CC6699FF66CC0066CC3366CC6666CC9966CCCC66CCFF66FF0066
310
FF3366FF6666FF9966FFCC66FFFF9900009900339900669900999900CC9900FF9933009933339933669933999933CC9933FF9966009966339966669966999966CC9966FF9999009999339999669999999999CC9999FF99CC0099CC3399CC6699CC9999CCCC99CCFF99FF0099FF3399FF6699FF9999FFCC99FFFFCC0000CC00
310
33CC0066CC0099CC00CCCC00FFCC3300CC3333CC3366CC3399CC33CCCC33FFCC6600CC6633CC6666CC6699CC66CCCC66FFCC9900CC9933CC9966CC9999CC99CCCC99FFCCCC00CCCC33CCCC66CCCC99CCCCCCCCCCFFCCFF00CCFF33CCFF66CCFF99CCFFCCCCFFFFFF0000FF0033FF0066FF0099FF00CCFF00FFFF3300FF3333
310
FF3366FF3399FF33CCFF33FFFF6600FF6633FF6666FF6699FF66CCFF66FFFF9900FF9933FF9966FF9999FF99CCFF99FFFFCC00FFCC33FFCC66FFCC99FFCCCCFFCCFFFFFF00FFFF33FFFF66FFFF99FFFFCCFFFFFF0000000D0D0D1A1A1A2828283535354343435050505D5D5D6B6B6B787878868686939393A1A1A1AEAEAEBB
310
BBBBC9C9C9D6D6D6E4E4E4F1F1F1FFFFFF000000000000000000000000000000000000000000000000000000000000AD4AB4E4000001534944415478DAEDDA5B6EC32014455106CBC8194965E424A5721C5BFD89EE595B55D37EB20C0E7EB42649922449922449922449D27F1B00000000000000000000D201FA5E2EC0F291
310
32FABD5C8036473F6297C0023009A297C0461009F09C01FBAF54806DF9C79D03CC80F51C9007B07E0B000000004032C0FC0B008064801E0ED0BB25100730070F00C0BC1F30E64F2CC0F3BFD4FB0191006D19F28B2215207D06640600000000007247BFEC04330FFF889E0566C0F664783400D1003D1B607B2F68247F15F6CD
310
20B99EF66A24807380BC3DC15F8006201E206C151CCE8071BB7200B73794A50046F60C982F0F7F186AED25F0EE01D13ED06267C98B008F51D7FB8AB80250F3D05F04F875E86B6E0F4E014A1FFA138065D8D577866F00CA9EF36E5C0B845C141C003C363AB11743599783C733C00D1100005201E2EF0AC73D25F36004000000
310
00000000000000000000BEB21FCC0D0A6F0C4980420000000049454E44AE426082
  0
ENDSEC
  0
EOF
