  0
SECTION
  2
HEADER
  9
$ACADVER
  1
AC1027
  9
$ACADMAINTVER
 70
   125
  9
$DWGCODEPAGE
  3
ANSI_1252
  9
$LASTSAVEDBY
  1
kaschu
  9
$REQUIREDVERSIONS
160
                 0
  9
$INSBASE
 10
0.0
 20
0.0
 30
0.0
  9
$EXTMIN
 10
56.01859680289544
 20
-179.728364405074
 30
-0.0000000000000048
  9
$EXTMAX
 10
1666.456666902081
 20
1283.782716326536
 30
0.0000000000000048
  9
$LIMMIN
 10
0.0
 20
0.0
  9
$LIMMAX
 10
420.0
 20
297.0
  9
$ORTHOMODE
 70
     0
  9
$REGENMODE
 70
     1
  9
$FILLMODE
 70
     1
  9
$QTEXTMODE
 70
     0
  9
$MIRRTEXT
 70
     1
  9
$LTSCALE
 40
1.0
  9
$ATTMODE
 70
     1
  9
$TEXTSIZE
 40
2.5
  9
$TRACEWID
 40
1.0
  9
$TEXTSTYLE
  7
Standard
  9
$CLAYER
  8
0
  9
$CELTYPE
  6
ByLayer
  9
$CECOLOR
 62
   256
  9
$CELTSCALE
 40
1.0
  9
$DISPSILH
 70
     0
  9
$DIMSCALE
 40
1.0
  9
$DIMASZ
 40
2.5
  9
$DIMEXO
 40
0.625
  9
$DIMDLI
 40
3.75
  9
$DIMRND
 40
0.0
  9
$DIMDLE
 40
0.0
  9
$DIMEXE
 40
1.25
  9
$DIMTP
 40
0.0
  9
$DIMTM
 40
0.0
  9
$DIMTXT
 40
2.5
  9
$DIMCEN
 40
2.5
  9
$DIMTSZ
 40
0.0
  9
$DIMTOL
 70
     0
  9
$DIMLIM
 70
     0
  9
$DIMTIH
 70
     0
  9
$DIMTOH
 70
     0
  9
$DIMSE1
 70
     0
  9
$DIMSE2
 70
     0
  9
$DIMTAD
 70
     1
  9
$DIMZIN
 70
     8
  9
$DIMBLK
  1

  9
$DIMASO
 70
     1
  9
$DIMSHO
 70
     1
  9
$DIMPOST
  1

  9
$DIMAPOST
  1

  9
$DIMALT
 70
     0
  9
$DIMALTD
 70
     3
  9
$DIMALTF
 40
0.03937007874016
  9
$DIMLFAC
 40
1.0
  9
$DIMTOFL
 70
     1
  9
$DIMTVP
 40
0.0
  9
$DIMTIX
 70
     0
  9
$DIMSOXD
 70
     0
  9
$DIMSAH
 70
     0
  9
$DIMBLK1
  1

  9
$DIMBLK2
  1

  9
$DIMSTYLE
  2
ISO-25
  9
$DIMCLRD
 70
     0
  9
$DIMCLRE
 70
     0
  9
$DIMCLRT
 70
     0
  9
$DIMTFAC
 40
1.0
  9
$DIMGAP
 40
0.625
  9
$DIMJUST
 70
     0
  9
$DIMSD1
 70
     0
  9
$DIMSD2
 70
     0
  9
$DIMTOLJ
 70
     0
  9
$DIMTZIN
 70
     8
  9
$DIMALTZ
 70
     0
  9
$DIMALTTZ
 70
     0
  9
$DIMUPT
 70
     0
  9
$DIMDEC
 70
     2
  9
$DIMTDEC
 70
     2
  9
$DIMALTU
 70
     2
  9
$DIMALTTD
 70
     3
  9
$DIMTXSTY
  7
Standard
  9
$DIMAUNIT
 70
     0
  9
$DIMADEC
 70
     0
  9
$DIMALTRND
 40
0.0
  9
$DIMAZIN
 70
     0
  9
$DIMDSEP
 70
    44
  9
$DIMATFIT
 70
     3
  9
$DIMFRAC
 70
     0
  9
$DIMLDRBLK
  1

  9
$DIMLUNIT
 70
     2
  9
$DIMLWD
 70
    -2
  9
$DIMLWE
 70
    -2
  9
$DIMTMOVE
 70
     0
  9
$DIMFXL
 40
1.0
  9
$DIMFXLON
 70
     0
  9
$DIMJOGANG
 40
0.7853981633974483
  9
$DIMTFILL
 70
     0
  9
$DIMTFILLCLR
 70
     0
  9
$DIMARCSYM
 70
     0
  9
$DIMLTYPE
  6

  9
$DIMLTEX1
  6

  9
$DIMLTEX2
  6

  9
$DIMTXTDIRECTION
 70
     0
  9
$LUNITS
 70
     2
  9
$LUPREC
 70
     4
  9
$SKETCHINC
 40
1.0
  9
$FILLETRAD
 40
10.0
  9
$AUNITS
 70
     0
  9
$AUPREC
 70
     0
  9
$MENU
  1
.
  9
$ELEVATION
 40
0.0
  9
$PELEVATION
 40
0.0
  9
$THICKNESS
 40
0.0
  9
$LIMCHECK
 70
     0
  9
$CHAMFERA
 40
0.0
  9
$CHAMFERB
 40
0.0
  9
$CHAMFERC
 40
0.0
  9
$CHAMFERD
 40
0.0
  9
$SKPOLY
 70
     0
  9
$TDCREATE
 40
2459312.722430555
  9
$TDUCREATE
 40
2459312.639101586
  9
$TDUPDATE
 40
2459313.419606482
  9
$TDUUPDATE
 40
2459313.336273148
  9
$TDINDWG
 40
0.0153935301
  9
$TDUSRTIMER
 40
0.0153935301
  9
$USRTIMER
 70
     1
  9
$ANGBASE
 50
0.0
  9
$ANGDIR
 70
     0
  9
$PDMODE
 70
     0
  9
$PDSIZE
 40
0.0
  9
$PLINEWID
 40
0.0
  9
$SPLFRAME
 70
     0
  9
$SPLINETYPE
 70
     6
  9
$SPLINESEGS
 70
     8
  9
$HANDSEED
  5
915
  9
$SURFTAB1
 70
     6
  9
$SURFTAB2
 70
     6
  9
$SURFTYPE
 70
     6
  9
$SURFU
 70
     6
  9
$SURFV
 70
     6
  9
$UCSBASE
  2

  9
$UCSNAME
  2

  9
$UCSORG
 10
0.0
 20
0.0
 30
0.0
  9
$UCSXDIR
 10
1.0
 20
0.0
 30
0.0
  9
$UCSYDIR
 10
0.0
 20
1.0
 30
0.0
  9
$UCSORTHOREF
  2

  9
$UCSORTHOVIEW
 70
     0
  9
$UCSORGTOP
 10
0.0
 20
0.0
 30
0.0
  9
$UCSORGBOTTOM
 10
0.0
 20
0.0
 30
0.0
  9
$UCSORGLEFT
 10
0.0
 20
0.0
 30
0.0
  9
$UCSORGRIGHT
 10
0.0
 20
0.0
 30
0.0
  9
$UCSORGFRONT
 10
0.0
 20
0.0
 30
0.0
  9
$UCSORGBACK
 10
0.0
 20
0.0
 30
0.0
  9
$PUCSBASE
  2

  9
$PUCSNAME
  2

  9
$PUCSORG
 10
0.0
 20
0.0
 30
0.0
  9
$PUCSXDIR
 10
1.0
 20
0.0
 30
0.0
  9
$PUCSYDIR
 10
0.0
 20
1.0
 30
0.0
  9
$PUCSORTHOREF
  2

  9
$PUCSORTHOVIEW
 70
     0
  9
$PUCSORGTOP
 10
0.0
 20
0.0
 30
0.0
  9
$PUCSORGBOTTOM
 10
0.0
 20
0.0
 30
0.0
  9
$PUCSORGLEFT
 10
0.0
 20
0.0
 30
0.0
  9
$PUCSORGRIGHT
 10
0.0
 20
0.0
 30
0.0
  9
$PUCSORGFRONT
 10
0.0
 20
0.0
 30
0.0
  9
$PUCSORGBACK
 10
0.0
 20
0.0
 30
0.0
  9
$USERI1
 70
     0
  9
$USERI2
 70
     0
  9
$USERI3
 70
     0
  9
$USERI4
 70
     0
  9
$USERI5
 70
     0
  9
$USERR1
 40
0.0
  9
$USERR2
 40
0.0
  9
$USERR3
 40
0.0
  9
$USERR4
 40
0.0
  9
$USERR5
 40
0.0
  9
$WORLDVIEW
 70
     1
  9
$SHADEDGE
 70
     3
  9
$SHADEDIF
 70
    70
  9
$TILEMODE
 70
     1
  9
$MAXACTVP
 70
    64
  9
$PINSBASE
 10
0.0
 20
0.0
 30
0.0
  9
$PLIMCHECK
 70
     0
  9
$PEXTMIN
 10
1.000000000000000E+20
 20
1.000000000000000E+20
 30
1.000000000000000E+20
  9
$PEXTMAX
 10
-1.000000000000000E+20
 20
-1.000000000000000E+20
 30
-1.000000000000000E+20
  9
$PLIMMIN
 10
0.0
 20
0.0
  9
$PLIMMAX
 10
420.0
 20
297.0
  9
$UNITMODE
 70
     0
  9
$VISRETAIN
 70
     1
  9
$PLINEGEN
 70
     0
  9
$PSLTSCALE
 70
     1
  9
$TREEDEPTH
 70
  3020
  9
$CMLSTYLE
  2
Standard
  9
$CMLJUST
 70
     0
  9
$CMLSCALE
 40
20.0
  9
$PROXYGRAPHICS
 70
     1
  9
$MEASUREMENT
 70
     1
  9
$CELWEIGHT
370
    -1
  9
$ENDCAPS
280
     0
  9
$JOINSTYLE
280
     0
  9
$LWDISPLAY
290
     0
  9
$INSUNITS
 70
     5
  9
$HYPERLINKBASE
  1

  9
$STYLESHEET
  1

  9
$XEDIT
290
     1
  9
$CEPSNTYPE
380
     0
  9
$PSTYLEMODE
290
     1
  9
$FINGERPRINTGUID
  2
{491A22BE-B035-494D-AAED-8B5E40F3F458}
  9
$VERSIONGUID
  2
{5168F6DC-C2BF-F64D-A0D4-780D91060ECC}
  9
$EXTNAMES
290
     1
  9
$PSVPSCALE
 40
0.0
  9
$OLESTARTUP
290
     0
  9
$SORTENTS
280
   127
  9
$INDEXCTL
280
     0
  9
$HIDETEXT
280
     1
  9
$XCLIPFRAME
280
     2
  9
$HALOGAP
280
     0
  9
$OBSCOLOR
 70
   257
  9
$OBSLTYPE
280
     0
  9
$INTERSECTIONDISPLAY
280
     0
  9
$INTERSECTIONCOLOR
 70
   257
  9
$DIMASSOC
280
     2
  9
$PROJECTNAME
  1

  9
$CAMERADISPLAY
290
     0
  9
$LENSLENGTH
 40
50.0
  9
$CAMERAHEIGHT
 40
0.0
  9
$STEPSPERSEC
 40
2.0
  9
$STEPSIZE
 40
6.0
  9
$3DDWFPREC
 40
2.0
  9
$PSOLWIDTH
 40
5.0
  9
$PSOLHEIGHT
 40
80.0
  9
$LOFTANG1
 40
1.570796326794897
  9
$LOFTANG2
 40
1.570796326794897
  9
$LOFTMAG1
 40
0.0
  9
$LOFTMAG2
 40
0.0
  9
$LOFTPARAM
 70
     7
  9
$LOFTNORMALS
280
     1
  9
$LATITUDE
 40
37.795
  9
$LONGITUDE
 40
-122.394
  9
$NORTHDIRECTION
 40
0.0
  9
$TIMEZONE
 70
 -8000
  9
$LIGHTGLYPHDISPLAY
280
     1
  9
$TILEMODELIGHTSYNCH
280
     1
  9
$CMATERIAL
347
44
  9
$SOLIDHIST
280
     0
  9
$SHOWHIST
280
     1
  9
$DWFFRAME
280
     2
  9
$DGNFRAME
280
     2
  9
$REALWORLDSCALE
290
     1
  9
$INTERFERECOLOR
 62
   256
  9
$INTERFEREOBJVS
345
33
  9
$INTERFEREVPVS
346
30
  9
$CSHADOW
280
     0
  9
$SHADOWPLANELOCATION
 40
0.0
  0
ENDSEC
  0
SECTION
  2
CLASSES
  0
CLASS
  1
ACDBDICTIONARYWDFLT
  2
AcDbDictionaryWithDefault
  3
ObjectDBX Classes
 90
        0
 91
        1
280
     0
281
     0
  0
CLASS
  1
VISUALSTYLE
  2
AcDbVisualStyle
  3
ObjectDBX Classes
 90
     4095
 91
       25
280
     0
281
     0
  0
CLASS
  1
MATERIAL
  2
AcDbMaterial
  3
ObjectDBX Classes
 90
     1153
 91
        3
280
     0
281
     0
  0
CLASS
  1
SCALE
  2
AcDbScale
  3
ObjectDBX Classes
 90
     1153
 91
       33
280
     0
281
     0
  0
CLASS
  1
TABLESTYLE
  2
AcDbTableStyle
  3
ObjectDBX Classes
 90
     4095
 91
        1
280
     0
281
     0
  0
CLASS
  1
MLEADERSTYLE
  2
AcDbMLeaderStyle
  3
ACDB_MLEADERSTYLE_CLASS
 90
     4095
 91
        1
280
     0
281
     0
  0
CLASS
  1
SUN
  2
AcDbSun
  3
SCENEOE
 90
     1153
 91
        1
280
     0
281
     0
  0
CLASS
  1
DICTIONARYVAR
  2
AcDbDictionaryVar
  3
ObjectDBX Classes
 90
        0
 91
        7
280
     0
281
     0
  0
CLASS
  1
CELLSTYLEMAP
  2
AcDbCellStyleMap
  3
ObjectDBX Classes
 90
     1152
 91
        3
280
     0
281
     0
  0
CLASS
  1
ACDBSECTIONVIEWSTYLE
  2
AcDbSectionViewStyle
  3
ObjectDBX Classes
 90
     1025
 91
        1
280
     0
281
     0
  0
CLASS
  1
ACDBDETAILVIEWSTYLE
  2
AcDbDetailViewStyle
  3
ObjectDBX Classes
 90
     1025
 91
        1
280
     0
281
     0
  0
CLASS
  1
DIMASSOC
  2
AcDbDimAssoc
  3
"AcDbDimAssoc|Product Desc:     AcDim ARX App For Dimension|Company:          Autodesk, Inc.|WEB Address:      www.autodesk.com"
 90
        0
 91
        3
280
     0
281
     0
  0
CLASS
  1
SORTENTSTABLE
  2
AcDbSortentsTable
  3
ObjectDBX Classes
 90
        0
 91
        1
280
     0
281
     0
  0
ENDSEC
  0
SECTION
  2
TABLES
  0
TABLE
  2
VPORT
  5
8
330
0
100
AcDbSymbolTable
 70
     1
1001
ACAD
1000
DbSaveVer
1071
      224
  0
VPORT
  5
29
330
8
100
AcDbSymbolTableRecord
100
AcDbViewportTableRecord
  2
*Active
 70
     0
 10
0.0
 20
0.0
 11
1.0
 21
1.0
 12
195.8234570812183
 22
364.2519571207706
 13
0.0
 23
0.0
 14
10.0
 24
10.0
 15
10.0
 25
10.0
 16
0.0
 26
0.0
 36
1.0
 17
0.0
 27
0.0
 37
0.0
 40
2536.81313720094
 41
2.078193832599119
 42
50.0
 43
0.0
 44
0.0
 50
0.0
 51
0.0
 71
     0
 72
   100
 73
     1
 74
     3
 75
     0
 76
     0
 77
     0
 78
     0
281
     0
 65
     1
110
0.0
120
0.0
130
0.0
111
1.0
121
0.0
131
0.0
112
0.0
122
1.0
132
0.0
 79
     0
146
0.0
348
2F
 60
     3
 61
     5
292
     1
282
     1
141
0.0
142
0.0
361
6D
1001
ACAD_NAV_VCDISPLAY
1070
     3
  0
ENDTAB
  0
TABLE
  2
LTYPE
  5
5
330
0
100
AcDbSymbolTable
 70
    11
  0
LTYPE
  5
14
330
5
100
AcDbSymbolTableRecord
100
AcDbLinetypeTableRecord
  2
ByBlock
 70
     0
  3

 72
    65
 73
     0
 40
0.0
  0
LTYPE
  5
15
330
5
100
AcDbSymbolTableRecord
100
AcDbLinetypeTableRecord
  2
ByLayer
 70
     0
  3

 72
    65
 73
     0
 40
0.0
  0
LTYPE
  5
16
330
5
100
AcDbSymbolTableRecord
100
AcDbLinetypeTableRecord
  2
Continuous
 70
     0
  3
Solid line
 72
    65
 73
     0
 40
0.0
  0
LTYPE
  5
6F
330
5
100
AcDbSymbolTableRecord
100
AcDbLinetypeTableRecord
  2
CUSTOM
 70
     0
  3

 72
    65
 73
     0
 40
0.0
  0
LTYPE
  5
70
330
5
100
AcDbSymbolTableRecord
100
AcDbLinetypeTableRecord
  2
SOLID
 70
     0
  3

 72
    65
 73
     0
 40
0.0
  0
LTYPE
  5
71
330
5
100
AcDbSymbolTableRecord
100
AcDbLinetypeTableRecord
  2
DASHED
 70
     0
  3

 72
    65
 73
     2
 40
4.253602097401779
 49
2.126801048700889
 74
     0
 49
-2.126801048700889
 74
     0
  0
LTYPE
  5
72
330
5
100
AcDbSymbolTableRecord
100
AcDbLinetypeTableRecord
  2
LONG_DASH
 70
     0
  3

 72
    65
 73
     2
 40
4.253602097401779
 49
3.190201573051335
 74
     0
 49
-1.063400524350444
 74
     0
  0
LTYPE
  5
73
330
5
100
AcDbSymbolTableRecord
100
AcDbLinetypeTableRecord
  2
SHORT_DASH
 70
     0
  3

 72
    65
 73
     4
 40
4.253602097401779
 49
0.8507204194803559
 74
     0
 49
-1.276080629220534
 74
     0
 49
0.8507204194803559
 74
     0
 49
-1.276080629220534
 74
     0
  0
LTYPE
  5
74
330
5
100
AcDbSymbolTableRecord
100
AcDbLinetypeTableRecord
  2
DOTTED
 70
     0
  3

 72
    65
 73
     8
 40
4.253602097401779
 49
0.212680104870089
 74
     0
 49
-0.8507204194803559
 74
     0
 49
0.212680104870089
 74
     0
 49
-0.8507204194803559
 74
     0
 49
0.212680104870089
 74
     0
 49
-0.8507204194803559
 74
     0
 49
0.212680104870089
 74
     0
 49
-0.8507204194803559
 74
     0
  0
LTYPE
  5
75
330
5
100
AcDbSymbolTableRecord
100
AcDbLinetypeTableRecord
  2
DOTDASH
 70
     0
  3

 72
    65
 73
     4
 40
4.253602097401779
 49
0.212680104870089
 74
     0
 49
-1.063400524350444
 74
     0
 49
1.9141209438308
 74
     0
 49
-1.063400524350444
 74
     0
  0
LTYPE
  5
76
330
5
100
AcDbSymbolTableRecord
100
AcDbLinetypeTableRecord
  2
DOTDOTDASH
 70
     0
  3

 72
    65
 73
     6
 40
4.253602097401779
 49
0.212680104870089
 74
     0
 49
-0.6380403146102671
 74
     0
 49
0.212680104870089
 74
     0
 49
-0.6380403146102671
 74
     0
 49
1.9141209438308
 74
     0
 49
-0.6380403146102671
 74
     0
  0
LTYPE
  5
77
330
5
100
AcDbSymbolTableRecord
100
AcDbLinetypeTableRecord
  2
DASHDASHDOT
 70
     0
  3

 72
    65
 73
     6
 40
4.253602097401779
 49
0.212680104870089
 74
     0
 49
-0.6380403146102671
 74
     0
 49
0.212680104870089
 74
     0
 49
-0.6380403146102671
 74
     0
 49
1.9141209438308
 74
     0
 49
-0.6380403146102671
 74
     0
  0
ENDTAB
  0
TABLE
  2
LAYER
  5
2
102
{ACAD_XDICTIONARY
360
7C8
102
}
330
0
100
AcDbSymbolTable
 70
     3
  0
LAYER
  5
10
330
2
100
AcDbSymbolTableRecord
100
AcDbLayerTableRecord
  2
0
 70
     0
 62
     7
  6
Continuous
370
    -3
390
F
347
46
348
0
  0
LAYER
  5
756
330
2
100
AcDbSymbolTableRecord
100
AcDbLayerTableRecord
  2
Defpoints
 70
     0
 62
     7
  6
Continuous
290
     0
370
    -3
390
F
347
46
348
0
  0
LAYER
  5
7C2
102
{ACAD_XDICTIONARY
360
7C3
102
}
330
2
100
AcDbSymbolTableRecord
100
AcDbLayerTableRecord
  2
HEWI
 70
     0
 62
   250
  6
Continuous
290
     0
370
    -3
390
F
347
46
348
0
  0
ENDTAB
  0
TABLE
  2
STYLE
  5
3
330
0
100
AcDbSymbolTable
 70
     2
  0
STYLE
  5
11
330
3
100
AcDbSymbolTableRecord
100
AcDbTextStyleTableRecord
  2
Standard
 70
     0
 40
0.0
 41
1.0
 50
0.0
 71
     0
 42
2.5
  3
txt
  4

  0
STYLE
  5
7C4
330
3
100
AcDbSymbolTableRecord
100
AcDbTextStyleTableRecord
  2
HEWI
 70
     0
 40
0.0
 41
1.0
 50
0.0
 71
     0
 42
90.0
  3
arial.ttf
  4

1001
ACAD
1000
Arial
1071
       34
  0
ENDTAB
  0
TABLE
  2
VIEW
  5
6
330
0
100
AcDbSymbolTable
 70
     0
  0
ENDTAB
  0
TABLE
  2
UCS
  5
7
330
0
100
AcDbSymbolTable
 70
     0
  0
ENDTAB
  0
TABLE
  2
APPID
  5
9
330
0
100
AcDbSymbolTable
 70
     4
  0
APPID
  5
12
330
9
100
AcDbSymbolTableRecord
100
AcDbRegAppTableRecord
  2
ACAD
 70
     0
  0
APPID
  5
110
330
9
100
AcDbSymbolTableRecord
100
AcDbRegAppTableRecord
  2
ACAD_NAV_VCDISPLAY
 70
     0
  0
APPID
  5
78A
330
9
100
AcDbSymbolTableRecord
100
AcDbRegAppTableRecord
  2
ACAD_EXEMPT_FROM_CAD_STANDARDS
 70
     0
  0
APPID
  5
7C6
330
9
100
AcDbSymbolTableRecord
100
AcDbRegAppTableRecord
  2
ACAD_PSEXT
 70
     0
  0
ENDTAB
  0
TABLE
  2
DIMSTYLE
  5
A
330
0
100
AcDbSymbolTable
 70
     3
100
AcDbDimStyleTable
 71
     1
340
27
  0
DIMSTYLE
105
27
330
A
100
AcDbSymbolTableRecord
100
AcDbDimStyleTableRecord
  2
ISO-25
 70
     0
 41
2.5
 42
0.625
 43
3.75
 44
1.25
 73
     0
 74
     0
 77
     1
 78
     8
140
2.5
141
2.5
143
0.03937007874016
147
0.625
171
     3
172
     1
271
     2
272
     2
274
     3
278
    44
283
     0
284
     8
340
11
  0
DIMSTYLE
105
7C5
330
A
100
AcDbSymbolTableRecord
100
AcDbDimStyleTableRecord
  2
STANDARD
 70
     0
340
11
  0
ENDTAB
  0
TABLE
  2
BLOCK_RECORD
  5
1
330
0
100
AcDbSymbolTable
 70
    11
  0
BLOCK_RECORD
  5
1F
102
{ACAD_XDICTIONARY
360
8F7
102
}
330
1
100
AcDbSymbolTableRecord
100
AcDbBlockTableRecord
  2
*Model_Space
340
22
 70
     0
280
     1
281
     0
  0
BLOCK_RECORD
  5
1B
330
1
100
AcDbSymbolTableRecord
100
AcDbBlockTableRecord
  2
*Paper_Space
340
1E
 70
     0
280
     1
281
     0
  0
BLOCK_RECORD
  5
23
330
1
100
AcDbSymbolTableRecord
100
AcDbBlockTableRecord
  2
*Paper_Space0
340
26
 70
     0
280
     1
281
     0
  0
BLOCK_RECORD
  5
84A
330
1
100
AcDbSymbolTableRecord
100
AcDbBlockTableRecord
  2
*D5
340
0
 70
     0
280
     1
281
     0
  0
BLOCK_RECORD
  5
8AF
330
1
100
AcDbSymbolTableRecord
100
AcDbBlockTableRecord
  2
*D9
340
0
 70
     0
280
     1
281
     0
  0
BLOCK_RECORD
  5
8CA
330
1
100
AcDbSymbolTableRecord
100
AcDbBlockTableRecord
  2
*D10
340
0
 70
     0
280
     1
281
     0
  0
ENDTAB
  0
ENDSEC
  0
SECTION
  2
BLOCKS
  0
BLOCK
  5
20
330
1F
100
AcDbEntity
  8
0
100
AcDbBlockBegin
  2
*Model_Space
 70
     0
 10
0.0
 20
0.0
 30
0.0
  3
*Model_Space
  1

  0
ENDBLK
  5
21
330
1F
100
AcDbEntity
  8
0
100
AcDbBlockEnd
  0
BLOCK
  5
1C
330
1B
100
AcDbEntity
 67
     1
  8
0
100
AcDbBlockBegin
  2
*Paper_Space
 70
     0
 10
0.0
 20
0.0
 30
0.0
  3
*Paper_Space
  1

  0
ENDBLK
  5
1D
330
1B
100
AcDbEntity
 67
     1
  8
0
100
AcDbBlockEnd
  0
BLOCK
  5
24
330
23
100
AcDbEntity
 67
     1
  8
0
100
AcDbBlockBegin
  2
*Paper_Space0
 70
     0
 10
0.0
 20
0.0
 30
0.0
  3
*Paper_Space0
  1

  0
ENDBLK
  5
25
330
23
100
AcDbEntity
 67
     1
  8
0
100
AcDbBlockEnd
  0
BLOCK
  5
84B
330
84A
100
AcDbEntity
  8
0
100
AcDbBlockBegin
  2
*D5
 70
     1
 10
0.0
 20
0.0
 30
0.0
  3
*D5
  1

  0
LINE
  5
857
330
84A
100
AcDbEntity
  8
0
 62
     0
440
 16777216
370
    -2
100
AcDbLine
 10
677.2122030396576
 20
681.2367705846123
 30
0.0
 11
677.2122030396576
 21
556.5153340112228
 31
0.0
  0
LINE
  5
858
330
84A
100
AcDbEntity
  8
0
 62
     0
440
 16777216
370
    -2
100
AcDbLine
 10
710.2122030396576
 20
681.2367705846123
 30
0.0
 11
710.2122030396576
 21
556.5153340112228
 31
0.0
  0
LINE
  5
859
330
84A
100
AcDbEntity
  8
0
 62
     0
440
 16777216
370
    -2
100
AcDbLine
 10
679.7122030396576
 20
557.7653340112228
 30
0.0
 11
707.7122030396576
 21
557.7653340112228
 31
0.0
  0
SOLID
  5
85A
330
84A
100
AcDbEntity
  8
0
 62
     0
440
 16777216
100
AcDbTrace
 10
679.7122030396576
 20
558.1820006778895
 30
0.0
 11
679.7122030396576
 21
557.3486673445562
 31
0.0
 12
677.2122030396576
 22
557.7653340112228
 32
0.0
 13
677.2122030396576
 23
557.7653340112228
 33
0.0
  0
SOLID
  5
85B
330
84A
100
AcDbEntity
  8
0
 62
     0
440
 16777216
100
AcDbTrace
 10
707.7122030396576
 20
558.1820006778895
 30
0.0
 11
707.7122030396576
 21
557.3486673445562
 31
0.0
 12
710.2122030396576
 22
557.7653340112228
 32
0.0
 13
710.2122030396576
 23
557.7653340112228
 33
0.0
  0
MTEXT
  5
85C
330
84A
100
AcDbEntity
  8
0
 62
     0
440
 16777216
100
AcDbMText
 10
693.7122030396576
 20
559.6403340112228
 30
0.0
 40
2.5
 41
0.0
 46
0.0
 71
     5
 72
     1
  1
33
 73
     1
 44
1.0
  0
POINT
  5
85D
330
84A
100
AcDbEntity
  8
Defpoints
 62
     0
440
 16777216
100
AcDbPoint
 10
677.2122030396576
 20
681.8617705846123
 30
-0.000000000000002
  0
POINT
  5
85E
330
84A
100
AcDbEntity
  8
Defpoints
 62
     0
440
 16777216
100
AcDbPoint
 10
710.2122030396576
 20
681.8617705846123
 30
0.000000000000002
  0
POINT
  5
85F
330
84A
100
AcDbEntity
  8
Defpoints
 62
     0
440
 16777216
100
AcDbPoint
 10
710.2122030396576
 20
557.7653340112228
 30
0.0
  0
ENDBLK
  5
84C
330
84A
100
AcDbEntity
  8
0
100
AcDbBlockEnd
  0
BLOCK
  5
8B0
330
8AF
100
AcDbEntity
  8
0
100
AcDbBlockBegin
  2
*D9
 70
     1
 10
0.0
 20
0.0
 30
0.0
  3
*D9
  1

  0
LINE
  5
8BC
330
8AF
100
AcDbEntity
  8
0
 62
     0
440
 16777216
370
    -2
100
AcDbLine
 10
1315.243961192472
 20
293.9186048867247
 30
0.0
 11
1315.243961192472
 21
384.7293433245368
 31
0.0
  0
LINE
  5
8BD
330
8AF
100
AcDbEntity
  8
0
 62
     0
440
 16777216
370
    -2
100
AcDbLine
 10
714.629802421668
 20
293.9186048867247
 30
0.0
 11
714.629802421668
 21
384.7293433245368
 31
0.0
  0
LINE
  5
8BE
330
8AF
100
AcDbEntity
  8
0
 62
     0
440
 16777216
370
    -2
100
AcDbLine
 10
1312.743961192472
 20
383.4793433245368
 30
0.0
 11
717.129802421668
 21
383.4793433245368
 31
0.0
  0
SOLID
  5
8BF
330
8AF
100
AcDbEntity
  8
0
 62
     0
440
 16777216
100
AcDbTrace
 10
1312.743961192472
 20
383.8960099912035
 30
0.0
 11
1312.743961192472
 21
383.0626766578701
 31
0.0
 12
1315.243961192472
 22
383.4793433245368
 32
0.0
 13
1315.243961192472
 23
383.4793433245368
 33
0.0
  0
SOLID
  5
8C0
330
8AF
100
AcDbEntity
  8
0
 62
     0
440
 16777216
100
AcDbTrace
 10
717.129802421668
 20
383.8960099912035
 30
0.0
 11
717.129802421668
 21
383.0626766578701
 31
0.0
 12
714.629802421668
 22
383.4793433245368
 32
0.0
 13
714.629802421668
 23
383.4793433245368
 33
0.0
  0
MTEXT
  5
8C1
330
8AF
100
AcDbEntity
  8
0
 62
     0
440
 16777216
100
AcDbMText
 10
1014.93688180707
 20
385.5626766578701
 30
0.0
 40
2.5
 41
0.0
 46
0.0
 71
     5
 72
     1
  1
600,61
 73
     1
 44
1.0
  0
POINT
  5
8C2
330
8AF
100
AcDbEntity
  8
Defpoints
 62
     0
440
 16777216
100
AcDbPoint
 10
1315.243961192472
 20
293.2936048867247
 30
0.0
  0
POINT
  5
8C3
330
8AF
100
AcDbEntity
  8
Defpoints
 62
     0
440
 16777216
100
AcDbPoint
 10
714.629802421668
 20
293.2936048867247
 30
0.0
  0
POINT
  5
8C4
330
8AF
100
AcDbEntity
  8
Defpoints
 62
     0
440
 16777216
100
AcDbPoint
 10
714.629802421668
 20
383.4793433245368
 30
0.0
  0
ENDBLK
  5
8B1
330
8AF
100
AcDbEntity
  8
0
100
AcDbBlockEnd
  0
BLOCK
  5
8CB
330
8CA
100
AcDbEntity
  8
0
100
AcDbBlockBegin
  2
*D10
 70
     1
 10
0.0
 20
0.0
 30
0.0
  3
*D10
  1

  0
LINE
  5
8D7
330
8CA
100
AcDbEntity
  8
0
 62
     0
440
 16777216
370
    -2
100
AcDbLine
 10
558.480748293046
 20
458.0714842548255
 30
0.0
 11
597.6728829698871
 21
458.0714842548255
 31
0.0
  0
LINE
  5
8D8
330
8CA
100
AcDbEntity
  8
0
 62
     0
440
 16777216
370
    -2
100
AcDbLine
 10
558.4807482930457
 20
-142.5489295490804
 30
0.0
 11
597.6728829698872
 21
-142.5489295490804
 31
0.0
  0
LINE
  5
8D9
330
8CA
100
AcDbEntity
  8
0
 62
     0
440
 16777216
370
    -2
100
AcDbLine
 10
596.4228829698871
 20
455.5714842548256
 30
0.0
 11
596.4228829698872
 21
-140.0489295490804
 31
0.0
  0
SOLID
  5
8DA
330
8CA
100
AcDbEntity
  8
0
 62
     0
440
 16777216
100
AcDbTrace
 10
596.0062163032205
 20
455.5714842548256
 30
0.0
 11
596.8395496365538
 21
455.5714842548256
 31
0.0
 12
596.4228829698871
 22
458.0714842548255
 32
0.0
 13
596.4228829698871
 23
458.0714842548255
 33
0.0
  0
SOLID
  5
8DB
330
8CA
100
AcDbEntity
  8
0
 62
     0
440
 16777216
100
AcDbTrace
 10
596.0062163032206
 20
-140.0489295490804
 30
0.0
 11
596.8395496365539
 21
-140.0489295490804
 31
0.0
 12
596.4228829698872
 22
-142.5489295490804
 32
0.0
 13
596.4228829698872
 23
-142.5489295490804
 33
0.0
  0
MTEXT
  5
8DC
330
8CA
100
AcDbEntity
  8
0
 62
     0
440
 16777216
100
AcDbMText
 10
594.3395496365537
 20
157.7612773528724
 30
0.0
 40
2.5
 41
0.0
 46
0.0
 71
     5
 72
     1
  1
600,62
 11
0.0000000000000001
 21
1.0
 31
0.0
 73
     1
 44
1.0
  0
POINT
  5
8DD
330
8CA
100
AcDbEntity
  8
Defpoints
 62
     0
440
 16777216
100
AcDbPoint
 10
557.855748293046
 20
458.0714842548255
 30
0.0
  0
POINT
  5
8DE
330
8CA
100
AcDbEntity
  8
Defpoints
 62
     0
440
 16777216
100
AcDbPoint
 10
557.8557482930457
 20
-142.5489295490804
 30
0.0
  0
POINT
  5
8DF
330
8CA
100
AcDbEntity
  8
Defpoints
 62
     0
440
 16777216
100
AcDbPoint
 10
596.4228829698872
 20
-142.5489295490804
 30
0.0
  0
ENDBLK
  5
8CC
330
8CA
100
AcDbEntity
  8
0
100
AcDbBlockEnd
  0
ENDSEC
  0
SECTION
  2
ENTITIES
  0
LWPOLYLINE
  5
78
330
1F
100
AcDbEntity
  8
HEWI
  6
CUSTOM
370
     9
100
AcDbPolyline
 90
       32
 70
     0
 43
0.0
 10
134.0185958976503
 20
892.3748973509502
 10
134.0185958976503
 20
892.6381542766559
 10
134.0185958976503
 20
893.4147242522508
 10
134.0185958976503
 20
894.6656668164866
 10
134.0185958976503
 20
896.3282544857095
 10
134.0185958976503
 20
898.3191181718245
 10
134.0185958976503
 20
900.5384276564864
 10
134.0185958976503
 20
902.8748974951048
 10
134.0185958976503
 20
907.8748975637497
 10
133.9935238103494
 20
907.8748975637497
 10
133.9195647675952
 20
907.8748975637497
 10
133.8004273846176
 20
907.8748975637497
 10
133.6420857072739
 20
907.8748975637497
 10
133.4524796484434
 20
907.8748975637497
 10
133.2411168476411
 20
907.8748975637497
 10
133.0185959182734
 20
907.8748975637497
 10
57.01859748565539
 20
907.8748975637498
 10
56.79607655628911
 20
907.8748975637498
 10
56.58471375548583
 20
907.8748975637498
 10
56.39510769665526
 20
907.8748975637498
 10
56.23676601931151
 20
907.8748975637498
 10
56.11762863633464
 20
907.8748975637498
 10
56.04366959357992
 20
907.8748975637498
 10
56.01859750627887
 20
907.8748975637498
 10
56.01859750627887
 20
902.8748974951048
 10
56.01859750627887
 20
900.5384276564864
 10
56.01859750627887
 20
898.3191181718247
 10
56.01859750627887
 20
896.3282544857095
 10
56.01859750627887
 20
894.6656668164866
 10
56.01859750627887
 20
893.4147242522509
 10
56.01859750627887
 20
892.6381542766559
 10
56.01859750627887
 20
892.3748973509503
  0
LWPOLYLINE
  5
79
330
1F
100
AcDbEntity
  8
HEWI
  6
CUSTOM
370
     9
100
AcDbPolyline
 90
        8
 70
     0
 43
0.0
 10
57.01859748565539
 20
891.374897337222
 10
56.79607655628911
 20
891.3999694253842
 10
56.58471375548583
 20
891.4739284706794
 10
56.39510769665526
 20
891.5930658577488
 10
56.23676601931151
 20
891.7514075405323
 10
56.11762863633464
 20
891.9410136058765
 10
56.04366959357992
 20
892.1523764139397
 10
56.01859750627887
 20
892.3748973509503
  0
LINE
  5
7A
330
1F
100
AcDbEntity
  8
HEWI
  6
CUSTOM
370
     9
100
AcDbLine
 10
56.01935345403467
 20
891.3749275751335
 30
0.0
 11
56.01913223120255
 21
891.3750121710727
 31
0.0
  0
LINE
  5
7B
330
1F
100
AcDbEntity
  8
HEWI
  6
CUSTOM
370
     9
100
AcDbLine
 10
134.0185958976503
 20
891.3758973372353
 30
0.0
 11
134.0185958976503
 21
892.3748973509502
 31
0.0
  0
LWPOLYLINE
  5
7C
330
1F
100
AcDbEntity
  8
HEWI
  6
CUSTOM
370
     9
100
AcDbPolyline
 90
        8
 70
     0
 43
0.0
 10
134.0185958976503
 20
892.3748973509502
 10
133.9935238103494
 20
892.1523764139397
 10
133.9195647675952
 20
891.9410136058763
 10
133.8004273846176
 20
891.7514075405321
 10
133.6420857072739
 20
891.5930658577488
 10
133.4524796484434
 20
891.4739284706794
 10
133.2411168476411
 20
891.3999694253842
 10
133.0185959182734
 20
891.374897337222
  0
LINE
  5
7D
330
1F
100
AcDbEntity
  8
HEWI
  6
CUSTOM
370
     9
100
AcDbLine
 10
133.0185959182734
 20
891.374897337222
 30
0.0
 11
134.0175958976707
 21
891.374897337222
 31
0.0
  0
LINE
  5
7E
330
1F
100
AcDbEntity
  8
HEWI
  6
CUSTOM
370
     9
100
AcDbLine
 10
56.01859750627887
 20
892.3748973509503
 30
0.0
 11
56.01859750627887
 21
891.3758973372353
 31
0.0
  0
LINE
  5
7F
330
1F
100
AcDbEntity
  8
HEWI
  6
CUSTOM
370
     9
100
AcDbLine
 10
57.01859748565539
 20
891.374897337222
 30
0.0
 11
133.0185959182734
 21
891.374897337222
 31
0.0
  0
LWPOLYLINE
  5
80
330
1F
100
AcDbEntity
  8
HEWI
  6
CUSTOM
370
     9
100
AcDbPolyline
 90
        3
 70
     0
 43
0.0
 10
117.5185962379365
 20
891.374897337222
 10
117.5185962379365
 20
866.8748970008612
 10
117.7185961920886
 20
866.8748970008612
  0
LINE
  5
81
330
1F
100
AcDbEntity
  8
HEWI
  6
CUSTOM
370
     9
100
AcDbLine
 10
134.0178399498946
 20
891.3749275751333
 30
0.0
 11
134.0180611727266
 21
891.3750121710725
 31
0.0
  0
LINE
  5
82
330
1F
100
AcDbEntity
  8
HEWI
  6
CUSTOM
370
     9
100
AcDbLine
 10
56.01959750625837
 20
891.374897337222
 30
0.0
 11
57.01859748565539
 21
891.374897337222
 31
0.0
  0
LWPOLYLINE
  5
83
330
1F
100
AcDbEntity
  8
HEWI
  6
CUSTOM
370
     9
100
AcDbPolyline
 90
        3
 70
     0
 43
0.0
 10
56.11326205829527
 20
891.9534925687438
 10
56.10639782845487
 20
891.9651513861255
 10
56.10199859544571
 20
891.9856816977366
  0
LWPOLYLINE
  5
84
330
1F
100
AcDbEntity
  8
HEWI
  6
CUSTOM
370
     9
100
AcDbPolyline
 90
        3
 70
     0
 43
0.0
 10
56.16494154160921
 20
891.8657155460671
 10
56.21772774028648
 20
891.7760587797616
 10
56.22846357933759
 20
891.7646207987424
  0
LWPOLYLINE
  5
85
330
1F
100
AcDbEntity
  8
HEWI
  6
CUSTOM
370
     9
100
AcDbPolyline
 90
       10
 70
     0
 43
0.0
 10
117.5185962379365
 20
875.0421582932018
 10
117.5185962379365
 20
869.7171065156856
 10
117.5185962379365
 20
864.2326874887727
 10
117.5185962379365
 20
858.907635711256
 10
117.5185962379365
 20
854.0514238366695
 10
117.5185962379365
 20
849.9462772475506
 10
117.5185962379365
 20
846.8307721420599
 10
117.5185962379365
 20
844.8859703525281
 10
117.5185962379365
 20
844.2248966898951
 10
116.1421092347314
 20
844.2248966898951
  0
LWPOLYLINE
  5
87
330
1F
100
AcDbEntity
  8
HEWI
  6
CUSTOM
370
     9
100
AcDbPolyline
 90
        3
 70
     0
 43
0.0
 10
133.4679249781991
 20
891.4836334160083
 10
133.4838709740226
 20
891.4897311885367
 10
133.5656197429803
 20
891.5450191061554
  0
LWPOLYLINE
  5
88
330
1F
100
AcDbEntity
  8
HEWI
  6
CUSTOM
370
     9
100
AcDbPolyline
 90
       19
 70
     0
 43
0.0
 10
72.51859716599176
 20
889.7248973145634
 10
86.8203479163966
 20
889.7242094242912
 10
86.99797093290158
 20
889.6575575032386
 10
87.4506084419686
 20
889.4995453172297
 10
88.15500797954474
 20
889.2750112675134
 10
89.08791708157981
 20
889.0087937553399
 10
90.22360537997508
 20
888.7333262901002
 10
91.5245000474332
 20
888.4880231305379
 10
92.94964988247603
 20
888.3019136716852
 10
93.97125464197108
 20
888.223777950046
 10
95.01859670196415
 20
888.1957007656335
 10
96.89880523308113
 20
888.284118131453
 10
98.66094453131996
 20
888.5126512239398
 10
100.2248769535467
 20
888.8262215356418
 10
101.5128470146128
 20
889.1657235500083
 10
102.4701607362998
 20
889.4609299748136
 10
103.0522615131471
 20
889.662386021552
 10
103.2182959103374
 20
889.7247770737145
 10
117.5185962379365
 20
889.7248973145634
  0
LWPOLYLINE
  5
89
330
1F
100
AcDbEntity
  8
HEWI
  6
CUSTOM
370
     9
100
AcDbPolyline
 90
        3
 70
     0
 43
0.0
 10
133.8722518590018
 20
891.8657155404316
 10
133.8194656636425
 20
891.7760587797616
 10
133.8087298223186
 20
891.7646207963205
  0
LINE
  5
8A
330
1F
100
AcDbEntity
  8
HEWI
  6
CUSTOM
370
     9
100
AcDbLine
 10
116.1421092347314
 20
844.2248966898951
 30
0.0
 11
115.5975270391127
 21
844.2982031069464
 31
0.0
  0
LWPOLYLINE
  5
8B
330
1F
100
AcDbEntity
  8
HEWI
  6
CUSTOM
370
     9
100
AcDbPolyline
 90
        3
 70
     0
 43
0.0
 10
56.30355064424998
 20
891.6846229132326
 10
56.37028981272727
 20
891.6135188906544
 10
56.38377468609963
 20
891.6043988686942
  0
LWPOLYLINE
  5
8D
330
1F
100
AcDbEntity
  8
HEWI
  6
CUSTOM
370
     9
100
AcDbPolyline
 90
       11
 70
     0
 43
0.0
 10
73.90757926010497
 20
844.2248769979489
 10
73.89499458137573
 20
844.2248966898951
 10
72.51859716599176
 20
844.2248966898951
 10
72.51859716599176
 20
844.8859703525281
 10
72.51859716599176
 20
846.83077214206
 10
72.51859716599176
 20
849.9462772475506
 10
72.51859716599176
 20
854.0514238366696
 10
72.51859716599176
 20
858.9076357112562
 10
72.51859716599176
 20
864.2326874887727
 10
72.51859716599176
 20
869.7171065156856
 10
72.51859716599176
 20
875.0421582932018
  0
LWPOLYLINE
  5
8E
330
1F
100
AcDbEntity
  8
HEWI
  6
CUSTOM
370
     9
100
AcDbPolyline
 90
        3
 70
     1
 43
0.0
 10
115.5975270391127
 20
844.2982031069464
 10
114.8406038747014
 20
844.5032457247076
 10
115.053052162961
 20
844.4360169821758
  0
LWPOLYLINE
  5
8F
330
1F
100
AcDbEntity
  8
HEWI
  6
CUSTOM
370
     9
100
AcDbPolyline
 90
        3
 70
     0
 43
0.0
 10
56.5692684257308
 20
891.4836334160085
 10
56.55332242990721
 20
891.4897311885367
 10
56.47157365549469
 20
891.5450191098448
  0
LWPOLYLINE
  5
90
330
1F
100
AcDbEntity
  8
HEWI
  6
CUSTOM
370
     9
100
AcDbPolyline
 90
        3
 70
     0
 43
0.0
 10
133.6534187219215
 20
891.6043988714612
 10
133.6669035912025
 20
891.6135188906544
 10
133.7336427596794
 20
891.6846229132326
  0
LWPOLYLINE
  5
91
330
1F
100
AcDbEntity
  8
HEWI
  6
CUSTOM
370
     9
100
AcDbPolyline
 90
        3
 70
     0
 43
0.0
 10
133.2521696547288
 20
891.4038369707277
 10
133.2626481421481
 20
891.4051352484802
 10
133.3355496404162
 20
891.4330128898848
  0
LWPOLYLINE
  5
93
330
1F
100
AcDbEntity
  8
HEWI
  6
CUSTOM
370
     9
100
AcDbPolyline
 90
        3
 70
     0
 43
0.0
 10
72.31859717458679
 20
866.8748970008612
 10
72.51859716599176
 20
866.8748970008612
 10
72.51859716599176
 20
891.374897337222
  0
LWPOLYLINE
  5
94
330
1F
100
AcDbEntity
  8
HEWI
  6
CUSTOM
370
     9
100
AcDbPolyline
 90
        3
 70
     0
 43
0.0
 10
133.9351948084836
 20
891.9856816977366
 10
133.9307955754743
 20
891.9651513861255
 10
133.9239313452192
 20
891.9534925680391
  0
LWPOLYLINE
  5
96
330
1F
100
AcDbEntity
  8
HEWI
  6
CUSTOM
370
     9
100
AcDbPolyline
 90
        3
 70
     0
 43
0.0
 10
56.70164376351294
 20
891.433012889885
 10
56.77454526178087
 20
891.4051352484802
 10
56.78502374556365
 20
891.4038369711784
  0
LINE
  5
98
330
1F
100
AcDbEntity
  8
HEWI
  6
CUSTOM
370
     9
100
AcDbLine
 10
100.5788985911679
 20
888.9195397445885
 30
0.0
 11
100.076598856239
 21
888.7964916020349
 31
0.0
  0
LWPOLYLINE
  5
99
330
1F
100
AcDbEntity
  8
HEWI
  6
CUSTOM
370
     9
100
AcDbPolyline
 90
        7
 70
     0
 43
0.0
 10
106.4167699332744
 20
891.374897334721
 10
106.6166349561232
 20
891.1583944349645
 10
106.837443460275
 20
890.7742145901105
 10
106.9649512123699
 20
890.3679586112135
 10
106.9959056972893
 20
890.1537569132846
 10
107.0146652094026
 20
889.9899168776196
 10
107.0146652094026
 20
889.7248079615307
  0
LINE
  5
9A
330
1F
100
AcDbEntity
  8
HEWI
  6
CUSTOM
370
     9
100
AcDbLine
 10
98.98713656253324
 20
888.5780531143302
 30
0.0
 11
98.60913166288515
 21
888.5059315784944
 31
0.0
  0
LINE
  5
9B
330
1F
100
AcDbEntity
  8
HEWI
  6
CUSTOM
370
     9
100
AcDbLine
 10
90.80464358395033
 20
888.6237628405854
 30
0.0
 11
90.08068403566268
 21
888.7679926520943
 31
0.0
  0
LINE
  5
9C
330
1F
100
AcDbEntity
  8
HEWI
  6
CUSTOM
370
     9
100
AcDbLine
 10
97.03746813503062
 20
888.3021014215872
 30
0.0
 11
96.52638252123313
 21
888.2666048429937
 31
0.0
  0
LINE
  5
9D
330
1F
100
AcDbEntity
  8
HEWI
  6
CUSTOM
370
     9
100
AcDbLine
 10
89.50207230164755
 20
888.9083381208211
 30
0.0
 11
88.95677076756362
 21
889.0462180287579
 31
0.0
  0
LINE
  5
9F
330
1F
100
AcDbEntity
  8
HEWI
  6
CUSTOM
370
     9
100
AcDbLine
 10
88.46423090520749
 20
889.1867705614181
 30
0.0
 11
88.0673318562458
 21
889.302958865402
 31
0.0
  0
LINE
  5
A0
330
1F
100
AcDbEntity
  8
HEWI
  6
CUSTOM
370
     9
100
AcDbLine
 10
87.63860455935605
 20
889.4396197674828
 30
0.0
 11
87.39486276733021
 21
889.5190056927276
 31
0.0
  0
LWPOLYLINE
  5
A3
330
1F
100
AcDbEntity
  8
HEWI
  6
CUSTOM
370
     9
100
AcDbPolyline
 90
        7
 70
     0
 43
0.0
 10
110.4032535751802
 20
839.4834711331728
 10
110.8114865757834
 20
839.3260631577398
 10
111.0067185014202
 20
839.2569294641592
 10
111.2304900195058
 20
839.2357972874073
 10
111.3820799144926
 20
839.2530126139501
 10
111.5002687626041
 20
839.39691830124
 10
112.1313732809482
 20
841.825424155254
  0
LWPOLYLINE
  5
A4
330
1F
100
AcDbEntity
  8
HEWI
  6
CUSTOM
370
     9
100
AcDbPolyline
 90
        3
 70
     0
 43
0.0
 10
116.1421092347314
 20
844.2248966898951
 10
115.838717400728
 20
844.2505237542931
 10
115.5975270391127
 20
844.2982031069464
  0
LWPOLYLINE
  5
A5
330
1F
100
AcDbEntity
  8
HEWI
  6
CUSTOM
370
     9
100
AcDbPolyline
 90
        6
 70
     0
 43
0.0
 10
77.9149488647098
 20
841.795326427924
 10
78.54074607325128
 20
839.3887371040618
 10
78.56415141362993
 20
839.3315121015357
 10
78.63607333173717
 20
839.2737397698274
 10
78.83946302973413
 20
839.2261286199666
 10
78.80669153288454
 20
839.2357965675335
  0
LINE
  5
A6
330
1F
100
AcDbEntity
  8
HEWI
  6
CUSTOM
370
     9
100
AcDbLine
 10
102.5405656003031
 20
889.4852960058642
 30
0.0
 11
102.3246056432369
 21
889.4160452127779
 31
0.0
  0
LINE
  5
A7
330
1F
100
AcDbEntity
  8
HEWI
  6
CUSTOM
370
     9
100
AcDbLine
 10
101.7008476822732
 20
889.2236972361255
 30
0.0
 11
101.3473659989438
 21
889.1221036399258
 31
0.0
  0
LINE
  5
A8
330
1F
100
AcDbEntity
  8
HEWI
  6
CUSTOM
370
     9
100
AcDbLine
 10
87.09076203001336
 20
889.625164862714
 30
0.0
 11
86.96546457930287
 21
889.6697553082926
 31
0.0
  0
LWPOLYLINE
  5
AA
330
1F
100
AcDbEntity
  8
HEWI
  6
CUSTOM
370
     9
100
AcDbPolyline
 90
        5
 70
     0
 43
0.0
 10
83.05456206760345
 20
889.7243905839552
 10
83.05573907838924
 20
889.9301175695237
 10
83.20559767671317
 20
890.769355849663
 10
83.42584744048611
 20
891.1549759879733
 10
83.62797374715865
 20
891.3748973309278
  0
LINE
  5
AB
330
1F
100
AcDbEntity
  8
HEWI
  6
CUSTOM
370
     9
100
AcDbLine
 10
116.1295987074696
 20
844.2248775850528
 30
0.0
 11
116.1421092347314
 21
844.2248966898951
 31
0.0
  0
LINE
  5
AF
330
1F
100
AcDbEntity
  8
HEWI
  6
CUSTOM
370
     9
100
AcDbLine
 10
77.93591640394857
 20
841.7743818185247
 30
0.0
 11
76.07098968490618
 21
843.6372653698118
 31
0.0
  0
LWPOLYLINE
  5
B0
330
1F
100
AcDbEntity
  8
HEWI
  6
CUSTOM
370
     9
100
AcDbPolyline
 90
       12
 70
     0
 43
0.0
 10
78.99755794448686
 20
829.9748964942558
 10
80.40777947717254
 20
829.9748964942558
 10
82.66728935858282
 20
829.9748964942558
 10
85.64474822647616
 20
829.9748964942558
 10
89.16708423371574
 20
829.9748964942558
 10
93.02955325919958
 20
829.9748964942558
 10
97.00764014472952
 20
829.9748964942558
 10
100.8701091702135
 20
829.9748964942558
 10
104.392445177453
 20
829.9748964942558
 10
107.3699040453467
 20
829.9748964942558
 10
109.6294139267563
 20
829.9748964942558
 10
111.0396354594425
 20
829.9748964942558
  0
LINE
  5
B1
330
1F
100
AcDbEntity
  8
HEWI
  6
CUSTOM
370
     9
100
AcDbLine
 10
117.7185961920886
 20
846.7248967242175
 30
0.0
 11
117.5185962379365
 21
846.7248967242175
 31
0.0
  0
LINE
  5
B2
330
1F
100
AcDbEntity
  8
HEWI
  6
CUSTOM
370
     9
100
AcDbLine
 10
78.51899533224457
 20
59.97488935518322
 30
0.0
 11
78.51859722643166
 21
59.97488935518322
 31
0.0
  0
LINE
  5
B4
330
1F
100
AcDbEntity
  8
HEWI
  6
CUSTOM
370
     9
100
AcDbLine
 10
113.908547245433
 20
843.6192581019245
 30
0.0
 11
116.2395575926932
 21
844.2248966750536
 31
0.0
  0
LINE
  5
B5
330
1F
100
AcDbEntity
  8
HEWI
  6
CUSTOM
370
     9
100
AcDbLine
 10
78.51859722643166
 20
59.97488935518322
 30
0.0
 11
78.51859722643183
 21
839.4739135439117
 31
0.0
  0
LINE
  5
B6
330
1F
100
AcDbEntity
  8
HEWI
  6
CUSTOM
370
     9
100
AcDbLine
 10
76.10687729454184
 20
843.6279567992405
 30
0.0
 11
73.80546877328345
 21
844.224896676722
 31
0.0
  0
LINE
  5
B7
330
1F
100
AcDbEntity
  8
HEWI
  6
CUSTOM
370
     9
100
AcDbLine
 10
112.1297641160804
 20
841.8238225372942
 30
0.0
 11
113.9425669475454
 21
843.628097066543
 31
0.0
  0
LINE
  5
B8
330
1F
100
AcDbEntity
  8
HEWI
  6
CUSTOM
370
     9
100
AcDbLine
 10
92.17428384904371
 20
888.4031682550208
 30
0.0
 11
91.35165890328698
 21
888.5206149135845
 31
0.0
  0
LINE
  5
B9
330
1F
100
AcDbEntity
  8
HEWI
  6
CUSTOM
370
     9
100
AcDbLine
 10
111.515335848488
 20
839.4548968203741
 30
0.0
 11
111.5089445193259
 21
829.9748964942564
 31
0.0
  0
LINE
  5
BA
330
1F
100
AcDbEntity
  8
HEWI
  6
CUSTOM
370
     9
100
AcDbLine
 10
94.07971002518809
 20
888.220870474271
 30
0.0
 11
92.77044491742106
 21
888.3253159396661
 31
0.0
  0
LINE
  5
BB
330
1F
100
AcDbEntity
  8
HEWI
  6
CUSTOM
370
     9
100
AcDbLine
 10
111.5185961774972
 20
59.97488935518322
 30
0.0
 11
111.5185961774974
 21
839.4674426487346
 31
0.0
  0
LINE
  5
BC
330
1F
100
AcDbEntity
  8
HEWI
  6
CUSTOM
370
     9
100
AcDbLine
 10
111.5181980924487
 20
59.97488935518322
 30
0.0
 11
111.5185961774972
 21
59.97488935518322
 31
0.0
  0
LINE
  5
BD
330
1F
100
AcDbEntity
  8
HEWI
  6
CUSTOM
370
     9
100
AcDbLine
 10
95.29979922261338
 20
888.2089243974114
 30
0.0
 11
94.30465060796757
 21
888.2148402586365
 31
0.0
  0
LINE
  5
BE
330
1F
100
AcDbEntity
  8
HEWI
  6
CUSTOM
370
     9
100
AcDbLine
 10
78.53901398729362
 20
839.395398076672
 30
0.0
 11
78.52824888460259
 21
829.9748964942564
 31
0.0
  0
LINE
  5
BF
330
1F
100
AcDbEntity
  8
HEWI
  6
CUSTOM
370
     9
100
AcDbLine
 10
72.51859716599176
 20
846.7248967242175
 30
0.0
 11
72.31859717458679
 21
846.7248967242175
 31
0.0
  0
LWPOLYLINE
  5
C3
330
1F
100
AcDbEntity
  8
HEWI
  6
CUSTOM
370
     9
100
AcDbPolyline
 90
        4
 70
     0
 43
0.0
 10
95.8320617663411
 20
57.25699441991309
 10
95.94413682590005
 20
57.25894714784818
 10
97.83251063110753
 20
57.29465298913033
 10
100.350436896973
 20
57.34486053042224
  0
LWPOLYLINE
  5
C6
330
1F
100
AcDbEntity
  8
HEWI
  6
CUSTOM
370
     9
100
AcDbPolyline
 90
       20
 70
     0
 43
0.0
 10
95.8320617663411
 20
57.25699441991309
 10
95.01859670196404
 20
57.2544837598441
 10
94.20513163758778
 20
57.25699441991309
 10
93.76061831954496
 20
57.25894714784818
 10
93.22487615664783
 20
57.26452633352733
 10
92.14142172087248
 20
57.27707930091629
 10
91.1197164468855
 20
57.29465298913033
 10
90.52359866240534
 20
57.30915784592117
 10
88.60852586548423
 20
57.36605793726425
 10
87.22748643265493
 20
57.41514363073111
 10
85.38978850579406
 20
57.50549483350596
 10
83.38845587099251
 20
57.61590455310829
 10
79.4362886804563
 20
57.89685056113808
 10
79.19411264694748
 20
57.94756589856319
 10
78.97180010254044
 20
58.05619240655232
 10
78.78296524493896
 20
58.21607590382632
 10
78.63916693614772
 20
58.41742978028332
 10
78.5492071883275
 20
58.64792887410022
 10
78.51859704225114
 20
58.89345748664528
 10
78.518995322357
 20
59.97488935518322
  0
LWPOLYLINE
  5
C7
330
1F
100
AcDbEntity
  8
HEWI
  6
CUSTOM
370
     9
100
AcDbPolyline
 90
       12
 70
     0
 43
0.0
 10
95.8320617663411
 20
57.25699441991309
 10
96.81231724728105
 20
57.26452633352733
 10
97.61826083836139
 20
57.27233710140126
 10
99.77322195002841
 20
57.31724693205524
 10
102.8097069712732
 20
57.41514363073111
 10
104.751252725003
 20
57.50549483350596
 10
108.638532418637
 20
57.74636107583114
 10
110.5476832414532
 20
57.89685056113808
 10
111.0521565184734
 20
58.05619185684623
 10
111.3845163609895
 20
58.41743037108518
 10
111.5049863001708
 20
58.89345748664528
 10
111.5181980815712
 20
59.97488935518322
  0
LINE
  5
CC
330
1F
100
AcDbEntity
  8
HEWI
  6
CUSTOM
370
     9
100
AcDbLine
 10
125.2685960781048
 20
907.9748975651172
 30
0.0
 11
120.7685961709108
 21
907.9748975651172
 31
0.0
  0
LINE
  5
CD
330
1F
100
AcDbEntity
  8
HEWI
  6
CUSTOM
370
     9
100
AcDbLine
 10
120.7685961709108
 20
907.9748975651172
 30
0.0
 11
69.26859723301845
 21
907.9748975651174
 31
0.0
  0
LWPOLYLINE
  5
CE
330
1F
100
AcDbEntity
  8
HEWI
  6
CUSTOM
370
     9
100
AcDbPolyline
 90
       10
 70
     0
 43
0.0
 10
64.76859732582375
 20
907.9748975651174
 10
64.51911140956702
 20
907.9748975651174
 10
63.34846920985365
 20
907.9748975651174
 10
62.22281413337134
 20
907.9748975651174
 10
60.99209780073272
 20
907.9748975651174
 10
59.95628480163509
 20
907.9748975651174
 10
59.17261432731527
 20
907.9748975651174
 10
58.684392132948
 20
907.9748975651174
 10
58.51859745472018
 20
907.9748975651174
 10
58.51990652636686
 20
907.8748975664147
  0
LINE
  5
CF
330
1F
100
AcDbEntity
  8
HEWI
  6
CUSTOM
370
     9
100
AcDbLine
 10
64.76859732582375
 20
907.9748975651174
 30
0.0
 11
64.76859732582375
 21
907.874897567358
 31
0.0
  0
LWPOLYLINE
  5
D0
330
1F
100
AcDbEntity
  8
HEWI
  6
CUSTOM
370
     9
100
AcDbPolyline
 90
       30
 70
     0
 43
0.0
 10
56.01859750627887
 20
891.3758973370677
 10
56.01859750627887
 20
866.974897002229
 10
56.01859750627887
 20
861.951317351666
 10
56.01859750627887
 20
857.2196898904241
 10
56.01859750627887
 20
853.0549996077855
 10
56.01859750627887
 20
849.6992831649434
 10
56.01859750627887
 20
847.3475626040235
 10
56.01859750627887
 20
846.136511375869
 10
56.0553779573728
 20
845.8087842756471
 10
56.16391557517613
 20
845.4971291098649
 10
56.33888760951868
 20
845.2168296356173
 10
56.57171332642167
 20
844.9816319079925
 10
56.85097481245747
 20
844.8030701652532
 10
57.16297691610487
 20
844.6899011828424
 10
57.49241886622804
 20
844.6476748358367
 10
71.80987097739012
 20
844.3995849113735
 10
71.92255302369369
 20
844.4103558496726
 10
72.02990630694137
 20
844.4460138604476
 10
72.12642791174289
 20
844.504731118686
 10
72.20717015314358
 20
844.5834977853403
 10
72.26799419431017
 20
844.6782762912807
 10
72.30578220277369
 20
844.784208302576
 10
72.31859717011684
 20
844.8958637580513
 10
72.31859717011684
 20
846.1790169161824
 10
72.31859717011684
 20
848.6707510349658
 10
72.31859717011684
 20
852.2262555845035
 10
72.31859717011684
 20
856.6388975641091
 10
72.31859717011684
 20
861.6522302612285
 10
72.31859717011684
 20
866.974897002229
 10
72.31859717011684
 20
891.3748979690254
  0
LINE
  5
D1
330
1F
100
AcDbEntity
  8
HEWI
  6
CUSTOM
370
     9
100
AcDbLine
 10
110.0185963926123
 20
907.9748975651172
 30
0.0
 11
129.5184246602863
 21
907.9748998079519
 31
0.0
  0
LINE
  5
D2
330
1F
100
AcDbEntity
  8
HEWI
  6
CUSTOM
370
     9
100
AcDbLine
 10
129.5184246602863
 20
907.9748998079519
 30
0.0
 11
131.5185959492081
 21
907.9748975651172
 31
0.0
  0
LWPOLYLINE
  5
D3
330
1F
100
AcDbEntity
  8
HEWI
  6
CUSTOM
370
     9
100
AcDbPolyline
 90
        9
 70
     0
 43
0.0
 10
131.5185959492081
 20
907.9748975651172
 10
131.3528012709807
 20
907.9748975651172
 10
130.8645790766129
 20
907.9748975651172
 10
130.0809086022931
 20
907.9748975651172
 10
129.0450956031959
 20
907.9748975651172
 10
127.8143792705564
 20
907.9748975651172
 10
126.688724194075
 20
907.9748975651172
 10
125.5180819943608
 20
907.9748975651172
 10
125.2685960781048
 20
907.9748975651172
  0
LINE
  5
D5
330
1F
100
AcDbEntity
  8
HEWI
  6
CUSTOM
370
     9
100
AcDbLine
 10
129.9087857549411
 20
907.9748975651172
 30
0.0
 11
129.5184246602863
 21
907.9748998079519
 31
0.0
  0
LINE
  5
D6
330
1F
100
AcDbEntity
  8
HEWI
  6
CUSTOM
370
     9
100
AcDbLine
 10
69.26859723301845
 20
907.9748975651174
 30
0.0
 11
64.76859732582375
 21
907.9748975651174
 31
0.0
  0
LINE
  5
D7
330
1F
100
AcDbEntity
  8
HEWI
  6
CUSTOM
370
     9
100
AcDbLine
 10
80.45446974093612
 20
907.9748975651172
 30
0.0
 11
60.51876874364245
 21
907.9748998079519
 31
0.0
  0
LINE
  5
D9
330
1F
100
AcDbEntity
  8
HEWI
  6
CUSTOM
370
     9
100
AcDbLine
 10
129.5185959904555
 20
907.9748975651172
 30
0.0
 11
129.5184246602863
 21
907.9748998079519
 31
0.0
  0
LINE
  5
DA
330
1F
100
AcDbEntity
  8
HEWI
  6
CUSTOM
370
     9
100
AcDbLine
 10
103.5395677271999
 20
907.9748975651172
 30
0.0
 11
129.5184246602863
 21
907.9748998079519
 31
0.0
  0
LINE
  5
DB
330
1F
100
AcDbEntity
  8
HEWI
  6
CUSTOM
370
     9
100
AcDbLine
 10
69.26859723301845
 20
907.8748975965268
 30
0.0
 11
69.26859723301845
 21
907.9748975651174
 31
0.0
  0
LINE
  5
DE
330
1F
100
AcDbEntity
  8
HEWI
  6
CUSTOM
370
     9
100
AcDbLine
 10
129.5184246602863
 20
907.9748998079519
 30
0.0
 11
100.8442474863755
 21
907.9748975651172
 31
0.0
  0
LINE
  5
DF
330
1F
100
AcDbEntity
  8
HEWI
  6
CUSTOM
370
     9
100
AcDbLine
 10
129.5184246602863
 20
907.9748998079519
 30
0.0
 11
106.2462576929772
 21
907.9748975651172
 31
0.0
  0
LINE
  5
E0
330
1F
100
AcDbEntity
  8
HEWI
  6
CUSTOM
370
     9
100
AcDbLine
 10
125.2685960781048
 20
907.8748975965268
 30
0.0
 11
125.2685960781048
 21
907.9748975651172
 31
0.0
  0
LINE
  5
E1
330
1F
100
AcDbEntity
  8
HEWI
  6
CUSTOM
370
     9
100
AcDbLine
 10
120.7685961709108
 20
907.9748975651172
 30
0.0
 11
120.7685961709108
 21
907.874897567358
 31
0.0
  0
LINE
  5
E2
330
1F
100
AcDbEntity
  8
HEWI
  6
CUSTOM
370
     9
100
AcDbLine
 10
131.5172868808497
 20
907.8748978175974
 30
0.0
 11
131.5185959492081
 21
907.9748975651172
 31
0.0
  0
LWPOLYLINE
  5
E4
330
1F
100
AcDbEntity
  8
HEWI
  6
CUSTOM
370
     9
100
AcDbPolyline
 90
       30
 70
     0
 43
0.0
 10
117.7185962338124
 20
891.3748973415467
 10
117.7185962338124
 20
866.974897002229
 10
117.7185962338124
 20
861.6522302612283
 10
117.7185962338124
 20
856.6388975641091
 10
117.7185962338124
 20
852.2262555845033
 10
117.7185962338124
 20
848.6707510349658
 10
117.7185962338124
 20
846.1790169161824
 10
117.7185962338124
 20
844.8958637580513
 10
117.7314112011554
 20
844.784208302576
 10
117.769199209619
 20
844.6782762912807
 10
117.8300232507857
 20
844.5834977853401
 10
117.9107654921862
 20
844.5047311186858
 10
118.0072870969884
 20
844.4460138604476
 10
118.1146403802356
 20
844.4103558496724
 10
118.2273224265389
 20
844.3995849113735
 10
132.5447745377016
 20
844.6476748358367
 10
132.8742164878242
 20
844.6899011828424
 10
133.1862185914713
 20
844.803070165253
 10
133.4654800775083
 20
844.9816319079923
 10
133.6983057944106
 20
845.2168296356171
 10
133.873277828753
 20
845.4971291098649
 10
133.9818154465562
 20
845.8087842756469
 10
134.0185958976503
 20
846.1365113758688
 10
134.0185958976503
 20
847.3475626040235
 10
134.0185958976503
 20
849.6992831649434
 10
134.0185958976503
 20
853.0549996077855
 10
134.0185958976503
 20
857.2196898904241
 10
134.0185958976503
 20
861.951317351666
 10
134.0185958976503
 20
866.974897002229
 10
134.0185958976503
 20
891.3758968236761
  0
LINE
  5
213
330
1F
100
AcDbEntity
  8
HEWI
  6
CUSTOM
370
     9
100
AcDbLine
 10
1237.464161285818
 20
1209.171358003045
 30
0.0
 11
472.4641357082632
 21
1209.171358003045
 31
0.0
  0
LWPOLYLINE
  5
214
330
1F
100
AcDbEntity
  8
HEWI
  6
CUSTOM
370
     9
100
AcDbPolyline
 90
        3
 70
     0
 43
0.0
 10
472.4641357082632
 20
1209.338495243686
 10
472.4641357082632
 20
1209.262251406379
 10
472.4641357082632
 20
1209.207279165255
  0
LWPOLYLINE
  5
217
330
1F
100
AcDbEntity
  8
HEWI
  6
CUSTOM
370
     9
100
AcDbPolyline
 90
        3
 70
     0
 43
0.0
 10
1242.464161534146
 20
1209.207279165255
 10
1242.464161534146
 20
1209.262251406379
 10
1242.464161534146
 20
1209.338495243685
  0
LWPOLYLINE
  5
21A
330
1F
100
AcDbEntity
  8
HEWI
  6
CUSTOM
370
     9
100
AcDbPolyline
 90
        7
 70
     0
 43
0.0
 10
472.4641357082632
 20
1209.338495243686
 10
472.4641357082632
 20
1224.22939895091
 10
472.4641357082632
 20
1227.94913701071
 10
472.4641357082632
 20
1231.223246192581
 10
472.4641357082632
 20
1233.861411147433
 10
472.4641357082632
 20
1235.710282290252
 10
472.4641357082632
 20
1236.657122695383
  0
LINE
  5
225
330
1F
100
AcDbEntity
  8
HEWI
  6
CUSTOM
370
     9
100
AcDbLine
 10
456.6801938780438
 20
1232.495421423298
 30
0.0
 11
457.4528967192953
 21
1230.116714482703
 31
0.0
  0
LWPOLYLINE
  5
226
330
1F
100
AcDbEntity
  8
HEWI
  6
CUSTOM
370
     9
100
AcDbPolyline
 90
       13
 70
     0
 43
0.0
 10
465.4641353606057
 20
1195.791805753505
 10
465.920689741431
 20
1198.446627949258
 10
466.9581779754762
 20
1200.438090952041
 10
468.6422278743498
 20
1202.166226368038
 10
470.2370563410156
 20
1203.102958974044
 10
473.464135757927
 20
1203.78271584885
 10
758.2233193995375
 20
1203.782947601326
 10
758.5543901783189
 20
1203.725982371717
 10
758.7863079071389
 20
1203.608351769309
 10
759.2103434765313
 20
1202.933892634635
 10
759.0054994607744
 20
1202.161434161037
 10
758.511000632749
 20
1201.824446808087
 10
755.3263352431913
 20
1200.642584093893
  0
LINE
  5
227
330
1F
100
AcDbEntity
  8
HEWI
  6
CUSTOM
370
     9
100
AcDbLine
 10
847.4641543326965
 20
1203.889233147201
 30
0.0
 11
1237.464161285818
 21
1203.889233147201
 31
0.0
  0
LINE
  5
228
330
1F
100
AcDbEntity
  8
HEWI
  6
CUSTOM
370
     9
100
AcDbLine
 10
455.7998436332898
 20
1234.481977271611
 30
0.0
 11
456.6801938780438
 21
1232.495421423298
 31
0.0
  0
LINE
  5
229
330
1F
100
AcDbEntity
  8
HEWI
  6
CUSTOM
370
     9
100
AcDbLine
 10
458.1804648524053
 20
1223.100752767541
 30
0.0
 11
458.0856210393924
 21
1221.906511111074
 31
0.0
  0
LWPOLYLINE
  5
22A
330
1F
100
AcDbEntity
  8
HEWI
  6
CUSTOM
370
     9
100
AcDbPolyline
 90
       12
 70
     0
 43
0.0
 10
847.4641543326965
 20
1209.17135802018
 10
847.4641543326965
 20
1209.165775490922
 10
847.4641543326965
 20
1209.113827014429
 10
847.4641543326965
 20
1209.053346042257
 10
847.4641543326965
 20
1208.987436967452
 10
847.4641543326965
 20
1208.919482799017
 10
847.4641543326965
 20
1208.852971517388
 10
847.4641543326965
 20
1208.791317041895
 10
847.4641543326965
 20
1208.737683999661
 10
847.4641543326965
 20
1206.377504247533
 10
847.4641543326965
 20
1204.733137701385
 10
847.4641543326965
 20
1203.889233147201
  0
LINE
  5
22B
330
1F
100
AcDbEntity
  8
HEWI
  6
CUSTOM
370
     9
100
AcDbLine
 10
455.6082594547226
 20
1234.855168198381
 30
0.0
 11
455.7998436332898
 21
1234.481977271611
 31
0.0
  0
LINE
  5
22E
330
1F
100
AcDbEntity
  8
HEWI
  6
CUSTOM
370
     9
100
AcDbLine
 10
452.4927542372731
 20
1239.368756536314
 30
0.0
 11
453.1796976356168
 21
1238.561386321696
 31
0.0
  0
LINE
  5
22F
330
1F
100
AcDbEntity
  8
HEWI
  6
CUSTOM
370
     9
100
AcDbLine
 10
455.6082594547226
 20
1213.710263744133
 30
0.0
 11
454.6646627766635
 21
1212.079933602355
 31
0.0
  0
LWPOLYLINE
  5
231
330
1F
100
AcDbEntity
  8
HEWI
  6
CUSTOM
370
     9
100
AcDbPolyline
 90
        6
 70
     0
 43
0.0
 10
453.1552975384977
 20
1238.590063952506
 10
454.2195849583447
 20
1237.615787362019
 10
455.5731874129926
 20
1236.972785391271
 10
457.0176118630217
 20
1236.760800110809
 10
457.024329284852
 20
1236.760688074928
 10
472.4641357082621
 20
1236.657122672048
  0
LINE
  5
234
330
1F
100
AcDbEntity
  8
HEWI
  6
CUSTOM
370
     9
100
AcDbLine
 10
458.2141350005331
 20
1224.282715971256
 30
0.0
 11
458.1804648524053
 21
1223.100752767541
 31
0.0
  0
LINE
  5
237
330
1F
100
AcDbEntity
  8
HEWI
  6
CUSTOM
370
     9
100
AcDbLine
 10
448.3876075006314
 20
1205.55983291038
 30
0.0
 11
448.1528047424265
 21
1205.399915549755
 31
0.0
  0
LINE
  5
239
330
1F
100
AcDbEntity
  8
HEWI
  6
CUSTOM
370
     9
100
AcDbLine
 10
443.5313954515309
 20
1203.011096323149
 30
0.0
 11
444.1472090017559
 21
1203.254955295495
 31
0.0
  0
LWPOLYLINE
  5
23C
330
1F
100
AcDbEntity
  8
HEWI
  6
CUSTOM
370
     9
100
AcDbPolyline
 90
       12
 70
     0
 43
0.0
 10
803.4641521474291
 20
1191.069812547133
 10
814.0599282508059
 20
1194.191578703553
 10
821.6654644532978
 20
1196.432349486809
 10
824.4486710743791
 20
1197.252347960847
 10
828.3068813576692
 20
1198.389067930127
 10
832.767748817735
 20
1199.703344952333
 10
835.409921840633
 20
1200.481791593884
 10
839.7946812400437
 20
1201.773645381994
 10
843.4690079235478
 20
1202.85618889521
 10
846.4548574112678
 20
1203.759210210924
 10
846.7561284201947
 20
1203.78429042601
 10
847.4641543326965
 20
1203.889233147201
  0
LINE
  5
23D
330
1F
100
AcDbEntity
  8
HEWI
  6
CUSTOM
370
     9
100
AcDbLine
 10
455.6082594547226
 20
1234.855168198381
 30
0.0
 11
454.9196586714788
 21
1236.079751321096
 31
0.0
  0
LWPOLYLINE
  5
23E
330
1F
100
AcDbEntity
  8
HEWI
  6
CUSTOM
370
     9
100
AcDbPolyline
 90
        3
 70
     0
 43
0.0
 10
438.2063434826522
 20
1201.698588950674
 10
439.7952440191334
 20
1201.948795744351
 10
440.5238255893729
 20
1202.155953467417
  0
LWPOLYLINE
  5
23F
330
1F
100
AcDbEntity
  8
HEWI
  6
CUSTOM
370
     9
100
AcDbPolyline
 90
        3
 70
     0
 43
0.0
 10
457.5530613141436
 20
1229.727147366308
 10
458.0049772163492
 20
1227.351145547711
 10
458.0226383485603
 20
1227.09204957076
  0
LINE
  5
241
330
1F
100
AcDbEntity
  8
HEWI
  6
CUSTOM
370
     9
100
AcDbLine
 10
452.4927542372731
 20
1209.196675406199
 30
0.0
 11
451.8399438233791
 21
1208.490436140706
 31
0.0
  0
LINE
  5
242
330
1F
100
AcDbEntity
  8
HEWI
  6
CUSTOM
370
     9
100
AcDbLine
 10
457.5530613141436
 20
1229.727147366308
 30
0.0
 11
457.4528967192953
 21
1230.116714482703
 31
0.0
  0
LINE
  5
243
330
1F
100
AcDbEntity
  8
HEWI
  6
CUSTOM
370
     9
100
AcDbLine
 10
457.5530613141436
 20
1218.838284576206
 30
0.0
 11
457.1841533474355
 21
1217.514886059137
 31
0.0
  0
LINE
  5
244
330
1F
100
AcDbEntity
  8
HEWI
  6
CUSTOM
370
     9
100
AcDbLine
 10
457.5530613141436
 20
1218.838284576206
 30
0.0
 11
457.7446535771616
 21
1219.692107118708
 31
0.0
  0
LWPOLYLINE
  5
246
330
1F
100
AcDbEntity
  8
HEWI
  6
CUSTOM
370
     9
100
AcDbPolyline
 90
        4
 70
     0
 43
0.0
 10
455.6082594547226
 20
1213.710263744133
 10
456.4435324992318
 20
1215.483561992175
 10
456.4450837949991
 20
1215.48705913665
 10
456.675920918052
 20
1216.120420004099
  0
LINE
  5
247
330
1F
100
AcDbEntity
  8
HEWI
  6
CUSTOM
370
     9
100
AcDbLine
 10
1243.993171996627
 20
1203.829061716219
 30
0.0
 11
1243.993993057227
 21
1203.829053390996
 31
0.0
  0
LWPOLYLINE
  5
248
330
1F
100
AcDbEntity
  8
HEWI
  6
CUSTOM
370
     9
100
AcDbPolyline
 90
       38
 70
     0
 43
0.0
 10
465.7188364681895
 20
1126.716295288846
 10
465.8328862489955
 20
1126.166424353934
 10
466.7615973794795
 20
1123.93109264583
 10
468.2004538121065
 20
1121.984205688937
 10
470.0800147424984
 20
1120.430551938877
 10
471.0319722372937
 20
1119.89325715949
 10
471.9896826924879
 20
1119.480427527287
 10
474.6598660624995
 20
1118.889857305533
 10
478.2900977455414
 20
1119.265059095472
 10
488.5632806184
 20
1122.260306615962
 10
493.7230635115249
 20
1123.811132479618
 10
498.8562128914277
 20
1125.282708960261
 10
504.0887299580279
 20
1126.838268195792
 10
509.2715631812791
 20
1128.33950417571
 10
513.1738435270799
 20
1129.522438092144
 10
515.3276127760546
 20
1130.121717763942
 10
519.6351512740038
 20
1131.26937911511
 10
523.1067411490057
 20
1132.447180507169
 10
524.8425360865066
 20
1132.981070566843
 10
527.4589382081463
 20
1133.709564156848
 10
530.0264953667324
 20
1134.429635876579
 10
533.0470156628421
 20
1135.398287002658
 10
534.564802175173
 20
1135.734701681627
 10
536.7342318779542
 20
1136.380831198217
 10
540.4770511247376
 20
1137.516963403507
 10
544.7784435370449
 20
1138.819467609005
 10
546.9291397431979
 20
1139.466213012999
 10
548.2316518191187
 20
1139.826096561762
 10
550.8366759709601
 20
1140.52019931522
 10
556.023791602988
 20
1142.062261451527
 10
561.2219563413209
 20
1143.657242288572
 10
571.5705320812369
 20
1146.600525909615
 10
576.786660660649
 20
1148.282577511572
 10
579.3947249503548
 20
1148.980690538317
 10
584.548242731953
 20
1150.306942721186
 10
588.4627964843976
 20
1151.717777075802
 10
594.9953569518391
 20
1153.644761030673
 10
604.5511957923781
 20
1156.29266949556
  0
LWPOLYLINE
  5
249
330
1F
100
AcDbEntity
  8
HEWI
  6
CUSTOM
370
     9
100
AcDbPolyline
 90
       19
 70
     0
 43
0.0
 10
690.8183463022829
 20
1181.632553029092
 10
696.2297474210418
 20
1183.47587868864
 10
702.2824388161116
 20
1185.25859230642
 10
705.3087845136474
 20
1186.149793360057
 10
706.6062725993279
 20
1186.529332633387
 10
708.3377179740605
 20
1187.041621635246
 10
711.8006087235253
 20
1188.063565034292
 10
713.5286444904449
 20
1188.561874864943
 10
714.3926623739048
 20
1188.802809242707
 10
721.311431585791
 20
1190.831584123396
 10
723.4742872293882
 20
1191.436140849254
 10
726.5016071005838
 20
1192.390817965365
 10
732.5562468429752
 20
1194.071857278195
 10
736.8817854300978
 20
1195.33218947856
 10
740.3418448732691
 20
1196.469884726463
 10
743.8025233606508
 20
1197.409380478767
 10
745.2441632082882
 20
1197.901966570697
 10
748.1274429035624
 20
1198.722341735328
 10
750.3616105552764
 20
1199.228209510831
  0
LWPOLYLINE
  5
24C
330
1F
100
AcDbEntity
  8
HEWI
  6
CUSTOM
370
     9
100
AcDbPolyline
 90
        9
 70
     0
 43
0.0
 10
434.7621814560065
 20
1119.450752105781
 10
432.6955742709401
 20
1113.897243282589
 10
429.3649047732936
 20
1108.971571043587
 10
426.6743497742391
 20
1106.304046663375
 10
423.3118308204653
 20
1103.891480428062
 10
420.2734429036822
 20
1102.343260581272
 10
417.5259435356601
 20
1101.35674334871
 10
416.3624901410787
 20
1100.995453932055
 10
411.8995609187305
 20
1099.689457354861
  0
LINE
  5
24D
330
1F
100
AcDbEntity
  8
HEWI
  6
CUSTOM
370
     9
100
AcDbLine
 10
758.5131926309754
 20
1201.550471312824
 30
0.0
 11
748.1274429035624
 21
1198.591729112868
 31
0.0
  0
LWPOLYLINE
  5
24E
330
1F
100
AcDbEntity
  8
HEWI
  6
CUSTOM
370
     9
100
AcDbPolyline
 90
       10
 70
     0
 43
0.0
 10
687.143677670047
 20
1180.677529326658
 10
680.6588861185587
 20
1178.887940937011
 10
678.0635751890927
 20
1178.081608806437
 10
673.7387264895247
 20
1176.83881003121
 10
670.2781445378509
 20
1175.785503584913
 10
668.548104630593
 20
1175.297186777262
 10
665.0880248160756
 20
1174.299751787655
 10
659.8980724733519
 20
1172.671126239106
 10
657.3030963019901
 20
1171.764508841292
 10
652.0962783495797
 20
1170.163756448052
  0
LWPOLYLINE
  5
24F
330
1F
100
AcDbEntity
  8
HEWI
  6
CUSTOM
370
     9
100
AcDbPolyline
 90
       20
 70
     0
 43
0.0
 10
803.4641521474291
 20
1191.069812547133
 10
803.3325073891806
 20
1191.123570789999
 10
802.9507447259538
 20
1191.265618855233
 10
802.2236999692795
 20
1191.502023898761
 10
801.3437098171056
 20
1191.742837922917
 10
800.5525633088131
 20
1191.921673316372
 10
799.6594982823276
 20
1192.069718684238
 10
798.6805964305294
 20
1192.155453460514
 10
797.6345206904966
 20
1192.147512354639
 10
796.1999902612251
 20
1191.951350237164
 10
794.6377301343114
 20
1191.48706932199
 10
792.8620849518011
 20
1190.636004164119
 10
791.1234896682713
 20
1189.497487502001
 10
789.8024951764059
 20
1188.459221907403
 10
788.9581908254617
 20
1187.735985602
 10
788.3328785604012
 20
1187.172655548309
 10
787.9589568130982
 20
1186.825746867519
 10
787.6815480739842
 20
1186.56417831381
 10
787.5129923709528
 20
1186.403058782119
 10
787.4676625448487
 20
1186.359234733011
  0
LWPOLYLINE
  5
250
330
1F
100
AcDbEntity
  8
HEWI
  6
CUSTOM
370
     9
100
AcDbPolyline
 90
       12
 70
     0
 43
0.0
 10
605.8231063816276
 20
1156.675340621865
 10
608.8381860347497
 20
1157.719234105029
 10
611.4359731410591
 20
1158.476347808662
 10
613.1791971797984
 20
1158.902169212868
 10
618.3754409086259
 20
1160.538209156289
 10
623.5649469072106
 20
1161.976810513642
 10
625.2836394442758
 20
1162.546882808307
 10
627.8787272016725
 20
1163.318847690737
 10
631.3502101794006
 20
1164.221200072891
 10
641.731230725195
 20
1167.418299959857
 10
649.5161592392805
 20
1169.47012240401
 10
653.882812821382
 20
1170.712997717739
  0
LINE
  5
251
330
1F
100
AcDbEntity
  8
HEWI
  6
CUSTOM
370
     9
100
AcDbLine
 10
607.9667413944316
 20
1157.320281568599
 30
0.0
 11
602.7897225450796
 21
1155.762706976774
 31
0.0
  0
LWPOLYLINE
  5
254
330
1F
100
AcDbEntity
  8
HEWI
  6
CUSTOM
370
     9
100
AcDbPolyline
 90
       26
 70
     1
 43
0.0
 10
443.3804860585926
 20
1120.5649299756
 10
444.4760483328605
 20
1118.977734076547
 10
445.9196164160748
 20
1117.698844407687
 10
447.6272953783961
 20
1116.802585388001
 10
449.499841125694
 20
1116.341044333944
 10
451.4284281055624
 20
1116.341044333944
 10
453.3009738528606
 20
1116.802585388001
 10
455.0086528151816
 20
1117.698844407687
 10
456.4522208983967
 20
1118.977734076547
 10
457.5477831726648
 20
1120.564929975599
 10
458.2316695408126
 20
1122.368190048417
 10
458.46413501295
 20
1124.282715374149
 10
458.2316695408126
 20
1126.197240699881
 10
457.5477831726648
 20
1128.000500772698
 10
456.4522208983967
 20
1129.587696671751
 10
455.0086528151816
 20
1130.866586340611
 10
453.3009738528606
 20
1131.762845360296
 10
451.4284281055624
 20
1132.224386414355
 10
449.499841125694
 20
1132.224386414355
 10
447.6272953783961
 20
1131.762845360296
 10
445.9196164160748
 20
1130.866586340611
 10
444.4760483328605
 20
1129.587696671751
 10
443.3804860585926
 20
1128.000500772698
 10
442.6965996904439
 20
1126.197240699881
 10
442.4641342183074
 20
1124.282715374149
 10
442.6965996904439
 20
1122.368190048417
  0
LWPOLYLINE
  5
255
330
1F
100
AcDbEntity
  8
HEWI
  6
CUSTOM
370
     9
100
AcDbPolyline
 90
        3
 70
     0
 43
0.0
 10
465.767219382265
 20
1126.327044410193
 10
465.4641353606057
 20
1128.765420064937
 10
465.4641353606057
 20
1195.864484907419
  0
LWPOLYLINE
  5
256
330
1F
100
AcDbEntity
  8
HEWI
  6
CUSTOM
370
     9
100
AcDbPolyline
 90
       10
 70
     0
 43
0.0
 10
431.0372598397757
 20
1200.280951549373
 10
432.136545790735
 20
1199.061965497456
 10
432.9251674093625
 20
1197.99023914969
 10
433.6605853762512
 20
1196.769969640099
 10
434.3048910522802
 20
1195.422963151202
 10
434.9451588487616
 20
1193.552308095246
 10
435.3338240939438
 20
1191.613691966627
 10
435.464133870651
 20
1189.64079751498
 10
435.464133870651
 20
1125.289551760949
 10
434.7489076316328
 20
1119.340341425759
  0
LWPOLYLINE
  5
257
330
1F
100
AcDbEntity
  8
HEWI
  6
CUSTOM
370
     9
100
AcDbPolyline
 90
        3
 70
     0
 43
0.0
 10
411.0641326601398
 20
1099.133271698857
 10
411.278453698801
 20
1099.321374926669
 10
411.8995609187305
 20
1099.689457354861
  0
LWPOLYLINE
  5
258
330
1F
100
AcDbEntity
  8
HEWI
  6
CUSTOM
370
     9
100
AcDbPolyline
 90
        3
 70
     0
 43
0.0
 10
411.8995609187305
 20
1099.689457354861
 10
411.2779748330579
 20
1099.338743358592
 10
411.0641326597742
 20
1099.150693611552
  0
LINE
  5
259
330
1F
100
AcDbEntity
  8
HEWI
  6
CUSTOM
370
     9
100
AcDbLine
 10
458.2141546924797
 20
1224.280330967482
 30
0.0
 11
458.2141350005331
 21
1224.282715971256
 31
0.0
  0
LINE
  5
25B
330
1F
100
AcDbEntity
  8
HEWI
  6
CUSTOM
370
     9
100
AcDbLine
 10
451.8439467909368
 20
1208.494592681979
 30
0.0
 11
451.8399438233791
 21
1208.490436140706
 31
0.0
  0
LWPOLYLINE
  5
25C
330
1F
100
AcDbEntity
  8
HEWI
  6
CUSTOM
370
     9
100
AcDbPolyline
 90
        3
 70
     0
 43
0.0
 10
452.2059110264449
 20
1208.88635569167
 10
452.1620917748696
 20
1208.831414614996
 10
451.8399438233791
 20
1208.490436140706
  0
LWPOLYLINE
  5
25D
330
1F
100
AcDbEntity
  8
HEWI
  6
CUSTOM
370
     9
100
AcDbPolyline
 90
        3
 70
     0
 43
0.0
 10
456.6801938780438
 20
1232.495421423298
 10
457.3136845126462
 20
1230.619418411722
 10
457.4528967192953
 20
1230.116714482703
  0
LINE
  5
25F
330
1F
100
AcDbEntity
  8
HEWI
  6
CUSTOM
370
     9
100
AcDbLine
 10
457.1849202721534
 20
1217.517190087279
 30
0.0
 11
457.1841533474355
 21
1217.514886059137
 31
0.0
  0
LINE
  5
261
330
1F
100
AcDbEntity
  8
HEWI
  6
CUSTOM
370
     9
100
AcDbLine
 10
455.8034681836898
 20
1234.474596339558
 30
0.0
 11
455.7998436332898
 21
1234.481977271611
 31
0.0
  0
LWPOLYLINE
  5
264
330
1F
100
AcDbEntity
  8
HEWI
  6
CUSTOM
370
     9
100
AcDbPolyline
 90
        3
 70
     0
 43
0.0
 10
458.1804648524053
 20
1223.100752767541
 10
458.1268838231617
 20
1222.301005320336
 10
458.0856210393924
 20
1221.906511111074
  0
LWPOLYLINE
  5
265
330
1F
100
AcDbEntity
  8
HEWI
  6
CUSTOM
370
     9
100
AcDbPolyline
 90
        3
 70
     0
 43
0.0
 10
454.6660301473012
 20
1212.082296121865
 10
454.6674509466002
 20
1212.084451833794
 10
454.6646627766635
 20
1212.079933602355
  0
LWPOLYLINE
  5
266
330
1F
100
AcDbEntity
  8
HEWI
  6
CUSTOM
370
     9
100
AcDbPolyline
 90
        3
 70
     0
 43
0.0
 10
456.6801938780438
 20
1232.495421423298
 10
456.3690442144786
 20
1233.256021428754
 10
455.7998436332898
 20
1234.481977271611
  0
LWPOLYLINE
  5
267
330
1F
100
AcDbEntity
  8
HEWI
  6
CUSTOM
370
     9
100
AcDbPolyline
 90
        3
 70
     0
 43
0.0
 10
458.0254817471679
 20
1221.484918494226
 10
457.836170786861
 20
1220.157797735035
 10
457.7446535771616
 20
1219.692107118708
  0
LWPOLYLINE
  5
268
330
1F
100
AcDbEntity
  8
HEWI
  6
CUSTOM
370
     9
100
AcDbPolyline
 90
        3
 70
     0
 43
0.0
 10
454.1383087858969
 20
1237.296675974174
 10
454.3935592278826
 20
1236.90131991151
 10
454.9196586714788
 20
1236.079751321096
  0
LWPOLYLINE
  5
269
330
1F
100
AcDbEntity
  8
HEWI
  6
CUSTOM
370
     9
100
AcDbPolyline
 90
        3
 70
     0
 43
0.0
 10
453.1619524496547
 20
1210.08505131624
 10
454.2431088060582
 20
1211.440617468956
 10
454.6646627766635
 20
1212.079933602355
  0
LINE
  5
26A
330
1F
100
AcDbEntity
  8
HEWI
  6
CUSTOM
370
     9
100
AcDbLine
 10
455.3084455204543
 20
1235.407203290412
 30
0.0
 11
454.9196586714788
 21
1236.079751321096
 31
0.0
  0
LINE
  5
26C
330
1F
100
AcDbEntity
  8
HEWI
  6
CUSTOM
370
     9
100
AcDbLine
 10
468.0079783401949
 20
1122.024737894938
 30
0.0
 11
466.635601843833
 21
1124.044716533482
 31
0.0
  0
LWPOLYLINE
  5
26D
330
1F
100
AcDbEntity
  8
HEWI
  6
CUSTOM
370
     9
100
AcDbPolyline
 90
       12
 70
     1
 43
0.0
 10
450.4015113019238
 20
1126.296748744856
 10
447.8702611762084
 20
1126.296748744856
 10
447.8702611762084
 20
1122.246748720674
 10
450.4015113019238
 20
1122.246748720674
 10
450.4015113019238
 20
1122.925126964724
 10
448.6853369466894
 20
1122.925126964724
 10
448.6853369466894
 20
1124.038876971375
 10
450.2648386451357
 20
1124.038876971375
 10
450.2648386451357
 20
1124.681824465214
 10
448.6853369466894
 20
1124.681824465214
 10
448.6853369466894
 20
1125.587998740624
 10
450.4015113019238
 20
1125.587998740624
  0
LINE
  5
26E
330
1F
100
AcDbEntity
  8
HEWI
  6
CUSTOM
370
     9
100
AcDbLine
 10
472.4641357082621
 20
1208.737683999661
 30
0.0
 11
472.4641357082621
 21
1208.791317041895
 31
0.0
  0
LWPOLYLINE
  5
26F
330
1F
100
AcDbEntity
  8
HEWI
  6
CUSTOM
370
     9
100
AcDbPolyline
 90
       13
 70
     1
 43
0.0
 10
450.5230104979573
 20
1126.296748744856
 10
451.662060634529
 20
1122.246748720674
 10
452.4568872140037
 20
1122.246748720674
 10
453.1150122466897
 20
1125.010870497178
 10
453.763010658873
 20
1122.246748720674
 10
454.5578372383476
 20
1122.246748720674
 10
455.7728372986912
 20
1126.296748744856
 10
454.8767607141871
 20
1126.296748744856
 10
454.1528372182336
 20
1123.471875347989
 10
453.5351857275577
 20
1126.296748744856
 10
452.7100122265753
 20
1126.296748744856
 10
452.0873098456489
 20
1123.49212048811
 10
451.3836355407006
 20
1126.296748744856
  0
LWPOLYLINE
  5
273
330
1F
100
AcDbEntity
  8
HEWI
  6
CUSTOM
370
     9
100
AcDbPolyline
 90
       12
 70
     1
 43
0.0
 10
446.5084369985731
 20
1122.246748720674
 10
447.3235127690543
 20
1122.246748720674
 10
447.3235127690543
 20
1126.296748744856
 10
446.5084369985731
 20
1126.296748744856
 10
446.5084391585732
 20
1124.681824465214
 10
444.8732615673622
 20
1124.681824465214
 10
444.8732615673622
 20
1126.296748744856
 10
444.0581857968811
 20
1126.296748744856
 10
444.0581857968811
 20
1122.246748720674
 10
444.8732615673622
 20
1122.246748720674
 10
444.8732615673622
 20
1124.038876971375
 10
446.5084369985731
 20
1124.038876971375
  0
LWPOLYLINE
  5
275
330
1F
100
AcDbEntity
  8
HEWI
  6
CUSTOM
370
     9
100
AcDbPolyline
 90
        4
 70
     1
 43
0.0
 10
456.8308866212396
 20
1122.246748720674
 10
456.8308866212396
 20
1126.296748744856
 10
455.9905107695022
 20
1126.296748744856
 10
455.9905107695022
 20
1122.246748720674
  0
LINE
  5
277
330
1F
100
AcDbEntity
  8
HEWI
  6
CUSTOM
370
     9
100
AcDbLine
 10
438.2063434826522
 20
1201.698588950674
 30
0.0
 11
439.6134845525479
 21
1202.045418059412
 31
0.0
  0
LINE
  5
278
330
1F
100
AcDbEntity
  8
HEWI
  6
CUSTOM
370
     9
100
AcDbLine
 10
454.3040745465159
 20
1211.60124449038
 30
0.0
 11
454.6646627766635
 21
1212.079933602355
 31
0.0
  0
LWPOLYLINE
  5
279
330
1F
100
AcDbEntity
  8
HEWI
  6
CUSTOM
370
     9
100
AcDbPolyline
 90
        3
 70
     0
 43
0.0
 10
435.4138052466606
 20
1201.541595680097
 10
435.2705103668549
 20
1201.533539807648
 10
435.1461166000276
 20
1201.541595680097
  0
LINE
  5
27A
330
1F
100
AcDbEntity
  8
HEWI
  6
CUSTOM
370
     9
100
AcDbLine
 10
442.1242543816352
 20
1202.664267214412
 30
0.0
 11
443.5313954515309
 21
1203.011096323149
 31
0.0
  0
LINE
  5
27B
330
1F
100
AcDbEntity
  8
HEWI
  6
CUSTOM
370
     9
100
AcDbLine
 10
457.5530613141436
 20
1218.838284576206
 30
0.0
 11
457.7277495500111
 21
1220.276971571746
 31
0.0
  0
LINE
  5
27C
330
1F
100
AcDbEntity
  8
HEWI
  6
CUSTOM
370
     9
100
AcDbLine
 10
458.0394467646658
 20
1222.844028975715
 30
0.0
 11
458.2141350005331
 21
1224.282715971256
 31
0.0
  0
LINE
  5
27D
330
1F
100
AcDbEntity
  8
HEWI
  6
CUSTOM
370
     9
100
AcDbLine
 10
448.3876075006314
 20
1205.55983291038
 30
0.0
 11
449.4723895093023
 21
1206.520865867526
 31
0.0
  0
LWPOLYLINE
  5
27E
330
1F
100
AcDbEntity
  8
HEWI
  6
CUSTOM
370
     9
100
AcDbPolyline
 90
        3
 70
     0
 43
0.0
 10
444.8146459171312
 20
1244.880833849015
 10
443.5313954515302
 20
1245.554335619364
 10
442.1242543816346
 20
1245.901164728102
  0
LWPOLYLINE
  5
27F
330
1F
100
AcDbEntity
  8
HEWI
  6
CUSTOM
370
     9
100
AcDbPolyline
 90
        3
 70
     0
 43
0.0
 10
690.8342549753361
 20
1181.637972126225
 10
689.3093646199381
 20
1181.367676013473
 10
687.1247264407452
 20
1180.672299415855
  0
LINE
  5
280
330
1F
100
AcDbEntity
  8
HEWI
  6
CUSTOM
370
     9
100
AcDbLine
 10
458.2141350005331
 20
1224.282715971256
 30
0.0
 11
458.0394467646658
 21
1225.721402966797
 31
0.0
  0
LINE
  5
281
330
1F
100
AcDbEntity
  8
HEWI
  6
CUSTOM
370
     9
100
AcDbLine
 10
453.3160242016919
 20
1238.176044134629
 30
0.0
 11
452.4927542372731
 21
1239.368756536314
 31
0.0
  0
LINE
  5
282
330
1F
100
AcDbEntity
  8
HEWI
  6
CUSTOM
370
     9
100
AcDbLine
 10
452.4927542372731
 20
1239.368756536314
 30
0.0
 11
451.4079722286021
 21
1240.32978949346
 31
0.0
  0
LINE
  5
283
330
1F
100
AcDbEntity
  8
HEWI
  6
CUSTOM
370
     9
100
AcDbLine
 10
458.2141350005331
 20
1224.282715971256
 30
0.0
 11
458.0394467782659
 21
1226.845463085618
 31
0.0
  0
LINE
  5
284
330
1F
100
AcDbEntity
  8
HEWI
  6
CUSTOM
370
     9
100
AcDbLine
 10
787.4676625448487
 20
1186.359234733011
 30
0.0
 11
787.5405865692092
 21
1186.429435607235
 31
0.0
  0
LINE
  5
285
330
1F
100
AcDbEntity
  8
HEWI
  6
CUSTOM
370
     9
100
AcDbLine
 10
438.2063434826522
 20
1201.698588950674
 30
0.0
 11
435.5075277604848
 21
1201.546864651452
 31
0.0
  0
LINE
  5
286
330
1F
100
AcDbEntity
  8
HEWI
  6
CUSTOM
370
     9
100
AcDbLine
 10
458.0127547849158
 20
1221.433283185553
 30
0.0
 11
457.7446535771616
 21
1219.692107118708
 31
0.0
  0
LWPOLYLINE
  5
287
330
1F
100
AcDbEntity
  8
HEWI
  6
CUSTOM
370
     9
100
AcDbPolyline
 90
        6
 70
     0
 43
0.0
 10
787.5985956737727
 20
1186.484885524341
 10
787.6164099724674
 20
1186.501913909346
 10
787.6734569030595
 20
1186.472723202145
 10
787.7662686780381
 20
1186.458817480309
 10
787.8615057446909
 20
1186.481521544436
 10
787.99183565057
 20
1186.607949266901
  0
LINE
  5
288
330
1F
100
AcDbEntity
  8
HEWI
  6
CUSTOM
370
     9
100
AcDbLine
 10
436.7570897326945
 20
1201.698588950674
 30
0.0
 11
438.2063434826522
 21
1201.698588950674
 31
0.0
  0
LINE
  5
289
330
1F
100
AcDbEntity
  8
HEWI
  6
CUSTOM
370
     9
100
AcDbLine
 10
452.4927542372731
 20
1209.196675406199
 30
0.0
 11
453.8181603795044
 21
1210.95618233456
 31
0.0
  0
LINE
  5
28A
330
1F
100
AcDbEntity
  8
HEWI
  6
CUSTOM
370
     9
100
AcDbLine
 10
455.6082594547226
 20
1234.855168198381
 30
0.0
 11
454.7849894903038
 21
1236.047880600068
 31
0.0
  0
LINE
  5
28B
330
1F
100
AcDbEntity
  8
HEWI
  6
CUSTOM
370
     9
100
AcDbLine
 10
443.5313954515309
 20
1203.011096323149
 30
0.0
 11
444.8146459171316
 21
1203.684598093498
 31
0.0
  0
LWPOLYLINE
  5
28C
330
1F
100
AcDbEntity
  8
HEWI
  6
CUSTOM
370
     9
100
AcDbPolyline
 90
        3
 70
     0
 43
0.0
 10
449.472389509302
 20
1242.044566074987
 10
448.387607500631
 20
1243.005599032134
 10
447.10435703503
 20
1243.679100802482
  0
LINE
  5
28D
330
1F
100
AcDbEntity
  8
HEWI
  6
CUSTOM
370
     9
100
AcDbLine
 10
455.0141603893616
 20
1235.911692829669
 30
0.0
 11
455.3084455204543
 21
1235.407203290412
 31
0.0
  0
LINE
  5
28E
330
1F
100
AcDbEntity
  8
HEWI
  6
CUSTOM
370
     9
100
AcDbLine
 10
457.0391488518439
 20
1217.483208839431
 30
0.0
 11
457.5530613141436
 21
1218.838284576206
 31
0.0
  0
LINE
  5
28F
330
1F
100
AcDbEntity
  8
HEWI
  6
CUSTOM
370
     9
100
AcDbLine
 10
455.3084455204543
 20
1235.407203290412
 30
0.0
 11
455.4889271890429
 21
1235.067384452421
 31
0.0
  0
LINE
  5
290
330
1F
100
AcDbEntity
  8
HEWI
  6
CUSTOM
370
     9
100
AcDbLine
 10
447.1043570350307
 20
1204.886331140031
 30
0.0
 11
448.3876075006314
 21
1205.55983291038
 31
0.0
  0
LINE
  5
291
330
1F
100
AcDbEntity
  8
HEWI
  6
CUSTOM
370
     9
100
AcDbLine
 10
455.6082594547226
 20
1213.710263744133
 30
0.0
 11
456.1221719170226
 21
1215.065339480906
 31
0.0
  0
LINE
  5
292
330
1F
100
AcDbEntity
  8
HEWI
  6
CUSTOM
370
     9
100
AcDbLine
 10
451.4079722286021
 20
1208.235642449053
 30
0.0
 11
452.4927542372731
 21
1209.196675406199
 31
0.0
  0
LWPOLYLINE
  5
293
330
1F
100
AcDbEntity
  8
HEWI
  6
CUSTOM
370
     9
100
AcDbPolyline
 90
        6
 70
     0
 43
0.0
 10
803.0684679342511
 20
1191.080046921426
 10
803.2489360455382
 20
1191.006404795153
 10
803.3058705192388
 20
1191.030378323935
 10
803.3592185483362
 20
1191.066656639502
 10
803.390196694384
 20
1191.099607804223
 10
803.4641521474291
 20
1191.069812547133
  0
LINE
  5
294
330
1F
100
AcDbEntity
  8
HEWI
  6
CUSTOM
370
     9
100
AcDbLine
 10
452.4927542372731
 20
1209.196675406199
 30
0.0
 11
453.3160242016919
 21
1210.389387807885
 31
0.0
  0
LINE
  5
295
330
1F
100
AcDbEntity
  8
HEWI
  6
CUSTOM
370
     9
100
AcDbLine
 10
457.5530613141436
 20
1229.727147366308
 30
0.0
 11
457.0391488518439
 21
1231.082223103082
 31
0.0
  0
LINE
  5
296
330
1F
100
AcDbEntity
  8
HEWI
  6
CUSTOM
370
     9
100
AcDbLine
 10
443.5313954515309
 20
1203.011096323149
 30
0.0
 11
441.563111685182
 21
1202.45145386163
 31
0.0
  0
LINE
  5
297
330
1F
100
AcDbEntity
  8
HEWI
  6
CUSTOM
370
     9
100
AcDbLine
 10
457.7277495500111
 20
1228.288460370766
 30
0.0
 11
457.5530613141436
 21
1229.727147366308
 31
0.0
  0
LINE
  5
298
330
1F
100
AcDbEntity
  8
HEWI
  6
CUSTOM
370
     9
100
AcDbLine
 10
454.3689769799985
 20
1236.937418467053
 30
0.0
 11
454.530015114024
 21
1236.686607301662
 31
0.0
  0
LWPOLYLINE
  5
299
330
1F
100
AcDbEntity
  8
HEWI
  6
CUSTOM
370
     9
100
AcDbPolyline
 90
        3
 70
     0
 43
0.0
 10
439.6134845525478
 20
1246.520013883102
 10
438.2063434826522
 20
1246.866842991839
 10
436.7570897326941
 20
1246.866842991839
  0
LINE
  5
29A
330
1F
100
AcDbEntity
  8
HEWI
  6
CUSTOM
370
     9
100
AcDbLine
 10
454.7849894903038
 20
1212.517551342445
 30
0.0
 11
455.6082594547226
 21
1213.710263744133
 31
0.0
  0
LINE
  5
29B
330
1F
100
AcDbEntity
  8
HEWI
  6
CUSTOM
370
     9
100
AcDbLine
 10
448.3876075006314
 20
1205.55983291038
 30
0.0
 11
449.7257428497869
 21
1206.695743033333
 31
0.0
  0
LINE
  5
29C
330
1F
100
AcDbEntity
  8
HEWI
  6
CUSTOM
370
     9
100
AcDbLine
 10
458.0856210393924
 20
1221.906511111074
 30
0.0
 11
458.0394467753085
 21
1221.606633597652
 31
0.0
  0
LINE
  5
29D
330
1F
100
AcDbEntity
  8
HEWI
  6
CUSTOM
370
     9
100
AcDbLine
 10
456.1221719170226
 20
1233.500092461606
 30
0.0
 11
455.6082594547226
 21
1234.855168198381
 31
0.0
  0
LINE
  5
29E
330
1F
100
AcDbEntity
  8
HEWI
  6
CUSTOM
370
     9
100
AcDbLine
 10
451.0081871771194
 20
1207.784378420225
 30
0.0
 11
451.8399438233791
 21
1208.490436140706
 31
0.0
  0
LINE
  5
29F
330
1F
100
AcDbEntity
  8
HEWI
  6
CUSTOM
370
     9
100
AcDbLine
 10
450.6207901710895
 20
1207.347097610343
 30
0.0
 11
451.8399438233791
 21
1208.490436140706
 31
0.0
  0
LINE
  5
2A0
330
1F
100
AcDbEntity
  8
HEWI
  6
CUSTOM
370
     9
100
AcDbLine
 10
455.3084455204543
 20
1235.407203290412
 30
0.0
 11
455.487006013267
 21
1235.070801001966
 31
0.0
  0
LINE
  5
2A1
330
1F
100
AcDbEntity
  8
HEWI
  6
CUSTOM
370
     9
100
AcDbLine
 10
458.0394467669955
 20
1221.582817040012
 30
0.0
 11
458.0856210393924
 21
1221.906511111074
 31
0.0
  0
LINE
  5
2A2
330
1F
100
AcDbEntity
  8
HEWI
  6
CUSTOM
370
     9
100
AcDbLine
 10
433.7267792328839
 20
1196.631582601658
 30
0.0
 11
433.5946456385495
 21
1196.879382593092
 31
0.0
  0
LWPOLYLINE
  5
2A3
330
1F
100
AcDbEntity
  8
HEWI
  6
CUSTOM
370
     9
100
AcDbPolyline
 90
        3
 70
     0
 43
0.0
 10
450.4849741957448
 20
1207.2198025768
 10
450.1737803024512
 20
1206.927885802785
 10
448.5772940087968
 20
1205.720853113065
  0
LINE
  5
2A4
330
1F
100
AcDbEntity
  8
HEWI
  6
CUSTOM
370
     9
100
AcDbLine
 10
433.1765338745653
 20
1197.573150028211
 30
0.0
 11
432.8302439940175
 21
1198.119238815404
 31
0.0
  0
LINE
  5
2A5
330
1F
100
AcDbEntity
  8
HEWI
  6
CUSTOM
370
     9
100
AcDbLine
 10
457.1841533474355
 20
1217.514886059137
 30
0.0
 11
456.7603464901001
 21
1216.352063220061
 31
0.0
  0
LINE
  5
2A6
330
1F
100
AcDbEntity
  8
HEWI
  6
CUSTOM
370
     9
100
AcDbLine
 10
432.5430387937116
 20
1198.509546884201
 30
0.0
 11
431.9079484106623
 21
1199.315454611954
 31
0.0
  0
LINE
  5
2A7
330
1F
100
AcDbEntity
  8
HEWI
  6
CUSTOM
370
     9
100
AcDbLine
 10
431.5390024405419
 20
1199.724574719079
 30
0.0
 11
429.5415600412625
 21
1201.541595602297
 31
0.0
  0
LWPOLYLINE
  5
2A8
330
1F
100
AcDbEntity
  8
HEWI
  6
CUSTOM
370
     9
100
AcDbPolyline
 90
        3
 70
     0
 43
0.0
 10
1245.144397996516
 20
1216.383835588605
 10
1245.161971685361
 20
1217.405540889763
 10
1245.178918257496
 20
1218.826209511292
  0
LWPOLYLINE
  5
2AA
330
1F
100
AcDbEntity
  8
HEWI
  6
CUSTOM
370
     9
100
AcDbPolyline
 90
        5
 70
     0
 43
0.0
 10
1245.174899715199
 20
1222.08181326975
 10
1245.174524653202
 20
1222.15161127263
 10
1245.144397996516
 20
1224.127330242821
 10
1245.023907350584
 20
1228.031456853435
 10
1244.542200402866
 20
1235.865024383285
  0
LWPOLYLINE
  5
2AB
330
1F
100
AcDbEntity
  8
HEWI
  6
CUSTOM
370
     9
100
AcDbPolyline
 90
        4
 70
     0
 43
0.0
 10
803.2131608920348
 20
1191.167977806316
 10
803.1769138859022
 20
1191.132948403797
 10
803.1257600147268
 20
1191.096482948617
 10
803.0684679342511
 20
1191.080046921426
  0
LWPOLYLINE
  5
2AC
330
1F
100
AcDbEntity
  8
HEWI
  6
CUSTOM
370
     9
100
AcDbPolyline
 90
        5
 70
     0
 43
0.0
 10
1245.174524653202
 20
1222.133466309778
 10
1245.182056567087
 20
1221.096181033384
 10
1245.184567227245
 20
1220.282715947373
 10
1245.182056567087
 20
1219.469250861362
 10
1245.178918257496
 20
1218.826209511292
  0
LWPOLYLINE
  5
2AD
330
1F
100
AcDbEntity
  8
HEWI
  6
CUSTOM
370
     9
100
AcDbPolyline
 90
        3
 70
     0
 43
0.0
 10
1238.464161335485
 20
1203.830132465359
 10
1237.464161285818
 20
1203.830132465359
 10
1237.464161285818
 20
1203.889233146209
  0
LWPOLYLINE
  5
2AE
330
1F
100
AcDbEntity
  8
HEWI
  6
CUSTOM
370
     9
100
AcDbPolyline
 90
       12
 70
     0
 43
0.0
 10
1239.347674223125
 20
1203.806424367766
 10
1239.33152742187
 20
1203.807282740674
 10
1239.243748638736
 20
1203.811672885596
 10
1239.117246715489
 20
1203.817165121541
 10
1239.089400914895
 20
1203.818244652319
 10
1238.985416999952
 20
1203.821869247239
 10
1238.87724530512
 20
1203.82494752077
 10
1238.850526372598
 20
1203.825595353073
 10
1238.696733633388
 20
1203.828471027002
 10
1238.659658804152
 20
1203.828952969528
 10
1238.580756388415
 20
1203.82970755158
 10
1238.464161335485
 20
1203.830132465359
  0
LWPOLYLINE
  5
2AF
330
1F
100
AcDbEntity
  8
HEWI
  6
CUSTOM
370
     9
100
AcDbPolyline
 90
        3
 70
     0
 43
0.0
 10
1245.178918257496
 20
1218.826209511292
 10
1245.174524653202
 20
1218.488995354352
 10
1245.144397996516
 20
1216.383835588605
  0
LWPOLYLINE
  5
2B0
330
1F
100
AcDbEntity
  8
HEWI
  6
CUSTOM
370
     9
100
AcDbPolyline
 90
       10
 70
     0
 43
0.0
 10
1239.713265875593
 20
1203.782792693635
 10
1243.545593441547
 20
1203.843462134599
 10
1244.021620574211
 20
1203.959229303285
 10
1244.382859101433
 20
1204.2907274142
 10
1244.542200402866
 20
1204.753628994895
 10
1244.760423192565
 20
1207.722744752149
 10
1244.823146420992
 20
1208.791902969625
 10
1245.023907350584
 20
1212.491605470862
 10
1245.121804052778
 20
1215.528090572862
 10
1245.144397996516
 20
1216.383835588605
  0
LWPOLYLINE
  5
2B1
330
1F
100
AcDbEntity
  8
HEWI
  6
CUSTOM
370
     9
100
AcDbPolyline
 90
        3
 70
     0
 43
0.0
 10
1242.464161534146
 20
1208.791317041895
 10
1242.464161534146
 20
1208.737683999661
 10
1242.464161534146
 20
1211.247292773623
  0
LINE
  5
2B2
330
1F
100
AcDbEntity
  8
HEWI
  6
CUSTOM
370
     9
100
AcDbLine
 10
787.9919076229884
 20
1186.607972317042
 30
0.0
 11
787.950889352403
 21
1186.568228934215
 31
0.0
  0
LINE
  5
2B3
330
1F
100
AcDbEntity
  8
HEWI
  6
CUSTOM
370
     9
100
AcDbLine
 10
803.0709521231729
 20
1191.079033219046
 30
0.0
 11
803.0305562306807
 21
1191.09379439991
 31
0.0
  0
LWPOLYLINE
  5
2B4
330
1F
100
AcDbEntity
  8
HEWI
  6
CUSTOM
370
     9
100
AcDbPolyline
 90
        3
 70
     0
 43
0.0
 10
1245.002599965905
 20
1228.377959718488
 10
1244.897864714537
 20
1230.134515568672
 10
1244.542200402866
 20
1235.865024383285
  0
LWPOLYLINE
  5
2B5
330
1F
100
AcDbEntity
  8
HEWI
  6
CUSTOM
370
     9
100
AcDbPolyline
 90
        3
 70
     0
 43
0.0
 10
787.99183565057
 20
1186.607949266901
 10
802.5465825513332
 20
1191.269292125395
 10
803.0684679342511
 20
1191.080046921426
  0
LWPOLYLINE
  5
2B6
330
1F
100
AcDbEntity
  8
HEWI
  6
CUSTOM
370
     9
100
AcDbPolyline
 90
        4
 70
     0
 43
0.0
 10
1242.464161534146
 20
1231.990440270331
 10
1242.464161534146
 20
1234.025802879189
 10
1242.464161534146
 20
1235.537673432294
 10
1242.464161534146
 20
1236.468462813912
  0
LINE
  5
2B7
330
1F
100
AcDbEntity
  8
HEWI
  6
CUSTOM
370
     9
100
AcDbLine
 10
802.5949852718527
 20
1191.25174041195
 30
0.0
 11
800.0865004433459
 21
1190.481419533682
 31
0.0
  0
LINE
  5
2B8
330
1F
100
AcDbEntity
  8
HEWI
  6
CUSTOM
370
     9
100
AcDbLine
 10
796.3201420043292
 20
1191.885721647192
 30
0.0
 11
796.4202871984812
 21
1191.981474323175
 31
0.0
  0
LINE
  5
2B9
330
1F
100
AcDbEntity
  8
HEWI
  6
CUSTOM
370
     9
100
AcDbLine
 10
1239.623247110258
 20
1203.789352657105
 30
0.0
 11
1239.653832009137
 21
1203.787179010385
 31
0.0
  0
LWPOLYLINE
  5
2BA
330
1F
100
AcDbEntity
  8
HEWI
  6
CUSTOM
370
     9
100
AcDbPolyline
 90
       17
 70
     0
 43
0.0
 10
394.5641317439791
 20
1280.682716308026
 10
394.4641318343797
 20
1280.682716308026
 10
394.4641318343797
 20
1280.567427989756
 10
394.4641318343797
 20
1280.225993500366
 10
394.4641318343797
 20
1279.536818267433
 10
394.4641318343797
 20
1278.579404585447
 10
394.4641318343797
 20
1277.406659286901
 10
394.4641318343797
 20
1276.083388463698
 10
394.4641318343797
 20
1274.682716272199
 10
394.4641318343797
 20
1271.53271625339
 10
394.4641318343797
 20
1271.142556613614
 10
394.4641318343797
 20
1270.767388959766
 10
394.4641318343797
 20
1270.357201190835
 10
394.4641318343797
 20
1270.011965518567
 10
394.4641318343797
 20
1269.750757649832
 10
394.4641318343797
 20
1269.588010405851
 10
394.4641295915449
 20
1269.532716241448
  0
LINE
  5
2BB
330
1F
100
AcDbEntity
  8
HEWI
  6
CUSTOM
370
     9
100
AcDbLine
 10
1239.545041304811
 20
1203.79465018566
 30
0.0
 11
1239.58656382263
 21
1203.791887373292
 31
0.0
  0
LWPOLYLINE
  5
2BC
330
1F
100
AcDbEntity
  8
HEWI
  6
CUSTOM
370
     9
100
AcDbPolyline
 90
       12
 70
     0
 43
0.0
 10
1237.464161285818
 20
1203.889233147201
 10
1237.464161285818
 20
1204.733137701385
 10
1237.464161285818
 20
1206.377504247533
 10
1237.464161285818
 20
1208.737683999661
 10
1237.464161285818
 20
1208.791317041895
 10
1237.464161285818
 20
1208.852971517388
 10
1237.464161285818
 20
1208.919482799017
 10
1237.464161285818
 20
1208.987436967452
 10
1237.464161285818
 20
1209.053346042257
 10
1237.464161285818
 20
1209.113827014429
 10
1237.464161285818
 20
1209.165775490922
 10
1237.464161285818
 20
1209.171358002864
  0
LWPOLYLINE
  5
2BD
330
1F
100
AcDbEntity
  8
HEWI
  6
CUSTOM
370
     9
100
AcDbPolyline
 90
       11
 70
     0
 43
0.0
 10
1239.713265875593
 20
1203.782792693635
 10
1239.710135078684
 20
1203.783029211539
 10
1239.703696317286
 20
1203.783511286712
 10
1239.683350505649
 20
1203.785021401305
 10
1239.652789450657
 20
1203.787255214592
 10
1239.628298956279
 20
1203.789003588175
 10
1239.580499119026
 20
1203.792306427949
 10
1239.529696275767
 20
1203.795664490432
 10
1239.523105663556
 20
1203.796089056933
 10
1239.412017261297
 20
1203.802848544411
 10
1239.347674223125
 20
1203.806424367766
  0
LINE
  5
2BE
330
1F
100
AcDbEntity
  8
HEWI
  6
CUSTOM
370
     9
100
AcDbLine
 10
394.4641295915449
 20
1269.532716241448
 30
0.0
 11
394.4641318343797
 21
1251.032716130984
 31
0.0
  0
LINE
  5
2BF
330
1F
100
AcDbEntity
  8
HEWI
  6
CUSTOM
370
     9
100
AcDbLine
 10
1238.464161335485
 20
1203.830132465359
 30
0.0
 11
1238.590413934539
 21
1203.829615191786
 31
0.0
  0
LWPOLYLINE
  5
2C0
330
1F
100
AcDbEntity
  8
HEWI
  6
CUSTOM
370
     9
100
AcDbPolyline
 90
        3
 70
     0
 43
0.0
 10
1245.164975450208
 20
1222.777852069576
 10
1245.174524653202
 20
1222.157261258275
 10
1245.17501084824
 20
1222.066508168007
  0
LINE
  5
2C1
330
1F
100
AcDbEntity
  8
HEWI
  6
CUSTOM
370
     9
100
AcDbLine
 10
1239.516644102284
 20
1203.796482228874
 30
0.0
 11
1239.5316743121
 21
1203.795533742449
 31
0.0
  0
LINE
  5
2C2
330
1F
100
AcDbEntity
  8
HEWI
  6
CUSTOM
370
     9
100
AcDbLine
 10
1239.221761495672
 20
1203.812627484344
 30
0.0
 11
1239.253155586617
 21
1203.811202408995
 31
0.0
  0
LINE
  5
2C3
330
1F
100
AcDbEntity
  8
HEWI
  6
CUSTOM
370
     9
100
AcDbLine
 10
1239.056466089069
 20
1203.819392670287
 30
0.0
 11
1239.142165270512
 21
1203.816083251955
 31
0.0
  0
LINE
  5
2C4
330
1F
100
AcDbEntity
  8
HEWI
  6
CUSTOM
370
     9
100
AcDbLine
 10
1239.3468580132
 20
1203.806467757938
 30
0.0
 11
1239.442060281287
 21
1203.801020492045
 31
0.0
  0
LWPOLYLINE
  5
2C5
330
1F
100
AcDbEntity
  8
HEWI
  6
CUSTOM
370
     9
100
AcDbPolyline
 90
        3
 70
     0
 43
0.0
 10
1239.698863924634
 20
1203.783869106885
 10
1239.705953610695
 20
1203.78333562105
 10
1239.713265875593
 20
1203.782792693635
  0
LINE
  5
2C6
330
1F
100
AcDbEntity
  8
HEWI
  6
CUSTOM
370
     9
100
AcDbLine
 10
1239.314670270424
 20
1203.808125829805
 30
0.0
 11
1239.344220137644
 21
1203.806607988862
 31
0.0
  0
LINE
  5
2C7
330
1F
100
AcDbEntity
  8
HEWI
  6
CUSTOM
370
     9
100
AcDbLine
 10
1238.939034585015
 20
1203.823189165174
 30
0.0
 11
1238.993048469318
 21
1203.821603235078
 31
0.0
  0
LINE
  5
2C8
330
1F
100
AcDbEntity
  8
HEWI
  6
CUSTOM
370
     9
100
AcDbLine
 10
1238.824939669574
 20
1203.826073782777
 30
0.0
 11
1238.888247579025
 21
1203.824634425844
 31
0.0
  0
LINE
  5
2C9
330
1F
100
AcDbEntity
  8
HEWI
  6
CUSTOM
370
     9
100
AcDbLine
 10
394.4641318343797
 20
1276.782716284738
 30
0.0
 11
394.4641295915449
 21
1269.532716241448
 31
0.0
  0
LINE
  5
2CA
330
1F
100
AcDbEntity
  8
HEWI
  6
CUSTOM
370
     9
100
AcDbLine
 10
1238.612259371167
 20
1203.829406273285
 30
0.0
 11
1238.727137040115
 21
1203.827902532759
 31
0.0
  0
LINE
  5
2CB
330
1F
100
AcDbEntity
  8
HEWI
  6
CUSTOM
370
     9
100
AcDbLine
 10
394.4641295915449
 20
1039.032714865115
 30
0.0
 11
394.4641318343797
 21
1057.53271497558
 31
0.0
  0
LWPOLYLINE
  5
2CC
330
1F
100
AcDbEntity
  8
HEWI
  6
CUSTOM
370
     9
100
AcDbPolyline
 90
       16
 70
     0
 43
0.0
 10
411.0641326544907
 20
1247.023836332199
 10
435.464133870651
 20
1247.023836258138
 10
440.906440416546
 20
1246.363020632905
 10
446.0324598879728
 20
1244.41897795938
 10
450.5442866655748
 20
1241.304688931439
 10
454.179709776861
 20
1237.201144707406
 10
456.7274516448292
 20
1232.346828361807
 10
458.0394467727769
 20
1227.023855115924
 10
458.0394467727769
 20
1221.541576826589
 10
456.7274516448292
 20
1216.218603580706
 10
454.179709776861
 20
1211.364287235106
 10
450.5442866655748
 20
1207.260743011075
 10
446.0324598879728
 20
1204.146453983133
 10
440.906440416546
 20
1202.202411309608
 10
435.464133870651
 20
1201.541595684375
 10
411.0641320270121
 20
1201.541595610307
  0
LINE
  5
2CD
330
1F
100
AcDbEntity
  8
HEWI
  6
CUSTOM
370
     9
100
AcDbLine
 10
394.4641317609683
 20
1251.032716130984
 30
0.0
 11
394.4641295915449
 21
1251.032716130984
 31
0.0
  0
LINE
  5
2CE
330
1F
100
AcDbEntity
  8
HEWI
  6
CUSTOM
370
     9
100
AcDbLine
 10
394.4641295915449
 20
1145.032715498049
 30
0.0
 11
394.4641318343797
 21
1126.614783049352
 31
0.0
  0
LWPOLYLINE
  5
2CF
330
1F
100
AcDbEntity
  8
HEWI
  6
CUSTOM
370
     9
100
AcDbPolyline
 90
       17
 70
     0
 43
0.0
 10
394.4641318343797
 20
1039.032714865115
 10
394.4641318343797
 20
1038.994256170923
 10
394.4641318343797
 20
1038.880424747286
 10
394.4641318343797
 20
1038.65068842106
 10
394.4641318343797
 20
1038.331552325383
 10
394.4641318343797
 20
1037.940650056959
 10
394.4641318343797
 20
1037.499580592046
 10
394.4641318343797
 20
1037.032714853173
 10
394.4641318343797
 20
1033.582714832572
 10
394.4641318343797
 20
1032.412172893486
 10
394.4641318343797
 20
1031.286614224671
 10
394.4641318343797
 20
1030.056003297759
 10
394.4641318343797
 20
1029.020279011729
 10
394.4641318343797
 20
1028.236675655521
 10
394.4641318343797
 20
1027.74849527535
 10
394.4641318343797
 20
1027.582714796746
 10
394.5641318371113
 20
1027.582714796746
  0
LINE
  5
2D0
330
1F
100
AcDbEntity
  8
HEWI
  6
CUSTOM
370
     9
100
AcDbLine
 10
394.5641319227929
 20
1057.532727939552
 30
0.0
 11
394.4641318343797
 21
1057.53271497558
 31
0.0
  0
LINE
  5
2D1
330
1F
100
AcDbEntity
  8
HEWI
  6
CUSTOM
370
     9
100
AcDbLine
 10
394.4641318343797
 20
1246.937958118127
 30
0.0
 11
394.4641295915449
 21
1251.032716130984
 31
0.0
  0
LINE
  5
2D3
330
1F
100
AcDbEntity
  8
HEWI
  6
CUSTOM
370
     9
100
AcDbLine
 10
394.4641318343797
 20
1163.532715608513
 30
0.0
 11
394.4641318343797
 21
1251.032716130984
 31
0.0
  0
LINE
  5
2D4
330
1F
100
AcDbEntity
  8
HEWI
  6
CUSTOM
370
     9
100
AcDbLine
 10
394.5641319479043
 20
1039.032714865115
 30
0.0
 11
394.4641317609683
 21
1039.032714865115
 31
0.0
  0
LINE
  5
2D5
330
1F
100
AcDbEntity
  8
HEWI
  6
CUSTOM
370
     9
100
AcDbLine
 10
394.5641319227929
 20
1163.532728572485
 30
0.0
 11
394.4641318343797
 21
1163.532715608513
 31
0.0
  0
LINE
  5
2D6
330
1F
100
AcDbEntity
  8
HEWI
  6
CUSTOM
370
     9
100
AcDbLine
 10
410.9641326538551
 20
1245.274152643594
 30
0.0
 11
410.9641326538551
 21
1203.291279298918
 31
0.0
  0
LINE
  5
2D7
330
1F
100
AcDbEntity
  8
HEWI
  6
CUSTOM
370
     9
100
AcDbLine
 10
394.4641295915449
 20
1163.532715608513
 30
0.0
 11
394.4641318343797
 21
1145.032715498049
 31
0.0
  0
LINE
  5
2D8
330
1F
100
AcDbEntity
  8
HEWI
  6
CUSTOM
370
     9
100
AcDbLine
 10
394.4641317609683
 20
1145.032715498049
 30
0.0
 11
394.4641295915449
 21
1145.032715498049
 31
0.0
  0
LINE
  5
2D9
330
1F
100
AcDbEntity
  8
HEWI
  6
CUSTOM
370
     9
100
AcDbLine
 10
394.4641318343797
 20
1145.032715498049
 30
0.0
 11
394.5641318445619
 21
1145.032702534088
 31
0.0
  0
LINE
  5
2DA
330
1F
100
AcDbEntity
  8
HEWI
  6
CUSTOM
370
     9
100
AcDbLine
 10
394.4641317609683
 20
1039.032714865115
 30
0.0
 11
394.4641295915449
 21
1039.032714865115
 31
0.0
  0
LINE
  5
2DB
330
1F
100
AcDbEntity
  8
HEWI
  6
CUSTOM
370
     9
100
AcDbLine
 10
394.4641295915449
 20
1269.532716241448
 30
0.0
 11
394.56413184137
 21
1269.532716241448
 31
0.0
  0
LINE
  5
2DC
330
1F
100
AcDbEntity
  8
HEWI
  6
CUSTOM
370
     9
100
AcDbLine
 10
394.4641318343797
 20
1057.53271497558
 30
0.0
 11
394.4641318343797
 21
1145.032715498049
 31
0.0
  0
LINE
  5
2DD
330
1F
100
AcDbEntity
  8
HEWI
  6
CUSTOM
370
     9
100
AcDbLine
 10
394.4641318343797
 20
1251.032716130984
 30
0.0
 11
394.5641318445619
 21
1251.032703167021
 31
0.0
  0
LINE
  5
2DE
330
1F
100
AcDbEntity
  8
HEWI
  6
CUSTOM
370
     9
100
AcDbLine
 10
394.4641295915449
 20
1039.032714865115
 30
0.0
 11
394.4641318343797
 21
1031.782714821825
 31
0.0
  0
LINE
  5
2DF
330
1F
100
AcDbEntity
  8
HEWI
  6
CUSTOM
370
     9
100
AcDbLine
 10
394.4641295915449
 20
1163.532715608513
 30
0.0
 11
394.4641318343797
 21
1163.532715608513
 31
0.0
  0
LWPOLYLINE
  5
2EA
330
1F
100
AcDbEntity
  8
HEWI
  6
CUSTOM
370
     9
100
AcDbPolyline
 90
        7
 70
     0
 43
0.0
 10
411.0641326588156
 20
1201.532715835415
 10
411.0641326588156
 20
1201.539496233507
 10
411.0641326588156
 20
1201.658140906715
 10
411.0641326588156
 20
1201.816333804323
 10
411.0641326588156
 20
1205.191115619989
 10
411.0641326588156
 20
1214.1905337951
 10
411.0641326588156
 20
1247.01865063051
  0
LWPOLYLINE
  5
2EB
330
1F
100
AcDbEntity
  8
HEWI
  6
CUSTOM
370
     9
100
AcDbPolyline
 90
       38
 70
     0
 43
0.0
 10
411.0641326588156
 20
1247.366258165669
 10
411.0641326588156
 20
1248.614767601738
 10
411.0641326588156
 20
1250.279446849831
 10
411.0641326588156
 20
1254.718591511414
 10
411.0641326588156
 20
1272.282716257868
 10
410.7758036345865
 20
1274.841707013646
 10
409.9252745831318
 20
1277.272379287514
 10
408.5551945825911
 20
1279.452849022057
 10
406.7342651651475
 20
1281.273778359937
 10
404.5537953353305
 20
1282.643858300613
 10
402.1231229552563
 20
1283.494387314905
 10
399.5641320876666
 20
1283.782716326536
 10
394.5641318393407
 20
1283.782716326536
 10
394.5641318393407
 20
1283.757644238568
 10
394.5641318393407
 20
1283.683685193847
 10
394.5641318393407
 20
1283.564547807701
 10
394.5641318393407
 20
1283.406206126146
 10
394.5641318393407
 20
1283.216600062273
 10
394.5641318393407
 20
1283.00523725585
 10
394.5641318393407
 20
1282.782716320564
 10
394.5641318393407
 20
1025.782714785998
 10
394.5641318393407
 20
1025.560193850713
 10
394.5641318393407
 20
1025.34883104429
 10
394.5641318393407
 20
1025.159224980416
 10
394.5641318393407
 20
1025.000883298861
 10
394.5641318393407
 20
1024.881745912717
 10
394.5641318393407
 20
1024.807786867995
 10
394.5641318393407
 20
1024.782714780027
 10
399.5641320876666
 20
1024.782714780027
 10
402.1231229552563
 20
1025.071043791657
 10
404.5537953353305
 20
1025.921572805949
 10
406.7342651651475
 20
1027.291652746625
 10
408.5551945825911
 20
1029.112582084505
 10
409.9252745831318
 20
1031.293051819049
 10
410.7758036345865
 20
1033.723724092917
 10
411.0641326588156
 20
1036.282714848694
 10
411.0641326588156
 20
1118.902763337517
 10
411.0641326588156
 20
1201.522811826337
  0
LINE
  5
2EC
330
1F
100
AcDbEntity
  8
HEWI
  6
CUSTOM
370
     9
100
AcDbLine
 10
411.0641326588156
 20
1201.522811826337
 30
0.0
 11
411.0641326588156
 21
1201.532715835415
 31
0.0
  0
LINE
  5
2ED
330
1F
100
AcDbEntity
  8
HEWI
  6
CUSTOM
370
     9
100
AcDbLine
 10
411.0641326588156
 20
1247.032716107099
 30
0.0
 11
411.0641326588156
 21
1247.044376826682
 31
0.0
  0
LINE
  5
2F0
330
1F
100
AcDbEntity
  8
HEWI
  6
CUSTOM
370
     9
100
AcDbLine
 10
411.0631326587663
 20
1201.540909028122
 30
0.0
 11
411.0631326587663
 21
1201.532715835415
 31
0.0
  0
LINE
  5
2F2
330
1F
100
AcDbEntity
  8
HEWI
  6
CUSTOM
370
     9
100
AcDbLine
 10
411.0641326588156
 20
1247.044376826682
 30
0.0
 11
411.0641326588156
 21
1247.132162646405
 31
0.0
  0
LINE
  5
2F3
330
1F
100
AcDbEntity
  8
HEWI
  6
CUSTOM
370
     9
100
AcDbLine
 10
411.0641326588156
 20
1247.132162646405
 30
0.0
 11
411.0641326588156
 21
1247.366258165669
 31
0.0
  0
LWPOLYLINE
  5
2F4
330
1F
100
AcDbEntity
  8
HEWI
  6
CUSTOM
370
     9
100
AcDbPolyline
 90
        4
 70
     0
 43
0.0
 10
411.0631326587663
 20
1247.032716107099
 10
411.0631326587663
 20
1247.017734725709
 10
411.0631326587663
 20
1247.001308804787
 10
411.0631326587663
 20
1246.957506348991
  0
LWPOLYLINE
  5
2F5
330
1F
100
AcDbEntity
  8
HEWI
  6
CUSTOM
370
     9
100
AcDbPolyline
 90
        3
 70
     0
 43
0.0
 10
411.0635424047455
 20
1246.840699800205
 10
410.0641326091504
 20
1247.042716107159
 10
411.0631326587663
 20
1247.032716107099
  0
LWPOLYLINE
  5
2F6
330
1F
100
AcDbEntity
  8
HEWI
  6
CUSTOM
370
     9
100
AcDbPolyline
 90
        3
 70
     0
 43
0.0
 10
411.0631326587663
 20
1201.532715835415
 10
410.0641326091504
 20
1201.520399784988
 10
411.0641326588156
 20
1201.522811826337
  0
LINE
  5
2F7
330
1F
100
AcDbEntity
  8
HEWI
  6
CUSTOM
370
     9
100
AcDbLine
 10
411.0641326588156
 20
1247.01865063051
 30
0.0
 11
411.0641326588156
 21
1247.032716107099
 31
0.0
  0
LINE
  5
2F8
330
1F
100
AcDbEntity
  8
HEWI
  6
CUSTOM
370
     9
100
AcDbLine
 10
411.0641326588156
 20
1247.01865063051
 30
0.0
 11
411.0641024209034
 21
1246.840699800205
 31
0.0
  0
LINE
  5
2F9
330
1F
100
AcDbEntity
  8
HEWI
  6
CUSTOM
370
     9
100
AcDbLine
 10
411.0631326587663
 20
1247.032716107099
 30
0.0
 11
411.0635424047455
 21
1246.840699800205
 31
0.0
  0
LWPOLYLINE
  5
2FA
330
1F
100
AcDbEntity
  8
HEWI
  6
CUSTOM
370
     9
100
AcDbPolyline
 90
        4
 70
     0
 43
0.0
 10
411.0641326588156
 20
1247.366258165669
 10
410.0641326091504
 20
1247.369727055327
 10
410.6938115287948
 20
1247.036413021449
 10
411.0635424047455
 20
1246.840699800205
  0
LINE
  5
2FB
330
1F
100
AcDbEntity
  8
HEWI
  6
CUSTOM
370
     9
100
AcDbLine
 10
411.0641326588156
 20
1247.032716107099
 30
0.0
 11
411.0641024209034
 21
1246.840699800205
 31
0.0
  0
LINE
  5
2FC
330
1F
100
AcDbEntity
  8
HEWI
  6
CUSTOM
370
     9
100
AcDbLine
 10
411.0641024209034
 20
1246.840699800205
 30
0.0
 11
411.0641326588156
 21
1247.132162646405
 31
0.0
  0
LINE
  5
2FD
330
1F
100
AcDbEntity
  8
HEWI
  6
CUSTOM
370
     9
100
AcDbLine
 10
411.0640178249607
 20
1246.840699800205
 30
0.0
 11
411.0641326588156
 21
1247.366258165669
 31
0.0
  0
LINE
  5
2FE
330
1F
100
AcDbEntity
  8
HEWI
  6
CUSTOM
370
     9
100
AcDbLine
 10
411.0641326588156
 20
1201.532715835415
 30
0.0
 11
411.0631326587663
 21
1201.532715835415
 31
0.0
  0
LINE
  5
2FF
330
1F
100
AcDbEntity
  8
HEWI
  6
CUSTOM
370
     9
100
AcDbLine
 10
411.0641024209034
 20
1246.840699800205
 30
0.0
 11
411.0640178249607
 21
1246.840699800205
 31
0.0
  0
LINE
  5
300
330
1F
100
AcDbEntity
  8
HEWI
  6
CUSTOM
370
     9
100
AcDbLine
 10
411.0641326588156
 20
1247.044376826682
 30
0.0
 11
411.0641024209034
 21
1246.840699800205
 31
0.0
  0
LINE
  5
538
330
1F
100
AcDbEntity
  8
HEWI
  6
CUSTOM
370
     9
100
AcDbLine
 10
56.01959680289269
 20
1247.018648202161
 30
0.0
 11
56.01959680289269
 21
1247.032713678595
 31
0.0
  0
LINE
  5
539
330
1F
100
AcDbEntity
  8
HEWI
  6
CUSTOM
370
     9
100
AcDbLine
 10
56.01959680289269
 20
1201.532713904085
 30
0.0
 11
56.01959680289269
 21
1201.539494302104
 31
0.0
  0
LWPOLYLINE
  5
53B
330
1F
100
AcDbEntity
  8
HEWI
  6
CUSTOM
370
     9
100
AcDbPolyline
 90
       50
 70
     0
 43
0.0
 10
56.01859680289544
 20
1201.520397853794
 10
56.01859680289544
 20
1201.51356143949
 10
56.01859680289544
 20
1201.495331001348
 10
56.01859680289544
 20
1201.398101997924
 10
56.01859680289544
 20
1201.268463326692
 10
56.01859680289544
 20
1200.922760203404
 10
56.01859680289544
 20
1199.079010212542
 10
56.01859680289544
 20
1189.245676927941
 10
56.01859680289544
 20
1176.134565881806
 10
56.01859680289544
 20
1141.171603092113
 10
56.01859680289544
 20
1036.282714723035
 10
56.01859680289544
 20
1033.946244928073
 10
56.01859680289544
 20
1031.726935484879
 10
56.01859680289544
 20
1029.736071835964
 10
56.01859680289544
 20
1028.073484197805
 10
56.01859680289544
 20
1026.822541656943
 10
56.01859680289544
 20
1026.045971695858
 10
56.01859680289544
 20
1025.782714775072
 10
56.04366889064909
 20
1025.560193842218
 10
56.11762793473679
 20
1025.348831038104
 10
56.23676531986302
 20
1025.159224976303
 10
56.39510700006258
 20
1025.000883296478
 10
56.58471306231286
 20
1024.881745911634
 10
56.79607586692691
 20
1024.807786867721
 10
57.01859680030793
 20
1024.782714780027
 10
133.0185966036213
 20
1024.782714780027
 10
133.2411175370023
 20
1024.807786867721
 10
133.4524803416158
 20
1024.881745911634
 10
133.6420864038673
 20
1025.000883296478
 10
133.8004280840661
 20
1025.159224976303
 10
133.9195654691924
 20
1025.348831038104
 10
133.9935245132808
 20
1025.560193842218
 10
134.0185966010338
 20
1025.782714775072
 10
134.0185966010338
 20
1026.045971695858
 10
134.0185966010338
 20
1026.822541656943
 10
134.0185966010338
 20
1028.073484197805
 10
134.0185966010338
 20
1029.736071835964
 10
134.0185966010338
 20
1031.726935484879
 10
134.0185966010338
 20
1033.946244928073
 10
134.0185966010338
 20
1036.282714723035
 10
134.0185966010338
 20
1141.171603092113
 10
134.0185966010338
 20
1176.134565881806
 10
134.0185966010338
 20
1189.245676927941
 10
134.0185966010338
 20
1199.079010212542
 10
134.0185966010338
 20
1200.922760203404
 10
134.0185966010338
 20
1201.268463326692
 10
134.0185966010338
 20
1201.398101997924
 10
134.0185966010338
 20
1201.495331001348
 10
134.0185966010338
 20
1201.51356143949
 10
134.0185966010338
 20
1201.520397853794
  0
LWPOLYLINE
  5
53D
330
1F
100
AcDbEntity
  8
HEWI
  6
CUSTOM
370
     9
100
AcDbPolyline
 90
       34
 70
     0
 43
0.0
 10
134.0185966010338
 20
1247.369724623141
 10
134.0185966010338
 20
1259.650222925415
 10
134.0185966010338
 20
1272.282713553461
 10
134.0185966010338
 20
1274.619183348423
 10
134.0185966010338
 20
1276.838492791618
 10
134.0185966010338
 20
1278.829356440534
 10
134.0185966010338
 20
1280.491944078692
 10
134.0185966010338
 20
1281.742886619554
 10
134.0185966010338
 20
1282.519456580639
 10
134.0185966010338
 20
1282.782713501424
 10
133.9935245132808
 20
1283.005234434278
 10
133.9195654691924
 20
1283.216597238392
 10
133.8004280840661
 20
1283.406203300194
 10
133.6420864038673
 20
1283.564544980018
 10
133.4524803416163
 20
1283.683682364862
 10
133.2411175370023
 20
1283.757641408775
 10
133.0185966036213
 20
1283.782713496469
 10
57.01859680030793
 20
1283.782713496469
 10
56.79607586692691
 20
1283.757641408775
 10
56.58471306231286
 20
1283.683682364862
 10
56.39510700006258
 20
1283.564544980018
 10
56.23676531986302
 20
1283.406203300194
 10
56.11762793473679
 20
1283.216597238392
 10
56.04366889064909
 20
1283.005234434278
 10
56.01859680289544
 20
1282.782713501424
 10
56.01859680289544
 20
1282.519456580639
 10
56.01859680289544
 20
1281.742886619554
 10
56.01859680289544
 20
1280.491944078692
 10
56.01859680289544
 20
1278.829356440534
 10
56.01859680289544
 20
1276.838492791618
 10
56.01859680289544
 20
1274.619183348423
 10
56.01859680289544
 20
1272.282713553461
 10
56.01859680289544
 20
1259.650222925415
 10
56.01859680289544
 20
1247.369724623141
  0
LINE
  5
53E
330
1F
100
AcDbEntity
  8
HEWI
  6
CUSTOM
370
     9
100
AcDbLine
 10
134.017596601036
 20
1247.032713678595
 30
0.0
 11
134.017596601036
 21
1247.018648202161
 31
0.0
  0
LINE
  5
53F
330
1F
100
AcDbEntity
  8
HEWI
  6
CUSTOM
370
     9
100
AcDbLine
 10
134.017596601036
 20
1201.539494302104
 30
0.0
 11
134.017596601036
 21
1201.532713904085
 31
0.0
  0
LWPOLYLINE
  5
542
330
1F
100
AcDbEntity
  8
HEWI
  6
CUSTOM
370
     9
100
AcDbPolyline
 90
        4
 70
     0
 43
0.0
 10
56.01859680289544
 20
1247.01773229737
 10
56.01859680289544
 20
1247.001306376626
 10
56.01859680289544
 20
1246.95750392131
 10
56.01859680289544
 20
1246.8406973738
  0
LWPOLYLINE
  5
543
330
1F
100
AcDbEntity
  8
HEWI
  6
CUSTOM
370
     9
100
AcDbPolyline
 90
        5
 70
     0
 43
0.0
 10
56.01859680289544
 20
1247.369724623141
 10
56.01859680289544
 20
1247.193728460256
 10
56.01859680289544
 20
1247.105730378813
 10
56.01859680289544
 20
1247.061731338091
 10
56.01859680289544
 20
1247.042713678546
  0
LINE
  5
544
330
1F
100
AcDbEntity
  8
HEWI
  6
CUSTOM
370
     9
100
AcDbLine
 10
56.01859680289544
 20
1247.032713678595
 30
0.0
 11
56.01859680289544
 21
1247.01773229737
 31
0.0
  0
LINE
  5
545
330
1F
100
AcDbEntity
  8
HEWI
  6
CUSTOM
370
     9
100
AcDbLine
 10
56.01859680289544
 20
1247.042713678546
 30
0.0
 11
56.01859680289544
 21
1247.032713678595
 31
0.0
  0
LINE
  5
546
330
1F
100
AcDbEntity
  8
HEWI
  6
CUSTOM
370
     9
100
AcDbLine
 10
56.01859680289544
 20
1201.532713904085
 30
0.0
 11
56.01859680289544
 21
1201.520397853794
 31
0.0
  0
LWPOLYLINE
  5
547
330
1F
100
AcDbEntity
  8
HEWI
  6
CUSTOM
370
     9
100
AcDbPolyline
 90
        3
 70
     0
 43
0.0
 10
56.01859680289544
 20
1203.291276672717
 10
56.01859680289544
 20
1201.540907096703
 10
56.01859680289544
 20
1201.532713904085
  0
LWPOLYLINE
  5
548
330
1F
100
AcDbEntity
  8
HEWI
  6
CUSTOM
370
     9
100
AcDbPolyline
 90
        3
 70
     0
 43
0.0
 10
56.01859680289544
 20
1246.8406973738
 10
56.01859680289544
 20
1245.594760867028
 10
56.01859680289544
 20
1245.274150238629
  0
LINE
  5
549
330
1F
100
AcDbEntity
  8
HEWI
  6
CUSTOM
370
     9
100
AcDbLine
 10
56.01959680289269
 20
1247.018648202161
 30
0.0
 11
56.01935275066466
 21
1246.8406973738
 31
0.0
  0
LINE
  5
54A
330
1F
100
AcDbEntity
  8
HEWI
  6
CUSTOM
370
     9
100
AcDbLine
 10
56.01959680289269
 20
1247.032713678595
 30
0.0
 11
56.01935275066466
 21
1246.8406973738
 31
0.0
  0
LINE
  5
54B
330
1F
100
AcDbEntity
  8
HEWI
  6
CUSTOM
370
     9
100
AcDbLine
 10
56.01859680289544
 20
1247.369724623141
 30
0.0
 11
56.01868460321918
 21
1246.8406973738
 31
0.0
  0
LINE
  5
54C
330
1F
100
AcDbEntity
  8
HEWI
  6
CUSTOM
370
     9
100
AcDbLine
 10
56.01959680289269
 20
1201.532713904085
 30
0.0
 11
56.01859680289544
 21
1201.532713904085
 31
0.0
  0
LINE
  5
54D
330
1F
100
AcDbEntity
  8
HEWI
  6
CUSTOM
370
     9
100
AcDbLine
 10
56.01859680289544
 20
1247.042713678546
 30
0.0
 11
56.01868460321918
 21
1246.8406973738
 31
0.0
  0
LINE
  5
54E
330
1F
100
AcDbEntity
  8
HEWI
  6
CUSTOM
370
     9
100
AcDbLine
 10
56.01935275066466
 20
1246.8406973738
 30
0.0
 11
56.01913152782845
 21
1246.8406973738
 31
0.0
  0
LWPOLYLINE
  5
550
330
1F
100
AcDbEntity
  8
HEWI
  6
CUSTOM
370
     9
100
AcDbPolyline
 90
        5
 70
     0
 43
0.0
 10
134.0185966010338
 20
1247.042713678546
 10
134.0185966010338
 20
1247.061731338091
 10
134.0185966010338
 20
1247.105730378813
 10
134.0185966010338
 20
1247.193728460256
 10
134.0185966010338
 20
1247.369724623141
  0
LINE
  5
551
330
1F
100
AcDbEntity
  8
HEWI
  6
CUSTOM
370
     9
100
AcDbLine
 10
134.0178406532644
 20
1246.8406973738
 30
0.0
 11
134.017596601036
 21
1247.032713678595
 31
0.0
  0
LINE
  5
552
330
1F
100
AcDbEntity
  8
HEWI
  6
CUSTOM
370
     9
100
AcDbLine
 10
134.0185088007094
 20
1246.8406973738
 30
0.0
 11
134.0185966010338
 21
1247.042713678546
 31
0.0
  0
LWPOLYLINE
  5
553
330
1F
100
AcDbEntity
  8
HEWI
  6
CUSTOM
370
     9
100
AcDbPolyline
 90
        4
 70
     0
 43
0.0
 10
134.0185966010338
 20
1246.8406973738
 10
134.0185966010338
 20
1246.95750392131
 10
134.0185966010338
 20
1247.001306376626
 10
134.0185966010338
 20
1247.01773229737
  0
LINE
  5
554
330
1F
100
AcDbEntity
  8
HEWI
  6
CUSTOM
370
     9
100
AcDbLine
 10
134.0185088007094
 20
1246.8406973738
 30
0.0
 11
134.0185966010338
 21
1247.369724623141
 31
0.0
  0
LINE
  5
555
330
1F
100
AcDbEntity
  8
HEWI
  6
CUSTOM
370
     9
100
AcDbLine
 10
134.0178406532644
 20
1246.8406973738
 30
0.0
 11
134.0180618761009
 21
1246.8406973738
 31
0.0
  0
LINE
  5
556
330
1F
100
AcDbEntity
  8
HEWI
  6
CUSTOM
370
     9
100
AcDbLine
 10
134.0185966010338
 20
1247.032713678595
 30
0.0
 11
134.0185966010338
 21
1247.042713678546
 31
0.0
  0
LINE
  5
557
330
1F
100
AcDbEntity
  8
HEWI
  6
CUSTOM
370
     9
100
AcDbLine
 10
134.0178406532644
 20
1246.8406973738
 30
0.0
 11
134.017596601036
 21
1247.018648202161
 31
0.0
  0
LINE
  5
558
330
1F
100
AcDbEntity
  8
HEWI
  6
CUSTOM
370
     9
100
AcDbLine
 10
134.0185966010338
 20
1201.532713904085
 30
0.0
 11
134.017596601036
 21
1201.532713904085
 31
0.0
  0
LWPOLYLINE
  5
559
330
1F
100
AcDbEntity
  8
HEWI
  6
CUSTOM
370
     9
100
AcDbPolyline
 90
        3
 70
     0
 43
0.0
 10
134.0185966010338
 20
1201.532713904085
 10
134.0185966010338
 20
1201.540907096703
 10
134.0185966010338
 20
1203.291277369511
  0
LINE
  5
55A
330
1F
100
AcDbEntity
  8
HEWI
  6
CUSTOM
370
     9
100
AcDbLine
 10
134.0185966010338
 20
1201.520397853794
 30
0.0
 11
134.0185966010338
 21
1201.532713904085
 31
0.0
  0
LWPOLYLINE
  5
55B
330
1F
100
AcDbEntity
  8
HEWI
  6
CUSTOM
370
     9
100
AcDbPolyline
 90
        3
 70
     0
 43
0.0
 10
134.0185966010338
 20
1245.274150040593
 10
134.0185966010338
 20
1245.594760867028
 10
134.0185966010338
 20
1246.8406973738
  0
LINE
  5
55C
330
1F
100
AcDbEntity
  8
HEWI
  6
CUSTOM
370
     9
100
AcDbLine
 10
134.0185966010338
 20
1247.01773229737
 30
0.0
 11
134.0185966010338
 21
1247.032713678595
 31
0.0
  0
LINE
  5
55E
330
1F
100
AcDbEntity
  8
HEWI
  6
CUSTOM
370
     9
100
AcDbLine
 10
72.51859676019399
 20
1244.532713690985
 30
0.0
 11
72.31859676518195
 21
1244.532713690985
 31
0.0
  0
LINE
  5
560
330
1F
100
AcDbEntity
  8
HEWI
  6
CUSTOM
370
     9
100
AcDbLine
 10
72.31859680243485
 20
1204.032713891696
 30
0.0
 11
72.51859676019399
 21
1204.032713891696
 31
0.0
  0
LINE
  5
562
330
1F
100
AcDbEntity
  8
HEWI
  6
CUSTOM
370
     9
100
AcDbLine
 10
117.5185966437352
 20
1204.032713891696
 30
0.0
 11
117.7185966387472
 21
1204.032713891696
 31
0.0
  0
LINE
  5
563
330
1F
100
AcDbEntity
  8
HEWI
  6
CUSTOM
370
     9
100
AcDbLine
 10
117.7185966014942
 20
1244.532713690985
 30
0.0
 11
117.5185966437352
 21
1244.532713690985
 31
0.0
  0
LINE
  5
564
330
1F
100
AcDbEntity
  8
HEWI
  6
CUSTOM
370
     9
100
AcDbLine
 10
111.0396549328361
 20
1224.229238591121
 30
0.0
 11
111.0396357483891
 21
1224.229396771576
 31
0.0
  0
LWPOLYLINE
  5
579
330
1F
100
AcDbEntity
  8
HEWI
  6
CUSTOM
370
     9
100
AcDbPolyline
 90
        4
 70
     0
 43
0.0
 10
89.5827481829915
 20
1188.392624586503
 10
88.50080028640617
 20
1189.374918318076
 10
87.87656178684882
 20
1190.113625196413
 10
87.43013845577252
 20
1190.800758356724
  0
LWPOLYLINE
  5
57A
330
1F
100
AcDbEntity
  8
HEWI
  6
CUSTOM
370
     9
100
AcDbPolyline
 90
        8
 70
     0
 43
0.0
 10
91.59488396404924
 20
1191.365831161285
 10
91.72317082286133
 20
1191.28324701337
 10
91.74507429901769
 20
1191.269290306213
 10
93.33755770125163
 20
1191.080045104313
 10
95.01859670196518
 20
1191.006402978844
 10
95.85233326928994
 20
1191.025119855076
 10
96.67163520265638
 20
1191.077534330861
 10
98.17990381021481
 20
1191.252294427429
  0
LWPOLYLINE
  5
57B
330
1F
100
AcDbEntity
  8
HEWI
  6
CUSTOM
370
     9
100
AcDbPolyline
 90
       25
 70
     0
 43
0.0
 10
89.42477885923267
 20
1188.536043945059
 10
89.50903656407502
 20
1188.435726517712
 10
89.54215468435632
 20
1188.406840693722
 10
89.89060387904624
 20
1188.145256993864
 10
90.97222400487202
 20
1187.476468033202
 10
91.08368090271005
 20
1187.418648652787
 10
91.98975264126103
 20
1187.017084248666
 10
92.07874798376691
 20
1186.983914033199
 10
92.99339188240276
 20
1186.704033574775
 10
93.49675121266761
 20
1186.595877491943
 10
93.96701454836568
 20
1186.523716588121
 10
94.57138285883718
 20
1186.470406602708
 10
95.06453417364207
 20
1186.458815713691
 10
95.6553784192364
 20
1186.482382201402
 10
96.26582414355652
 20
1186.550335919749
 10
96.60808953042147
 20
1186.608530700606
 10
97.41834054658717
 20
1186.805564459629
 10
97.52324109167956
 20
1186.837235736303
 10
98.38122014132842
 20
1187.151473887176
 10
98.3873786624539
 20
1187.154095913886
 10
99.26658815183044
 20
1187.586052903576
 10
99.41406465175226
 20
1187.67036172554
 10
100.4299917749256
 20
1188.35609745794
 10
100.4633963144392
 20
1188.385835188362
 10
100.5014838894501
 20
1188.44292728809
  0
LWPOLYLINE
  5
57C
330
1F
100
AcDbEntity
  8
HEWI
  6
CUSTOM
370
     9
100
AcDbPolyline
 90
       13
 70
     0
 43
0.0
 10
100.386608260484
 20
1188.340153386142
 10
101.4959382014149
 20
1189.332619486916
 10
102.3190349295179
 20
1190.307059077642
 10
102.3415156970567
 20
1190.346494361317
 10
102.3893717634162
 20
1190.440224152064
 10
102.7184088723255
 20
1190.963410241387
 10
102.7406047303057
 20
1191.001236120296
 10
102.7551190210238
 20
1191.042713130362
 10
102.8303752536817
 20
1191.295000502257
 10
102.944488447507
 20
1191.5002118148
 10
102.959932939161
 20
1191.540314426033
 10
102.9685318989888
 20
1191.581940061655
 10
103.0047204796793
 20
1191.839984895795
  0
LWPOLYLINE
  5
57D
330
1F
100
AcDbEntity
  8
HEWI
  6
CUSTOM
370
     9
100
AcDbPolyline
 90
        4
 70
     0
 43
0.0
 10
101.4835257019392
 20
1189.321514598264
 10
101.5371934080874
 20
1189.357844744592
 10
101.5702254867949
 20
1189.391621923688
 10
101.6153009062975
 20
1189.473929421262
  0
LWPOLYLINE
  5
57E
330
1F
100
AcDbEntity
  8
HEWI
  6
CUSTOM
370
     9
100
AcDbPolyline
 90
        3
 70
     0
 43
0.0
 10
99.55937858585356
 20
1191.491030619208
 10
99.58504389912832
 20
1191.51139477322
 10
99.61878522740086
 20
1191.568208214878
  0
LINE
  5
57F
330
1F
100
AcDbEntity
  8
HEWI
  6
CUSTOM
370
     9
100
AcDbLine
 10
98.20129366910533
 20
1191.265968523673
 30
0.0
 11
98.21637422357651
 21
1191.302682486295
 31
0.0
  0
LWPOLYLINE
  5
580
330
1F
100
AcDbEntity
  8
HEWI
  6
CUSTOM
370
     9
100
AcDbPolyline
 90
        3
 70
     0
 43
0.0
 10
102.9000939183789
 20
1191.793622209563
 10
102.9316239058591
 20
1191.824232133098
 10
102.98639655752
 20
1191.892802221156
  0
LWPOLYLINE
  5
581
330
1F
100
AcDbEntity
  8
HEWI
  6
CUSTOM
370
     9
100
AcDbPolyline
 90
        3
 70
     0
 43
0.0
 10
87.09715243991036
 20
1191.679189474594
 10
87.07043120498827
 20
1191.712263281311
 10
87.0573614752916
 20
1191.734592999939
  0
LWPOLYLINE
  5
582
330
1F
100
AcDbEntity
  8
HEWI
  6
CUSTOM
370
     9
100
AcDbPolyline
 90
        4
 70
     0
 43
0.0
 10
87.87762030389206
 20
1190.112372576168
 10
87.85112619599614
 20
1190.133496807448
 10
87.82041093811825
 20
1190.165790663238
 10
87.79800373432966
 20
1190.205183140262
  0
LWPOLYLINE
  5
583
330
1F
100
AcDbEntity
  8
HEWI
  6
CUSTOM
370
     9
100
AcDbPolyline
 90
        3
 70
     0
 43
0.0
 10
90.30176491321412
 20
1191.526616822783
 10
90.27576906886315
 20
1191.54845703
 10
90.20512108220112
 20
1191.615530033533
  0
LWPOLYLINE
  5
584
330
1F
100
AcDbEntity
  8
HEWI
  6
CUSTOM
370
     9
100
AcDbPolyline
 90
        4
 70
     0
 43
0.0
 10
88.50329453023528
 20
1189.372653809344
 10
88.46809956353354
 20
1189.393125505096
 10
88.43591190907636
 20
1189.424341789372
 10
88.38224844674085
 20
1189.515209345756
  0
LWPOLYLINE
  5
585
330
1F
100
AcDbEntity
  8
HEWI
  6
CUSTOM
370
     9
100
AcDbPolyline
 90
        3
 70
     0
 43
0.0
 10
87.44875045536559
 20
1190.772110834553
 10
87.37556359870859
 20
1190.856101346483
 10
87.35332208802516
 20
1190.894114879992
  0
LINE
  5
586
330
1F
100
AcDbEntity
  8
HEWI
  6
CUSTOM
370
     9
100
AcDbLine
 10
102.8178639636638
 20
1191.253057922416
 30
0.0
 11
102.847385353042
 21
1191.325589994351
 31
0.0
  0
LINE
  5
587
330
1F
100
AcDbEntity
  8
HEWI
  6
CUSTOM
370
     9
100
AcDbLine
 10
98.21637422357651
 20
1191.302682486295
 30
0.0
 11
98.22107005676457
 21
1191.323236299512
 31
0.0
  0
LINE
  5
588
330
1F
100
AcDbEntity
  8
HEWI
  6
CUSTOM
370
     9
100
AcDbLine
 10
87.13260928154852
 20
1192.009510054853
 30
0.0
 11
87.16957039026135
 21
1191.885719821274
 31
0.0
  0
LINE
  5
589
330
1F
100
AcDbEntity
  8
HEWI
  6
CUSTOM
370
     9
100
AcDbLine
 10
87.0582830412801
 20
1191.674336341437
 30
0.0
 11
87.11570726628883
 21
1191.424860747192
 31
0.0
  0
LINE
  5
58A
330
1F
100
AcDbEntity
  8
HEWI
  6
CUSTOM
370
     9
100
AcDbLine
 10
98.22359248562896
 20
1191.323534284924
 30
0.0
 11
98.21637422357651
 21
1191.302682486295
 31
0.0
  0
LWPOLYLINE
  5
5CA
330
1F
100
AcDbEntity
  8
HEWI
  6
CUSTOM
370
     9
100
AcDbPolyline
 90
       28
 70
     0
 43
0.0
 10
83.0336920265031
 20
1201.559746421688
 10
72.51859676019399
 20
1201.698587017533
 10
72.51859676019399
 20
1203.011094375667
 10
72.51859676019399
 20
1205.559830935047
 10
72.51859676019399
 20
1209.196673391127
 10
72.51859676019399
 20
1213.710261679741
 10
72.51859676019399
 20
1218.838282455781
 10
72.51859676019399
 20
1224.28271379134
 10
72.51859676019399
 20
1229.727145126902
 10
72.51859676019399
 20
1234.855165902941
 10
72.51859676019399
 20
1239.368754191555
 10
72.51859676019399
 20
1243.005596647634
 10
72.51859676019399
 20
1245.554333207015
 10
72.51859676019399
 20
1246.866840565148
 10
117.5185966437352
 20
1246.866840565148
 10
117.5185966437352
 20
1245.554333207015
 10
117.5185966437352
 20
1243.005596647634
 10
117.5185966437352
 20
1239.368754191555
 10
117.5185966437352
 20
1234.855165902941
 10
117.5185966437352
 20
1229.727145126902
 10
117.5185966437352
 20
1224.28271379134
 10
117.5185966437352
 20
1218.838282455781
 10
117.5185966437352
 20
1213.710261679741
 10
117.5185966437352
 20
1209.196673391127
 10
117.5185966437352
 20
1205.559830935047
 10
117.5185966437352
 20
1203.011094375667
 10
117.5185966437352
 20
1201.698587017533
 10
107.0146655136282
 20
1201.559893832175
  0
LINE
  5
5D6
330
1F
100
AcDbEntity
  8
HEWI
  6
CUSTOM
370
     9
100
AcDbLine
 10
110.4032538526498
 20
1226.24261844192
 30
0.0
 11
111.0067187897735
 21
1224.357624828537
 31
0.0
  0
LWPOLYLINE
  5
5DE
330
1F
100
AcDbEntity
  8
HEWI
  6
CUSTOM
370
     9
100
AcDbPolyline
 90
       29
 70
     0
 43
0.0
 10
107.0146654257569
 20
1208.783259348638
 10
107.0146654257569
 20
1088.174675764176
 10
107.0036928268437
 20
1087.282714583678
 10
106.8574963915561
 20
1085.953808375311
 10
106.5599009302007
 20
1084.65599556438
 10
105.6757460042031
 20
1082.456015970005
 10
104.3790692837669
 20
1080.476773748346
 10
102.7157163373165
 20
1078.796162093079
 10
102.2703221956731
 20
1078.456676412443
 10
100.724473334371
 20
1077.451746792552
 10
100.0735420780304
 20
1077.122038386831
 10
98.5474096640844
 20
1076.53202859996
 10
97.64786776368191
 20
1076.292663189365
 10
96.22597542890311
 20
1076.061159229779
 10
95.09388284535157
 20
1075.999395224267
 10
93.86125852389374
 20
1076.055234189949
 10
92.54211437044887
 20
1076.259080741107
 10
91.53887870677181
 20
1076.517469006058
 10
90.09878330904928
 20
1077.059149893599
 10
89.35252807946744
 20
1077.428790412788
 10
87.88839847697692
 20
1078.363729853114
 10
87.35775194063227
 20
1078.769472115751
 10
85.66973238752098
 20
1080.456796847493
 10
84.36419555726741
 20
1082.443486006407
 10
83.48269572963886
 20
1084.641904545596
 10
83.05573886263301
 20
1086.970830894176
 10
83.03369167043275
 20
1088.418803590974
 10
83.03369167043275
 20
1106.526663794974
 10
83.03682567267435
 20
1108.607717585405
  0
LWPOLYLINE
  5
5E9
330
1F
100
AcDbEntity
  8
HEWI
  6
CUSTOM
370
     9
100
AcDbPolyline
 90
        7
 70
     0
 43
0.0
 10
83.04394353965291
 20
1208.9408410676
 10
83.02984075592531
 20
1208.89847401804
 10
83.02252797817175
 20
1208.839868499304
 10
83.03369167043275
 20
1207.830641113257
 10
83.03369167043275
 20
1205.589870354486
 10
83.15355284513293
 20
1204.396936574187
 10
83.15355284513293
 20
1201.275170451878
  0
LWPOLYLINE
  5
5EB
330
1F
100
AcDbEntity
  8
HEWI
  6
CUSTOM
370
     9
100
AcDbPolyline
 90
       21
 70
     0
 43
0.0
 10
83.12610175002509
 20
1204.670147169525
 10
83.03369167043275
 20
1202.468104232178
 10
83.03369167043275
 20
1201.301552108073
 10
83.03369167043275
 20
1200.151786261798
 10
83.03369167043275
 20
1199.182828713999
 10
83.03369167043275
 20
1198.123708352907
 10
83.03369167043275
 20
1197.184169623831
 10
83.03369167043275
 20
1193.634390256538
 10
83.03369167043275
 20
1190.826974602373
 10
83.03369167043275
 20
1190.086543700526
 10
83.03369167043275
 20
1189.224488925979
 10
83.02203257273106
 20
1188.009113468246
 10
83.0220778146794
 20
1187.820302040134
 10
83.03020426412865
 20
1185.473656294303
 10
83.03055794768829
 20
1184.70070947047
 10
83.02871962023653
 20
1183.978597532089
 10
83.02066752484506
 20
1183.164371858937
 10
83.02067238410449
 20
1181.953292405369
 10
83.01947636139528
 20
1180.791827068181
 10
83.02090823509889
 20
1180.117680025299
 10
83.02401451416756
 20
1179.521606311845
  0
LWPOLYLINE
  5
5F2
330
1F
100
AcDbEntity
  8
HEWI
  6
CUSTOM
370
     9
100
AcDbPolyline
 90
       37
 70
     1
 43
0.0
 10
87.6939677355797
 20
1192.15545163165
 10
87.3190158450966
 20
1192.147510525861
 10
87.05404642162443
 20
1191.951348410528
 10
87.0611471271418
 20
1191.487067500428
 10
87.44531513919412
 20
1190.636002351858
 10
88.2908577857953
 20
1189.497485702179
 10
89.36650676590238
 20
1188.459220118927
 10
90.36331512105789
 20
1187.735983821427
 10
91.39299335198074
 20
1187.17265377389
 10
92.25026190754432
 20
1186.825745096891
 10
93.17793659889991
 20
1186.564176546041
 10
94.15223176048788
 20
1186.403057016111
 10
95.2526404574038
 20
1186.359232967481
 10
96.34244511462828
 20
1186.463679868566
 10
97.87024163085881
 20
1186.854812426045
 10
99.32125147496254
 20
1187.522951596566
 10
100.7864859693084
 20
1188.556588958836
 10
101.8065194241728
 20
1189.564838146069
 10
102.3847274619849
 20
1190.309706404132
 10
102.7856100028476
 20
1190.991007774193
 10
102.9805724292434
 20
1191.504053382707
 10
103.0164232281524
 20
1191.806252622952
 10
102.9431799951007
 20
1192.017370702243
 10
102.7588020927392
 20
1192.136505095807
 10
102.4105174393299
 20
1192.161117615321
 10
101.9220607683283
 20
1192.088562547252
 10
100.9405753728488
 20
1191.860551490887
 10
99.70961466724908
 20
1191.584331002209
 10
98.2738069203814
 20
1191.329466283082
 10
96.6908783554876
 20
1191.142469587487
 10
95.01859670196461
 20
1191.069810730131
 10
93.58943087042417
 20
1191.123568972411
 10
92.2170795120229
 20
1191.265617036091
 10
90.74932063533868
 20
1191.502022077037
 10
89.59476828861614
 20
1191.742836098561
 10
88.84565068151857
 20
1191.921671490061
 10
88.2077557776571
 20
1192.069716856311
  0
LWPOLYLINE
  5
615
330
1F
100
AcDbEntity
  8
HEWI
  6
CUSTOM
370
     9
100
AcDbPolyline
 90
        3
 70
     0
 43
0.0
 10
110.4032538526498
 20
1226.24261844192
 10
110.8114868606159
 20
1225.058989339145
 10
111.0067187897735
 20
1224.357624828537
  0
LINE
  5
63C
330
1F
100
AcDbEntity
  8
HEWI
  6
CUSTOM
370
     9
100
AcDbLine
 10
110.4032538526498
 20
1226.24261844192
 30
0.0
 11
110.2697978094208
 21
1226.546540863006
 31
0.0
  0
LINE
  5
641
330
1F
100
AcDbEntity
  8
HEWI
  6
CUSTOM
370
     9
100
AcDbLine
 10
111.0067187897735
 20
1224.357624828537
 30
0.0
 11
111.031677627566
 21
1224.252162943436
 31
0.0
  0
LINE
  5
67E
330
1F
100
AcDbEntity
  8
HEWI
  6
CUSTOM
370
     9
100
AcDbLine
 10
117.5185966437352
 20
1244.385068392202
 30
0.0
 11
117.7185966387472
 21
1244.385068392202
 31
0.0
  0
LINE
  5
688
330
1F
100
AcDbEntity
  8
HEWI
  6
CUSTOM
370
     9
100
AcDbLine
 10
117.5185966437352
 20
1204.180359190479
 30
0.0
 11
117.7185966387472
 21
1204.180359190479
 31
0.0
  0
LINE
  5
68C
330
1F
100
AcDbEntity
  8
HEWI
  6
CUSTOM
370
     9
100
AcDbLine
 10
72.31859680243485
 20
1244.385068392202
 30
0.0
 11
72.51859676019399
 21
1244.385068392202
 31
0.0
  0
LINE
  5
697
330
1F
100
AcDbEntity
  8
HEWI
  6
CUSTOM
370
     9
100
AcDbLine
 10
72.51859676019399
 20
1204.180359190479
 30
0.0
 11
72.31859676518195
 21
1204.180359190479
 31
0.0
  0
LWPOLYLINE
  5
69F
330
1F
100
AcDbEntity
  8
HEWI
  6
CUSTOM
370
     9
100
AcDbPolyline
 90
       44
 70
     0
 43
0.0
 10
56.01859680289544
 20
1203.291277348374
 10
56.05537725465286
 20
1202.961143204668
 10
56.16391487441342
 20
1202.647199038267
 10
56.33888691191157
 20
1202.364840860231
 10
56.57171263301347
 20
1202.127915685724
 10
56.85097412408675
 20
1201.948042468045
 10
57.1629762333606
 20
1201.834042298156
 10
57.49241818942528
 20
1201.791505813072
 10
71.80987055880928
 20
1201.541593752949
 10
71.92255260714546
 20
1201.552443800107
 10
72.029905892329
 20
1201.588363706777
 10
72.12642749887208
 20
1201.647512223199
 10
72.20716974172842
 20
1201.726857404084
 10
72.26799378399244
 20
1201.822332025742
 10
72.30578179313773
 20
1201.929042071435
 10
72.31859676071167
 20
1202.04151759805
 10
72.31859676071167
 20
1202.687806337698
 10
72.31859676071167
 20
1204.589112604256
 10
72.31859676071167
 20
1207.634939388481
 10
72.31859676071167
 20
1211.648274308801
 10
72.31859676071167
 20
1216.395876927528
 10
72.31859676071167
 20
1221.601833837294
 10
72.31859676071167
 20
1226.963593745387
 10
72.31859676071167
 20
1232.169550655153
 10
72.31859676071167
 20
1236.91715327388
 10
72.31859676071167
 20
1240.930488194201
 10
72.31859676071167
 20
1243.976314978425
 10
72.31859676071167
 20
1245.877621244983
 10
72.31859676071167
 20
1246.523909984631
 10
72.30578179313773
 20
1246.636385511245
 10
72.26799378399244
 20
1246.743095556939
 10
72.20716974172842
 20
1246.838570178596
 10
72.12642749887208
 20
1246.917915359483
 10
72.029905892329
 20
1246.977063875903
 10
71.92255260714546
 20
1247.012983782574
 10
71.80987055880928
 20
1247.023833829732
 10
57.49241818942528
 20
1246.773921769609
 10
57.1629762333606
 20
1246.731385284524
 10
56.85097412408675
 20
1246.617385114636
 10
56.57171263301347
 20
1246.437511896957
 10
56.33888691191157
 20
1246.20058672245
 10
56.16391487441342
 20
1245.918228544414
 10
56.05537725465286
 20
1245.604284378012
 10
56.01859680289544
 20
1245.274150234307
  0
LWPOLYLINE
  5
6A1
330
1F
100
AcDbEntity
  8
HEWI
  6
CUSTOM
370
     9
100
AcDbPolyline
 90
       14
 70
     0
 43
0.0
 10
56.01859680289544
 20
1245.274150234307
 10
56.01859680289544
 20
1244.664177241658
 10
56.01859680289544
 20
1242.869707676882
 10
56.01859680289544
 20
1239.995029588451
 10
56.01859680289544
 20
1236.207208817837
 10
56.01859680289544
 20
1231.726379740059
 10
56.01859680289544
 20
1226.812951853966
 10
56.01859680289544
 20
1221.752475728715
 10
56.01859680289544
 20
1216.839047842622
 10
56.01859680289544
 20
1212.358218764843
 10
56.01859680289544
 20
1208.570397994229
 10
56.01859680289544
 20
1205.695719905799
 10
56.01859680289544
 20
1203.901250341023
 10
56.01859680289544
 20
1203.291277348374
  0
LWPOLYLINE
  5
6A4
330
1F
100
AcDbEntity
  8
HEWI
  6
CUSTOM
370
     9
100
AcDbPolyline
 90
       26
 70
     1
 43
0.0
 10
103.6264702836552
 20
1266.908624149863
 10
101.5513412724661
 20
1268.747028028761
 10
99.09655289240038
 20
1270.035400355481
 10
96.40476852131349
 20
1270.698865613437
 10
93.63242488261574
 20
1270.698865613437
 10
90.94064051152896
 20
1270.035400355481
 10
88.48585213146305
 20
1268.747028028761
 10
86.41072312027404
 20
1266.908624149863
 10
84.83585243330537
 20
1264.627030069904
 10
83.8527658304622
 20
1262.034843743554
 10
83.51859673172624
 20
1259.282713617887
 10
83.8527658304622
 20
1256.53058349222
 10
84.83585243330537
 20
1253.938397165869
 10
86.41072312027404
 20
1251.65680308591
 10
88.48585213146305
 20
1249.818399207013
 10
90.94064051152896
 20
1248.530026880293
 10
93.63242488261574
 20
1247.866561622335
 10
96.40476852131349
 20
1247.866561622335
 10
99.09655289240038
 20
1248.530026880293
 10
101.5513412724661
 20
1249.818399207013
 10
103.6264702836552
 20
1251.65680308591
 10
105.2013409706238
 20
1253.938397165869
 10
106.184427573467
 20
1256.53058349222
 10
106.518596672203
 20
1259.282713617887
 10
106.184427573467
 20
1262.034843743554
 10
105.2013409706238
 20
1264.627030069904
  0
LWPOLYLINE
  5
6A5
330
1F
100
AcDbEntity
  8
HEWI
  6
CUSTOM
370
     9
100
AcDbPolyline
 90
       14
 70
     0
 43
0.0
 10
134.0185966010338
 20
1203.291277348374
 10
134.0185966010338
 20
1203.901250341023
 10
134.0185966010338
 20
1205.695719905799
 10
134.0185966010338
 20
1208.570397994229
 10
134.0185966010338
 20
1212.358218764843
 10
134.0185966010338
 20
1216.839047842622
 10
134.0185966010338
 20
1221.752475728715
 10
134.0185966010338
 20
1226.812951853966
 10
134.0185966010338
 20
1231.726379740059
 10
134.0185966010338
 20
1236.207208817837
 10
134.0185966010338
 20
1239.995029588451
 10
134.0185966010338
 20
1242.869707676882
 10
134.0185966010338
 20
1244.664177241658
 10
134.0185966010338
 20
1245.274150234307
  0
LWPOLYLINE
  5
6A6
330
1F
100
AcDbEntity
  8
HEWI
  6
CUSTOM
370
     9
100
AcDbPolyline
 90
       44
 70
     0
 43
0.0
 10
134.0185966010338
 20
1245.274150234307
 10
133.9818161492765
 20
1245.604284378012
 10
133.8732785295164
 20
1245.918228544414
 10
133.6983064920176
 20
1246.20058672245
 10
133.4654807709156
 20
1246.437511896957
 10
133.186219279843
 20
1246.617385114636
 10
132.8742171705687
 20
1246.731385284524
 10
132.5447752145039
 20
1246.773921769609
 10
118.2273228451199
 20
1247.023833829732
 10
118.1146407967836
 20
1247.012983782574
 10
118.0072875116002
 20
1246.977063875903
 10
117.9107659050571
 20
1246.917915359483
 10
117.8300236622008
 20
1246.838570178596
 10
117.7691996199368
 20
1246.743095556939
 10
117.731411610792
 20
1246.636385511245
 10
117.7185966432175
 20
1246.523909984631
 10
117.7185966432175
 20
1245.877621244983
 10
117.7185966432175
 20
1243.976314978425
 10
117.7185966432175
 20
1240.930488194201
 10
117.7185966432175
 20
1236.91715327388
 10
117.7185966432175
 20
1232.169550655153
 10
117.7185966432175
 20
1226.963593745387
 10
117.7185966432175
 20
1221.601833837294
 10
117.7185966432175
 20
1216.395876927528
 10
117.7185966432175
 20
1211.648274308801
 10
117.7185966432175
 20
1207.634939388481
 10
117.7185966432175
 20
1204.589112604256
 10
117.7185966432175
 20
1202.687806337698
 10
117.7185966432175
 20
1202.04151759805
 10
117.731411610792
 20
1201.929042071435
 10
117.7691996199368
 20
1201.822332025742
 10
117.8300236622008
 20
1201.726857404084
 10
117.9107659050571
 20
1201.647512223199
 10
118.0072875116002
 20
1201.588363706777
 10
118.1146407967836
 20
1201.552443800107
 10
118.2273228451199
 20
1201.541593752949
 10
132.5447752145039
 20
1201.791505813072
 10
132.8742171705687
 20
1201.834042298156
 10
133.186219279843
 20
1201.948042468045
 10
133.4654807709156
 20
1202.127915685724
 10
133.6983064920176
 20
1202.36484086023
 10
133.8732785295164
 20
1202.647199038267
 10
133.9818161492765
 20
1202.961143204668
 10
134.0185966010338
 20
1203.291277348374
  0
LWPOLYLINE
  5
6C4
330
1F
100
AcDbEntity
  8
HEWI
  6
CUSTOM
370
     9
100
AcDbPolyline
 90
        3
 70
     0
 43
0.0
 10
110.6692894106076
 20
1225.259826314502
 10
110.2294977864608
 20
1226.676342404923
 10
109.8848608101127
 20
1227.441022942423
  0
LINE
  5
6FF
330
1F
100
AcDbEntity
  8
HEWI
  6
CUSTOM
370
     9
100
AcDbLine
 10
109.8845829838816
 20
1227.441795471124
 30
0.0
 11
111.1049072113337
 21
1223.954309203247
 31
0.0
  0
LWPOLYLINE
  5
71A
330
1F
100
AcDbEntity
  8
HEWI
  6
CUSTOM
370
     9
100
AcDbPolyline
 90
        3
 70
     0
 43
0.0
 10
111.1049072113337
 20
1223.954309203247
 10
111.0391366480339
 20
1224.231422252339
 10
109.8845829838816
 20
1227.441795471124
  0
SPLINE
  5
845
330
1F
100
AcDbEntity
  8
HEWI
  6
CUSTOM
370
     9
100
AcDbSpline
210
0.0
220
0.0
230
1.0
 70
     8
 71
     3
 72
    42
 73
    38
 74
     0
 42
0.000000001
 43
0.0000000001
 40
26.21588118668894
 40
26.21588118668894
 40
26.21588118668894
 40
26.21588118668894
 40
29.46229922291184
 40
29.46229922291184
 40
32.70871725913472
 40
32.70871725913472
 40
35.95513529535762
 40
35.95513529535762
 40
39.20155333158049
 40
39.20155333158049
 40
42.50910559202984
 40
42.50910559202984
 40
45.8166578524792
 40
45.8166578524792
 40
49.12421011292853
 40
49.12421011292853
 40
50.77798624315322
 40
50.77798624315322
 40
52.43176237337789
 40
52.43176237337789
 40
54.08553850360258
 40
54.08553850360258
 40
55.73931463382725
 40
55.73931463382725
 40
59.04686689427662
 40
59.04686689427662
 40
62.35441915472598
 40
62.35441915472598
 40
65.66197141517534
 40
65.66197141517534
 40
68.90838945139825
 40
68.90838945139825
 40
72.15480748762115
 40
72.15480748762115
 40
75.40122552384406
 40
75.40122552384406
 40
78.64764356006697
 40
78.64764356006697
 40
78.64764356006697
 40
78.64764356006697
 10
111.5185967019646
 20
844.4748975651174
 30
0.0
 10
111.5185967019646
 20
844.4748975651174
 30
0.0
 10
111.4104319811089
 20
844.5546072215249
 30
0.0
 10
110.9705359904222
 20
844.8741844016049
 30
0.0
 10
110.6389943970283
 20
845.1138758675179
 30
0.0
 10
109.781478120873
 20
845.7181311733759
 30
0.0
 10
109.2547845007979
 20
846.0830390218498
 30
0.0
 10
108.0586279767052
 20
846.8790490860421
 30
0.0
 10
107.3891129103725
 20
847.3097762353491
 30
0.0
 10
105.9693610899998
 20
848.1707842030147
 30
0.0
 10
105.1633425382937
 20
848.6350097473451
 30
0.0
 10
103.4066602899551
 20
849.5451750249605
 30
0.0
 10
102.4560584618087
 20
849.9907127001106
 30
0.0
 10
100.4518115965005
 20
850.7679041210842
 30
0.0
 10
99.39613183658037
 20
851.0990405374114
 30
0.0
 10
97.77228946406138
 20
851.440972421714
 30
0.0
 10
97.22426766803289
 20
851.5293375542125
 30
0.0
 10
96.12305338824478
 20
851.6477920256559
 30
0.0
 10
95.56985541203937
 20
851.677839024339
 30
0.0
 10
94.46733799188985
 20
851.677839024339
 30
0.0
 10
93.91414001568444
 20
851.6477920256559
 30
0.0
 10
92.81292573589633
 20
851.5293375542125
 30
0.0
 10
92.26490393987148
 20
851.440972421714
 30
0.0
 10
90.64106156735249
 20
851.0990405374114
 30
0.0
 10
89.58538180742868
 20
850.7679041210842
 30
0.0
 10
87.58113494212409
 20
849.9907127001106
 30
0.0
 10
86.63053311397414
 20
849.5451750249605
 30
0.0
 10
84.87385086563552
 20
848.6350097473451
 30
0.0
 10
84.06783231392944
 20
848.1707842030147
 30
0.0
 10
82.64808049355668
 20
847.3097762353491
 30
0.0
 10
81.97856542722764
 20
846.8790490860421
 30
0.0
 10
80.78240890313134
 20
846.0830390218498
 30
0.0
 10
80.25571528305624
 20
845.7181311733759
 30
0.0
 10
79.39819900690088
 20
845.1138758675179
 30
0.0
 10
79.06665741350696
 20
844.8741844016049
 30
0.0
 10
78.62676142282032
 20
844.5546072215249
 30
0.0
 10
78.51859670196461
 20
844.4748975651174
 30
0.0
 10
78.51859670196461
 20
844.4748975651174
 30
0.0
  0
LINE
  5
847
330
1F
100
AcDbEntity
  8
HEWI
  6
CUSTOM
370
     9
100
AcDbLine
 10
78.51859670196438
 20
839.4739155608235
 30
0.0
 11
78.51859670196438
 21
58.89346021613687
 31
0.0
  0
LINE
  5
893
330
1F
100
AcDbEntity
  8
HEWI
100
AcDbLine
 10
107.0146655136282
 20
1201.559893832175
 30
0.0
 11
107.0146654257569
 21
1088.174675764176
 31
0.0
  0
LINE
  5
894
330
1F
100
AcDbEntity
  8
HEWI
100
AcDbLine
 10
83.03369167043275
 20
1106.526663794974
 30
0.0
 11
83.03369167043275
 21
1201.884828170125
 31
0.0
  0
CIRCLE
  5
8AA
330
1F
100
AcDbEntity
  8
HEWI
100
AcDbCircle
 10
95.01859670196461
 20
1220.257623826451
 30
0.0
 40
16.5
  0
ELLIPSE
  5
8AC
330
1F
100
AcDbEntity
  8
HEWI
100
AcDbEllipse
 10
95.01859670196461
 20
1220.570471291296
 30
0.0
 11
21.44068818905528
 21
0.0
 31
0.0
210
0.0
220
0.0
230
1.0
 40
0.8407602558416208
 41
5.306171604900611
 42
10.40241973807017
  0
LINE
  5
8C6
330
1F
100
AcDbEntity
  8
HEWI
100
AcDbLine
 10
1242.464161534146
 20
1236.662389607346
 30
0.0
 11
1242.464161534146
 21
1203.826342024657
 31
0.0
  0
LINE
  5
8C7
330
1F
100
AcDbEntity
  8
HEWI
100
AcDbLine
 10
413.0268939872633
 20
1076.094816283571
 30
0.0
 11
787.4676625448487
 21
1186.359234733011
 31
0.0
  0
LINE
  5
8E1
330
1F
100
AcDbEntity
  8
HEWI
  6
CUSTOM
370
     9
100
AcDbLine
 10
78.51859704225114
 20
58.89345748664528
 30
0.0
 11
111.5049863001708
 21
58.89345748664528
 31
0.0
  0
LINE
  5
8F0
330
1F
100
AcDbEntity
  8
HEWI
  6
CUSTOM
370
     9
100
AcDbLine
 10
472.4641357082632
 20
1236.657122695383
 30
0.0
 11
472.4641357082632
 21
1236.662389607846
 31
0.0
  0
LINE
  5
8F1
330
1F
100
AcDbEntity
  8
HEWI
  6
CUSTOM
370
     9
100
AcDbLine
 10
472.4641357082632
 20
1236.662389607846
 30
0.0
 11
1242.464161534145
 21
1236.662389607106
 31
0.0
  0
LINE
  5
8F2
330
1F
100
AcDbEntity
  8
HEWI
  6
CUSTOM
370
     9
100
AcDbLine
 10
1242.464161534146
 20
1236.662389607346
 30
0.0
 11
1242.464161534146
 21
1236.782716045895
 31
0.0
  0
LINE
  5
8F3
330
1F
100
AcDbEntity
  8
HEWI
  6
CUSTOM
370
     9
100
AcDbLine
 10
1242.464161534146
 20
1236.782716045895
 30
0.0
 11
1243.545593441547
 21
1236.696817771884
 31
0.0
  0
LINE
  5
8F4
330
1F
100
AcDbEntity
  8
HEWI
  6
CUSTOM
370
     9
100
AcDbLine
 10
1243.545593441547
 20
1236.696817771884
 30
0.0
 11
1244.021620574211
 21
1236.662146651577
 31
0.0
  0
LINE
  5
8F5
330
1F
100
AcDbEntity
  8
HEWI
  6
CUSTOM
370
     9
100
AcDbLine
 10
1244.021620574211
 20
1236.662146651577
 30
0.0
 11
1244.382859101433
 21
1236.329512426138
 31
0.0
  0
LINE
  5
8F6
330
1F
100
AcDbEntity
  8
HEWI
  6
CUSTOM
370
     9
100
AcDbLine
 10
1244.382859101433
 20
1236.329512426138
 30
0.0
 11
1244.542200402866
 21
1235.865024383285
 31
0.0
  0
ENDSEC
  0
SECTION
  2
OBJECTS
  0
DICTIONARY
  5
C
330
0
100
AcDbDictionary
281
     1
  3
ACAD_CIP_PREVIOUS_PRODUCT_INFO
350
10F
  3
ACAD_COLOR
350
10A
  3
ACAD_DETAILVIEWSTYLE
350
104
  3
ACAD_GROUP
350
D
  3
ACAD_IMAGE_DICT
350
6E
  3
ACAD_LAYOUT
350
1A
  3
ACAD_MATERIAL
350
43
  3
ACAD_MLEADERSTYLE
350
6B
  3
ACAD_MLINESTYLE
350
17
  3
ACAD_PLOTSETTINGS
350
19
  3
ACAD_PLOTSTYLENAME
350
E
  3
ACAD_SCALELIST
350
47
  3
ACAD_SECTIONVIEWSTYLE
350
105
  3
ACAD_TABLESTYLE
350
69
  3
ACAD_VISUALSTYLE
350
2A
  3
ACDB_RECOMPOSE_DATA
350
908
  3
AcDbVariableDictionary
350
FD
  3
AcDsDecomposeData
350
90E
  0
SUN
  5
6D
330
29
100
AcDbSun
 90
        1
290
     1
 63
     7
421
 16777215
 40
1.0
291
     1
 91
  2455826
 92
 54000000
292
     0
 70
     0
 71
   256
280
     1
1001
ACAD
1000
AcDbSavedByObjectVersion
1070
     0
  0
DICTIONARY
  5
7C8
330
2
100
AcDbDictionary
280
     1
281
     1
  3
ACAD_LAYERSTATES
360
7C9
  0
DICTIONARY
  5
7C3
330
7C2
100
AcDbDictionary
280
     1
281
     1
  0
DICTIONARY
  5
8F7
330
1F
100
AcDbDictionary
280
     1
281
     1
  3
ACAD_SORTENTS
360
8F8
  0
XRECORD
  5
10F
102
{ACAD_REACTORS
330
C
102
}
330
C
100
AcDbXrecord
280
     1
300
ACDLT
300
2021
300
ACDLT_F_S
  0
DICTIONARY
  5
10A
102
{ACAD_REACTORS
330
C
102
}
330
C
100
AcDbDictionary
281
     1
  0
DICTIONARY
  5
104
102
{ACAD_REACTORS
330
C
102
}
330
C
100
AcDbDictionary
281
     1
  3
Metric50
350
10C
  0
DICTIONARY
  5
D
102
{ACAD_REACTORS
330
C
102
}
330
C
100
AcDbDictionary
281
     1
  3
*A1
350
8AD
  0
DICTIONARY
  5
6E
102
{ACAD_REACTORS
330
C
102
}
330
C
100
AcDbDictionary
281
     1
  0
DICTIONARY
  5
1A
102
{ACAD_REACTORS
330
C
102
}
330
C
100
AcDbDictionary
281
     1
  3
Layout1
350
1E
  3
Layout2
350
26
  3
Model
350
22
  0
DICTIONARY
  5
43
102
{ACAD_REACTORS
330
C
102
}
330
C
100
AcDbDictionary
281
     1
  3
ByBlock
350
45
  3
ByLayer
350
44
  3
Global
350
46
  0
DICTIONARY
  5
6B
102
{ACAD_REACTORS
330
C
102
}
330
C
100
AcDbDictionary
281
     1
  3
Standard
350
6C
  0
DICTIONARY
  5
17
102
{ACAD_REACTORS
330
C
102
}
330
C
100
AcDbDictionary
281
     1
  3
Standard
350
18
  0
DICTIONARY
  5
19
102
{ACAD_REACTORS
330
C
102
}
330
C
100
AcDbDictionary
281
     1
  0
ACDBDICTIONARYWDFLT
  5
E
102
{ACAD_REACTORS
330
C
102
}
330
C
100
AcDbDictionary
281
     1
  3
Normal
350
F
100
AcDbDictionaryWithDefault
340
F
  0
DICTIONARY
  5
47
102
{ACAD_REACTORS
330
C
102
}
330
C
100
AcDbDictionary
281
     1
  3
A0
350
48
  3
A1
350
49
  3
A2
350
4A
  3
A3
350
4B
  3
A4
350
4C
  3
A5
350
4D
  3
A6
350
4E
  3
A7
350
4F
  3
A8
350
50
  3
A9
350
51
  3
B0
350
52
  3
B1
350
53
  3
B2
350
54
  3
B3
350
55
  3
B4
350
56
  3
B5
350
57
  3
B6
350
58
  3
B7
350
59
  3
B8
350
5A
  3
B9
350
5B
  3
C0
350
5C
  3
C1
350
5D
  3
C2
350
5E
  3
C3
350
5F
  3
C4
350
60
  3
C5
350
61
  3
C6
350
62
  3
C7
350
63
  3
C8
350
64
  3
C9
350
65
  3
D0
350
66
  3
D1
350
67
  3
D2
350
68
  0
DICTIONARY
  5
105
102
{ACAD_REACTORS
330
C
102
}
330
C
100
AcDbDictionary
281
     1
  3
Metric50
350
10B
  0
DICTIONARY
  5
69
102
{ACAD_REACTORS
330
C
102
}
330
C
100
AcDbDictionary
281
     1
  3
Standard
350
6A
  0
DICTIONARY
  5
2A
102
{ACAD_REACTORS
330
C
102
}
330
C
100
AcDbDictionary
281
     1
  3
2dWireframe
350
2F
  3
3dWireframe
350
7C7
  3
Basic
350
32
  3
Brighten
350
36
  3
ColorChange
350
3A
  3
Conceptual
350
34
  3
Dim
350
35
  3
EdgeColorOff
350
3D
  3
Facepattern
350
39
  3
Flat
350
2B
  3
FlatWithEdges
350
2C
  3
Gouraud
350
2D
  3
GouraudWithEdges
350
2E
  3
Hidden
350
31
  3
JitterOff
350
3B
  3
Linepattern
350
38
  3
OverhangOff
350
3C
  3
Realistic
350
33
  3
Shaded
350
42
  3
Shaded with edges
350
41
  3
Shades of Gray
350
3E
  3
Sketchy
350
3F
  3
Thicken
350
37
  3
Wireframe
350
30
  3
X-Ray
350
40
  0
XRECORD
  5
908
102
{ACAD_REACTORS
330
C
102
}
330
C
100
AcDbXrecord
280
     1
 90
        1
330
6A
  0
DICTIONARY
  5
FD
102
{ACAD_REACTORS
330
C
102
}
330
C
100
AcDbDictionary
281
     1
  3
CANNOSCALE
350
FE
  3
CENTEREXE
350
106
  3
CENTERLTYPEFILE
350
107
  3
CMLEADERSTYLE
350
103
  3
CTABLESTYLE
350
102
  3
CVIEWDETAILSTYLE
350
89C
  3
CVIEWSECTIONSTYLE
350
89D
  0
DICTIONARY
  5
90E
102
{ACAD_REACTORS
330
C
102
}
330
C
100
AcDbDictionary
281
     1
  3
AcDsRecords
350
910
  3
AcDsSchemas
350
90F
1001
ACAD
1070
     2
  0
DICTIONARY
  5
7C9
102
{ACAD_REACTORS
330
7C8
102
}
330
7C8
100
AcDbDictionary
281
     1
  0
SORTENTSTABLE
  5
8F8
102
{ACAD_REACTORS
330
8F7
102
}
330
8F7
100
AcDbSortentsTable
330
1F
331
225
  5
22E
331
226
  5
22F
331
227
  5
231
331
228
  5
234
331
229
  5
237
331
22A
  5
239
331
22B
  5
23C
331
22E
  5
23D
331
22F
  5
23E
331
231
  5
23F
331
234
  5
241
331
237
  5
242
331
239
  5
243
331
23C
  5
244
331
23D
  5
246
331
23E
  5
247
331
23F
  5
248
331
241
  5
249
331
242
  5
24C
331
243
  5
24D
331
244
  5
24E
331
246
  5
24F
331
247
  5
250
331
248
  5
251
331
249
  5
254
331
24C
  5
255
331
24D
  5
256
331
24E
  5
257
331
24F
  5
258
331
250
  5
259
331
251
  5
25B
331
254
  5
25C
331
255
  5
25D
331
256
  5
25F
331
257
  5
261
331
258
  5
264
331
259
  5
265
331
25B
  5
266
331
25C
  5
267
331
25D
  5
268
331
25F
  5
269
331
261
  5
26A
331
264
  5
26C
331
265
  5
26D
331
266
  5
26E
331
267
  5
26F
331
268
  5
273
331
269
  5
275
331
26A
  5
277
331
26C
  5
278
331
26D
  5
279
331
26E
  5
27A
331
26F
  5
27B
331
273
  5
27C
331
275
  5
27D
331
277
  5
27E
331
278
  5
27F
331
279
  5
280
331
27A
  5
281
331
27B
  5
282
331
27C
  5
283
331
27D
  5
284
331
27E
  5
285
331
27F
  5
286
331
280
  5
287
331
281
  5
288
331
282
  5
289
331
283
  5
28A
331
284
  5
28B
331
285
  5
28C
331
286
  5
28D
331
287
  5
28E
331
288
  5
28F
331
289
  5
290
331
28A
  5
291
331
28B
  5
292
331
28C
  5
293
331
28D
  5
294
331
28E
  5
295
331
28F
  5
296
331
290
  5
297
331
291
  5
298
331
292
  5
299
331
293
  5
29A
331
294
  5
29B
331
295
  5
29C
331
296
  5
29D
331
297
  5
29E
331
298
  5
29F
331
299
  5
2A0
331
29A
  5
2A1
331
29B
  5
2A2
331
29C
  5
2A3
331
29D
  5
2A4
331
29E
  5
2A5
331
29F
  5
2A6
331
2A0
  5
2A7
331
2A1
  5
2A8
331
2A2
  5
2AA
331
2A3
  5
2AB
331
2A4
  5
2AC
331
2A5
  5
2AD
331
2A6
  5
2AE
331
2A7
  5
2AF
331
2A8
  5
2B0
331
2AA
  5
2B1
331
2AB
  5
2B2
331
2AC
  5
2B3
331
2AD
  5
2B4
331
2AE
  5
2B5
331
2AF
  5
2B6
331
2B0
  5
2B7
331
2B1
  5
2B8
331
2B2
  5
2B9
331
2B3
  5
2BA
331
2B4
  5
2BB
331
2B5
  5
2BC
331
2B6
  5
2BD
331
2B7
  5
2BE
331
2B8
  5
2BF
331
2B9
  5
2C0
331
2BA
  5
2C1
331
2BB
  5
2C2
331
2BC
  5
2C3
331
2BD
  5
2C4
331
2BE
  5
2C5
331
2BF
  5
2C6
331
2C0
  5
2C7
331
2C1
  5
2C8
331
2C2
  5
2C9
331
2C3
  5
2CA
331
2C4
  5
2CB
331
2C5
  5
2CC
331
2C6
  5
2CD
331
2C7
  5
2CE
331
2C8
  5
2CF
331
2C9
  5
2D0
331
2CA
  5
2D1
331
2CB
  5
2D3
331
2CC
  5
2D4
331
2CD
  5
2D5
331
2CE
  5
2D6
331
2CF
  5
2D7
331
2D0
  5
2D8
331
2D1
  5
2D9
331
2D3
  5
2DA
331
2D4
  5
2DB
331
2D5
  5
2DC
331
2D6
  5
2DD
331
2D7
  5
2DE
331
2D8
  5
2DF
331
2D9
  5
2EA
331
2DA
  5
2EB
331
2DB
  5
2EC
331
2DC
  5
2ED
331
2DD
  5
2F0
331
2DE
  5
2F2
331
2DF
  5
2F3
331
2EA
  5
2F4
331
2EB
  5
2F5
331
2EC
  5
2F6
331
2ED
  5
2F7
331
2F0
  5
2F8
331
2F2
  5
2F9
331
2F3
  5
2FA
331
2F4
  5
2FB
331
2F5
  5
2FC
331
2F6
  5
2FD
331
2F7
  5
2FE
331
2F8
  5
2FF
331
2F9
  5
300
331
2FA
  5
538
331
2FB
  5
539
331
2FC
  5
53B
331
2FD
  5
53D
331
2FE
  5
53E
331
2FF
  5
53F
331
300
  5
542
331
538
  5
543
331
539
  5
544
331
53B
  5
545
331
53D
  5
546
331
53E
  5
547
331
53F
  5
548
331
542
  5
549
331
543
  5
54A
331
544
  5
54B
331
545
  5
54C
331
546
  5
54D
331
547
  5
54E
331
548
  5
550
331
549
  5
551
331
54A
  5
552
331
54B
  5
553
331
54C
  5
554
331
54D
  5
555
331
54E
  5
556
331
550
  5
557
331
551
  5
558
331
552
  5
559
331
553
  5
55A
331
554
  5
55B
331
555
  5
55C
331
556
  5
55E
331
557
  5
560
331
558
  5
562
331
559
  5
563
331
55A
  5
564
331
55B
  5
579
331
55C
  5
57A
331
55E
  5
57B
331
560
  5
57C
331
562
  5
57D
331
563
  5
57E
331
564
  5
57F
331
579
  5
580
331
57A
  5
581
331
57B
  5
582
331
57C
  5
583
331
57D
  5
584
331
57E
  5
585
331
57F
  5
586
331
580
  5
587
331
581
  5
588
331
582
  5
589
331
583
  5
58A
331
584
  5
5CA
331
585
  5
5D6
331
586
  5
5DE
331
587
  5
5E9
331
588
  5
5EB
331
589
  5
5F2
331
58A
  5
615
331
5CA
  5
63C
331
5D6
  5
641
331
5DE
  5
67E
331
5E9
  5
688
331
5EB
  5
68C
331
5F2
  5
697
331
615
  5
69F
331
63C
  5
6A1
331
641
  5
6A4
331
67E
  5
6A5
331
688
  5
6A6
331
68C
  5
6C4
331
697
  5
6FF
331
69F
  5
71A
331
6A1
  5
845
331
6A4
  5
847
331
6A5
  5
893
331
6A6
  5
894
331
6C4
  5
8AA
331
6FF
  5
8AC
331
71A
  5
8C6
331
845
  5
8C7
331
847
  5
8E1
331
893
  5
8F0
331
894
  5
8F1
331
8AA
  5
8F2
331
8AC
  5
8F3
331
8C6
  5
8F4
331
8C7
  5
8F5
331
8E1
  5
8F6
331
8F0
  5
225
331
8F1
  5
226
331
8F2
  5
227
331
8F3
  5
228
331
8F4
  5
229
331
8F5
  5
22A
331
8F6
  5
22B
  0
ACDBDETAILVIEWSTYLE
  5
10C
102
{ACAD_XDICTIONARY
360
913
102
}
102
{ACAD_REACTORS
330
104
102
}
330
104
100
AcDbModelDocViewStyle
 70
     0
  3
Metric50
290
     0
100
AcDbDetailViewStyle
 70
     0
 71
     0
 90
        3
 71
     1
340
11
 62
   256
 40
5.0
340
0
 62
   256
 40
5.0
300

 40
0.0
280
     1
 71
     2
340
16
 90
       25
 62
   256
 71
     3
340
11
 62
   256
 40
5.0
 90
        0
 40
15.0
 90
        1
300
%<\AcVar ViewDetailId>% (%<\AcVar ViewScale \f "%sn">%)
 71
     4
340
16
 90
       25
 62
   256
340
16
 90
       25
 62
   256
280
     0
  0
GROUP
  5
8AD
102
{ACAD_REACTORS
330
D
102
}
330
D
100
AcDbGroup
300

 70
     1
 71
     1
  0
LAYOUT
  5
1E
102
{ACAD_REACTORS
330
1A
102
}
330
1A
100
AcDbPlotSettings
  1

  2
none_device
  4

  6

 40
0.0
 41
0.0
 42
0.0
 43
0.0
 44
0.0
 45
0.0
 46
0.0
 47
0.0
 48
0.0
 49
0.0
140
0.0
141
0.0
142
1.0
143
1.0
 70
   688
 72
     1
 73
     0
 74
     5
  7

 75
    16
147
1.0
 76
     0
 77
     2
 78
   300
148
0.0
149
0.0
100
AcDbLayout
  1
Layout1
 70
     1
 71
     1
 10
0.0
 20
0.0
 11
420.0
 21
297.0
 12
0.0
 22
0.0
 32
0.0
 14
1.000000000000000E+20
 24
1.000000000000000E+20
 34
1.000000000000000E+20
 15
-1.000000000000000E+20
 25
-1.000000000000000E+20
 35
-1.000000000000000E+20
146
0.0
 13
0.0
 23
0.0
 33
0.0
 16
1.0
 26
0.0
 36
0.0
 17
0.0
 27
1.0
 37
0.0
 76
     0
330
1B
  0
LAYOUT
  5
26
102
{ACAD_REACTORS
330
1A
102
}
330
1A
100
AcDbPlotSettings
  1

  2
none_device
  4

  6

 40
0.0
 41
0.0
 42
0.0
 43
0.0
 44
0.0
 45
0.0
 46
0.0
 47
0.0
 48
0.0
 49
0.0
140
0.0
141
0.0
142
1.0
143
1.0
 70
   688
 72
     1
 73
     0
 74
     5
  7

 75
    16
147
1.0
 76
     0
 77
     2
 78
   300
148
0.0
149
0.0
100
AcDbLayout
  1
Layout2
 70
     1
 71
     2
 10
0.0
 20
0.0
 11
0.0
 21
0.0
 12
0.0
 22
0.0
 32
0.0
 14
0.0
 24
0.0
 34
0.0
 15
0.0
 25
0.0
 35
0.0
146
0.0
 13
0.0
 23
0.0
 33
0.0
 16
1.0
 26
0.0
 36
0.0
 17
0.0
 27
1.0
 37
0.0
 76
     0
330
23
  0
LAYOUT
  5
22
102
{ACAD_REACTORS
330
1A
102
}
330
1A
100
AcDbPlotSettings
  1

  2
none_device
  4
Letter_(8.50_x_11.00_Inches)
  6

 40
6.349999999999999
 41
6.349999999999999
 42
6.350005079999999
 43
6.350005079999999
 44
215.9
 45
279.4
 46
0.0
 47
0.0
 48
0.0
 49
0.0
140
0.0
141
0.0
142
1.0
143
1.0
 70
  1712
 72
     1
 73
     0
 74
     0
  7

 75
     0
147
1.0
 76
     0
 77
     2
 78
   300
148
0.0
149
0.0
100
AcDbLayout
  1
Model
 70
     1
 71
     0
 10
0.0
 20
0.0
 11
420.0
 21
297.0
 12
0.0
 22
0.0
 32
0.0
 14
55.37809648607012
 24
81.22273586517383
 34
0.0
 15
140.4501384341057
 25
89.02273570431097
 35
0.0
146
0.0
 13
0.0
 23
0.0
 33
0.0
 16
1.0
 26
0.0
 36
0.0
 17
0.0
 27
1.0
 37
0.0
 76
     0
330
1F
331
29
  0
MATERIAL
  5
45
102
{ACAD_REACTORS
330
43
102
}
330
43
100
AcDbMaterial
  1
ByBlock
  0
MATERIAL
  5
44
102
{ACAD_REACTORS
330
43
102
}
330
43
100
AcDbMaterial
  1
ByLayer
  0
MATERIAL
  5
46
102
{ACAD_REACTORS
330
43
102
}
330
43
100
AcDbMaterial
  1
Global
  0
MLEADERSTYLE
  5
6C
102
{ACAD_REACTORS
330
6B
102
}
330
6B
100
AcDbMLeaderStyle
179
     2
170
     2
171
     1
172
     0
 90
        2
 40
0.0
 41
0.0
173
     1
 91
-1056964608
340
14
 92
       -2
290
     1
 42
2.0
291
     1
 43
8.0
  3
Standard
 44
4.0
300

342
11
174
     1
178
     6
175
     1
176
     0
 93
-1056964608
 45
4.0
292
     0
297
     0
 46
4.0
 94
-1056964608
 47
1.0
 49
1.0
140
1.0
293
     1
141
0.0
294
     1
177
     0
142
1.0
295
     0
296
     0
143
3.75
271
     0
272
     9
273
     9
298
     0
  0
MLINESTYLE
  5
18
102
{ACAD_REACTORS
330
17
102
}
330
17
100
AcDbMlineStyle
  2
STANDARD
 70
     0
  3

 62
   256
 51
90.0
 52
90.0
 71
     2
 49
0.5
 62
   256
  6
BYLAYER
 49
-0.5
 62
   256
  6
BYLAYER
  0
ACDBPLACEHOLDER
  5
F
102
{ACAD_REACTORS
330
E
102
}
330
E
  0
SCALE
  5
48
102
{ACAD_REACTORS
330
47
102
}
330
47
100
AcDbScale
 70
     0
300
1:1
140
1.0
141
1.0
290
     1
  0
SCALE
  5
49
102
{ACAD_REACTORS
330
47
102
}
330
47
100
AcDbScale
 70
     0
300
1:2
140
1.0
141
2.0
290
     0
  0
SCALE
  5
4A
102
{ACAD_REACTORS
330
47
102
}
330
47
100
AcDbScale
 70
     0
300
1:4
140
1.0
141
4.0
290
     0
  0
SCALE
  5
4B
102
{ACAD_REACTORS
330
47
102
}
330
47
100
AcDbScale
 70
     0
300
1:5
140
1.0
141
5.0
290
     0
  0
SCALE
  5
4C
102
{ACAD_REACTORS
330
47
102
}
330
47
100
AcDbScale
 70
     0
300
1:8
140
1.0
141
8.0
290
     0
  0
SCALE
  5
4D
102
{ACAD_REACTORS
330
47
102
}
330
47
100
AcDbScale
 70
     0
300
1:10
140
1.0
141
10.0
290
     0
  0
SCALE
  5
4E
102
{ACAD_REACTORS
330
47
102
}
330
47
100
AcDbScale
 70
     0
300
1:16
140
1.0
141
16.0
290
     0
  0
SCALE
  5
4F
102
{ACAD_REACTORS
330
47
102
}
330
47
100
AcDbScale
 70
     0
300
1:20
140
1.0
141
20.0
290
     0
  0
SCALE
  5
50
102
{ACAD_REACTORS
330
47
102
}
330
47
100
AcDbScale
 70
     0
300
1:30
140
1.0
141
30.0
290
     0
  0
SCALE
  5
51
102
{ACAD_REACTORS
330
47
102
}
330
47
100
AcDbScale
 70
     0
300
1:40
140
1.0
141
40.0
290
     0
  0
SCALE
  5
52
102
{ACAD_REACTORS
330
47
102
}
330
47
100
AcDbScale
 70
     0
300
1:50
140
1.0
141
50.0
290
     0
  0
SCALE
  5
53
102
{ACAD_REACTORS
330
47
102
}
330
47
100
AcDbScale
 70
     0
300
1:100
140
1.0
141
100.0
290
     0
  0
SCALE
  5
54
102
{ACAD_REACTORS
330
47
102
}
330
47
100
AcDbScale
 70
     0
300
2:1
140
2.0
141
1.0
290
     0
  0
SCALE
  5
55
102
{ACAD_REACTORS
330
47
102
}
330
47
100
AcDbScale
 70
     0
300
4:1
140
4.0
141
1.0
290
     0
  0
SCALE
  5
56
102
{ACAD_REACTORS
330
47
102
}
330
47
100
AcDbScale
 70
     0
300
8:1
140
8.0
141
1.0
290
     0
  0
SCALE
  5
57
102
{ACAD_REACTORS
330
47
102
}
330
47
100
AcDbScale
 70
     0
300
10:1
140
10.0
141
1.0
290
     0
  0
SCALE
  5
58
102
{ACAD_REACTORS
330
47
102
}
330
47
100
AcDbScale
 70
     0
300
100:1
140
100.0
141
1.0
290
     0
  0
SCALE
  5
59
102
{ACAD_REACTORS
330
47
102
}
330
47
100
AcDbScale
 70
     0
300
1/128" = 1'-0"
140
0.0078125
141
12.0
290
     0
  0
SCALE
  5
5A
102
{ACAD_REACTORS
330
47
102
}
330
47
100
AcDbScale
 70
     0
300
1/64" = 1'-0"
140
0.015625
141
12.0
290
     0
  0
SCALE
  5
5B
102
{ACAD_REACTORS
330
47
102
}
330
47
100
AcDbScale
 70
     0
300
1/32" = 1'-0"
140
0.03125
141
12.0
290
     0
  0
SCALE
  5
5C
102
{ACAD_REACTORS
330
47
102
}
330
47
100
AcDbScale
 70
     0
300
1/16" = 1'-0"
140
0.0625
141
12.0
290
     0
  0
SCALE
  5
5D
102
{ACAD_REACTORS
330
47
102
}
330
47
100
AcDbScale
 70
     0
300
3/32" = 1'-0"
140
0.09375
141
12.0
290
     0
  0
SCALE
  5
5E
102
{ACAD_REACTORS
330
47
102
}
330
47
100
AcDbScale
 70
     0
300
1/8" = 1'-0"
140
0.125
141
12.0
290
     0
  0
SCALE
  5
5F
102
{ACAD_REACTORS
330
47
102
}
330
47
100
AcDbScale
 70
     0
300
3/16" = 1'-0"
140
0.1875
141
12.0
290
     0
  0
SCALE
  5
60
102
{ACAD_REACTORS
330
47
102
}
330
47
100
AcDbScale
 70
     0
300
1/4" = 1'-0"
140
0.25
141
12.0
290
     0
  0
SCALE
  5
61
102
{ACAD_REACTORS
330
47
102
}
330
47
100
AcDbScale
 70
     0
300
3/8" = 1'-0"
140
0.375
141
12.0
290
     0
  0
SCALE
  5
62
102
{ACAD_REACTORS
330
47
102
}
330
47
100
AcDbScale
 70
     0
300
1/2" = 1'-0"
140
0.5
141
12.0
290
     0
  0
SCALE
  5
63
102
{ACAD_REACTORS
330
47
102
}
330
47
100
AcDbScale
 70
     0
300
3/4" = 1'-0"
140
0.75
141
12.0
290
     0
  0
SCALE
  5
64
102
{ACAD_REACTORS
330
47
102
}
330
47
100
AcDbScale
 70
     0
300
1" = 1'-0"
140
1.0
141
12.0
290
     0
  0
SCALE
  5
65
102
{ACAD_REACTORS
330
47
102
}
330
47
100
AcDbScale
 70
     0
300
1-1/2" = 1'-0"
140
1.5
141
12.0
290
     0
  0
SCALE
  5
66
102
{ACAD_REACTORS
330
47
102
}
330
47
100
AcDbScale
 70
     0
300
3" = 1'-0"
140
3.0
141
12.0
290
     0
  0
SCALE
  5
67
102
{ACAD_REACTORS
330
47
102
}
330
47
100
AcDbScale
 70
     0
300
6" = 1'-0"
140
6.0
141
12.0
290
     0
  0
SCALE
  5
68
102
{ACAD_REACTORS
330
47
102
}
330
47
100
AcDbScale
 70
     0
300
1'-0" = 1'-0"
140
12.0
141
12.0
290
     0
  0
ACDBSECTIONVIEWSTYLE
  5
10B
102
{ACAD_XDICTIONARY
360
911
102
}
102
{ACAD_REACTORS
330
105
102
}
330
105
100
AcDbModelDocViewStyle
 70
     0
  3
Metric50
290
     0
100
AcDbSectionViewStyle
 70
     0
 71
     0
 90
      102
 71
     1
340
11
 62
   256
 40
5.0
340
0
340
0
 62
   256
 40
5.0
300
I, O, Q, S, X, Z
 40
10.0
 90
        0
 40
2.5
 90
        0
 71
     2
340
16
 90
       25
 62
   256
340
16
 90
       50
 62
   256
 40
5.0
 40
2.5
 40
5.0
 71
     3
340
11
 62
   256
 40
5.0
 90
        0
 40
15.0
 90
        1
300
%<\AcVar ViewSectionStartId>%-%<\AcVar ViewSectionEndId>% (%<\AcVar ViewScale \f "%sn">%)
 71
     4
 62
   256
 62
   257
300
ANSI31
 40
1.0
 90
        0
290
     0
290
     0
 90
        6
 40
0.0
 40
1.570796326794896
 40
0.2617993877991494
 40
1.308996938995747
 40
-0.2617993877991494
 40
1.832595714594046
  0
TABLESTYLE
  5
6A
102
{ACAD_XDICTIONARY
360
FF
102
}
102
{ACAD_REACTORS
330
69
102
}
330
69
100
AcDbTableStyle
280
     0
  3
Standard
 70
     0
 71
     0
 40
1.5
 41
1.5
280
     0
281
     0
  7
Standard
140
4.5
170
     2
 62
     0
 63
     7
283
     0
 90
        4
 91
        0
  1

274
    -2
284
     1
 64
     0
275
    -2
285
     1
 65
     0
276
    -2
286
     1
 66
     0
277
    -2
287
     1
 67
     0
278
    -2
288
     1
 68
     0
279
    -2
289
     1
 69
     0
  7
Standard
140
6.0
170
     5
 62
     0
 63
     7
283
     0
 90
        4
 91
        0
  1

274
    -2
284
     1
 64
     0
275
    -2
285
     1
 65
     0
276
    -2
286
     1
 66
     0
277
    -2
287
     1
 67
     0
278
    -2
288
     1
 68
     0
279
    -2
289
     1
 69
     0
  7
Standard
140
4.5
170
     5
 62
     0
 63
     7
283
     0
 90
        4
 91
        0
  1

274
    -2
284
     1
 64
     0
275
    -2
285
     1
 65
     0
276
    -2
286
     1
 66
     0
277
    -2
287
     1
 67
     0
278
    -2
288
     1
 68
     0
279
    -2
289
     1
 69
     0
  0
VISUALSTYLE
  5
2F
102
{ACAD_REACTORS
330
2A
102
}
330
2A
100
AcDbVisualStyle
  2
2dWireframe
 70
     4
177
     3
291
     0
 70
    58
 90
        0
176
     1
 90
        2
176
     1
 90
        0
176
     1
 90
        0
176
     1
 40
0.6
176
     1
 40
30.0
176
     1
 62
     7
420
 16777215
176
     1
 90
        1
176
     1
 90
        4
176
     1
 62
     7
176
     1
 62
   257
176
     1
 90
        1
176
     1
 90
        1
176
     1
 40
1.0
176
     1
 90
        0
176
     1
 62
   257
176
     1
 40
1.0
176
     1
 90
        1
176
     1
 90
        6
176
     1
 90
        2
176
     1
 62
     7
176
     1
 90
        5
176
     1
 90
        0
176
     1
 90
        0
176
     1
290
     0
176
     1
 90
        1
176
     1
 40
0.0
176
     1
 90
        0
176
     1
290
     1
176
     1
290
     1
176
     1
290
     0
176
     1
290
     0
176
     1
290
     0
176
     1
290
     0
176
     1
290
     0
176
     1
290
     0
176
     1
290
     0
176
     1
 90
       50
176
     1
 40
0.0
176
     1
 40
1.0
176
     1
 90
        0
176
     1
 62
    18
176
     1
 90
       50
176
     1
 90
        3
176
     1
 62
     5
420
      255
176
     1
290
     0
176
     1
 90
       50
176
     1
 90
       50
176
     1
 90
       50
176
     1
290
     0
176
     1
 90
       50
176
     1
 62
   256
176
     0
 40
1.0
176
     0
 90
        2
176
     1
  1
strokes_ogs.tif
176
     1
290
     0
176
     1
 40
1.0
176
     1
 40
1.0
176
     1
1001
ACAD
1000
AcDbSavedByObjectVersion
1070
     0
  0
VISUALSTYLE
  5
7C7
102
{ACAD_REACTORS
330
2A
102
}
330
2A
100
AcDbVisualStyle
  2
3dWireframe
 70
     5
177
     3
291
     0
 70
    58
 90
        0
176
     1
 90
        2
176
     1
 90
        0
176
     1
 90
        0
176
     1
 40
0.6
176
     1
 40
30.0
176
     1
 62
     7
420
 16777215
176
     1
 90
        1
176
     1
 90
        4
176
     1
 62
     7
176
     1
 62
   257
176
     1
 90
        1
176
     1
 90
        1
176
     1
 40
1.0
176
     1
 90
        0
176
     1
 62
   257
176
     1
 40
1.0
176
     1
 90
        1
176
     1
 90
        6
176
     1
 90
        2
176
     1
 62
     7
176
     1
 90
        5
176
     1
 90
        0
176
     1
 90
        0
176
     1
290
     0
176
     1
 90
        1
176
     1
 40
0.0
176
     1
 90
        0
176
     1
290
     0
176
     1
290
     1
176
     1
290
     1
176
     1
290
     0
176
     1
290
     0
176
     1
290
     0
176
     1
290
     0
176
     1
290
     0
176
     1
290
     0
176
     1
 90
       50
176
     1
 40
0.0
176
     1
 40
1.0
176
     1
 90
        0
176
     1
 62
    18
420
        0
176
     1
 90
       50
176
     1
 90
        3
176
     1
 62
     5
420
      255
176
     1
290
     0
176
     1
 90
       50
176
     1
 90
       50
176
     1
 90
       50
176
     1
290
     0
176
     1
 90
       50
176
     1
 62
   256
176
     0
 40
1.0
176
     0
 90
        2
176
     1
  1
strokes_ogs.tif
176
     1
290
     0
176
     1
 40
1.0
176
     1
 40
1.0
176
     1
1001
ACAD
1000
AcDbSavedByObjectVersion
1070
     0
  0
VISUALSTYLE
  5
32
102
{ACAD_REACTORS
330
2A
102
}
330
2A
100
AcDbVisualStyle
  2
Basic
 70
     7
177
     3
291
     1
 70
    58
 90
        1
176
     1
 90
        0
176
     1
 90
        1
176
     1
 90
        0
176
     1
 40
0.6
176
     1
 40
30.0
176
     1
 62
     7
420
 16777215
176
     1
 90
        0
176
     1
 90
        4
176
     1
 62
     7
176
     1
 62
   257
176
     1
 90
        1
176
     1
 90
        1
176
     1
 40
1.0
176
     1
 90
        8
176
     1
 62
     7
176
     1
 40
1.0
176
     1
 90
        1
176
     1
 90
        6
176
     1
 90
        2
176
     1
 62
     7
176
     1
 90
        5
176
     1
 90
        0
176
     1
 90
        0
176
     1
290
     0
176
     1
 90
        1
176
     1
 40
0.0
176
     1
 90
        0
176
     1
290
     0
176
     1
290
     1
176
     1
290
     1
176
     1
290
     0
176
     1
290
     0
176
     1
290
     0
176
     1
290
     0
176
     1
290
     0
176
     1
290
     0
176
     1
 90
       50
176
     1
 40
0.0
176
     1
 40
1.0
176
     1
 90
        0
176
     1
 62
    18
176
     1
 90
       50
176
     1
 90
        3
176
     1
 62
     5
420
      255
176
     1
290
     0
176
     1
 90
       50
176
     1
 90
       50
176
     1
 90
       50
176
     1
290
     0
176
     1
 90
       50
176
     1
 62
   256
176
     0
 40
1.0
176
     0
 90
        2
176
     1
  1
strokes_ogs.tif
176
     1
290
     0
176
     1
 40
1.0
176
     1
 40
1.0
176
     1
1001
ACAD
1000
AcDbSavedByObjectVersion
1070
     0
  0
VISUALSTYLE
  5
36
102
{ACAD_REACTORS
330
2A
102
}
330
2A
100
AcDbVisualStyle
  2
Brighten
 70
    12
177
     3
291
     1
 70
    58
 90
        2
176
     1
 90
        2
176
     1
 90
        0
176
     1
 90
        0
176
     1
 40
0.6
176
     1
 40
30.0
176
     1
 62
     7
420
 16777215
176
     1
 90
        1
176
     1
 90
        4
176
     1
 62
     7
176
     1
 62
   257
176
     1
 90
        1
176
     1
 90
        1
176
     1
 40
1.0
176
     1
 90
        8
176
     1
 62
     7
176
     1
 40
1.0
176
     1
 90
        1
176
     1
 90
        6
176
     1
 90
        2
176
     1
 62
     7
176
     1
 90
        5
176
     1
 90
        0
176
     1
 90
        0
176
     1
290
     0
176
     1
 90
        1
176
     1
 40
50.0
176
     1
 90
        0
176
     1
290
     0
176
     1
290
     1
176
     1
290
     1
176
     1
290
     0
176
     1
290
     0
176
     1
290
     0
176
     1
290
     0
176
     1
290
     0
176
     1
290
     0
176
     1
 90
       50
176
     1
 40
0.0
176
     1
 40
1.0
176
     1
 90
        0
176
     1
 62
    18
176
     1
 90
       50
176
     1
 90
        3
176
     1
 62
     5
420
      255
176
     1
290
     0
176
     1
 90
       50
176
     1
 90
       50
176
     1
 90
       50
176
     1
290
     0
176
     1
 90
       50
176
     1
 62
   256
176
     0
 40
1.0
176
     0
 90
        2
176
     1
  1
strokes_ogs.tif
176
     1
290
     0
176
     1
 40
1.0
176
     1
 40
1.0
176
     1
1001
ACAD
1000
AcDbSavedByObjectVersion
1070
     0
  0
VISUALSTYLE
  5
3A
102
{ACAD_REACTORS
330
2A
102
}
330
2A
100
AcDbVisualStyle
  2
ColorChange
 70
    16
177
     3
291
     1
 70
    58
 90
        2
176
     1
 90
        2
176
     1
 90
        3
176
     1
 90
        0
176
     1
 40
0.6
176
     1
 40
30.0
176
     1
 62
     8
420
  8421504
176
     1
 90
        1
176
     1
 90
        4
176
     1
 62
     7
176
     1
 62
   257
176
     1
 90
        1
176
     1
 90
        1
176
     1
 40
1.0
176
     1
 90
        8
176
     1
 62
     8
420
  8421504
176
     1
 40
1.0
176
     1
 90
        1
176
     1
 90
        6
176
     1
 90
        2
176
     1
 62
     7
176
     1
 90
        5
176
     1
 90
        0
176
     1
 90
        0
176
     1
290
     0
176
     1
 90
        1
176
     1
 40
0.0
176
     1
 90
        0
176
     1
290
     0
176
     1
290
     1
176
     1
290
     1
176
     1
290
     0
176
     1
290
     0
176
     1
290
     0
176
     1
290
     0
176
     1
290
     0
176
     1
290
     0
176
     1
 90
       50
176
     1
 40
0.0
176
     1
 40
1.0
176
     1
 90
        0
176
     1
 62
    18
176
     1
 90
       50
176
     1
 90
        3
176
     1
 62
     5
420
      255
176
     1
290
     0
176
     1
 90
       50
176
     1
 90
       50
176
     1
 90
       50
176
     1
290
     0
176
     1
 90
       50
176
     1
 62
   256
176
     0
 40
1.0
176
     0
 90
        2
176
     1
  1
strokes_ogs.tif
176
     1
290
     0
176
     1
 40
1.0
176
     1
 40
1.0
176
     1
1001
ACAD
1000
AcDbSavedByObjectVersion
1070
     0
  0
VISUALSTYLE
  5
34
102
{ACAD_REACTORS
330
2A
102
}
330
2A
100
AcDbVisualStyle
  2
Conceptual
 70
     9
177
     3
291
     0
 70
    58
 90
        3
176
     1
 90
        2
176
     1
 90
        0
176
     1
 90
        0
176
     1
 40
0.6
176
     1
 40
30.0
176
     1
 62
     7
420
 16777215
176
     1
 90
        2
176
     1
 90
        2
176
     1
 62
     7
176
     1
 62
   257
176
     1
 90
        1
176
     1
 90
        1
176
     1
 40
179.0
176
     1
 90
        8
176
     1
 62
     7
176
     1
 40
1.0
176
     1
 90
        1
176
     1
 90
        6
176
     1
 90
        2
176
     1
 62
     7
176
     1
 90
        3
176
     1
 90
        0
176
     1
 90
        0
176
     1
290
     0
176
     1
 90
        1
176
     1
 40
0.0
176
     1
 90
        0
176
     1
290
     0
176
     1
290
     1
176
     1
290
     1
176
     1
290
     0
176
     1
290
     0
176
     1
290
     0
176
     1
290
     0
176
     1
290
     0
176
     1
290
     0
176
     1
 90
       50
176
     1
 40
0.0
176
     1
 40
1.0
176
     1
 90
        0
176
     1
 62
    18
176
     1
 90
       50
176
     1
 90
        3
176
     1
 62
     5
420
      255
176
     1
290
     0
176
     1
 90
       50
176
     1
 90
       50
176
     1
 90
       50
176
     1
290
     0
176
     1
 90
       50
176
     1
 62
   256
176
     0
 40
1.0
176
     0
 90
        2
176
     1
  1
strokes_ogs.tif
176
     1
290
     0
176
     1
 40
1.0
176
     1
 40
1.0
176
     1
1001
ACAD
1000
AcDbSavedByObjectVersion
1070
     0
  0
VISUALSTYLE
  5
35
102
{ACAD_REACTORS
330
2A
102
}
330
2A
100
AcDbVisualStyle
  2
Dim
 70
    11
177
     3
291
     1
 70
    58
 90
        2
176
     1
 90
        2
176
     1
 90
        0
176
     1
 90
        0
176
     1
 40
0.6
176
     1
 40
30.0
176
     1
 62
     7
420
 16777215
176
     1
 90
        1
176
     1
 90
        4
176
     1
 62
     7
176
     1
 62
   257
176
     1
 90
        1
176
     1
 90
        1
176
     1
 40
1.0
176
     1
 90
        8
176
     1
 62
     7
176
     1
 40
1.0
176
     1
 90
        1
176
     1
 90
        6
176
     1
 90
        2
176
     1
 62
     7
176
     1
 90
        5
176
     1
 90
        0
176
     1
 90
        0
176
     1
290
     0
176
     1
 90
        1
176
     1
 40
-50.0
176
     1
 90
        0
176
     1
290
     0
176
     1
290
     1
176
     1
290
     1
176
     1
290
     0
176
     1
290
     0
176
     1
290
     0
176
     1
290
     0
176
     1
290
     0
176
     1
290
     0
176
     1
 90
       50
176
     1
 40
0.0
176
     1
 40
1.0
176
     1
 90
        0
176
     1
 62
    18
176
     1
 90
       50
176
     1
 90
        3
176
     1
 62
     5
420
      255
176
     1
290
     0
176
     1
 90
       50
176
     1
 90
       50
176
     1
 90
       50
176
     1
290
     0
176
     1
 90
       50
176
     1
 62
   256
176
     0
 40
1.0
176
     0
 90
        2
176
     1
  1
strokes_ogs.tif
176
     1
290
     0
176
     1
 40
1.0
176
     1
 40
1.0
176
     1
1001
ACAD
1000
AcDbSavedByObjectVersion
1070
     0
  0
VISUALSTYLE
  5
3D
102
{ACAD_REACTORS
330
2A
102
}
330
2A
100
AcDbVisualStyle
  2
EdgeColorOff
 70
    22
177
     3
291
     1
 70
    58
 90
        2
176
     0
 90
        2
176
     0
 90
        0
176
     0
 90
        0
176
     0
 40
0.6
176
     0
 40
30.0
176
     0
 62
     7
420
 16777215
176
     0
 90
        1
176
     0
 90
        4
176
     0
 62
     7
176
     0
 62
   257
176
     0
 90
        1
176
     0
 90
        1
176
     0
 40
1.0
176
     0
 90
        8
176
     2
 62
     7
176
     0
 40
1.0
176
     0
 90
        1
176
     0
 90
        6
176
     0
 90
        2
176
     0
 62
     7
176
     0
 90
        5
176
     0
 90
        0
176
     0
 90
        0
176
     0
290
     0
176
     0
 90
        1
176
     0
 40
0.0
176
     0
 90
        0
176
     0
290
     0
176
     0
290
     1
176
     0
290
     1
176
     0
290
     0
176
     0
290
     0
176
     0
290
     0
176
     0
290
     0
176
     0
290
     0
176
     0
290
     0
176
     0
 90
       50
176
     0
 40
0.0
176
     0
 40
1.0
176
     0
 90
        0
176
     0
 62
    18
176
     0
 90
       50
176
     0
 90
        3
176
     0
 62
     5
420
      255
176
     0
290
     0
176
     0
 90
       50
176
     0
 90
       50
176
     0
 90
       50
176
     0
290
     0
176
     0
 90
       50
176
     0
 62
   256
176
     0
 40
1.0
176
     0
 90
        2
176
     0
  1
strokes_ogs.tif
176
     0
290
     0
176
     0
 40
1.0
176
     0
 40
1.0
176
     0
1001
ACAD
1000
AcDbSavedByObjectVersion
1070
     0
  0
VISUALSTYLE
  5
39
102
{ACAD_REACTORS
330
2A
102
}
330
2A
100
AcDbVisualStyle
  2
Facepattern
 70
    15
177
     3
291
     1
 70
    58
 90
        2
176
     1
 90
        2
176
     1
 90
        0
176
     1
 90
        0
176
     1
 40
0.6
176
     1
 40
30.0
176
     1
 62
     7
420
 16777215
176
     1
 90
        1
176
     1
 90
        4
176
     1
 62
     7
176
     1
 62
   257
176
     1
 90
        1
176
     1
 90
        1
176
     1
 40
1.0
176
     1
 90
        8
176
     1
 62
     7
176
     1
 40
1.0
176
     1
 90
        1
176
     1
 90
        6
176
     1
 90
        2
176
     1
 62
     7
176
     1
 90
        5
176
     1
 90
        0
176
     1
 90
        0
176
     1
290
     0
176
     1
 90
        1
176
     1
 40
0.0
176
     1
 90
        0
176
     1
290
     0
176
     1
290
     1
176
     1
290
     1
176
     1
290
     0
176
     1
290
     0
176
     1
290
     0
176
     1
290
     0
176
     1
290
     0
176
     1
290
     0
176
     1
 90
       50
176
     1
 40
0.0
176
     1
 40
1.0
176
     1
 90
        0
176
     1
 62
    18
176
     1
 90
       50
176
     1
 90
        3
176
     1
 62
     5
420
      255
176
     1
290
     0
176
     1
 90
       50
176
     1
 90
       50
176
     1
 90
       50
176
     1
290
     0
176
     1
 90
       50
176
     1
 62
   256
176
     0
 40
1.0
176
     0
 90
        2
176
     1
  1
strokes_ogs.tif
176
     1
290
     0
176
     1
 40
1.0
176
     1
 40
1.0
176
     1
1001
ACAD
1000
AcDbSavedByObjectVersion
1070
     0
  0
VISUALSTYLE
  5
2B
102
{ACAD_REACTORS
330
2A
102
}
330
2A
100
AcDbVisualStyle
  2
Flat
 70
     0
177
     3
291
     1
 70
    58
 90
        2
176
     1
 90
        1
176
     1
 90
        1
176
     1
 90
        2
176
     1
 40
0.6
176
     1
 40
30.0
176
     1
 62
     7
420
 16777215
176
     1
 90
        0
176
     1
 90
        0
176
     1
 62
     7
176
     1
 62
   257
176
     1
 90
        1
176
     1
 90
        1
176
     1
 40
1.0
176
     1
 90
        8
176
     1
 62
     7
176
     1
 40
1.0
176
     1
 90
        1
176
     1
 90
        6
176
     1
 90
        2
176
     1
 62
     7
176
     1
 90
        5
176
     1
 90
        0
176
     1
 90
        0
176
     1
290
     0
176
     1
 90
       13
176
     1
 40
0.0
176
     1
 90
        0
176
     1
290
     0
176
     1
290
     1
176
     1
290
     1
176
     1
290
     0
176
     1
290
     0
176
     1
290
     0
176
     1
290
     0
176
     1
290
     0
176
     1
290
     0
176
     1
 90
       50
176
     1
 40
0.0
176
     1
 40
1.0
176
     1
 90
        0
176
     1
 62
    18
176
     1
 90
       50
176
     1
 90
        3
176
     1
 62
     5
420
      255
176
     1
290
     0
176
     1
 90
       50
176
     1
 90
       50
176
     1
 90
       50
176
     1
290
     0
176
     1
 90
       50
176
     1
 62
   256
176
     0
 40
1.0
176
     0
 90
        2
176
     1
  1
strokes_ogs.tif
176
     1
290
     0
176
     1
 40
1.0
176
     1
 40
1.0
176
     1
1001
ACAD
1000
AcDbSavedByObjectVersion
1070
     0
  0
VISUALSTYLE
  5
2C
102
{ACAD_REACTORS
330
2A
102
}
330
2A
100
AcDbVisualStyle
  2
FlatWithEdges
 70
     1
177
     3
291
     1
 70
    58
 90
        2
176
     1
 90
        1
176
     1
 90
        1
176
     1
 90
        2
176
     1
 40
0.6
176
     1
 40
30.0
176
     1
 62
     7
420
 16777215
176
     1
 90
        1
176
     1
 90
        0
176
     1
 62
     7
176
     1
 62
   257
176
     1
 90
        1
176
     1
 90
        1
176
     1
 40
1.0
176
     1
 90
        0
176
     1
 62
   257
176
     1
 40
1.0
176
     1
 90
        1
176
     1
 90
        6
176
     1
 90
        2
176
     1
 62
     7
176
     1
 90
        5
176
     1
 90
        0
176
     1
 90
        0
176
     1
290
     0
176
     1
 90
       13
176
     1
 40
0.0
176
     1
 90
        0
176
     1
290
     0
176
     1
290
     1
176
     1
290
     1
176
     1
290
     0
176
     1
290
     0
176
     1
290
     0
176
     1
290
     0
176
     1
290
     0
176
     1
290
     0
176
     1
 90
       50
176
     1
 40
0.0
176
     1
 40
1.0
176
     1
 90
        0
176
     1
 62
    18
176
     1
 90
       50
176
     1
 90
        3
176
     1
 62
     5
420
      255
176
     1
290
     0
176
     1
 90
       50
176
     1
 90
       50
176
     1
 90
       50
176
     1
290
     0
176
     1
 90
       50
176
     1
 62
   256
176
     0
 40
1.0
176
     0
 90
        2
176
     1
  1
strokes_ogs.tif
176
     1
290
     0
176
     1
 40
1.0
176
     1
 40
1.0
176
     1
1001
ACAD
1000
AcDbSavedByObjectVersion
1070
     0
  0
VISUALSTYLE
  5
2D
102
{ACAD_REACTORS
330
2A
102
}
330
2A
100
AcDbVisualStyle
  2
Gouraud
 70
     2
177
     3
291
     1
 70
    58
 90
        2
176
     1
 90
        2
176
     1
 90
        1
176
     1
 90
        2
176
     1
 40
0.6
176
     1
 40
30.0
176
     1
 62
     7
420
 16777215
176
     1
 90
        0
176
     1
 90
        0
176
     1
 62
     7
176
     1
 62
   257
176
     1
 90
        1
176
     1
 90
        1
176
     1
 40
1.0
176
     1
 90
        0
176
     1
 62
     7
176
     1
 40
1.0
176
     1
 90
        1
176
     1
 90
        6
176
     1
 90
        2
176
     1
 62
     7
176
     1
 90
        5
176
     1
 90
        0
176
     1
 90
        0
176
     1
290
     0
176
     1
 90
       13
176
     1
 40
0.0
176
     1
 90
        0
176
     1
290
     0
176
     1
290
     1
176
     1
290
     1
176
     1
290
     0
176
     1
290
     0
176
     1
290
     0
176
     1
290
     0
176
     1
290
     0
176
     1
290
     0
176
     1
 90
       50
176
     1
 40
0.0
176
     1
 40
1.0
176
     1
 90
        0
176
     1
 62
    18
176
     1
 90
       50
176
     1
 90
        3
176
     1
 62
     5
420
      255
176
     1
290
     0
176
     1
 90
       50
176
     1
 90
       50
176
     1
 90
       50
176
     1
290
     0
176
     1
 90
       50
176
     1
 62
   256
176
     0
 40
1.0
176
     0
 90
        2
176
     1
  1
strokes_ogs.tif
176
     1
290
     0
176
     1
 40
1.0
176
     1
 40
1.0
176
     1
1001
ACAD
1000
AcDbSavedByObjectVersion
1070
     0
  0
VISUALSTYLE
  5
2E
102
{ACAD_REACTORS
330
2A
102
}
330
2A
100
AcDbVisualStyle
  2
GouraudWithEdges
 70
     3
177
     3
291
     1
 70
    58
 90
        2
176
     1
 90
        2
176
     1
 90
        1
176
     1
 90
        2
176
     1
 40
0.6
176
     1
 40
30.0
176
     1
 62
     7
420
 16777215
176
     1
 90
        1
176
     1
 90
        0
176
     1
 62
     7
176
     1
 62
   257
176
     1
 90
        1
176
     1
 90
        1
176
     1
 40
1.0
176
     1
 90
        0
176
     1
 62
   257
176
     1
 40
1.0
176
     1
 90
        1
176
     1
 90
        6
176
     1
 90
        2
176
     1
 62
     7
176
     1
 90
        5
176
     1
 90
        0
176
     1
 90
        0
176
     1
290
     0
176
     1
 90
       13
176
     1
 40
0.0
176
     1
 90
        0
176
     1
290
     0
176
     1
290
     1
176
     1
290
     1
176
     1
290
     0
176
     1
290
     0
176
     1
290
     0
176
     1
290
     0
176
     1
290
     0
176
     1
290
     0
176
     1
 90
       50
176
     1
 40
0.0
176
     1
 40
1.0
176
     1
 90
        0
176
     1
 62
    18
176
     1
 90
       50
176
     1
 90
        3
176
     1
 62
     5
420
      255
176
     1
290
     0
176
     1
 90
       50
176
     1
 90
       50
176
     1
 90
       50
176
     1
290
     0
176
     1
 90
       50
176
     1
 62
   256
176
     0
 40
1.0
176
     0
 90
        2
176
     1
  1
strokes_ogs.tif
176
     1
290
     0
176
     1
 40
1.0
176
     1
 40
1.0
176
     1
1001
ACAD
1000
AcDbSavedByObjectVersion
1070
     0
  0
VISUALSTYLE
  5
31
102
{ACAD_REACTORS
330
2A
102
}
330
2A
100
AcDbVisualStyle
  2
Hidden
 70
     6
177
     3
291
     0
 70
    58
 90
        1
176
     1
 90
        2
176
     1
 90
        2
176
     1
 90
        0
176
     1
 40
0.6
176
     1
 40
30.0
176
     1
 62
     7
420
 16777215
176
     1
 90
        2
176
     1
 90
        2
176
     1
 62
     7
176
     1
 62
   257
176
     1
 90
        2
176
     1
 90
        1
176
     1
 40
40.0
176
     1
 90
        0
176
     1
 62
   257
176
     1
 40
1.0
176
     1
 90
        1
176
     1
 90
        6
176
     1
 90
        2
176
     1
 62
     7
176
     1
 90
        3
176
     1
 90
        0
176
     1
 90
        0
176
     1
290
     0
176
     1
 90
        1
176
     1
 40
0.0
176
     1
 90
        0
176
     1
290
     0
176
     1
290
     1
176
     1
290
     1
176
     1
290
     0
176
     1
290
     0
176
     1
290
     0
176
     1
290
     0
176
     1
290
     0
176
     1
290
     0
176
     1
 90
       50
176
     1
 40
0.0
176
     1
 40
1.0
176
     1
 90
        0
176
     1
 62
    18
176
     1
 90
       50
176
     1
 90
        3
176
     1
 62
     5
420
      255
176
     1
290
     0
176
     1
 90
       50
176
     1
 90
       50
176
     1
 90
       50
176
     1
290
     0
176
     1
 90
       50
176
     1
 62
   256
176
     0
 40
1.0
176
     0
 90
        2
176
     1
  1
strokes_ogs.tif
176
     1
290
     0
176
     1
 40
1.0
176
     1
 40
1.0
176
     1
1001
ACAD
1000
AcDbSavedByObjectVersion
1070
     0
  0
VISUALSTYLE
  5
3B
102
{ACAD_REACTORS
330
2A
102
}
330
2A
100
AcDbVisualStyle
  2
JitterOff
 70
    20
177
     3
291
     1
 70
    58
 90
        2
176
     0
 90
        2
176
     0
 90
        0
176
     0
 90
        0
176
     0
 40
0.6
176
     0
 40
30.0
176
     0
 62
     7
420
 16777215
176
     0
 90
        1
176
     0
 90
        4
176
     0
 62
     7
176
     0
 62
   257
176
     0
 90
        1
176
     0
 90
        1
176
     0
 40
1.0
176
     0
 90
       10
176
     2
 62
     7
176
     0
 40
1.0
176
     0
 90
        1
176
     0
 90
        6
176
     0
 90
        2
176
     0
 62
     7
176
     0
 90
        5
176
     0
 90
        0
176
     0
 90
        0
176
     0
290
     0
176
     0
 90
        1
176
     0
 40
0.0
176
     0
 90
        0
176
     0
290
     0
176
     0
290
     1
176
     0
290
     1
176
     0
290
     0
176
     0
290
     0
176
     0
290
     0
176
     0
290
     0
176
     0
290
     0
176
     0
290
     0
176
     0
 90
       50
176
     0
 40
0.0
176
     0
 40
1.0
176
     0
 90
        0
176
     0
 62
    18
176
     0
 90
       50
176
     0
 90
        3
176
     0
 62
     5
420
      255
176
     0
290
     0
176
     0
 90
       50
176
     0
 90
       50
176
     0
 90
       50
176
     0
290
     0
176
     0
 90
       50
176
     0
 62
   256
176
     0
 40
1.0
176
     0
 90
        2
176
     0
  1
strokes_ogs.tif
176
     0
290
     0
176
     0
 40
1.0
176
     0
 40
1.0
176
     0
1001
ACAD
1000
AcDbSavedByObjectVersion
1070
     0
  0
VISUALSTYLE
  5
38
102
{ACAD_REACTORS
330
2A
102
}
330
2A
100
AcDbVisualStyle
  2
Linepattern
 70
    14
177
     3
291
     1
 70
    58
 90
        2
176
     1
 90
        2
176
     1
 90
        0
176
     1
 90
        0
176
     1
 40
0.6
176
     1
 40
30.0
176
     1
 62
     7
420
 16777215
176
     1
 90
        1
176
     1
 90
        4
176
     1
 62
     7
176
     1
 62
   257
176
     1
 90
        7
176
     1
 90
        7
176
     1
 40
1.0
176
     1
 90
        8
176
     1
 62
     7
176
     1
 40
1.0
176
     1
 90
        1
176
     1
 90
        6
176
     1
 90
        2
176
     1
 62
     7
176
     1
 90
        5
176
     1
 90
        0
176
     1
 90
        0
176
     1
290
     0
176
     1
 90
        1
176
     1
 40
0.0
176
     1
 90
        0
176
     1
290
     0
176
     1
290
     1
176
     1
290
     1
176
     1
290
     0
176
     1
290
     0
176
     1
290
     0
176
     1
290
     0
176
     1
290
     0
176
     1
290
     0
176
     1
 90
       50
176
     1
 40
0.0
176
     1
 40
1.0
176
     1
 90
        0
176
     1
 62
    18
176
     1
 90
       50
176
     1
 90
        3
176
     1
 62
     5
420
      255
176
     1
290
     0
176
     1
 90
       50
176
     1
 90
       50
176
     1
 90
       50
176
     1
290
     0
176
     1
 90
       50
176
     1
 62
   256
176
     0
 40
1.0
176
     0
 90
        2
176
     1
  1
strokes_ogs.tif
176
     1
290
     0
176
     1
 40
1.0
176
     1
 40
1.0
176
     1
1001
ACAD
1000
AcDbSavedByObjectVersion
1070
     0
  0
VISUALSTYLE
  5
3C
102
{ACAD_REACTORS
330
2A
102
}
330
2A
100
AcDbVisualStyle
  2
OverhangOff
 70
    21
177
     3
291
     1
 70
    58
 90
        2
176
     0
 90
        2
176
     0
 90
        0
176
     0
 90
        0
176
     0
 40
0.6
176
     0
 40
30.0
176
     0
 62
     7
420
 16777215
176
     0
 90
        1
176
     0
 90
        4
176
     0
 62
     7
176
     0
 62
   257
176
     0
 90
        1
176
     0
 90
        1
176
     0
 40
1.0
176
     0
 90
        9
176
     2
 62
     7
176
     0
 40
1.0
176
     0
 90
        1
176
     0
 90
        6
176
     0
 90
        2
176
     0
 62
     7
176
     0
 90
        5
176
     0
 90
        0
176
     0
 90
        0
176
     0
290
     0
176
     0
 90
        1
176
     0
 40
0.0
176
     0
 90
        0
176
     0
290
     0
176
     0
290
     1
176
     0
290
     1
176
     0
290
     0
176
     0
290
     0
176
     0
290
     0
176
     0
290
     0
176
     0
290
     0
176
     0
290
     0
176
     0
 90
       50
176
     0
 40
0.0
176
     0
 40
1.0
176
     0
 90
        0
176
     0
 62
    18
176
     0
 90
       50
176
     0
 90
        3
176
     0
 62
     5
420
      255
176
     0
290
     0
176
     0
 90
       50
176
     0
 90
       50
176
     0
 90
       50
176
     0
290
     0
176
     0
 90
       50
176
     0
 62
   256
176
     0
 40
1.0
176
     0
 90
        2
176
     0
  1
strokes_ogs.tif
176
     0
290
     0
176
     0
 40
1.0
176
     0
 40
1.0
176
     0
1001
ACAD
1000
AcDbSavedByObjectVersion
1070
     0
  0
VISUALSTYLE
  5
33
102
{ACAD_REACTORS
330
2A
102
}
330
2A
100
AcDbVisualStyle
  2
Realistic
 70
     8
177
     3
291
     0
 70
    58
 90
        2
176
     1
 90
        3
176
     1
 90
        0
176
     1
 90
        2
176
     1
 40
0.6
176
     1
 40
30.0
176
     1
 62
     7
420
 16777215
176
     1
 90
        0
176
     1
 90
        0
176
     1
 62
     7
176
     1
 62
   257
176
     1
 90
        1
176
     1
 90
        1
176
     1
 40
1.0
176
     1
 90
        8
176
     1
 62
   257
176
     1
 40
1.0
176
     1
 90
        1
176
     1
 90
        6
176
     1
 90
        2
176
     1
 62
     7
176
     1
 90
        3
176
     1
 90
        0
176
     1
 90
        0
176
     1
290
     0
176
     1
 90
       13
176
     1
 40
0.0
176
     1
 90
        0
176
     1
290
     0
176
     1
290
     1
176
     1
290
     1
176
     1
290
     0
176
     1
290
     0
176
     1
290
     0
176
     1
290
     0
176
     1
290
     0
176
     1
290
     0
176
     1
 90
       50
176
     1
 40
0.0
176
     1
 40
1.0
176
     1
 90
        0
176
     1
 62
    18
176
     1
 90
       50
176
     1
 90
        3
176
     1
 62
     5
420
      255
176
     1
290
     0
176
     1
 90
       50
176
     1
 90
       50
176
     1
 90
       50
176
     1
290
     0
176
     1
 90
       50
176
     1
 62
   256
176
     0
 40
1.0
176
     0
 90
        2
176
     1
  1
strokes_ogs.tif
176
     1
290
     0
176
     1
 40
1.0
176
     1
 40
1.0
176
     1
1001
ACAD
1000
AcDbSavedByObjectVersion
1070
     0
  0
VISUALSTYLE
  5
42
102
{ACAD_REACTORS
330
2A
102
}
330
2A
100
AcDbVisualStyle
  2
Shaded
 70
    27
177
     3
291
     0
 70
    58
 90
        2
176
     1
 90
        2
176
     1
 90
        1
176
     1
 90
        2
176
     1
 40
0.6
176
     1
 40
30.0
176
     1
 62
     7
420
 16777215
176
     1
 90
        0
176
     1
 90
        4
176
     1
 62
     7
176
     1
 62
   257
176
     1
 90
        1
176
     1
 90
        1
176
     1
 40
1.0
176
     1
 90
        8
176
     1
 62
   257
176
     1
 40
1.0
176
     1
 90
        1
176
     1
 90
        6
176
     1
 90
        2
176
     1
 62
     8
420
  7895160
176
     1
 90
        3
176
     1
 90
        0
176
     1
 90
        0
176
     1
290
     0
176
     1
 90
        5
176
     1
 40
0.0
176
     1
 90
        0
176
     1
290
     0
176
     1
290
     1
176
     1
290
     1
176
     1
290
     0
176
     1
290
     0
176
     1
290
     0
176
     1
290
     0
176
     1
290
     0
176
     1
290
     0
176
     1
 90
       50
176
     1
 40
0.0
176
     1
 40
1.0
176
     1
 90
        0
176
     1
 62
    18
176
     1
 90
       50
176
     1
 90
        3
176
     1
 62
     5
420
      255
176
     1
290
     0
176
     1
 90
       50
176
     1
 90
       50
176
     1
 90
       50
176
     1
290
     0
176
     1
 90
       50
176
     1
 62
   256
176
     0
 40
1.0
176
     0
 90
        2
176
     1
  1
strokes_ogs.tif
176
     1
290
     0
176
     1
 40
1.0
176
     1
 40
1.0
176
     1
1001
ACAD
1000
AcDbSavedByObjectVersion
1070
     0
  0
VISUALSTYLE
  5
41
102
{ACAD_REACTORS
330
2A
102
}
330
2A
100
AcDbVisualStyle
  2
Shaded with edges
 70
    26
177
     3
291
     0
 70
    58
 90
        2
176
     1
 90
        2
176
     1
 90
        1
176
     1
 90
        2
176
     1
 40
0.6
176
     1
 40
30.0
176
     1
 62
     7
420
 16777215
176
     1
 90
        1
176
     1
 90
        2
176
     1
 62
     7
176
     1
 62
   257
176
     1
 90
        2
176
     1
 90
        1
176
     1
 40
1.0
176
     1
 90
        8
176
     1
 62
   257
176
     1
 40
1.0
176
     1
 90
        1
176
     1
 90
        6
176
     1
 90
        2
176
     1
 62
     7
176
     1
 90
        3
176
     1
 90
        0
176
     1
 90
        0
176
     1
290
     0
176
     1
 90
        5
176
     1
 40
0.0
176
     1
 90
        0
176
     1
290
     0
176
     1
290
     1
176
     1
290
     1
176
     1
290
     0
176
     1
290
     0
176
     1
290
     0
176
     1
290
     0
176
     1
290
     0
176
     1
290
     0
176
     1
 90
       50
176
     1
 40
0.0
176
     1
 40
1.0
176
     1
 90
        0
176
     1
 62
    18
176
     1
 90
       50
176
     1
 90
        3
176
     1
 62
     5
420
      255
176
     1
290
     0
176
     1
 90
       50
176
     1
 90
       50
176
     1
 90
       50
176
     1
290
     0
176
     1
 90
       50
176
     1
 62
   256
176
     0
 40
1.0
176
     0
 90
        2
176
     1
  1
strokes_ogs.tif
176
     1
290
     0
176
     1
 40
1.0
176
     1
 40
1.0
176
     1
1001
ACAD
1000
AcDbSavedByObjectVersion
1070
     0
  0
VISUALSTYLE
  5
3E
102
{ACAD_REACTORS
330
2A
102
}
330
2A
100
AcDbVisualStyle
  2
Shades of Gray
 70
    23
177
     3
291
     0
 70
    58
 90
        2
176
     1
 90
        2
176
     1
 90
        3
176
     1
 90
        0
176
     1
 40
0.6
176
     1
 40
30.0
176
     1
 62
     7
420
 16777215
176
     1
 90
        2
176
     1
 90
        2
176
     1
 62
     7
176
     1
 62
     7
176
     1
 90
        1
176
     1
 90
        1
176
     1
 40
40.0
176
     1
 90
        8
176
     1
 62
     7
176
     1
 40
1.0
176
     1
 90
        1
176
     1
 90
        6
176
     1
 90
        2
176
     1
 62
     7
176
     1
 90
        3
176
     1
 90
        0
176
     1
 90
        0
176
     1
290
     0
176
     1
 90
        1
176
     1
 40
0.0
176
     1
 90
        0
176
     1
290
     0
176
     1
290
     1
176
     1
290
     1
176
     1
290
     0
176
     1
290
     0
176
     1
290
     0
176
     1
290
     0
176
     1
290
     0
176
     1
290
     0
176
     1
 90
       50
176
     1
 40
0.0
176
     1
 40
1.0
176
     1
 90
        0
176
     1
 62
    18
176
     1
 90
       50
176
     1
 90
        3
176
     1
 62
     5
420
      255
176
     1
290
     0
176
     1
 90
       50
176
     1
 90
       50
176
     1
 90
       50
176
     1
290
     0
176
     1
 90
       50
176
     1
 62
   256
176
     0
 40
1.0
176
     0
 90
        2
176
     1
  1
strokes_ogs.tif
176
     1
290
     0
176
     1
 40
1.0
176
     1
 40
1.0
176
     1
1001
ACAD
1000
AcDbSavedByObjectVersion
1070
     0
  0
VISUALSTYLE
  5
3F
102
{ACAD_REACTORS
330
2A
102
}
330
2A
100
AcDbVisualStyle
  2
Sketchy
 70
    24
177
     3
291
     0
 70
    58
 90
        1
176
     1
 90
        2
176
     1
 90
        2
176
     1
 90
        0
176
     1
 40
0.6
176
     1
 40
30.0
176
     1
 62
     7
420
 16777215
176
     1
 90
        2
176
     1
 90
        2
176
     1
 62
     7
176
     1
 62
     7
176
     1
 90
        1
176
     1
 90
        1
176
     1
 40
40.0
176
     1
 90
       11
176
     1
 62
     7
176
     1
 40
1.0
176
     1
 90
        1
176
     1
 90
        6
176
     1
 90
        2
176
     1
 62
     7
176
     1
 90
        6
176
     1
 90
        0
176
     1
 90
        0
176
     1
290
     0
176
     1
 90
        1
176
     1
 40
0.0
176
     1
 90
        0
176
     1
290
     0
176
     1
290
     1
176
     1
290
     1
176
     1
290
     0
176
     1
290
     0
176
     1
290
     0
176
     1
290
     0
176
     1
290
     0
176
     1
290
     0
176
     1
 90
       50
176
     1
 40
0.0
176
     1
 40
1.0
176
     1
 90
        0
176
     1
 62
    18
176
     1
 90
       50
176
     1
 90
        3
176
     1
 62
     5
420
      255
176
     1
290
     0
176
     1
 90
       50
176
     1
 90
       50
176
     1
 90
       50
176
     1
290
     0
176
     1
 90
       50
176
     1
 62
   256
176
     0
 40
1.0
176
     0
 90
        2
176
     1
  1
strokes_ogs.tif
176
     1
290
     0
176
     1
 40
1.0
176
     1
 40
1.0
176
     1
1001
ACAD
1000
AcDbSavedByObjectVersion
1070
     0
  0
VISUALSTYLE
  5
37
102
{ACAD_REACTORS
330
2A
102
}
330
2A
100
AcDbVisualStyle
  2
Thicken
 70
    13
177
     3
291
     1
 70
    58
 90
        2
176
     1
 90
        2
176
     1
 90
        0
176
     1
 90
        0
176
     1
 40
0.6
176
     1
 40
30.0
176
     1
 62
     7
420
 16777215
176
     1
 90
        1
176
     1
 90
        4
176
     1
 62
     7
176
     1
 62
   257
176
     1
 90
        1
176
     1
 90
        1
176
     1
 40
1.0
176
     1
 90
       12
176
     1
 62
     7
176
     1
 40
1.0
176
     1
 90
        1
176
     1
 90
        6
176
     1
 90
        2
176
     1
 62
     7
176
     1
 90
        5
176
     1
 90
        0
176
     1
 90
        0
176
     1
290
     0
176
     1
 90
        1
176
     1
 40
0.0
176
     1
 90
        0
176
     1
290
     0
176
     1
290
     1
176
     1
290
     1
176
     1
290
     0
176
     1
290
     0
176
     1
290
     0
176
     1
290
     0
176
     1
290
     0
176
     1
290
     0
176
     1
 90
       50
176
     1
 40
0.0
176
     1
 40
1.0
176
     1
 90
        0
176
     1
 62
    18
176
     1
 90
       50
176
     1
 90
        3
176
     1
 62
     5
420
      255
176
     1
290
     0
176
     1
 90
       50
176
     1
 90
       50
176
     1
 90
       50
176
     1
290
     0
176
     1
 90
       50
176
     1
 62
   256
176
     0
 40
1.0
176
     0
 90
        2
176
     1
  1
strokes_ogs.tif
176
     1
290
     0
176
     1
 40
1.0
176
     1
 40
1.0
176
     1
1001
ACAD
1000
AcDbSavedByObjectVersion
1070
     0
  0
VISUALSTYLE
  5
30
102
{ACAD_REACTORS
330
2A
102
}
330
2A
100
AcDbVisualStyle
  2
Wireframe
 70
     5
177
     3
291
     0
 70
    58
 90
        0
176
     1
 90
        2
176
     1
 90
        0
176
     1
 90
        0
176
     1
 40
0.6
176
     1
 40
30.0
176
     1
 62
     7
420
 16777215
176
     1
 90
        1
176
     1
 90
        4
176
     1
 62
     7
176
     1
 62
   257
176
     1
 90
        1
176
     1
 90
        1
176
     1
 40
1.0
176
     1
 90
        0
176
     1
 62
   257
176
     1
 40
1.0
176
     1
 90
        1
176
     1
 90
        6
176
     1
 90
        2
176
     1
 62
     7
176
     1
 90
        3
176
     1
 90
        0
176
     1
 90
        0
176
     1
290
     0
176
     1
 90
        1
176
     1
 40
0.0
176
     1
 90
        0
176
     1
290
     0
176
     1
290
     1
176
     1
290
     1
176
     1
290
     0
176
     1
290
     0
176
     1
290
     0
176
     1
290
     0
176
     1
290
     0
176
     1
290
     0
176
     1
 90
       50
176
     1
 40
0.0
176
     1
 40
1.0
176
     1
 90
        0
176
     1
 62
    18
176
     1
 90
       50
176
     1
 90
        3
176
     1
 62
     5
420
      255
176
     1
290
     0
176
     1
 90
       50
176
     1
 90
       50
176
     1
 90
       50
176
     1
290
     0
176
     1
 90
       50
176
     1
 62
   256
176
     0
 40
1.0
176
     0
 90
        2
176
     1
  1
strokes_ogs.tif
176
     1
290
     0
176
     1
 40
1.0
176
     1
 40
1.0
176
     1
1001
ACAD
1000
AcDbSavedByObjectVersion
1070
     0
  0
VISUALSTYLE
  5
40
102
{ACAD_REACTORS
330
2A
102
}
330
2A
100
AcDbVisualStyle
  2
X-Ray
 70
    25
177
     3
291
     0
 70
    58
 90
        2
176
     1
 90
        2
176
     1
 90
        1
176
     1
 90
        1
176
     1
 40
0.5
176
     1
 40
30.0
176
     1
 62
     7
420
 16777215
176
     1
 90
        1
176
     1
 90
        0
176
     1
 62
     7
176
     1
 62
   257
176
     1
 90
        1
176
     1
 90
        1
176
     1
 40
1.0
176
     1
 90
        8
176
     1
 62
     7
176
     1
 40
1.0
176
     1
 90
        1
176
     1
 90
        6
176
     1
 90
        2
176
     1
 62
     7
176
     1
 90
        3
176
     1
 90
        0
176
     1
 90
        0
176
     1
290
     0
176
     1
 90
       13
176
     1
 40
0.0
176
     1
 90
        0
176
     1
290
     0
176
     1
290
     1
176
     1
290
     1
176
     1
290
     0
176
     1
290
     0
176
     1
290
     0
176
     1
290
     0
176
     1
290
     0
176
     1
290
     0
176
     1
 90
       50
176
     1
 40
0.0
176
     1
 40
1.0
176
     1
 90
        0
176
     1
 62
    18
176
     1
 90
       50
176
     1
 90
        3
176
     1
 62
     5
420
      255
176
     1
290
     0
176
     1
 90
       50
176
     1
 90
       50
176
     1
 90
       50
176
     1
290
     0
176
     1
 90
       50
176
     1
 62
   256
176
     0
 40
1.0
176
     0
 90
        2
176
     1
  1
strokes_ogs.tif
176
     1
290
     0
176
     1
 40
1.0
176
     1
 40
1.0
176
     1
1001
ACAD
1000
AcDbSavedByObjectVersion
1070
     0
  0
DICTIONARYVAR
  5
FE
102
{ACAD_REACTORS
330
FD
102
}
330
FD
100
DictionaryVariables
280
     0
  1
1:1
  0
DICTIONARYVAR
  5
106
102
{ACAD_REACTORS
330
FD
102
}
330
FD
100
DictionaryVariables
280
     0
  1
3.500000
  0
DICTIONARYVAR
  5
107
102
{ACAD_REACTORS
330
FD
102
}
330
FD
100
DictionaryVariables
280
     0
  1
acadiso.lin
  0
DICTIONARYVAR
  5
103
102
{ACAD_REACTORS
330
FD
102
}
330
FD
100
DictionaryVariables
280
     0
  1
STANDARD
  0
DICTIONARYVAR
  5
102
102
{ACAD_REACTORS
330
FD
102
}
330
FD
100
DictionaryVariables
280
     0
  1
STANDARD
  0
DICTIONARYVAR
  5
89C
102
{ACAD_REACTORS
330
FD
102
}
330
FD
100
DictionaryVariables
280
     0
  1
Metric50
  0
DICTIONARYVAR
  5
89D
102
{ACAD_REACTORS
330
FD
102
}
330
FD
100
DictionaryVariables
280
     0
  1
Metric50
  0
DICTIONARY
  5
910
102
{ACAD_REACTORS
330
90E
102
}
330
90E
100
AcDbDictionary
281
     1
  0
DICTIONARY
  5
90F
102
{ACAD_REACTORS
330
90E
102
}
330
90E
100
AcDbDictionary
281
     1
  3
1775157275920
350
909
  3
1775157275936
350
90A
  3
1775157275952
350
90B
  3
1775157275968
350
90C
  3
1775157275984
350
90D
  0
DICTIONARY
  5
913
330
10C
100
AcDbDictionary
280
     1
281
     1
  3
ACAD_XREC_ROUNDTRIP
360
914
  0
DICTIONARY
  5
911
330
10B
100
AcDbDictionary
280
     1
281
     1
  3
ACAD_XREC_ROUNDTRIP
360
912
  0
DICTIONARY
  5
FF
330
6A
100
AcDbDictionary
280
     1
281
     1
  3
ACAD_ROUNDTRIP_2008_TABLESTYLE_CELLSTYLEMAP
360
907
  0
XRECORD
  5
909
102
{ACAD_REACTORS
330
90F
102
}
330
90F
100
AcDbXrecord
280
     1
  1
AcDb_Thumbnail_Schema
102
{ATTRRECORD
341
90A
  2
AcDbDs::TreatedAsObjectData
280
     1
291
     1
102
ATTRRECORD}
102
{ATTRRECORD
341
90B
  2
AcDbDs::Legacy
280
     1
291
     1
102
ATTRRECORD}
  2
AcDbDs::ID
280
    10
 91
        8
102
{ATTRRECORD
341
90C
  2
AcDs:Indexable
280
     1
291
     1
102
ATTRRECORD}
102
{ATTRRECORD
341
90D
  2
AcDbDs::HandleAttribute
280
     7
282
     1
102
ATTRRECORD}
  2
Thumbnail_Data
280
    15
 91
        0
  0
XRECORD
  5
90A
102
{ACAD_REACTORS
330
90F
102
}
330
90F
100
AcDbXrecord
280
     1
  1
AcDbDs::TreatedAsObjectDataSchema
  2
AcDbDs::TreatedAsObjectData
280
     1
 91
        0
  0
XRECORD
  5
90B
102
{ACAD_REACTORS
330
90F
102
}
330
90F
100
AcDbXrecord
280
     1
  1
AcDbDs::LegacySchema
  2
AcDbDs::Legacy
280
     1
 91
        0
  0
XRECORD
  5
90C
102
{ACAD_REACTORS
330
90F
102
}
330
90F
100
AcDbXrecord
280
     1
  1
AcDbDs::IndexedPropertySchema
  2
AcDs:Indexable
280
     1
 91
        0
  0
XRECORD
  5
90D
102
{ACAD_REACTORS
330
90F
102
}
330
90F
100
AcDbXrecord
280
     1
  1
AcDbDs::HandleAttributeSchema
  2
AcDbDs::HandleAttribute
280
     7
 91
        1
284
     1
  0
XRECORD
  5
914
102
{ACAD_REACTORS
330
913
102
}
330
913
100
AcDbXrecord
280
     1
102
DISPLAYNAME
  1
Metric50
102
FLAGS
 90
        0
  0
XRECORD
  5
912
102
{ACAD_REACTORS
330
911
102
}
330
911
100
AcDbXrecord
280
     1
102
DISPLAYNAME
  1
Metric50
102
FLAGS
 90
        0
  0
CELLSTYLEMAP
  5
907
102
{ACAD_REACTORS
330
FF
102
}
330
FF
100
AcDbCellStyleMap
 90
        3
300
CELLSTYLE
  1
TABLEFORMAT_BEGIN
 90
        5
170
     1
 91
        0
 92
    32768
 62
   257
 93
        1
300
CONTENTFORMAT
  1
CONTENTFORMAT_BEGIN
 90
        0
 91
        0
 92
        4
 93
        0
300

 40
0.0
140
1.0
 94
        5
 62
     0
340
11
144
6.0
309
CONTENTFORMAT_END
171
     1
301
MARGIN
  1
CELLMARGIN_BEGIN
 40
1.5
 40
1.5
 40
1.5
 40
1.5
 40
0.18
 40
0.18
309
CELLMARGIN_END
 94
        6
 95
        1
302
GRIDFORMAT
  1
GRIDFORMAT_BEGIN
 90
        0
 91
        1
 62
     0
 92
       -2
340
14
 93
        0
 40
0.045
309
GRIDFORMAT_END
 95
        2
302
GRIDFORMAT
  1
GRIDFORMAT_BEGIN
 90
        0
 91
        1
 62
     0
 92
       -2
340
14
 93
        0
 40
0.045
309
GRIDFORMAT_END
 95
        4
302
GRIDFORMAT
  1
GRIDFORMAT_BEGIN
 90
        0
 91
        1
 62
     0
 92
       -2
340
14
 93
        0
 40
0.045
309
GRIDFORMAT_END
 95
        8
302
GRIDFORMAT
  1
GRIDFORMAT_BEGIN
 90
        0
 91
        1
 62
     0
 92
       -2
340
14
 93
        0
 40
0.045
309
GRIDFORMAT_END
 95
       16
302
GRIDFORMAT
  1
GRIDFORMAT_BEGIN
 90
        0
 91
        1
 62
     0
 92
       -2
340
14
 93
        0
 40
0.045
309
GRIDFORMAT_END
 95
       32
302
GRIDFORMAT
  1
GRIDFORMAT_BEGIN
 90
        0
 91
        1
 62
     0
 92
       -2
340
14
 93
        0
 40
0.045
309
GRIDFORMAT_END
309
TABLEFORMAT_END
  1
CELLSTYLE_BEGIN
 90
        1
 91
        1
300
_TITLE
309
CELLSTYLE_END
300
CELLSTYLE
  1
TABLEFORMAT_BEGIN
 90
        5
170
     1
 91
        0
 92
        0
 62
   257
 93
        1
300
CONTENTFORMAT
  1
CONTENTFORMAT_BEGIN
 90
        0
 91
        0
 92
        4
 93
        0
300

 40
0.0
140
1.0
 94
        5
 62
     0
340
11
144
4.5
309
CONTENTFORMAT_END
171
     1
301
MARGIN
  1
CELLMARGIN_BEGIN
 40
1.5
 40
1.5
 40
1.5
 40
1.5
 40
0.18
 40
0.18
309
CELLMARGIN_END
 94
        6
 95
        1
302
GRIDFORMAT
  1
GRIDFORMAT_BEGIN
 90
        0
 91
        1
 62
     0
 92
       -2
340
14
 93
        0
 40
0.045
309
GRIDFORMAT_END
 95
        2
302
GRIDFORMAT
  1
GRIDFORMAT_BEGIN
 90
        0
 91
        1
 62
     0
 92
       -2
340
14
 93
        0
 40
0.045
309
GRIDFORMAT_END
 95
        4
302
GRIDFORMAT
  1
GRIDFORMAT_BEGIN
 90
        0
 91
        1
 62
     0
 92
       -2
340
14
 93
        0
 40
0.045
309
GRIDFORMAT_END
 95
        8
302
GRIDFORMAT
  1
GRIDFORMAT_BEGIN
 90
        0
 91
        1
 62
     0
 92
       -2
340
14
 93
        0
 40
0.045
309
GRIDFORMAT_END
 95
       16
302
GRIDFORMAT
  1
GRIDFORMAT_BEGIN
 90
        0
 91
        1
 62
     0
 92
       -2
340
14
 93
        0
 40
0.045
309
GRIDFORMAT_END
 95
       32
302
GRIDFORMAT
  1
GRIDFORMAT_BEGIN
 90
        0
 91
        1
 62
     0
 92
       -2
340
14
 93
        0
 40
0.045
309
GRIDFORMAT_END
309
TABLEFORMAT_END
  1
CELLSTYLE_BEGIN
 90
        2
 91
        1
300
_HEADER
309
CELLSTYLE_END
300
CELLSTYLE
  1
TABLEFORMAT_BEGIN
 90
        5
170
     1
 91
        0
 92
        0
 62
   257
 93
        1
300
CONTENTFORMAT
  1
CONTENTFORMAT_BEGIN
 90
        0
 91
        0
 92
        4
 93
        0
300

 40
0.0
140
1.0
 94
        2
 62
     0
340
11
144
4.5
309
CONTENTFORMAT_END
171
     1
301
MARGIN
  1
CELLMARGIN_BEGIN
 40
1.5
 40
1.5
 40
1.5
 40
1.5
 40
0.18
 40
0.18
309
CELLMARGIN_END
 94
        6
 95
        1
302
GRIDFORMAT
  1
GRIDFORMAT_BEGIN
 90
        0
 91
        1
 62
     0
 92
       -2
340
14
 93
        0
 40
0.045
309
GRIDFORMAT_END
 95
        2
302
GRIDFORMAT
  1
GRIDFORMAT_BEGIN
 90
        0
 91
        1
 62
     0
 92
       -2
340
14
 93
        0
 40
0.045
309
GRIDFORMAT_END
 95
        4
302
GRIDFORMAT
  1
GRIDFORMAT_BEGIN
 90
        0
 91
        1
 62
     0
 92
       -2
340
14
 93
        0
 40
0.045
309
GRIDFORMAT_END
 95
        8
302
GRIDFORMAT
  1
GRIDFORMAT_BEGIN
 90
        0
 91
        1
 62
     0
 92
       -2
340
14
 93
        0
 40
0.045
309
GRIDFORMAT_END
 95
       16
302
GRIDFORMAT
  1
GRIDFORMAT_BEGIN
 90
        0
 91
        1
 62
     0
 92
       -2
340
14
 93
        0
 40
0.045
309
GRIDFORMAT_END
 95
       32
302
GRIDFORMAT
  1
GRIDFORMAT_BEGIN
 90
        0
 91
        1
 62
     0
 92
       -2
340
14
 93
        0
 40
0.045
309
GRIDFORMAT_END
309
TABLEFORMAT_END
  1
CELLSTYLE_BEGIN
 90
        3
 91
        2
300
_DATA
309
CELLSTYLE_END
  0
ENDSEC
  0
SECTION
  2
ACDSDATA
 70
     2
 71
     8
  0
ACDSSCHEMA
 90
        0
  1
AcDb_Thumbnail_Schema
  2
AcDbDs::ID
280
    10
 91
        8
  2
Thumbnail_Data
280
    15
 91
        0
101
ACDSRECORD
 95
        0
 90
        1
  2
AcDbDs::TreatedAsObjectData
280
     1
291
     1
101
ACDSRECORD
 95
        0
 90
        2
  2
AcDbDs::Legacy
280
     1
291
     1
101
ACDSRECORD
  1
AcDbDs::ID
 90
        3
  2
AcDs:Indexable
280
     1
291
     1
101
ACDSRECORD
  1
AcDbDs::ID
 90
        4
  2
AcDbDs::HandleAttribute
280
     7
282
     1
  0
ACDSSCHEMA
 90
        1
  1
AcDbDs::TreatedAsObjectDataSchema
  2
AcDbDs::TreatedAsObjectData
280
     1
 91
        0
  0
ACDSSCHEMA
 90
        2
  1
AcDbDs::LegacySchema
  2
AcDbDs::Legacy
280
     1
 91
        0
  0
ACDSSCHEMA
 90
        3
  1
AcDbDs::IndexedPropertySchema
  2
AcDs:Indexable
280
     1
 91
        0
  0
ACDSSCHEMA
 90
        4
  1
AcDbDs::HandleAttributeSchema
  2
AcDbDs::HandleAttribute
280
     7
 91
        1
284
     1
  0
ACDSRECORD
 90
        0
  2
AcDbDs::ID
280
    10
320
22
  2
Thumbnail_Data
280
    15
 94
     1176
310
89504E470D0A1A0A0000000D49484452000001000000007B0803000000AC3EAEE200000300504C5445FFFFFFFFFFFFFFFFFF0000000000000000000000000000000000000000000000000000330000660000990000CC0000FF0033000033330033660033990033CC0033FF0066000066330066660066990066CC0066FF0099
310
000099330099660099990099CC0099FF00CC0000CC3300CC6600CC9900CCCC00CCFF00FF0000FF3300FF6600FF9900FFCC00FFFF3300003300333300663300993300CC3300FF3333003333333333663333993333CC3333FF3366003366333366663366993366CC3366FF3399003399333399663399993399CC3399FF33CC00
310
33CC3333CC6633CC9933CCCC33CCFF33FF0033FF3333FF6633FF9933FFCC33FFFF6600006600336600666600996600CC6600FF6633006633336633666633996633CC6633FF6666006666336666666666996666CC6666FF6699006699336699666699996699CC6699FF66CC0066CC3366CC6666CC9966CCCC66CCFF66FF0066
310
FF3366FF6666FF9966FFCC66FFFF9900009900339900669900999900CC9900FF9933009933339933669933999933CC9933FF9966009966339966669966999966CC9966FF9999009999339999669999999999CC9999FF99CC0099CC3399CC6699CC9999CCCC99CCFF99FF0099FF3399FF6699FF9999FFCC99FFFFCC0000CC00
310
33CC0066CC0099CC00CCCC00FFCC3300CC3333CC3366CC3399CC33CCCC33FFCC6600CC6633CC6666CC6699CC66CCCC66FFCC9900CC9933CC9966CC9999CC99CCCC99FFCCCC00CCCC33CCCC66CCCC99CCCCCCCCCCFFCCFF00CCFF33CCFF66CCFF99CCFFCCCCFFFFFF0000FF0033FF0066FF0099FF00CCFF00FFFF3300FF3333
310
FF3366FF3399FF33CCFF33FFFF6600FF6633FF6666FF6699FF66CCFF66FFFF9900FF9933FF9966FF9999FF99CCFF99FFFFCC00FFCC33FFCC66FFCC99FFCCCCFFCCFFFFFF00FFFF33FFFF66FFFF99FFFFCCFFFFFF0000000D0D0D1A1A1A2828283535354343435050505D5D5D6B6B6B787878868686939393A1A1A1AEAEAEBB
310
BBBBC9C9C9D6D6D6E4E4E4F1F1F1FFFFFF000000000000000000000000000000000000000000000000000000000000AD4AB4E4000001534944415478DAEDDA5B6EC32014455106CBC8194965E424A5721C5BFD89EE595B55D37EB20C0E7EB42649922449922449922449D27F1B00000000000000000000D201FA5E2EC0F291
310
32FABD5C8036473F6297C0023009A297C0461009F09C01FBAF54806DF9C79D03CC80F51C9007B07E0B000000004032C0FC0B008064801E0ED0BB25100730070F00C0BC1F30E64F2CC0F3BFD4FB0191006D19F28B2215207D06640600000000007247BFEC04330FFF889E0566C0F664783400D1003D1B607B2F68247F15F6CD
310
20B99EF66A24807380BC3DC15F8006201E206C151CCE8071BB7200B73794A50046F60C982F0F7F186AED25F0EE01D13ED06267C98B008F51D7FB8AB80250F3D05F04F875E86B6E0F4E014A1FFA138065D8D577866F00CA9EF36E5C0B845C141C003C363AB11743599783C733C00D1100005201E2EF0AC73D25F36004000000
310
00000000000000000000BEB21FCC0D0A6F0C4980420000000049454E44AE426082
  0
ENDSEC
  0
EOF
