  0
SECTION
  2
HEADER
  9
$ACADVER
  1
AC1024
  9
$ACADMAINTVER
 70
   205
  9
$DWGCODEPAGE
  3
ANSI_1252
  9
$LASTSAVEDBY
  1
kaschu
  9
$INSBASE
 10
0.0
 20
0.0
 30
0.0
  9
$EXTMIN
 10
17.94754232365835
 20
15.1040491636032
 30
0.0
  9
$EXTMAX
 10
864.3163197714912
 20
412.7835891599919
 30
0.0
  9
$LIMMIN
 10
-0.5
 20
-0.5
  9
$LIMMAX
 10
5.0
 20
5.0
  9
$ORTHOMODE
 70
     0
  9
$REGENMODE
 70
     1
  9
$FILLMODE
 70
     1
  9
$QTEXTMODE
 70
     0
  9
$MIRRTEXT
 70
     1
  9
$LTSCALE
 40
1.0
  9
$ATTMODE
 70
     1
  9
$TEXTSIZE
 40
0.2
  9
$TRACEWID
 40
0.05
  9
$TEXTSTYLE
  7
Standard
  9
$CLAYER
  8
0
  9
$CELTYPE
  6
BYLAYER
  9
$CECOLOR
 62
   256
  9
$CELTSCALE
 40
1.0
  9
$DISPSILH
 70
     0
  9
$DIMSCALE
 40
1.0
  9
$DIMASZ
 40
0.18
  9
$DIMEXO
 40
0.0625
  9
$DIMDLI
 40
0.38
  9
$DIMRND
 40
0.0
  9
$DIMDLE
 40
0.0
  9
$DIMEXE
 40
0.18
  9
$DIMTP
 40
0.0
  9
$DIMTM
 40
0.0
  9
$DIMTXT
 40
0.18
  9
$DIMCEN
 40
0.09
  9
$DIMTSZ
 40
0.0
  9
$DIMTOL
 70
     0
  9
$DIMLIM
 70
     0
  9
$DIMTIH
 70
     1
  9
$DIMTOH
 70
     1
  9
$DIMSE1
 70
     0
  9
$DIMSE2
 70
     0
  9
$DIMTAD
 70
     0
  9
$DIMZIN
 70
     0
  9
$DIMBLK
  1

  9
$DIMASO
 70
     1
  9
$DIMSHO
 70
     1
  9
$DIMPOST
  1

  9
$DIMAPOST
  1

  9
$DIMALT
 70
     0
  9
$DIMALTD
 70
     2
  9
$DIMALTF
 40
25.4
  9
$DIMLFAC
 40
1.0
  9
$DIMTOFL
 70
     0
  9
$DIMTVP
 40
0.0
  9
$DIMTIX
 70
     0
  9
$DIMSOXD
 70
     0
  9
$DIMSAH
 70
     0
  9
$DIMBLK1
  1

  9
$DIMBLK2
  1

  9
$DIMSTYLE
  2
Standard
  9
$DIMCLRD
 70
     0
  9
$DIMCLRE
 70
     0
  9
$DIMCLRT
 70
     0
  9
$DIMTFAC
 40
1.0
  9
$DIMGAP
 40
0.09
  9
$DIMJUST
 70
     0
  9
$DIMSD1
 70
     0
  9
$DIMSD2
 70
     0
  9
$DIMTOLJ
 70
     1
  9
$DIMTZIN
 70
     0
  9
$DIMALTZ
 70
     0
  9
$DIMALTTZ
 70
     0
  9
$DIMUPT
 70
     0
  9
$DIMDEC
 70
     4
  9
$DIMTDEC
 70
     4
  9
$DIMALTU
 70
     2
  9
$DIMALTTD
 70
     2
  9
$DIMTXSTY
  7
Standard
  9
$DIMAUNIT
 70
     0
  9
$DIMADEC
 70
     0
  9
$DIMALTRND
 40
0.0
  9
$DIMAZIN
 70
     0
  9
$DIMDSEP
 70
    46
  9
$DIMATFIT
 70
     3
  9
$DIMFRAC
 70
     0
  9
$DIMLDRBLK
  1

  9
$DIMLUNIT
 70
     2
  9
$DIMLWD
 70
    -2
  9
$DIMLWE
 70
    -2
  9
$DIMTMOVE
 70
     0
  9
$DIMFXL
 40
1.0
  9
$DIMFXLON
 70
     0
  9
$DIMJOGANG
 40
0.7853981633974483
  9
$DIMTFILL
 70
     0
  9
$DIMTFILLCLR
 70
     0
  9
$DIMARCSYM
 70
     0
  9
$DIMLTYPE
  6

  9
$DIMLTEX1
  6

  9
$DIMLTEX2
  6

  9
$DIMTXTDIRECTION
 70
     0
  9
$LUNITS
 70
     2
  9
$LUPREC
 70
     4
  9
$SKETCHINC
 40
0.1
  9
$FILLETRAD
 40
0.5
  9
$AUNITS
 70
     0
  9
$AUPREC
 70
     0
  9
$MENU
  1
.
  9
$ELEVATION
 40
0.0
  9
$PELEVATION
 40
0.0
  9
$THICKNESS
 40
0.0
  9
$LIMCHECK
 70
     0
  9
$CHAMFERA
 40
0.5
  9
$CHAMFERB
 40
0.5
  9
$CHAMFERC
 40
1.0
  9
$CHAMFERD
 40
0.0
  9
$SKPOLY
 70
     0
  9
$TDCREATE
 40
2458178.508857211
  9
$TDUCREATE
 40
2458178.425523877
  9
$TDUPDATE
 40
2458694.611192651
  9
$TDUUPDATE
 40
2458694.527859317
  9
$TDINDWG
 40
0.0048191898
  9
$TDUSRTIMER
 40
0.0048191667
  9
$USRTIMER
 70
     1
  9
$ANGBASE
 50
0.0
  9
$ANGDIR
 70
     0
  9
$PDMODE
 70
     0
  9
$PDSIZE
 40
0.0
  9
$PLINEWID
 40
0.0
  9
$SPLFRAME
 70
     0
  9
$SPLINETYPE
 70
     6
  9
$SPLINESEGS
 70
     8
  9
$HANDSEED
  5
3D4
  9
$SURFTAB1
 70
     6
  9
$SURFTAB2
 70
     6
  9
$SURFTYPE
 70
     6
  9
$SURFU
 70
     6
  9
$SURFV
 70
     6
  9
$UCSBASE
  2

  9
$UCSNAME
  2

  9
$UCSORG
 10
0.0
 20
0.0
 30
0.0
  9
$UCSXDIR
 10
1.0
 20
0.0
 30
0.0
  9
$UCSYDIR
 10
0.0
 20
1.0
 30
0.0
  9
$UCSORTHOREF
  2

  9
$UCSORTHOVIEW
 70
     0
  9
$UCSORGTOP
 10
0.0
 20
0.0
 30
0.0
  9
$UCSORGBOTTOM
 10
0.0
 20
0.0
 30
0.0
  9
$UCSORGLEFT
 10
0.0
 20
0.0
 30
0.0
  9
$UCSORGRIGHT
 10
0.0
 20
0.0
 30
0.0
  9
$UCSORGFRONT
 10
0.0
 20
0.0
 30
0.0
  9
$UCSORGBACK
 10
0.0
 20
0.0
 30
0.0
  9
$PUCSBASE
  2

  9
$PUCSNAME
  2

  9
$PUCSORG
 10
0.0
 20
0.0
 30
0.0
  9
$PUCSXDIR
 10
1.0
 20
0.0
 30
0.0
  9
$PUCSYDIR
 10
0.0
 20
1.0
 30
0.0
  9
$PUCSORTHOREF
  2

  9
$PUCSORTHOVIEW
 70
     0
  9
$PUCSORGTOP
 10
0.0
 20
0.0
 30
0.0
  9
$PUCSORGBOTTOM
 10
0.0
 20
0.0
 30
0.0
  9
$PUCSORGLEFT
 10
0.0
 20
0.0
 30
0.0
  9
$PUCSORGRIGHT
 10
0.0
 20
0.0
 30
0.0
  9
$PUCSORGFRONT
 10
0.0
 20
0.0
 30
0.0
  9
$PUCSORGBACK
 10
0.0
 20
0.0
 30
0.0
  9
$USERI1
 70
     0
  9
$USERI2
 70
     0
  9
$USERI3
 70
     0
  9
$USERI4
 70
     0
  9
$USERI5
 70
     0
  9
$USERR1
 40
0.0
  9
$USERR2
 40
0.0
  9
$USERR3
 40
0.0
  9
$USERR4
 40
0.0
  9
$USERR5
 40
0.0
  9
$WORLDVIEW
 70
     1
  9
$SHADEDGE
 70
     3
  9
$SHADEDIF
 70
    70
  9
$TILEMODE
 70
     1
  9
$MAXACTVP
 70
    64
  9
$PINSBASE
 10
0.0
 20
0.0
 30
0.0
  9
$PLIMCHECK
 70
     0
  9
$PEXTMIN
 10
-0.5
 20
-0.5
 30
-0.5
  9
$PEXTMAX
 10
5.0
 20
5.0
 30
5.0
  9
$PLIMMIN
 10
-0.5
 20
-0.5
  9
$PLIMMAX
 10
5.0
 20
5.0
  9
$UNITMODE
 70
     0
  9
$VISRETAIN
 70
     1
  9
$PLINEGEN
 70
     0
  9
$PSLTSCALE
 70
     1
  9
$TREEDEPTH
 70
  3020
  9
$CMLSTYLE
  2
Standard
  9
$CMLJUST
 70
     0
  9
$CMLSCALE
 40
1.0
  9
$PROXYGRAPHICS
 70
     1
  9
$MEASUREMENT
 70
     1
  9
$CELWEIGHT
370
    -1
  9
$ENDCAPS
280
     0
  9
$JOINSTYLE
280
     0
  9
$LWDISPLAY
290
     1
  9
$INSUNITS
 70
     4
  9
$HYPERLINKBASE
  1

  9
$STYLESHEET
  1

  9
$XEDIT
290
     1
  9
$CEPSNTYPE
380
     0
  9
$PSTYLEMODE
290
     1
  9
$FINGERPRINTGUID
  2
{3E7E28A1-0580-4022-8787-D5B06F9341F0}
  9
$VERSIONGUID
  2
{C91F4EDA-4F64-4414-98A3-40DCD276A2F9}
  9
$EXTNAMES
290
     1
  9
$PSVPSCALE
 40
0.0
  9
$OLESTARTUP
290
     0
  9
$SORTENTS
280
   127
  9
$INDEXCTL
280
     0
  9
$HIDETEXT
280
     1
  9
$XCLIPFRAME
280
     0
  9
$HALOGAP
280
     0
  9
$OBSCOLOR
 70
   257
  9
$OBSLTYPE
280
     0
  9
$INTERSECTIONDISPLAY
280
     0
  9
$INTERSECTIONCOLOR
 70
   257
  9
$DIMASSOC
280
     2
  9
$PROJECTNAME
  1

  9
$CAMERADISPLAY
290
     0
  9
$LENSLENGTH
 40
50.0
  9
$CAMERAHEIGHT
 40
0.0
  9
$STEPSPERSEC
 40
2.0
  9
$STEPSIZE
 40
6.0
  9
$3DDWFPREC
 40
2.0
  9
$PSOLWIDTH
 40
0.25
  9
$PSOLHEIGHT
 40
4.0
  9
$LOFTANG1
 40
1.570796326794896
  9
$LOFTANG2
 40
1.570796326794896
  9
$LOFTMAG1
 40
0.0
  9
$LOFTMAG2
 40
0.0
  9
$LOFTPARAM
 70
     7
  9
$LOFTNORMALS
280
     1
  9
$LATITUDE
 40
37.795
  9
$LONGITUDE
 40
-122.394
  9
$NORTHDIRECTION
 40
0.0
  9
$TIMEZONE
 70
 -8000
  9
$LIGHTGLYPHDISPLAY
280
     1
  9
$TILEMODELIGHTSYNCH
280
     1
  9
$CMATERIAL
347
3C
  9
$SOLIDHIST
280
     0
  9
$SHOWHIST
280
     1
  9
$DWFFRAME
280
     2
  9
$DGNFRAME
280
     0
  9
$REALWORLDSCALE
290
     1
  9
$INTERFERECOLOR
 62
     1
  9
$INTERFEREOBJVS
345
33
  9
$INTERFEREVPVS
346
25B
  9
$CSHADOW
280
     0
  9
$SHADOWPLANELOCATION
 40
0.0
  0
ENDSEC
  0
SECTION
  2
CLASSES
  0
CLASS
  1
ACDBDICTIONARYWDFLT
  2
AcDbDictionaryWithDefault
  3
ObjectDBX Classes
 90
        0
 91
        1
280
     0
281
     0
  0
CLASS
  1
VISUALSTYLE
  2
AcDbVisualStyle
  3
ObjectDBX Classes
 90
     4095
 91
       26
280
     0
281
     0
  0
CLASS
  1
MATERIAL
  2
AcDbMaterial
  3
ObjectDBX Classes
 90
     1153
 91
        3
280
     0
281
     0
  0
CLASS
  1
TABLESTYLE
  2
AcDbTableStyle
  3
ObjectDBX Classes
 90
     4095
 91
        1
280
     0
281
     0
  0
CLASS
  1
SCALE
  2
AcDbScale
  3
ObjectDBX Classes
 90
     1153
 91
       17
280
     0
281
     0
  0
CLASS
  1
MLEADERSTYLE
  2
AcDbMLeaderStyle
  3
ACDB_MLEADERSTYLE_CLASS
 90
     4095
 91
        1
280
     0
281
     0
  0
CLASS
  1
ACDBSECTIONVIEWSTYLE
  2
AcDbSectionViewStyle
  3
ObjectDBX Classes
 90
     1025
 91
        2
280
     0
281
     0
  0
CLASS
  1
ACDBDETAILVIEWSTYLE
  2
AcDbDetailViewStyle
  3
ObjectDBX Classes
 90
     1025
 91
        2
280
     0
281
     0
  0
CLASS
  1
DICTIONARYVAR
  2
AcDbDictionaryVar
  3
ObjectDBX Classes
 90
        0
 91
        9
280
     0
281
     0
  0
CLASS
  1
SORTENTSTABLE
  2
AcDbSortentsTable
  3
ObjectDBX Classes
 90
        0
 91
        0
280
     0
281
     0
  0
CLASS
  1
DIMASSOC
  2
AcDbDimAssoc
  3
"AcDbDimAssoc|Product Desc:     AcDim ARX App For Dimension|Company:          Autodesk, Inc.|WEB Address:      www.autodesk.com"
 90
        0
 91
        2
280
     0
281
     0
  0
CLASS
  1
CELLSTYLEMAP
  2
AcDbCellStyleMap
  3
ObjectDBX Classes
 90
     1152
 91
        2
280
     0
281
     0
  0
ENDSEC
  0
SECTION
  2
TABLES
  0
TABLE
  2
VPORT
  5
8
330
0
100
AcDbSymbolTable
 70
    17
  0
VPORT
  5
29
330
8
100
AcDbSymbolTableRecord
100
AcDbViewportTableRecord
  2
DUMMY
 70
     0
 10
0.0
 20
0.0
 11
1.0
 21
1.0
 12
10.429907
 22
4.5
 13
0.0
 23
0.0
 14
0.5
 24
0.5
 15
0.5
 25
0.5
 16
0.0
 26
0.0
 36
1.0
 17
0.0
 27
0.0
 37
0.0
 40
9.0
 41
1.972972999999999
 42
50.0
 43
0.0
 44
0.0
 50
0.0
 51
0.0
 71
     0
 72
   100
 73
     1
 74
     3
 75
     0
 76
     0
 77
     0
 78
     0
281
     0
 65
     1
110
0.0
120
0.0
130
0.0
111
1.0
121
0.0
131
0.0
112
0.0
122
1.0
132
0.0
 79
     0
146
0.0
348
2F
 60
     3
 61
     5
292
     1
282
     1
141
0.0
142
0.0
 63
   250
421
  3355443
  0
VPORT
  5
221
330
8
100
AcDbSymbolTableRecord
100
AcDbViewportTableRecord
  2
*ACTIVE
 70
     0
 10
0.0
 20
0.0
 11
1.0
 21
1.0
 12
594.3182268971217
 22
300.0005584491542
 13
0.0
 23
0.0
 14
0.5
 24
0.5
 15
0.5
 25
0.5
 16
0.0
 26
0.0
 36
1.0
 17
0.0
 27
0.0
 37
0.0
 40
770.0989857933532
 41
2.170603674540682
 42
50.0
 43
193.880633
 44
-193.880633
 50
0.0
 51
0.0
 71
     0
 72
   100
 73
     1
 74
     3
 75
     0
 76
     0
 77
     0
 78
     0
281
     0
 65
     1
110
0.0
120
0.0
130
0.0
111
1.0
121
0.0
131
0.0
112
0.0
122
1.0
132
0.0
 79
     0
146
0.0
348
2F
 60
     3
 61
     5
292
     1
282
     1
141
0.0
142
0.0
 63
   250
421
  3355443
1001
ACAD_NAV_VCDISPLAY
1070
     3
  0
VPORT
  5
222
330
8
100
AcDbSymbolTableRecord
100
AcDbViewportTableRecord
  2
L1
 70
     0
 10
0.0
 20
0.0
 11
1.0
 21
1.0
 12
106.25957
 22
144.798971
 13
0.0
 23
0.0
 14
0.5
 24
0.5
 15
0.5
 25
0.5
 16
0.0
 26
0.0
 36
1.0
 17
0.0
 27
0.0
 37
0.0
 40
227.277083
 41
0.078128
 42
50.0
 43
193.880633
 44
-193.880633
 50
0.0
 51
0.0
 71
     0
 72
   100
 73
     1
 74
     3
 75
     0
 76
     0
 77
     0
 78
     0
281
     0
 65
     1
110
0.0
120
0.0
130
0.0
111
1.0
121
0.0
131
0.0
112
0.0
122
1.0
132
0.0
 79
     0
146
0.0
348
2F
 60
     3
 61
     5
292
     1
282
     1
141
0.0
142
0.0
 63
   250
421
  3355443
  0
VPORT
  5
223
330
8
100
AcDbSymbolTableRecord
100
AcDbViewportTableRecord
  2
L2
 70
     0
 10
0.0
 20
0.0
 11
0.5
 21
1.0
 12
0.0
 22
0.0
 13
0.0
 23
0.0
 14
0.5
 24
0.5
 15
0.5
 25
0.5
 16
0.0
 26
-1.0
 36
0.0
 17
0.0
 27
0.0
 37
0.0
 40
1396.130663
 41
0.012719
 42
50.0
 43
718.0610579999998
 44
-718.0610579999998
 50
0.0
 51
0.0
 71
     0
 72
   100
 73
     1
 74
     3
 75
     0
 76
     0
 77
     0
 78
     0
281
     0
 65
     1
110
0.0
120
0.0
130
0.0
111
1.0
121
0.0
131
0.0
112
0.0
122
1.0
132
0.0
 79
     0
146
0.0
348
2F
 60
     3
 61
     5
292
     1
282
     1
141
0.0
142
0.0
 63
   250
421
  3355443
  0
VPORT
  5
224
330
8
100
AcDbSymbolTableRecord
100
AcDbViewportTableRecord
  2
L2
 70
     0
 10
0.5
 20
0.0
 11
1.0
 21
1.0
 12
0.0
 22
0.0
 13
0.0
 23
0.0
 14
0.5
 24
0.5
 15
0.5
 25
0.5
 16
1.0
 26
0.0
 36
0.0
 17
0.0
 27
0.0
 37
0.0
 40
1396.130663
 41
0.012719
 42
50.0
 43
707.2544979999999
 44
-707.2544979999999
 50
0.0
 51
0.0
 71
     0
 72
   100
 73
     1
 74
     3
 75
     0
 76
     0
 77
     0
 78
     0
281
     0
 65
     1
110
0.0
120
0.0
130
0.0
111
1.0
121
0.0
131
0.0
112
0.0
122
1.0
132
0.0
 79
     0
146
0.0
348
2F
 60
     3
 61
     5
292
     1
282
     1
141
0.0
142
0.0
 63
   250
421
  3355443
  0
VPORT
  5
225
330
8
100
AcDbSymbolTableRecord
100
AcDbViewportTableRecord
  2
L3
 70
     0
 10
0.0
 20
0.5
 11
1.0
 21
1.0
 12
106.25957
 22
144.798971
 13
0.0
 23
0.0
 14
0.5
 24
0.5
 15
0.5
 25
0.5
 16
0.0
 26
0.0
 36
1.0
 17
0.0
 27
0.0
 37
0.0
 40
227.277083
 41
0.078128
 42
50.0
 43
193.880633
 44
-193.880633
 50
0.0
 51
0.0
 71
     0
 72
   100
 73
     1
 74
     3
 75
     0
 76
     0
 77
     0
 78
     0
281
     0
 65
     1
110
0.0
120
0.0
130
0.0
111
1.0
121
0.0
131
0.0
112
0.0
122
1.0
132
0.0
 79
     0
146
0.0
348
2F
 60
     3
 61
     5
292
     1
282
     1
141
0.0
142
0.0
 63
   250
421
  3355443
  0
VPORT
  5
226
330
8
100
AcDbSymbolTableRecord
100
AcDbViewportTableRecord
  2
L3
 70
     0
 10
0.0
 20
0.0
 11
1.0
 21
0.5
 12
0.0
 22
0.0
 13
0.0
 23
0.0
 14
0.5
 24
0.5
 15
0.5
 25
0.5
 16
0.0
 26
-1.0
 36
0.0
 17
0.0
 27
0.0
 37
0.0
 40
1396.130663
 41
0.012719
 42
50.0
 43
718.0610579999998
 44
-718.0610579999998
 50
0.0
 51
0.0
 71
     0
 72
   100
 73
     1
 74
     3
 75
     0
 76
     0
 77
     0
 78
     0
281
     0
 65
     1
110
0.0
120
0.0
130
0.0
111
1.0
121
0.0
131
0.0
112
0.0
122
1.0
132
0.0
 79
     0
146
0.0
348
2F
 60
     3
 61
     5
292
     1
282
     1
141
0.0
142
0.0
 63
   250
421
  3355443
  0
VPORT
  5
227
330
8
100
AcDbSymbolTableRecord
100
AcDbViewportTableRecord
  2
L4
 70
     0
 10
0.0
 20
0.5
 11
0.5
 21
1.0
 12
106.25957
 22
144.798971
 13
0.0
 23
0.0
 14
0.5
 24
0.5
 15
0.5
 25
0.5
 16
0.0
 26
0.0
 36
1.0
 17
0.0
 27
0.0
 37
0.0
 40
227.277083
 41
0.078128
 42
50.0
 43
193.880633
 44
-193.880633
 50
0.0
 51
0.0
 71
     0
 72
   100
 73
     1
 74
     3
 75
     0
 76
     0
 77
     0
 78
     0
281
     0
 65
     1
110
0.0
120
0.0
130
0.0
111
1.0
121
0.0
131
0.0
112
0.0
122
1.0
132
0.0
 79
     0
146
0.0
348
2F
 60
     3
 61
     5
292
     1
282
     1
141
0.0
142
0.0
 63
   250
421
  3355443
  0
VPORT
  5
228
330
8
100
AcDbSymbolTableRecord
100
AcDbViewportTableRecord
  2
L4
 70
     0
 10
0.0
 20
0.0
 11
0.5
 21
0.5
 12
0.0
 22
0.0
 13
0.0
 23
0.0
 14
0.5
 24
0.5
 15
0.5
 25
0.5
 16
0.0
 26
-1.0
 36
0.0
 17
0.0
 27
0.0
 37
0.0
 40
1396.130663
 41
0.012719
 42
50.0
 43
718.0610579999998
 44
-718.0610579999998
 50
0.0
 51
0.0
 71
     0
 72
   100
 73
     1
 74
     3
 75
     0
 76
     0
 77
     0
 78
     0
281
     0
 65
     1
110
0.0
120
0.0
130
0.0
111
1.0
121
0.0
131
0.0
112
0.0
122
1.0
132
0.0
 79
     0
146
0.0
348
2F
 60
     3
 61
     5
292
     1
282
     1
141
0.0
142
0.0
 63
   250
421
  3355443
  0
VPORT
  5
229
330
8
100
AcDbSymbolTableRecord
100
AcDbViewportTableRecord
  2
L4
 70
     0
 10
0.5
 20
0.0
 11
1.0
 21
0.5
 12
0.0
 22
0.0
 13
0.0
 23
0.0
 14
0.5
 24
0.5
 15
0.5
 25
0.5
 16
1.0
 26
0.0
 36
0.0
 17
0.0
 27
0.0
 37
0.0
 40
1396.130663
 41
0.012719
 42
50.0
 43
707.2544979999999
 44
-707.2544979999999
 50
0.0
 51
0.0
 71
     0
 72
   100
 73
     1
 74
     3
 75
     0
 76
     0
 77
     0
 78
     0
281
     0
 65
     1
110
0.0
120
0.0
130
0.0
111
1.0
121
0.0
131
0.0
112
0.0
122
1.0
132
0.0
 79
     0
146
0.0
348
2F
 60
     3
 61
     5
292
     1
282
     1
141
0.0
142
0.0
 63
   250
421
  3355443
  0
VPORT
  5
22A
330
8
100
AcDbSymbolTableRecord
100
AcDbViewportTableRecord
  2
L4
 70
     0
 10
0.5
 20
0.5
 11
1.0
 21
1.0
 12
0.0
 22
0.0
 13
0.0
 23
0.0
 14
0.5
 24
0.5
 15
0.5
 25
0.5
 16
0.577350269189626
 26
-0.577350269189626
 36
0.577350269189626
 17
0.0
 27
0.0
 37
0.0
 40
1370.117356
 41
0.01296
 42
50.0
 43
713.472505
 44
-713.472505
 50
0.0
 51
0.0
 71
     0
 72
   100
 73
     1
 74
     3
 75
     0
 76
     0
 77
     0
 78
     0
281
     0
 65
     1
110
0.0
120
0.0
130
0.0
111
1.0
121
0.0
131
0.0
112
0.0
122
1.0
132
0.0
 79
     0
146
0.0
348
2F
 60
     3
 61
     5
292
     1
282
     1
141
0.0
142
0.0
 63
   250
421
  3355443
  0
VPORT
  5
22B
330
8
100
AcDbSymbolTableRecord
100
AcDbViewportTableRecord
  2
L6
 70
     0
 10
0.0
 20
0.5
 11
0.333333
 21
1.0
 12
0.0
 22
0.0
 13
0.0
 23
0.0
 14
0.5
 24
0.5
 15
0.5
 25
0.5
 16
0.7188730927569435
 26
-0.5850486126764433
 36
0.3754192287502549
 17
0.0
 27
0.0
 37
0.0
 40
1445.864678
 41
0.012281
 42
50.0
 43
748.602562
 44
-748.602562
 50
0.0
 51
0.0
 71
     0
 72
   100
 73
     1
 74
     3
 75
     0
 76
     0
 77
     0
 78
     0
281
     0
 65
     1
110
0.0
120
0.0
130
0.0
111
1.0
121
0.0
131
0.0
112
0.0
122
1.0
132
0.0
 79
     0
146
0.0
348
2F
 60
     3
 61
     5
292
     1
282
     1
141
0.0
142
0.0
 63
   250
421
  3355443
  0
VPORT
  5
22C
330
8
100
AcDbSymbolTableRecord
100
AcDbViewportTableRecord
  2
L6
 70
     0
 10
0.0
 20
0.0
 11
0.333333
 21
0.5
 12
0.0
 22
0.0
 13
0.0
 23
0.0
 14
0.5
 24
0.5
 15
0.5
 25
0.5
 16
-1.0
 26
0.0
 36
0.0
 17
0.0
 27
0.0
 37
0.0
 40
1396.130663
 41
0.012719
 42
50.0
 43
707.2544979999999
 44
-707.2544979999999
 50
0.0
 51
0.0
 71
     0
 72
   100
 73
     1
 74
     3
 75
     0
 76
     0
 77
     0
 78
     0
281
     0
 65
     1
110
0.0
120
0.0
130
0.0
111
1.0
121
0.0
131
0.0
112
0.0
122
1.0
132
0.0
 79
     0
146
0.0
348
2F
 60
     3
 61
     5
292
     1
282
     1
141
0.0
142
0.0
 63
   250
421
  3355443
  0
VPORT
  5
22D
330
8
100
AcDbSymbolTableRecord
100
AcDbViewportTableRecord
  2
L6
 70
     0
 10
0.333333
 20
0.5
 11
0.666667
 21
1.0
 12
106.25957
 22
144.798971
 13
0.0
 23
0.0
 14
0.5
 24
0.5
 15
0.5
 25
0.5
 16
0.0
 26
0.0
 36
1.0
 17
0.0
 27
0.0
 37
0.0
 40
227.277083
 41
0.078128
 42
50.0
 43
193.880633
 44
-193.880633
 50
0.0
 51
0.0
 71
     0
 72
   100
 73
     1
 74
     3
 75
     0
 76
     0
 77
     0
 78
     0
281
     0
 65
     1
110
0.0
120
0.0
130
0.0
111
1.0
121
0.0
131
0.0
112
0.0
122
1.0
132
0.0
 79
     0
146
0.0
348
2F
 60
     3
 61
     5
292
     1
282
     1
141
0.0
142
0.0
 63
   250
421
  3355443
  0
VPORT
  5
22E
330
8
100
AcDbSymbolTableRecord
100
AcDbViewportTableRecord
  2
L6
 70
     0
 10
0.333333
 20
0.0
 11
0.666667
 21
0.5
 12
0.0
 22
0.0
 13
0.0
 23
0.0
 14
0.5
 24
0.5
 15
0.5
 25
0.5
 16
0.0
 26
-1.0
 36
0.0
 17
0.0
 27
0.0
 37
0.0
 40
1396.130663
 41
0.012719
 42
50.0
 43
718.0610579999998
 44
-718.0610579999998
 50
0.0
 51
0.0
 71
     0
 72
   100
 73
     1
 74
     3
 75
     0
 76
     0
 77
     0
 78
     0
281
     0
 65
     1
110
0.0
120
0.0
130
0.0
111
1.0
121
0.0
131
0.0
112
0.0
122
1.0
132
0.0
 79
     0
146
0.0
348
2F
 60
     3
 61
     5
292
     1
282
     1
141
0.0
142
0.0
 63
   250
421
  3355443
  0
VPORT
  5
22F
330
8
100
AcDbSymbolTableRecord
100
AcDbViewportTableRecord
  2
L6
 70
     0
 10
0.666667
 20
0.5
 11
1.0
 21
1.0
 12
0.0
 22
0.0
 13
0.0
 23
0.0
 14
0.5
 24
0.5
 15
0.5
 25
0.5
 16
0.577350269189626
 26
-0.577350269189626
 36
0.577350269189626
 17
0.0
 27
0.0
 37
0.0
 40
1370.117356
 41
0.01296
 42
50.0
 43
713.472505
 44
-713.472505
 50
0.0
 51
0.0
 71
     0
 72
   100
 73
     1
 74
     3
 75
     0
 76
     0
 77
     0
 78
     0
281
     0
 65
     1
110
0.0
120
0.0
130
0.0
111
1.0
121
0.0
131
0.0
112
0.0
122
1.0
132
0.0
 79
     0
146
0.0
348
2F
 60
     3
 61
     5
292
     1
282
     1
141
0.0
142
0.0
 63
   250
421
  3355443
  0
VPORT
  5
230
330
8
100
AcDbSymbolTableRecord
100
AcDbViewportTableRecord
  2
L6
 70
     0
 10
0.666667
 20
0.0
 11
1.0
 21
0.5
 12
0.0
 22
0.0
 13
0.0
 23
0.0
 14
0.5
 24
0.5
 15
0.5
 25
0.5
 16
1.0
 26
0.0
 36
0.0
 17
0.0
 27
0.0
 37
0.0
 40
1396.130663
 41
0.012719
 42
50.0
 43
707.2544979999999
 44
-707.2544979999999
 50
0.0
 51
0.0
 71
     0
 72
   100
 73
     1
 74
     3
 75
     0
 76
     0
 77
     0
 78
     0
281
     0
 65
     1
110
0.0
120
0.0
130
0.0
111
1.0
121
0.0
131
0.0
112
0.0
122
1.0
132
0.0
 79
     0
146
0.0
348
2F
 60
     3
 61
     5
292
     1
282
     1
141
0.0
142
0.0
 63
   250
421
  3355443
  0
ENDTAB
  0
TABLE
  2
LTYPE
  5
5
330
0
100
AcDbSymbolTable
 70
     7
  0
LTYPE
  5
14
330
5
100
AcDbSymbolTableRecord
100
AcDbLinetypeTableRecord
  2
BYBLOCK
 70
     0
  3

 72
    65
 73
     0
 40
0.0
  0
LTYPE
  5
15
330
5
100
AcDbSymbolTableRecord
100
AcDbLinetypeTableRecord
  2
BYLAYER
 70
     0
  3

 72
    65
 73
     0
 40
0.0
  0
LTYPE
  5
16
330
5
100
AcDbSymbolTableRecord
100
AcDbLinetypeTableRecord
  2
CONTINUOUS
 70
     0
  3
Solid line
 72
    65
 73
     0
 40
0.0
  0
LTYPE
  5
3F
330
5
100
AcDbSymbolTableRecord
100
AcDbLinetypeTableRecord
  2
DASHED
 70
     0
  3
__ __ __ __ __ __ __ __ __
 72
    65
 73
     2
 40
25.72
 49
12.86
 74
     4
 75
     0
340
0
 46
0.0
 50
0.0
 44
0.0
 45
0.0
 49
-12.86
 74
     4
 75
     0
340
0
 46
0.0
 50
0.0
 44
0.0
 45
0.0
  0
LTYPE
  5
40
330
5
100
AcDbSymbolTableRecord
100
AcDbLinetypeTableRecord
  2
HIDDEN
 70
     0
  3
_ _ _ _ _ _ _ _ _ _ _ _ _ _ _
 72
    65
 73
     2
 40
0.5
 49
0.25
 74
     4
 75
     0
340
0
 46
0.0
 50
0.0
 44
0.0
 45
0.0
 49
-0.25
 74
     4
 75
     0
340
0
 46
0.0
 50
0.0
 44
0.0
 45
0.0
  0
LTYPE
  5
41
330
5
100
AcDbSymbolTableRecord
100
AcDbLinetypeTableRecord
  2
PHANTOM
 70
     0
  3
____ _ _ ____ _ _ _____ _ _ ____
 72
    65
 73
     6
 40
50.5
 49
18.0
 74
     4
 75
     0
340
0
 46
0.0
 50
0.0
 44
0.0
 45
0.0
 49
-6.5
 74
     4
 75
     0
340
0
 46
0.0
 50
0.0
 44
0.0
 45
0.0
 49
6.5
 74
     4
 75
     0
340
0
 46
0.0
 50
0.0
 44
0.0
 45
0.0
 49
-6.5
 74
     4
 75
     0
340
0
 46
0.0
 50
0.0
 44
0.0
 45
0.0
 49
6.5
 74
     4
 75
     0
340
0
 46
0.0
 50
0.0
 44
0.0
 45
0.0
 49
-6.5
 74
     4
 75
     0
340
0
 46
0.0
 50
0.0
 44
0.0
 45
0.0
  0
LTYPE
  5
42
330
5
100
AcDbSymbolTableRecord
100
AcDbLinetypeTableRecord
  2
CENTER
 70
     0
  3
____ _ ____ _ ____ _ ____
 72
    65
 73
     4
 40
47.4
 49
22.0
 74
     4
 75
     0
340
0
 46
0.0
 50
0.0
 44
0.0
 45
0.0
 49
-8.5
 74
     4
 75
     0
340
0
 46
0.0
 50
0.0
 44
0.0
 45
0.0
 49
8.5
 74
     4
 75
     0
340
0
 46
0.0
 50
0.0
 44
0.0
 45
0.0
 49
-8.5
 74
     4
 75
     0
340
0
 46
0.0
 50
0.0
 44
0.0
 45
0.0
  0
LTYPE
  5
43
330
5
100
AcDbSymbolTableRecord
100
AcDbLinetypeTableRecord
  2
DOT
 70
     0
  3
.........................
 72
    65
 73
     2
 40
10.0
 49
0.0
 74
     4
 75
     0
340
0
 46
0.0
 50
0.0
 44
0.0
 45
0.0
 49
-10.0
 74
     4
 75
     0
340
0
 46
0.0
 50
0.0
 44
0.0
 45
0.0
  0
LTYPE
  5
44
330
5
100
AcDbSymbolTableRecord
100
AcDbLinetypeTableRecord
  2
DASHDOT
 70
     0
  3
_._._._._._._._._._._._._._._._.
 72
    65
 73
     4
 40
70.0
 49
31.0
 74
     4
 75
     0
340
0
 46
0.0
 50
0.0
 44
0.0
 45
0.0
 49
-13.0
 74
     4
 75
     0
340
0
 46
0.0
 50
0.0
 44
0.0
 45
0.0
 49
13.0
 74
     4
 75
     0
340
0
 46
0.0
 50
0.0
 44
0.0
 45
0.0
 49
-13.0
 74
     4
 75
     0
340
0
 46
0.0
 50
0.0
 44
0.0
 45
0.0
  0
ENDTAB
  0
TABLE
  2
LAYER
  5
2
102
{ACAD_XDICTIONARY
360
2BD
102
}
330
0
100
AcDbSymbolTable
 70
     4
  0
LAYER
  5
10
102
{ACAD_XDICTIONARY
360
306
102
}
330
2
100
AcDbSymbolTableRecord
100
AcDbLayerTableRecord
  2
0
 70
     0
 62
     7
  6
CONTINUOUS
370
    -3
390
F
347
3E
  0
LAYER
  5
46
102
{ACAD_XDICTIONARY
360
308
102
}
330
2
100
AcDbSymbolTableRecord
100
AcDbLayerTableRecord
  2
1
 70
     0
 62
     7
420
 16777215
  6
CONTINUOUS
370
    -3
390
F
347
3E
  0
LAYER
  5
2B9
102
{ACAD_XDICTIONARY
360
30A
102
}
330
2
100
AcDbSymbolTableRecord
100
AcDbLayerTableRecord
  2
HEWI
 70
     0
 62
     7
  6
CONTINUOUS
370
     9
390
F
347
3E
1001
AcAecLayerStandard
1000

1000

1001
AcCmTransparency
1071
        0
  0
LAYER
  5
2D2
330
2
100
AcDbSymbolTableRecord
100
AcDbLayerTableRecord
  2
Defpoints
 70
     0
 62
     7
  6
CONTINUOUS
290
     0
370
    -3
390
F
347
3E
  0
ENDTAB
  0
TABLE
  2
STYLE
  5
3
330
0
100
AcDbSymbolTable
 70
     1
  0
STYLE
  5
11
330
3
100
AcDbSymbolTableRecord
100
AcDbTextStyleTableRecord
  2
Standard
 70
     0
 40
0.0
 41
1.0
 50
0.0
 71
     0
 42
0.2
  3
txt
  4

  0
ENDTAB
  0
TABLE
  2
VIEW
  5
6
330
0
100
AcDbSymbolTable
 70
     0
  0
ENDTAB
  0
TABLE
  2
UCS
  5
7
330
0
100
AcDbSymbolTable
 70
     0
  0
ENDTAB
  0
TABLE
  2
APPID
  5
9
330
0
100
AcDbSymbolTable
 70
     6
  0
APPID
  5
12
330
9
100
AcDbSymbolTableRecord
100
AcDbRegAppTableRecord
  2
ACAD
 70
     0
  0
APPID
  5
281
330
9
100
AcDbSymbolTableRecord
100
AcDbRegAppTableRecord
  2
ACAD_NAV_VCDISPLAY
 70
     0
  0
APPID
  5
291
330
9
100
AcDbSymbolTableRecord
100
AcDbRegAppTableRecord
  2
ACAD_EXEMPT_FROM_CAD_STANDARDS
 70
     0
  0
APPID
  5
2BA
330
9
100
AcDbSymbolTableRecord
100
AcDbRegAppTableRecord
  2
AcAecLayerStandard
 70
     0
  0
APPID
  5
2BB
330
9
100
AcDbSymbolTableRecord
100
AcDbRegAppTableRecord
  2
AcCmTransparency
 70
     0
  0
APPID
  5
2BC
330
9
100
AcDbSymbolTableRecord
100
AcDbRegAppTableRecord
  2
ACAD_PSEXT
 70
     0
  0
ENDTAB
  0
TABLE
  2
DIMSTYLE
  5
A
330
0
100
AcDbSymbolTable
 70
     1
100
AcDbDimStyleTable
 71
     1
340
27
  0
DIMSTYLE
105
27
330
A
100
AcDbSymbolTableRecord
100
AcDbDimStyleTableRecord
  2
Standard
 70
     0
340
11
  0
ENDTAB
  0
TABLE
  2
BLOCK_RECORD
  5
1
330
0
100
AcDbSymbolTable
 70
     5
  0
BLOCK_RECORD
  5
1F
330
1
100
AcDbSymbolTableRecord
100
AcDbBlockTableRecord
  2
*Model_Space
340
22
 70
     0
280
     1
281
     0
  0
BLOCK_RECORD
  5
1B
330
1
100
AcDbSymbolTableRecord
100
AcDbBlockTableRecord
  2
*Paper_Space
340
1E
 70
     0
280
     1
281
     0
  0
BLOCK_RECORD
  5
23
330
1
100
AcDbSymbolTableRecord
100
AcDbBlockTableRecord
  2
*Paper_Space0
340
26
 70
     0
280
     1
281
     0
  0
BLOCK_RECORD
  5
2D3
330
1
100
AcDbSymbolTableRecord
100
AcDbBlockTableRecord
  2
*D1
340
0
 70
     0
280
     1
281
     0
  0
BLOCK_RECORD
  5
2ED
330
1
100
AcDbSymbolTableRecord
100
AcDbBlockTableRecord
  2
*D2
340
0
 70
     0
280
     1
281
     0
  0
BLOCK_RECORD
  5
35A
330
1
100
AcDbSymbolTableRecord
100
AcDbBlockTableRecord
  2
*D3
340
0
 70
     0
280
     1
281
     0
  0
BLOCK_RECORD
  5
37D
330
1
100
AcDbSymbolTableRecord
100
AcDbBlockTableRecord
  2
*D4
340
0
 70
     0
280
     1
281
     0
  0
ENDTAB
  0
ENDSEC
  0
SECTION
  2
BLOCKS
  0
BLOCK
  5
20
330
1F
100
AcDbEntity
  8
0
100
AcDbBlockBegin
  2
*Model_Space
 70
     0
 10
0.0
 20
0.0
 30
0.0
  3
*Model_Space
  1

  0
ENDBLK
  5
21
330
1F
100
AcDbEntity
  8
0
100
AcDbBlockEnd
  0
BLOCK
  5
1C
330
1B
100
AcDbEntity
 67
     1
  8
0
100
AcDbBlockBegin
  2
*Paper_Space
 70
     0
 10
0.0
 20
0.0
 30
0.0
  3
*Paper_Space
  1

  0
ENDBLK
  5
1D
330
1B
100
AcDbEntity
 67
     1
  8
0
100
AcDbBlockEnd
  0
BLOCK
  5
24
330
23
100
AcDbEntity
 67
     1
  8
0
100
AcDbBlockBegin
  2
*Paper_Space0
 70
     0
 10
0.0
 20
0.0
 30
0.0
  3
*Paper_Space0
  1

  0
ENDBLK
  5
25
330
23
100
AcDbEntity
 67
     1
  8
0
100
AcDbBlockEnd
  0
BLOCK
  5
2D4
330
2D3
100
AcDbEntity
  8
0
100
AcDbBlockBegin
  2
*D1
 70
     1
 10
0.0
 20
0.0
 30
0.0
  3
*D1
  1

  0
LINE
  5
2E1
330
2D3
100
AcDbEntity
  8
0
 62
     0
440
 16777216
370
    -2
100
AcDbLine
 10
69.43527399999999
 20
152.3095357560665
 30
0.0
 11
69.43527399999999
 21
159.8168309998543
 31
0.0
  0
LINE
  5
2E2
330
2D3
100
AcDbEntity
  8
0
 62
     0
440
 16777216
370
    -2
100
AcDbLine
 10
85.73527400000001
 20
152.3095357560665
 30
0.0
 11
85.73527400000001
 21
159.8168309998543
 31
0.0
  0
LINE
  5
2E3
330
2D3
100
AcDbEntity
  8
0
 62
     0
440
 16777216
370
    -2
100
AcDbLine
 10
69.615274
 20
159.6368309998543
 30
0.0
 11
77.03027399999998
 21
159.6368309998543
 31
0.0
  0
LINE
  5
2E4
330
2D3
100
AcDbEntity
  8
0
 62
     0
440
 16777216
370
    -2
100
AcDbLine
 10
85.555274
 20
159.6368309998543
 30
0.0
 11
78.140274
 21
159.6368309998543
 31
0.0
  0
SOLID
  5
2E5
330
2D3
100
AcDbEntity
  8
0
 62
     0
440
 16777216
100
AcDbTrace
 10
69.615274
 20
159.6668309998543
 30
0.0
 11
69.615274
 21
159.6068309998543
 31
0.0
 12
69.43527399999999
 22
159.6368309998543
 32
0.0
 13
69.43527399999999
 23
159.6368309998543
 33
0.0
  0
SOLID
  5
2E6
330
2D3
100
AcDbEntity
  8
0
 62
     0
440
 16777216
100
AcDbTrace
 10
85.555274
 20
159.6668309998543
 30
0.0
 11
85.555274
 21
159.6068309998543
 31
0.0
 12
85.73527400000001
 22
159.6368309998543
 32
0.0
 13
85.73527400000001
 23
159.6368309998543
 33
0.0
  0
MTEXT
  5
2E7
330
2D3
100
AcDbEntity
  8
0
 62
     0
440
 16777216
100
AcDbMText
 10
77.585274
 20
159.6368309998543
 30
0.0
 40
0.18
 41
0.0
 46
0.0
 71
     5
 72
     1
  1
\A1;16.3000
 73
     1
 44
1.0
  0
POINT
  5
2E8
330
2D3
100
AcDbEntity
  8
Defpoints
 62
     0
440
 16777216
100
AcDbPoint
 10
69.43527399999999
 20
152.2470357560665
 30
0.0
  0
POINT
  5
2E9
330
2D3
100
AcDbEntity
  8
Defpoints
 62
     0
440
 16777216
100
AcDbPoint
 10
85.73527400000001
 20
152.2470357560665
 30
0.0
  0
POINT
  5
2EA
330
2D3
100
AcDbEntity
  8
Defpoints
 62
     0
440
 16777216
100
AcDbPoint
 10
85.73527400000001
 20
159.6368309998543
 30
0.0
  0
ENDBLK
  5
2D5
330
2D3
100
AcDbEntity
  8
0
100
AcDbBlockEnd
  0
BLOCK
  5
2EE
330
2ED
100
AcDbEntity
  8
0
100
AcDbBlockBegin
  2
*D2
 70
     1
 10
0.0
 20
0.0
 30
0.0
  3
*D2
  1

  0
LINE
  5
2FB
330
2ED
100
AcDbEntity
  8
0
 62
     0
440
 16777216
370
    -2
100
AcDbLine
 10
221.0878223236583
 20
306.8173291636032
 30
0.0
 11
221.0878223236583
 21
388.8658366598938
 31
0.0
  0
LINE
  5
2FC
330
2ED
100
AcDbEntity
  8
0
 62
     0
440
 16777216
370
    -2
100
AcDbLine
 10
384.0878223236584
 20
306.8173291636032
 30
0.0
 11
384.0878223236584
 21
388.8658366598938
 31
0.0
  0
LINE
  5
2FD
330
2ED
100
AcDbEntity
  8
0
 62
     0
440
 16777216
370
    -2
100
AcDbLine
 10
221.2678223236583
 20
388.6858366598938
 30
0.0
 11
301.9578223236584
 21
388.6858366598938
 31
0.0
  0
LINE
  5
2FE
330
2ED
100
AcDbEntity
  8
0
 62
     0
440
 16777216
370
    -2
100
AcDbLine
 10
383.9078223236584
 20
388.6858366598938
 30
0.0
 11
303.2178223236584
 21
388.6858366598938
 31
0.0
  0
SOLID
  5
2FF
330
2ED
100
AcDbEntity
  8
0
 62
     0
440
 16777216
100
AcDbTrace
 10
221.2678223236583
 20
388.7158366598937
 30
0.0
 11
221.2678223236583
 21
388.6558366598938
 31
0.0
 12
221.0878223236583
 22
388.6858366598938
 32
0.0
 13
221.0878223236583
 23
388.6858366598938
 33
0.0
  0
SOLID
  5
300
330
2ED
100
AcDbEntity
  8
0
 62
     0
440
 16777216
100
AcDbTrace
 10
383.9078223236584
 20
388.7158366598937
 30
0.0
 11
383.9078223236584
 21
388.6558366598938
 31
0.0
 12
384.0878223236584
 22
388.6858366598938
 32
0.0
 13
384.0878223236584
 23
388.6858366598938
 33
0.0
  0
MTEXT
  5
301
330
2ED
100
AcDbEntity
  8
0
 62
     0
440
 16777216
100
AcDbMText
 10
302.5878223236584
 20
388.6858366598938
 30
0.0
 40
0.18
 41
0.0
 46
0.0
 71
     5
 72
     1
  1
\A1;163.0000
 73
     1
 44
1.0
  0
POINT
  5
302
330
2ED
100
AcDbEntity
  8
Defpoints
 62
     0
440
 16777216
100
AcDbPoint
 10
221.0878223236583
 20
306.7548291636032
 30
0.0
  0
POINT
  5
303
330
2ED
100
AcDbEntity
  8
Defpoints
 62
     0
440
 16777216
100
AcDbPoint
 10
384.0878223236584
 20
306.7548291636032
 30
0.0
  0
POINT
  5
304
330
2ED
100
AcDbEntity
  8
Defpoints
 62
     0
440
 16777216
100
AcDbPoint
 10
384.0878223236584
 20
388.6858366598938
 30
0.0
  0
ENDBLK
  5
2EF
330
2ED
100
AcDbEntity
  8
0
100
AcDbBlockEnd
  0
BLOCK
  5
35B
330
35A
100
AcDbEntity
  8
0
100
AcDbBlockBegin
  2
*D3
 70
     1
 10
0.0
 20
0.0
 30
0.0
  3
*D3
  1

  0
LINE
  5
368
330
35A
100
AcDbEntity
  8
0
 62
     0
440
 16777216
370
    -2
100
AcDbLine
 10
587.2281023236581
 20
306.6423291636033
 30
0.0
 11
587.2281023236581
 21
178.5334907945376
 31
0.0
  0
LINE
  5
369
330
35A
100
AcDbEntity
  8
0
 62
     0
440
 16777216
370
    -2
100
AcDbLine
 10
569.2281023236581
 20
306.6423291636033
 30
0.0
 11
569.2281023236581
 21
178.5334907945376
 31
0.0
  0
LINE
  5
36A
330
35A
100
AcDbEntity
  8
0
 62
     0
440
 16777216
370
    -2
100
AcDbLine
 10
587.0481023236582
 20
178.7134907945376
 30
0.0
 11
578.7681023236581
 21
178.7134907945376
 31
0.0
  0
LINE
  5
36B
330
35A
100
AcDbEntity
  8
0
 62
     0
440
 16777216
370
    -2
100
AcDbLine
 10
569.4081023236581
 20
178.7134907945376
 30
0.0
 11
577.6881023236581
 21
178.7134907945376
 31
0.0
  0
SOLID
  5
36C
330
35A
100
AcDbEntity
  8
0
 62
     0
440
 16777216
100
AcDbTrace
 10
587.0481023236582
 20
178.7434907945376
 30
0.0
 11
587.0481023236582
 21
178.6834907945376
 31
0.0
 12
587.2281023236581
 22
178.7134907945376
 32
0.0
 13
587.2281023236581
 23
178.7134907945376
 33
0.0
  0
SOLID
  5
36D
330
35A
100
AcDbEntity
  8
0
 62
     0
440
 16777216
100
AcDbTrace
 10
569.4081023236581
 20
178.7434907945376
 30
0.0
 11
569.4081023236581
 21
178.6834907945376
 31
0.0
 12
569.2281023236581
 22
178.7134907945376
 32
0.0
 13
569.2281023236581
 23
178.7134907945376
 33
0.0
  0
MTEXT
  5
36E
330
35A
100
AcDbEntity
  8
0
 62
     0
440
 16777216
100
AcDbMText
 10
578.2281023236581
 20
178.7134907945376
 30
0.0
 40
0.18
 41
0.0
 46
0.0
 71
     5
 72
     1
  1
\A1;18.0000
 73
     1
 44
1.0
  0
POINT
  5
36F
330
35A
100
AcDbEntity
  8
Defpoints
 62
     0
440
 16777216
100
AcDbPoint
 10
587.2281023236581
 20
306.7048291636033
 30
0.0
  0
POINT
  5
370
330
35A
100
AcDbEntity
  8
Defpoints
 62
     0
440
 16777216
100
AcDbPoint
 10
569.2281023236581
 20
306.7048291636033
 30
0.0
  0
POINT
  5
371
330
35A
100
AcDbEntity
  8
Defpoints
 62
     0
440
 16777216
100
AcDbPoint
 10
569.2281023236581
 20
178.7134907945376
 30
0.0
  0
ENDBLK
  5
35C
330
35A
100
AcDbEntity
  8
0
100
AcDbBlockEnd
  0
BLOCK
  5
37E
330
37D
100
AcDbEntity
  8
0
100
AcDbBlockBegin
  2
*D4
 70
     1
 10
0.0
 20
0.0
 30
0.0
  3
*D4
  1

  0
LINE
  5
38B
330
37D
100
AcDbEntity
  8
0
 62
     0
440
 16777216
370
    -2
100
AcDbLine
 10
302.6503223236584
 20
28.10404916360324
 30
0.0
 11
412.799631934137
 21
28.10404916360321
 31
0.0
  0
LINE
  5
38C
330
37D
100
AcDbEntity
  8
0
 62
     0
440
 16777216
370
    -2
100
AcDbLine
 10
302.6503223236584
 20
15.10404916360323
 30
0.0
 11
412.799631934137
 21
15.1040491636032
 31
0.0
  0
LINE
  5
38D
330
37D
100
AcDbEntity
  8
0
 62
     0
440
 16777216
370
    -2
100
AcDbLine
 10
412.619631934137
 20
27.92404916360321
 30
0.0
 11
412.619631934137
 21
21.7840491636032
 31
0.0
  0
LINE
  5
38E
330
37D
100
AcDbEntity
  8
0
 62
     0
440
 16777216
370
    -2
100
AcDbLine
 10
412.619631934137
 20
15.2840491636032
 30
0.0
 11
412.619631934137
 21
21.4240491636032
 31
0.0
  0
SOLID
  5
38F
330
37D
100
AcDbEntity
  8
0
 62
     0
440
 16777216
100
AcDbTrace
 10
412.589631934137
 20
27.92404916360321
 30
0.0
 11
412.6496319341369
 21
27.92404916360321
 31
0.0
 12
412.619631934137
 22
28.10404916360321
 32
0.0
 13
412.619631934137
 23
28.10404916360321
 33
0.0
  0
SOLID
  5
390
330
37D
100
AcDbEntity
  8
0
 62
     0
440
 16777216
100
AcDbTrace
 10
412.589631934137
 20
15.2840491636032
 30
0.0
 11
412.6496319341369
 21
15.2840491636032
 31
0.0
 12
412.619631934137
 22
15.1040491636032
 32
0.0
 13
412.619631934137
 23
15.1040491636032
 33
0.0
  0
MTEXT
  5
391
330
37D
100
AcDbEntity
  8
0
 62
     0
440
 16777216
100
AcDbMText
 10
412.619631934137
 20
21.60404916360327
 30
0.0
 40
0.18
 41
0.0
 46
0.0
 71
     5
 72
     1
  1
\A1;13.0000
 73
     1
 44
1.0
  0
POINT
  5
392
330
37D
100
AcDbEntity
  8
Defpoints
 62
     0
440
 16777216
100
AcDbPoint
 10
302.5878223236584
 20
28.10404916360324
 30
0.0
  0
POINT
  5
393
330
37D
100
AcDbEntity
  8
Defpoints
 62
     0
440
 16777216
100
AcDbPoint
 10
302.5878223236584
 20
15.10404916360323
 30
0.0
  0
POINT
  5
394
330
37D
100
AcDbEntity
  8
Defpoints
 62
     0
440
 16777216
100
AcDbPoint
 10
412.619631934137
 20
15.1040491636032
 30
0.0
  0
ENDBLK
  5
37F
330
37D
100
AcDbEntity
  8
0
100
AcDbBlockEnd
  0
ENDSEC
  0
SECTION
  2
ENTITIES
  0
LINE
  5
45
330
1F
100
AcDbEntity
  8
HEWI
100
AcDbLine
 10
740.9961097714912
 20
344.8767182833793
 30
0.0
 11
854.8418697714909
 21
410.6055982833789
 31
0.0
  0
LINE
  5
47
330
1F
100
AcDbEntity
  8
HEWI
100
AcDbLine
 10
749.0341097714912
 20
338.6047982833797
 30
0.0
 11
740.2897897714909
 21
343.6533282833792
 31
0.0
  0
LINE
  5
48
330
1F
100
AcDbEntity
  8
HEWI
100
AcDbLine
 10
740.2897897714909
 20
256.3281182833792
 30
0.0
 11
740.2897897714909
 21
343.6932482833794
 31
0.0
  0
LINE
  5
49
330
1F
100
AcDbEntity
  8
HEWI
100
AcDbLine
 10
740.2897897714909
 20
256.2863882833793
 30
0.0
 11
749.0341097714912
 21
252.1472882833795
 31
0.0
  0
LINE
  5
4A
330
1F
100
AcDbEntity
  8
HEWI
100
AcDbLine
 10
862.7985897714911
 20
405.1023382833792
 30
0.0
 11
854.8418697714909
 21
410.6055982833789
 31
0.0
  0
LINE
  5
4B
330
1F
100
AcDbEntity
  8
HEWI
100
AcDbLine
 10
749.0341097714912
 20
252.1472882833795
 30
0.0
 11
749.0341097714912
 21
338.6047982833797
 31
0.0
  0
LINE
  5
4C
330
1F
100
AcDbEntity
  8
HEWI
100
AcDbLine
 10
857.7962797714912
 20
321.7863482833792
 30
0.0
 11
857.4764997714915
 21
320.1608782833793
 31
0.0
  0
LINE
  5
4D
330
1F
100
AcDbEntity
  8
HEWI
100
AcDbLine
 10
740.9961097714912
 20
344.8767182833793
 30
0.0
 11
749.7404297714909
 21
339.8281782833793
 31
0.0
  0
LINE
  5
4E
330
1F
100
AcDbEntity
  8
HEWI
100
AcDbLine
 10
855.8053097714909
 20
318.5874582833793
 30
0.0
 11
854.701349771491
 21
317.9500882833792
 31
0.0
  0
LINE
  5
4F
330
1F
100
AcDbEntity
  8
HEWI
100
AcDbLine
 10
858.1737097714912
 20
322.0042582833795
 30
0.0
 11
857.6412597714909
 21
319.6474382833793
 31
0.0
  0
LINE
  5
50
330
1F
100
AcDbEntity
  8
HEWI
100
AcDbLine
 10
857.1926297714913
 20
321.4378182833792
 30
0.0
 11
857.4623597714913
 21
320.1690382833793
 31
0.0
  0
LINE
  5
51
330
1F
100
AcDbEntity
  8
HEWI
100
AcDbLine
 10
855.8053097714909
 20
318.9171382833793
 30
0.0
 11
855.8053097714909
 21
318.5874582833793
 31
0.0
  0
LINE
  5
52
330
1F
100
AcDbEntity
  8
HEWI
100
AcDbLine
 10
858.6453197714911
 20
320.2271382833793
 30
0.0
 11
858.2882497714914
 21
320.0209882833795
 31
0.0
  0
LINE
  5
53
330
1F
100
AcDbEntity
  8
HEWI
100
AcDbLine
 10
855.7449397714911
 20
319.4666882833793
 30
0.0
 11
855.0472397714914
 21
319.0638682833793
 31
0.0
  0
LINE
  5
54
330
1F
100
AcDbEntity
  8
HEWI
100
AcDbLine
 10
855.8053097714909
 20
320.2916882833791
 30
0.0
 11
855.0472397714914
 21
319.8540182833796
 31
0.0
  0
LINE
  5
55
330
1F
100
AcDbEntity
  8
HEWI
100
AcDbLine
 10
855.0613797714911
 20
319.0557082833795
 30
0.0
 11
855.0472397714914
 21
319.0638682833793
 31
0.0
  0
LINE
  5
56
330
1F
100
AcDbEntity
  8
HEWI
100
AcDbLine
 10
854.4456897714912
 20
317.8024782833793
 30
0.0
 11
854.4456897714912
 21
319.8518782833793
 31
0.0
  0
LINE
  5
57
330
1F
100
AcDbEntity
  8
HEWI
100
AcDbLine
 10
856.7132197714911
 20
319.1116382833792
 30
0.0
 11
856.3722897714908
 21
318.9148082833793
 31
0.0
  0
LINE
  5
58
330
1F
100
AcDbEntity
  8
HEWI
100
AcDbLine
 10
855.0613797714911
 20
319.3836482833793
 30
0.0
 11
855.0472397714914
 21
319.3918182833792
 31
0.0
  0
LINE
  5
59
330
1F
100
AcDbEntity
  8
HEWI
100
AcDbLine
 10
853.363359771491
 20
318.4196282833791
 30
0.0
 11
853.363359771491
 21
319.2269982833794
 31
0.0
  0
LINE
  5
5A
330
1F
100
AcDbEntity
  8
HEWI
100
AcDbLine
 10
855.759079771491
 20
319.4585282833792
 30
0.0
 11
855.7449397714911
 21
319.4666882833793
 31
0.0
  0
LINE
  5
5B
330
1F
100
AcDbEntity
  8
HEWI
100
AcDbLine
 10
853.363359771491
 20
318.0916782833794
 30
0.0
 11
854.0856497714912
 21
318.5086982833794
 31
0.0
  0
LINE
  5
5C
330
1F
100
AcDbEntity
  8
HEWI
100
AcDbLine
 10
855.8194597714914
 20
320.2835282833793
 30
0.0
 11
855.8053097714909
 21
320.2916882833791
 31
0.0
  0
LINE
  5
5D
330
1F
100
AcDbEntity
  8
HEWI
100
AcDbLine
 10
856.2426897714912
 20
320.8893782833792
 30
0.0
 11
856.5499697714912
 21
319.6525982833792
 31
0.0
  0
LINE
  5
5E
330
1F
100
AcDbEntity
  8
HEWI
100
AcDbLine
 10
855.0613797714911
 20
319.845848283379
 30
0.0
 11
855.0472397714914
 21
319.8540182833796
 31
0.0
  0
LINE
  5
5F
330
1F
100
AcDbEntity
  8
HEWI
100
AcDbLine
 10
854.0997897714911
 20
317.6027782833793
 30
0.0
 11
854.4456897714912
 21
317.8024782833793
 31
0.0
  0
LINE
  5
60
330
1F
100
AcDbEntity
  8
HEWI
100
AcDbLine
 10
854.0997897714911
 20
318.5005382833793
 30
0.0
 11
854.0856497714912
 21
318.5086982833794
 31
0.0
  0
LINE
  5
61
330
1F
100
AcDbEntity
  8
HEWI
100
AcDbLine
 10
853.363359771491
 20
317.1775982833793
 30
0.0
 11
853.363359771491
 21
318.0916782833794
 31
0.0
  0
LINE
  5
62
330
1F
100
AcDbEntity
  8
HEWI
100
AcDbLine
 10
858.6453197714911
 20
322.2765382833793
 30
0.0
 11
858.6453197714911
 21
320.2271382833793
 31
0.0
  0
LINE
  5
63
330
1F
100
AcDbEntity
  8
HEWI
100
AcDbLine
 10
855.7449397714911
 20
319.778308283379
 30
0.0
 11
855.7449397714911
 21
319.4666882833793
 31
0.0
  0
LINE
  5
64
330
1F
100
AcDbEntity
  8
HEWI
100
AcDbLine
 10
855.0472397714914
 20
319.0638682833793
 30
0.0
 11
855.0472397714914
 21
318.4957982833793
 31
0.0
  0
LINE
  5
65
330
1F
100
AcDbEntity
  8
HEWI
100
AcDbLine
 10
853.0174597714912
 20
316.9778882833792
 30
0.0
 11
853.363359771491
 21
317.1775982833793
 31
0.0
  0
LINE
  5
66
330
1F
100
AcDbEntity
  8
HEWI
100
AcDbLine
 10
855.8053097714909
 20
320.6368582833792
 30
0.0
 11
855.8053097714909
 21
320.2916882833791
 31
0.0
  0
LINE
  5
67
330
1F
100
AcDbEntity
  8
HEWI
100
AcDbLine
 10
853.3774997714912
 20
318.4114582833794
 30
0.0
 11
853.363359771491
 21
318.4196282833791
 31
0.0
  0
LINE
  5
68
330
1F
100
AcDbEntity
  8
HEWI
100
AcDbLine
 10
857.0039297714911
 20
320.6893482833792
 30
0.0
 11
856.7132197714911
 21
319.1116382833792
 31
0.0
  0
LINE
  5
69
330
1F
100
AcDbEntity
  8
HEWI
100
AcDbLine
 10
853.3774997714912
 20
318.0835182833795
 30
0.0
 11
853.363359771491
 21
318.0916782833794
 31
0.0
  0
LINE
  5
6A
330
1F
100
AcDbEntity
  8
HEWI
100
AcDbLine
 10
853.3774997714912
 20
317.1694282833791
 30
0.0
 11
853.363359771491
 21
317.1775982833793
 31
0.0
  0
LINE
  5
6B
330
1F
100
AcDbEntity
  8
HEWI
100
AcDbLine
 10
855.0613797714911
 20
318.4876282833792
 30
0.0
 11
855.0472397714914
 21
318.4957982833793
 31
0.0
  0
LINE
  5
6C
330
1F
100
AcDbEntity
  8
HEWI
100
AcDbLine
 10
857.6412597714909
 20
319.6474382833793
 30
0.0
 11
857.3009997714914
 21
319.4509882833794
 31
0.0
  0
LINE
  5
6D
330
1F
100
AcDbEntity
  8
HEWI
100
AcDbLine
 10
855.0472397714914
 20
319.8540182833796
 30
0.0
 11
855.0472397714914
 21
319.3918182833792
 31
0.0
  0
LINE
  5
6E
330
1F
100
AcDbEntity
  8
HEWI
100
AcDbLine
 10
854.4598297714911
 20
317.7943182833792
 30
0.0
 11
854.4456897714912
 21
317.8024782833793
 31
0.0
  0
LINE
  5
6F
330
1F
100
AcDbEntity
  8
HEWI
100
AcDbLine
 10
749.7404297714909
 20
339.8281782833793
 30
0.0
 11
862.7985897714911
 21
405.1023382833792
 31
0.0
  0
LINE
  5
70
330
1F
100
AcDbEntity
  8
HEWI
100
AcDbLine
 10
749.0341097714912
 20
338.6047982833797
 30
0.0
 11
740.2897897714909
 21
343.6533282833792
 31
0.0
  0
LINE
  5
71
330
1F
100
AcDbEntity
  8
HEWI
100
AcDbLine
 10
740.9961097714912
 20
344.8767182833793
 30
0.0
 11
749.7404297714909
 21
339.8281782833793
 31
0.0
  0
LINE
  5
72
330
1F
100
AcDbEntity
  8
HEWI
100
AcDbLine
 10
862.7985897714911
 20
405.1023382833792
 30
0.0
 11
854.8418697714909
 21
410.6055982833789
 31
0.0
  0
LINE
  5
73
330
1F
100
AcDbEntity
  8
HEWI
100
AcDbLine
 10
749.7404297714909
 20
339.8281782833793
 30
0.0
 11
862.7985897714911
 21
405.1023382833792
 31
0.0
  0
LINE
  5
74
330
1F
100
AcDbEntity
  8
HEWI
100
AcDbLine
 10
740.9961097714912
 20
344.8767182833793
 30
0.0
 11
854.8418697714909
 21
410.6055982833789
 31
0.0
  0
LINE
  5
75
330
1F
100
AcDbEntity
  8
HEWI
100
AcDbLine
 10
740.2897897714909
 20
256.2863882833793
 30
0.0
 11
740.2897897714909
 21
343.6533282833792
 31
0.0
  0
LINE
  5
76
330
1F
100
AcDbEntity
  8
HEWI
100
AcDbLine
 10
749.0341097714912
 20
252.1472882833795
 30
0.0
 11
749.0341097714912
 21
338.6047982833797
 31
0.0
  0
LINE
  5
78
330
1F
100
AcDbEntity
  8
HEWI
100
AcDbLine
 10
857.2036697714914
 20
321.4442082833792
 30
0.0
 11
856.8391697714913
 21
321.2337682833794
 31
0.0
  0
LINE
  5
79
330
1F
100
AcDbEntity
  8
HEWI
100
AcDbLine
 10
856.8391697714913
 20
321.2337682833794
 30
0.0
 11
856.5641097714911
 21
319.6444382833794
 31
0.0
  0
LINE
  5
7A
330
1F
100
AcDbEntity
  8
HEWI
100
AcDbLine
 10
740.2897897714909
 20
256.2863882833793
 30
0.0
 11
749.0341097714912
 21
252.1472882833795
 31
0.0
  0
LINE
  5
7B
330
1F
100
AcDbEntity
  8
HEWI
100
AcDbLine
 10
749.9064397714912
 20
251.7149082833793
 30
0.0
 11
749.9064397714912
 21
338.1002482833793
 31
0.0
  0
LINE
  5
7C
330
1F
100
AcDbEntity
  8
HEWI
100
AcDbLine
 10
740.2897897714909
 20
256.2863882833793
 30
0.0
 11
740.2897897714909
 21
343.6533282833792
 31
0.0
  0
LINE
  5
7D
330
1F
100
AcDbEntity
  8
HEWI
100
AcDbLine
 10
857.4764997714915
 20
320.1608782833793
 30
0.0
 11
857.2036697714914
 21
321.4442082833792
 31
0.0
  0
LINE
  5
7E
330
1F
100
AcDbEntity
  8
HEWI
100
AcDbLine
 10
854.8410897714912
 20
410.6459682833791
 30
0.0
 11
740.9968897714914
 21
344.9179982833795
 31
0.0
  0
LINE
  5
7F
330
1F
100
AcDbEntity
  8
HEWI
100
AcDbLine
 10
863.3236897714912
 20
405.1356482833792
 30
0.0
 11
855.3643597714911
 21
410.6407082833793
 31
0.0
  0
LINE
  5
81
330
1F
100
AcDbEntity
  8
HEWI
100
AcDbLine
 10
749.4064397714908
 20
251.6653782833794
 30
0.0
 11
750.1135497714909
 21
251.2571282833791
 31
0.0
  0
LINE
  5
83
330
1F
100
AcDbEntity
  8
HEWI
100
AcDbLine
 10
740.5206197714912
 20
255.8163382833789
 30
0.0
 11
749.2678097714912
 21
251.6758882833791
 31
0.0
  0
LINE
  5
84
330
1F
100
AcDbEntity
  8
HEWI
100
AcDbLine
 10
863.3236897714912
 20
405.1356482833792
 30
0.0
 11
855.3643597714911
 21
410.6407082833793
 31
0.0
  0
LINE
  5
85
330
1F
100
AcDbEntity
  8
HEWI
100
AcDbLine
 10
864.1092097714912
 20
404.612598283379
 30
0.0
 11
863.4020997714911
 21
405.0208482833792
 31
0.0
  0
LINE
  5
86
330
1F
100
AcDbEntity
  8
HEWI
100
AcDbLine
 10
740.5206197714912
 20
255.8163382833789
 30
0.0
 11
749.2678097714912
 21
251.6758882833791
 31
0.0
  0
LINE
  5
87
330
1F
100
AcDbEntity
  8
HEWI
100
AcDbLine
 10
856.7273597714912
 20
319.1034782833793
 30
0.0
 11
856.7132197714911
 21
319.1116382833792
 31
0.0
  0
LINE
  5
88
330
1F
100
AcDbEntity
  8
HEWI
100
AcDbLine
 10
857.0180697714912
 20
320.6811782833792
 30
0.0
 11
857.0039297714911
 21
320.6893482833792
 31
0.0
  0
LINE
  5
89
330
1F
100
AcDbEntity
  8
HEWI
100
AcDbLine
 10
857.6553997714912
 20
319.6392782833795
 30
0.0
 11
857.6412597714909
 21
319.6474382833793
 31
0.0
  0
LINE
  5
8A
330
1F
100
AcDbEntity
  8
HEWI
100
AcDbLine
 10
749.9064397714912
 20
339.7332382833797
 30
0.0
 11
750.6135497714909
 21
339.3249882833794
 31
0.0
  0
LINE
  5
8B
330
1F
100
AcDbEntity
  8
HEWI
100
AcDbLine
 10
749.9064397714912
 20
339.7332382833797
 30
0.0
 11
862.9020997714913
 21
404.9713182833792
 31
0.0
  0
LINE
  5
8D
330
1F
100
AcDbEntity
  8
HEWI
100
AcDbLine
 10
858.6594597714912
 20
320.2189682833792
 30
0.0
 11
858.6453197714911
 21
320.2271382833793
 31
0.0
  0
LINE
  5
8E
330
1F
100
AcDbEntity
  8
HEWI
100
AcDbLine
 10
856.5641097714911
 20
319.6444382833794
 30
0.0
 11
856.5499697714912
 21
319.6525982833792
 31
0.0
  0
LINE
  5
8F
330
1F
100
AcDbEntity
  8
HEWI
100
AcDbLine
 10
749.9064397714912
 20
338.1002482833793
 30
0.0
 11
749.1993297714912
 21
338.5084982833796
 31
0.0
  0
LINE
  5
90
330
1F
100
AcDbEntity
  8
HEWI
100
AcDbLine
 10
863.6092097714913
 20
404.5630682833789
 30
0.0
 11
862.9020997714913
 21
404.9713182833792
 31
0.0
  0
LINE
  5
91
330
1F
100
AcDbEntity
  8
HEWI
100
AcDbLine
 10
857.4764997714915
 20
320.1608782833793
 30
0.0
 11
857.4623597714913
 21
320.1690382833793
 31
0.0
  0
LINE
  5
92
330
1F
100
AcDbEntity
  8
HEWI
100
AcDbLine
 10
855.8194597714914
 20
318.5792982833794
 30
0.0
 11
855.8053097714909
 21
318.5874582833793
 31
0.0
  0
LINE
  5
93
330
1F
100
AcDbEntity
  8
HEWI
100
AcDbLine
 10
749.1993297714912
 20
252.1231582833792
 30
0.0
 11
749.9064397714912
 21
251.7149082833793
 31
0.0
  0
LINE
  5
94
330
1F
100
AcDbEntity
  8
HEWI
100
AcDbLine
 10
855.0613797714911
 20
319.845848283379
 30
0.0
 11
855.8194597714914
 21
320.2835282833793
 31
0.0
  0
LINE
  5
95
330
1F
100
AcDbEntity
  8
HEWI
100
AcDbLine
 10
853.3774997714912
 20
317.1694282833791
 30
0.0
 11
853.0174597714912
 21
316.9615582833793
 31
0.0
  0
LINE
  5
96
330
1F
100
AcDbEntity
  8
HEWI
100
AcDbLine
 10
853.0174597714912
 20
319.0272982833795
 30
0.0
 11
853.3774997714912
 21
319.2351682833793
 31
0.0
  0
LINE
  5
97
330
1F
100
AcDbEntity
  8
HEWI
100
AcDbLine
 10
857.304309771491
 20
319.4365782833792
 30
0.0
 11
857.6553997714912
 21
319.6392782833795
 31
0.0
  0
LINE
  5
98
330
1F
100
AcDbEntity
  8
HEWI
100
AcDbLine
 10
857.0180697714912
 20
320.6811782833792
 30
0.0
 11
857.304309771491
 21
319.4365782833792
 31
0.0
  0
LINE
  5
99
330
1F
100
AcDbEntity
  8
HEWI
100
AcDbLine
 10
858.6594597714912
 20
320.2189682833792
 30
0.0
 11
858.6594597714912
 21
322.2847082833795
 31
0.0
  0
LINE
  5
9A
330
1F
100
AcDbEntity
  8
HEWI
100
AcDbLine
 10
856.5641097714911
 20
319.6444382833794
 30
0.0
 11
856.253279771491
 21
320.8954982833792
 31
0.0
  0
LINE
  5
9B
330
1F
100
AcDbEntity
  8
HEWI
100
AcDbLine
 10
854.0997897714911
 20
318.8284782833792
 30
0.0
 11
854.0997897714911
 21
319.6521782833792
 31
0.0
  0
LINE
  5
9C
330
1F
100
AcDbEntity
  8
HEWI
100
AcDbLine
 10
853.3774997714912
 20
318.0835182833795
 30
0.0
 11
853.3774997714912
 21
317.1694282833791
 31
0.0
  0
LINE
  5
9D
330
1F
100
AcDbEntity
  8
HEWI
100
AcDbLine
 10
863.6092097714913
 20
404.5630682833789
 30
0.0
 11
750.6135497714909
 21
339.3249882833794
 31
0.0
  0
LINE
  5
9E
330
1F
100
AcDbEntity
  8
HEWI
100
AcDbLine
 10
854.7013397714913
 20
317.9337482833793
 30
0.0
 11
855.8194597714914
 21
318.5792982833794
 31
0.0
  0
LINE
  5
9F
330
1F
100
AcDbEntity
  8
HEWI
100
AcDbLine
 10
855.0613797714911
 20
318.4876282833792
 30
0.0
 11
855.0613797714911
 21
319.0557082833795
 31
0.0
  0
LINE
  5
A0
330
1F
100
AcDbEntity
  8
HEWI
100
AcDbLine
 10
854.4598297714911
 20
317.7943182833792
 30
0.0
 11
854.0997897714911
 21
317.5864482833794
 31
0.0
  0
LINE
  5
A1
330
1F
100
AcDbEntity
  8
HEWI
100
AcDbLine
 10
853.0174597714912
 20
316.9615582833793
 30
0.0
 11
853.0174597714912
 21
319.0272982833795
 31
0.0
  0
LINE
  5
A2
330
1F
100
AcDbEntity
  8
HEWI
100
AcDbLine
 10
858.2882497714914
 20
320.0046482833792
 30
0.0
 11
858.6594597714912
 21
320.2189682833792
 31
0.0
  0
LINE
  5
A3
330
1F
100
AcDbEntity
  8
HEWI
100
AcDbLine
 10
855.0613797714911
 20
319.3836482833793
 30
0.0
 11
855.0613797714911
 21
319.845848283379
 31
0.0
  0
LINE
  5
A4
330
1F
100
AcDbEntity
  8
HEWI
100
AcDbLine
 10
857.6553997714912
 20
319.6392782833795
 30
0.0
 11
858.1920997714913
 21
322.0148782833791
 31
0.0
  0
LINE
  5
A5
330
1F
100
AcDbEntity
  8
HEWI
100
AcDbLine
 10
858.1920997714913
 20
322.0148782833791
 30
0.0
 11
857.7962797714912
 21
321.7863482833792
 31
0.0
  0
LINE
  5
A6
330
1F
100
AcDbEntity
  8
HEWI
100
AcDbLine
 10
856.3762697714908
 20
318.9007682833795
 30
0.0
 11
856.7273597714912
 21
319.1034782833793
 31
0.0
  0
LINE
  5
A7
330
1F
100
AcDbEntity
  8
HEWI
100
AcDbLine
 10
855.759079771491
 20
319.7864682833791
 30
0.0
 11
855.0613797714911
 21
319.3836482833793
 31
0.0
  0
LINE
  5
A8
330
1F
100
AcDbEntity
  8
HEWI
100
AcDbLine
 10
855.0613797714911
 20
319.0557082833795
 30
0.0
 11
855.759079771491
 21
319.4585282833792
 31
0.0
  0
LINE
  5
A9
330
1F
100
AcDbEntity
  8
HEWI
100
AcDbLine
 10
853.3774997714912
 20
319.2351682833793
 30
0.0
 11
853.3774997714912
 21
318.4114582833794
 31
0.0
  0
LINE
  5
AA
330
1F
100
AcDbEntity
  8
HEWI
100
AcDbLine
 10
858.6594597714912
 20
322.2847082833795
 30
0.0
 11
858.2882497714914
 21
322.0703882833794
 31
0.0
  0
LINE
  5
AB
330
1F
100
AcDbEntity
  8
HEWI
100
AcDbLine
 10
864.3163197714912
 20
317.7694782833793
 30
0.0
 11
864.3163197714912
 21
404.1548182833793
 31
0.0
  0
LINE
  5
AC
330
1F
100
AcDbEntity
  8
HEWI
100
AcDbLine
 10
855.8194597714914
 20
318.9253082833792
 30
0.0
 11
855.0613797714911
 21
318.4876282833792
 31
0.0
  0
LINE
  5
AD
330
1F
100
AcDbEntity
  8
HEWI
100
AcDbLine
 10
855.8731297714912
 20
320.6760182833794
 30
0.0
 11
856.3762697714908
 21
318.9007682833795
 31
0.0
  0
LINE
  5
AE
330
1F
100
AcDbEntity
  8
HEWI
100
AcDbLine
 10
856.7273597714912
 20
319.1034782833793
 30
0.0
 11
857.0180697714912
 21
320.6811782833792
 31
0.0
  0
LINE
  5
AF
330
1F
100
AcDbEntity
  8
HEWI
100
AcDbLine
 10
854.4598297714911
 20
319.8600482833793
 30
0.0
 11
854.4598297714911
 21
317.7943182833792
 31
0.0
  0
LINE
  5
B0
330
1F
100
AcDbEntity
  8
HEWI
100
AcDbLine
 10
855.759079771491
 20
319.4585282833792
 30
0.0
 11
855.759079771491
 21
319.7864682833791
 31
0.0
  0
LINE
  5
B1
330
1F
100
AcDbEntity
  8
HEWI
100
AcDbLine
 10
855.8194597714914
 20
320.2835282833793
 30
0.0
 11
855.8194597714914
 21
320.6450282833793
 31
0.0
  0
LINE
  5
B2
330
1F
100
AcDbEntity
  8
HEWI
100
AcDbLine
 10
854.7013397714913
 20
319.9994882833795
 30
0.0
 11
854.7013397714913
 21
317.9337482833793
 31
0.0
  0
LINE
  5
B3
330
1F
100
AcDbEntity
  8
HEWI
100
AcDbLine
 10
750.6135497714909
 20
251.3066582833793
 30
0.0
 11
863.6092097714913
 21
316.5447382833792
 31
0.0
  0
LINE
  5
B4
330
1F
100
AcDbEntity
  8
HEWI
100
AcDbLine
 10
856.253279771491
 20
320.8954982833792
 30
0.0
 11
855.8731297714912
 21
320.6760182833794
 31
0.0
  0
LINE
  5
B5
330
1F
100
AcDbEntity
  8
HEWI
100
AcDbLine
 10
854.0997897714911
 20
319.6521782833792
 30
0.0
 11
854.4598297714911
 21
319.8600482833793
 31
0.0
  0
LINE
  5
B6
330
1F
100
AcDbEntity
  8
HEWI
100
AcDbLine
 10
858.2882497714914
 20
322.0703882833794
 30
0.0
 11
858.2882497714914
 21
320.0046482833792
 31
0.0
  0
LINE
  5
B7
330
1F
100
AcDbEntity
  8
HEWI
100
AcDbLine
 10
749.1993297714912
 20
252.1231582833792
 30
0.0
 11
749.1993297714912
 21
338.5084982833796
 31
0.0
  0
LINE
  5
B8
330
1F
100
AcDbEntity
  8
HEWI
100
AcDbLine
 10
854.0997897714911
 20
318.5005382833793
 30
0.0
 11
853.3774997714912
 21
318.0835182833795
 31
0.0
  0
LINE
  5
B9
330
1F
100
AcDbEntity
  8
HEWI
100
AcDbLine
 10
855.8194597714914
 20
318.5792982833794
 30
0.0
 11
855.8194597714914
 21
318.9253082833792
 31
0.0
  0
LINE
  5
BA
330
1F
100
AcDbEntity
  8
HEWI
100
AcDbLine
 10
853.3774997714912
 20
318.4114582833794
 30
0.0
 11
854.0997897714911
 21
318.8284782833792
 31
0.0
  0
LINE
  5
BB
330
1F
100
AcDbEntity
  8
HEWI
100
AcDbLine
 10
855.8194597714914
 20
320.6450282833793
 30
0.0
 11
854.7013397714913
 21
319.9994882833795
 31
0.0
  0
LINE
  5
BC
330
1F
100
AcDbEntity
  8
HEWI
100
AcDbLine
 10
854.0997897714911
 20
317.5864482833794
 30
0.0
 11
854.0997897714911
 21
318.5005382833793
 31
0.0
  0
LINE
  5
EE
330
1F
100
AcDbEntity
  8
HEWI
100
AcDbLine
 10
222.0867123236584
 20
361.2048291636035
 30
0.0
 11
383.0889323236584
 21
361.2048291636035
 31
0.0
  0
LINE
  5
EF
330
1F
100
AcDbEntity
  8
HEWI
100
AcDbLine
 10
383.5309023236583
 20
253.7606291636033
 30
0.0
 11
383.4868423236585
 21
253.7606291636033
 31
0.0
  0
LINE
  5
F0
330
1F
100
AcDbEntity
  8
HEWI
100
AcDbLine
 10
382.5320123236585
 20
252.7617391636032
 30
0.0
 11
315.1447323236583
 21
252.7617391636032
 31
0.0
  0
LINE
  5
F1
330
1F
100
AcDbEntity
  8
HEWI
100
AcDbLine
 10
221.6447323236585
 20
359.6490191636034
 30
0.0
 11
221.0878223236583
 21
360.2059391636034
 31
0.0
  0
LINE
  5
F2
330
1F
100
AcDbEntity
  8
HEWI
100
AcDbLine
 10
221.0878223236583
 20
253.2548291636032
 30
0.0
 11
221.0878223236583
 21
360.2548291636032
 31
0.0
  0
LINE
  5
F3
330
1F
100
AcDbEntity
  8
HEWI
100
AcDbLine
 10
383.5309023236583
 20
253.7606291636033
 30
0.0
 11
383.4868423236585
 21
253.7606291636033
 31
0.0
  0
LINE
  5
F4
330
1F
100
AcDbEntity
  8
HEWI
100
AcDbLine
 10
384.0878223236584
 20
253.2548291636032
 30
0.0
 11
384.0878223236584
 21
360.2548291636032
 31
0.0
  0
LINE
  5
F5
330
1F
100
AcDbEntity
  8
HEWI
100
AcDbLine
 10
290.3708923236585
 20
252.8048491636033
 30
0.0
 11
290.3708923236585
 21
252.4217591636033
 31
0.0
  0
LINE
  5
F6
330
1F
100
AcDbEntity
  8
HEWI
100
AcDbLine
 10
222.6436223236585
 20
252.7617391636032
 30
0.0
 11
222.6436223236585
 21
252.8057991636032
 31
0.0
  0
LINE
  5
F7
330
1F
100
AcDbEntity
  8
HEWI
100
AcDbLine
 10
237.4447223236584
 20
252.2048291636032
 30
0.0
 11
222.0867123236584
 21
252.2048291636032
 31
0.0
  0
LINE
  5
F8
330
1F
100
AcDbEntity
  8
HEWI
100
AcDbLine
 10
247.5810823236584
 20
252.2115691636035
 30
0.0
 11
247.5474023236584
 21
252.2452391636033
 31
0.0
  0
LINE
  5
F9
330
1F
100
AcDbEntity
  8
HEWI
100
AcDbLine
 10
237.6282323236584
 20
252.2452391636033
 30
0.0
 11
237.5945623236585
 21
252.2115691636035
 31
0.0
  0
LINE
  5
FA
330
1F
100
AcDbEntity
  8
HEWI
100
AcDbLine
 10
367.5810823236584
 20
252.2115691636035
 30
0.0
 11
367.5474023236584
 21
252.2452391636033
 31
0.0
  0
LINE
  5
FB
330
1F
100
AcDbEntity
  8
HEWI
100
AcDbLine
 10
221.6447323236585
 20
253.7606291636033
 30
0.0
 11
221.6887923236583
 21
253.7606291636033
 31
0.0
  0
LINE
  5
FC
330
1F
100
AcDbEntity
  8
HEWI
100
AcDbLine
 10
221.0878223236583
 20
253.2037191636035
 30
0.0
 11
221.6447323236585
 21
253.7606291636033
 31
0.0
  0
LINE
  5
FD
330
1F
100
AcDbEntity
  8
HEWI
100
AcDbLine
 10
357.6282323236584
 20
252.2452391636033
 30
0.0
 11
357.5945623236585
 21
252.2115691636035
 31
0.0
  0
LINE
  5
FE
330
1F
100
AcDbEntity
  8
HEWI
100
AcDbLine
 10
382.5320123236585
 20
360.6479091636034
 30
0.0
 11
383.0889323236584
 21
361.2048291636035
 31
0.0
  0
LINE
  5
FF
330
1F
100
AcDbEntity
  8
HEWI
100
AcDbLine
 10
247.3975623236583
 20
252.2519791636033
 30
0.0
 11
237.7780723236583
 21
252.2519791636033
 31
0.0
  0
LINE
  5
100
330
1F
100
AcDbEntity
  8
HEWI
100
AcDbLine
 10
290.3708923236585
 20
252.4217591636033
 30
0.0
 11
290.0309023236582
 21
252.7617391636032
 31
0.0
  0
LINE
  5
101
330
1F
100
AcDbEntity
  8
HEWI
100
AcDbLine
 10
221.6447323236585
 20
253.7606291636033
 30
0.0
 11
221.6447323236585
 21
359.6490191636034
 31
0.0
  0
LINE
  5
102
330
1F
100
AcDbEntity
  8
HEWI
100
AcDbLine
 10
374.2670923236584
 20
263.3348291636033
 30
0.0
 11
373.8148623236583
 21
261.5701491636033
 31
0.0
  0
LINE
  5
103
330
1F
100
AcDbEntity
  8
HEWI
100
AcDbLine
 10
357.4447223236584
 20
252.2048291636032
 30
0.0
 11
314.5878223236584
 21
252.2048291636032
 31
0.0
  0
LINE
  5
104
330
1F
100
AcDbEntity
  8
HEWI
100
AcDbLine
 10
290.5878223236583
 20
252.2048291636032
 30
0.0
 11
247.7309123236584
 21
252.2048291636032
 31
0.0
  0
LINE
  5
105
330
1F
100
AcDbEntity
  8
HEWI
100
AcDbLine
 10
314.4506323236585
 20
252.3420091636032
 30
0.0
 11
314.5878223236584
 21
252.2048291636032
 31
0.0
  0
LINE
  5
106
330
1F
100
AcDbEntity
  8
HEWI
100
AcDbLine
 10
290.0254823236585
 20
252.8048291636034
 30
0.0
 11
290.0309023236582
 21
252.7617391636032
 31
0.0
  0
LINE
  5
107
330
1F
100
AcDbEntity
  8
HEWI
100
AcDbLine
 10
221.6887923236583
 20
359.6490191636034
 30
0.0
 11
221.6447323236585
 21
359.6490191636034
 31
0.0
  0
LINE
  5
108
330
1F
100
AcDbEntity
  8
HEWI
100
AcDbLine
 10
383.5309023236583
 20
359.6490191636034
 30
0.0
 11
383.5309023236583
 21
253.7606291636033
 31
0.0
  0
LINE
  5
109
330
1F
100
AcDbEntity
  8
HEWI
100
AcDbLine
 10
237.6282323236584
 20
252.2452391636033
 30
0.0
 11
237.5945623236585
 21
252.2115691636035
 31
0.0
  0
LINE
  5
10A
330
1F
100
AcDbEntity
  8
HEWI
100
AcDbLine
 10
383.4868423236585
 20
359.6490191636034
 30
0.0
 11
383.5309023236583
 21
359.6490191636034
 31
0.0
  0
LINE
  5
10B
330
1F
100
AcDbEntity
  8
HEWI
100
AcDbLine
 10
383.0889323236584
 20
252.2048291636032
 30
0.0
 11
382.5320123236585
 21
252.7617391636032
 31
0.0
  0
LINE
  5
10C
330
1F
100
AcDbEntity
  8
HEWI
100
AcDbLine
 10
384.0878223236584
 20
360.2059391636034
 30
0.0
 11
383.5309023236583
 21
359.6490191636034
 31
0.0
  0
LINE
  5
10D
330
1F
100
AcDbEntity
  8
HEWI
100
AcDbLine
 10
290.9923823236584
 20
252.4217591636033
 30
0.0
 11
290.3708923236585
 21
252.4217591636033
 31
0.0
  0
LINE
  5
10E
330
1F
100
AcDbEntity
  8
HEWI
100
AcDbLine
 10
222.0867123236584
 20
361.2048291636035
 30
0.0
 11
222.6436223236585
 21
360.6479091636034
 31
0.0
  0
LINE
  5
10F
330
1F
100
AcDbEntity
  8
HEWI
100
AcDbLine
 10
290.5878223236583
 20
252.2048291636032
 30
0.0
 11
290.7250023236585
 21
252.3420091636032
 31
0.0
  0
LINE
  5
110
330
1F
100
AcDbEntity
  8
HEWI
100
AcDbLine
 10
367.3975623236584
 20
252.2519791636033
 30
0.0
 11
357.7780723236583
 21
252.2519791636033
 31
0.0
  0
LINE
  5
111
330
1F
100
AcDbEntity
  8
HEWI
100
AcDbLine
 10
314.8047523236584
 20
252.4217591636033
 30
0.0
 11
314.1835023236585
 21
252.4217591636033
 31
0.0
  0
LINE
  5
112
330
1F
100
AcDbEntity
  8
HEWI
100
AcDbLine
 10
383.5309023236583
 20
253.7606291636033
 30
0.0
 11
384.0878223236584
 21
253.2037191636035
 31
0.0
  0
LINE
  5
113
330
1F
100
AcDbEntity
  8
HEWI
100
AcDbLine
 10
315.1447323236583
 20
252.7617391636032
 30
0.0
 11
314.8047523236584
 21
252.4217591636033
 31
0.0
  0
LINE
  5
114
330
1F
100
AcDbEntity
  8
HEWI
100
AcDbLine
 10
315.1447323236583
 20
252.7617391636032
 30
0.0
 11
315.1501523236583
 21
252.8048291636034
 31
0.0
  0
LINE
  5
115
330
1F
100
AcDbEntity
  8
HEWI
100
AcDbLine
 10
222.6436223236585
 20
252.7617391636032
 30
0.0
 11
222.0867123236584
 21
252.2048291636032
 31
0.0
  0
LINE
  5
116
330
1F
100
AcDbEntity
  8
HEWI
100
AcDbLine
 10
222.6436223236585
 20
360.6038491636033
 30
0.0
 11
222.6436223236585
 21
360.6479091636034
 31
0.0
  0
LINE
  5
117
330
1F
100
AcDbEntity
  8
HEWI
100
AcDbLine
 10
382.5320123236585
 20
360.6479091636034
 30
0.0
 11
382.5320123236585
 21
360.6038491636033
 31
0.0
  0
LINE
  5
118
330
1F
100
AcDbEntity
  8
HEWI
100
AcDbLine
 10
383.0889323236584
 20
252.2048291636032
 30
0.0
 11
382.5320123236585
 21
252.7617391636032
 31
0.0
  0
LINE
  5
119
330
1F
100
AcDbEntity
  8
HEWI
100
AcDbLine
 10
290.0309023236582
 20
252.7617391636032
 30
0.0
 11
222.6436223236585
 21
252.7617391636032
 31
0.0
  0
LINE
  5
11A
330
1F
100
AcDbEntity
  8
HEWI
100
AcDbLine
 10
314.8047523236584
 20
252.4217591636033
 30
0.0
 11
314.8047523236584
 21
252.8048491636033
 31
0.0
  0
LINE
  5
11B
330
1F
100
AcDbEntity
  8
HEWI
100
AcDbLine
 10
382.5320123236585
 20
252.8057991636032
 30
0.0
 11
382.5320123236585
 21
252.7617391636032
 31
0.0
  0
LINE
  5
11C
330
1F
100
AcDbEntity
  8
HEWI
100
AcDbLine
 10
290.9923823236584
 20
252.4217591636033
 30
0.0
 11
290.3708923236585
 21
252.4217591636033
 31
0.0
  0
LINE
  5
11D
330
1F
100
AcDbEntity
  8
HEWI
100
AcDbLine
 10
222.6436223236585
 20
360.6038491636033
 30
0.0
 11
222.6436223236585
 21
360.6479091636034
 31
0.0
  0
LINE
  5
11E
330
1F
100
AcDbEntity
  8
HEWI
100
AcDbLine
 10
222.6436223236585
 20
360.6479091636034
 30
0.0
 11
382.5320123236585
 21
360.6479091636034
 31
0.0
  0
LINE
  5
11F
330
1F
100
AcDbEntity
  8
HEWI
100
AcDbLine
 10
222.6436223236585
 20
252.7617391636032
 30
0.0
 11
222.6436223236585
 21
252.8057991636032
 31
0.0
  0
LINE
  5
120
330
1F
100
AcDbEntity
  8
HEWI
100
AcDbLine
 10
221.6447323236585
 20
359.6490191636034
 30
0.0
 11
221.0878223236583
 21
360.2059391636034
 31
0.0
  0
LINE
  5
121
330
1F
100
AcDbEntity
  8
HEWI
100
AcDbLine
 10
315.1447323236583
 20
252.7617391636032
 30
0.0
 11
315.1501523236583
 21
252.8048291636034
 31
0.0
  0
LINE
  5
122
330
1F
100
AcDbEntity
  8
HEWI
100
AcDbLine
 10
247.3975623236583
 20
252.2519791636033
 30
0.0
 11
237.7780723236583
 21
252.2519791636033
 31
0.0
  0
LINE
  5
123
330
1F
100
AcDbEntity
  8
HEWI
100
AcDbLine
 10
367.3975623236584
 20
252.2519791636033
 30
0.0
 11
357.7780723236583
 21
252.2519791636033
 31
0.0
  0
LINE
  5
124
330
1F
100
AcDbEntity
  8
HEWI
100
AcDbLine
 10
237.4447223236584
 20
252.2048291636032
 30
0.0
 11
222.0867123236584
 21
252.2048291636032
 31
0.0
  0
LINE
  5
125
330
1F
100
AcDbEntity
  8
HEWI
100
AcDbLine
 10
314.4506323236585
 20
252.3420091636032
 30
0.0
 11
314.5878223236584
 21
252.2048291636032
 31
0.0
  0
LINE
  5
126
330
1F
100
AcDbEntity
  8
HEWI
100
AcDbLine
 10
290.5878223236583
 20
252.2048291636032
 30
0.0
 11
247.7309123236584
 21
252.2048291636032
 31
0.0
  0
LINE
  5
127
330
1F
100
AcDbEntity
  8
HEWI
100
AcDbLine
 10
222.0867123236584
 20
361.2048291636035
 30
0.0
 11
222.6436223236585
 21
360.6479091636034
 31
0.0
  0
LINE
  5
128
330
1F
100
AcDbEntity
  8
HEWI
100
AcDbLine
 10
383.5309023236583
 20
253.7606291636033
 30
0.0
 11
384.0878223236584
 21
253.2037191636035
 31
0.0
  0
LINE
  5
129
330
1F
100
AcDbEntity
  8
HEWI
100
AcDbLine
 10
314.8047523236584
 20
252.4217591636033
 30
0.0
 11
314.1835023236585
 21
252.4217591636033
 31
0.0
  0
LINE
  5
12A
330
1F
100
AcDbEntity
  8
HEWI
100
AcDbLine
 10
290.0254823236585
 20
252.8048291636034
 30
0.0
 11
290.0309023236582
 21
252.7617391636032
 31
0.0
  0
LINE
  5
12B
330
1F
100
AcDbEntity
  8
HEWI
100
AcDbLine
 10
357.6282323236584
 20
252.2452391636033
 30
0.0
 11
357.5945623236585
 21
252.2115691636035
 31
0.0
  0
LINE
  5
12C
330
1F
100
AcDbEntity
  8
HEWI
100
AcDbLine
 10
221.6447323236585
 20
253.7606291636033
 30
0.0
 11
221.6887923236583
 21
253.7606291636033
 31
0.0
  0
LINE
  5
12D
330
1F
100
AcDbEntity
  8
HEWI
100
AcDbLine
 10
290.5878223236583
 20
252.2048291636032
 30
0.0
 11
290.7250023236585
 21
252.3420091636032
 31
0.0
  0
LINE
  5
12E
330
1F
100
AcDbEntity
  8
HEWI
100
AcDbLine
 10
290.3708923236585
 20
252.8048491636033
 30
0.0
 11
290.3708923236585
 21
252.4217591636033
 31
0.0
  0
LINE
  5
12F
330
1F
100
AcDbEntity
  8
HEWI
100
AcDbLine
 10
382.5320123236585
 20
360.6479091636034
 30
0.0
 11
383.0889323236584
 21
361.2048291636035
 31
0.0
  0
LINE
  5
130
330
1F
100
AcDbEntity
  8
HEWI
100
AcDbLine
 10
222.6436223236585
 20
252.7617391636032
 30
0.0
 11
222.0867123236584
 21
252.2048291636032
 31
0.0
  0
LINE
  5
131
330
1F
100
AcDbEntity
  8
HEWI
100
AcDbLine
 10
247.5810823236584
 20
252.2115691636035
 30
0.0
 11
247.5474023236584
 21
252.2452391636033
 31
0.0
  0
LINE
  5
132
330
1F
100
AcDbEntity
  8
HEWI
100
AcDbLine
 10
367.5810823236584
 20
252.2115691636035
 30
0.0
 11
367.5474023236584
 21
252.2452391636033
 31
0.0
  0
LINE
  5
133
330
1F
100
AcDbEntity
  8
HEWI
100
AcDbLine
 10
384.0878223236584
 20
360.2059391636034
 30
0.0
 11
383.5309023236583
 21
359.6490191636034
 31
0.0
  0
LINE
  5
134
330
1F
100
AcDbEntity
  8
HEWI
100
AcDbLine
 10
315.1447323236583
 20
252.7617391636032
 30
0.0
 11
314.8047523236584
 21
252.4217591636033
 31
0.0
  0
LINE
  5
135
330
1F
100
AcDbEntity
  8
HEWI
100
AcDbLine
 10
382.5320123236585
 20
252.7617391636032
 30
0.0
 11
315.1447323236583
 21
252.7617391636032
 31
0.0
  0
LINE
  5
136
330
1F
100
AcDbEntity
  8
HEWI
100
AcDbLine
 10
290.3708923236585
 20
252.4217591636033
 30
0.0
 11
290.0309023236582
 21
252.7617391636032
 31
0.0
  0
LINE
  5
137
330
1F
100
AcDbEntity
  8
HEWI
100
AcDbLine
 10
383.0889323236584
 20
252.2048291636032
 30
0.0
 11
367.7309123236583
 21
252.2048291636032
 31
0.0
  0
LINE
  5
138
330
1F
100
AcDbEntity
  8
HEWI
100
AcDbLine
 10
384.0878223236584
 20
360.2059391636034
 30
0.0
 11
384.0878223236584
 21
253.2037191636035
 31
0.0
  0
LINE
  5
139
330
1F
100
AcDbEntity
  8
HEWI
100
AcDbLine
 10
290.0309023236582
 20
252.7617391636032
 30
0.0
 11
222.6436223236585
 21
252.7617391636032
 31
0.0
  0
LINE
  5
13A
330
1F
100
AcDbEntity
  8
HEWI
100
AcDbLine
 10
222.6436223236585
 20
360.6479091636034
 30
0.0
 11
382.5320123236585
 21
360.6479091636034
 31
0.0
  0
LINE
  5
13B
330
1F
100
AcDbEntity
  8
HEWI
100
AcDbLine
 10
222.0867123236584
 20
361.2048291636035
 30
0.0
 11
383.0889323236584
 21
361.2048291636035
 31
0.0
  0
LINE
  5
13C
330
1F
100
AcDbEntity
  8
HEWI
100
AcDbLine
 10
357.4447223236584
 20
252.2048291636032
 30
0.0
 11
314.5878223236584
 21
252.2048291636032
 31
0.0
  0
LINE
  5
13D
330
1F
100
AcDbEntity
  8
HEWI
100
AcDbLine
 10
383.0889323236584
 20
252.2048291636032
 30
0.0
 11
367.7309123236583
 21
252.2048291636032
 31
0.0
  0
LINE
  5
13E
330
1F
100
AcDbEntity
  8
HEWI
100
AcDbLine
 10
221.0878223236583
 20
253.2037191636035
 30
0.0
 11
221.0878223236583
 21
360.2059391636034
 31
0.0
  0
LINE
  5
13F
330
1F
100
AcDbEntity
  8
HEWI
100
AcDbLine
 10
290.7878223236585
 20
252.2590891636034
 30
0.0
 11
290.7878223236585
 21
252.2997291636033
 31
0.0
  0
LINE
  5
140
330
1F
100
AcDbEntity
  8
HEWI
100
AcDbLine
 10
221.6447323236585
 20
253.7606291636033
 30
0.0
 11
221.6447323236585
 21
359.6490191636034
 31
0.0
  0
LINE
  5
141
330
1F
100
AcDbEntity
  8
HEWI
100
AcDbLine
 10
384.0878223236584
 20
360.2059391636034
 30
0.0
 11
384.0878223236584
 21
253.2037191636035
 31
0.0
  0
LINE
  5
142
330
1F
100
AcDbEntity
  8
HEWI
100
AcDbLine
 10
383.4868423236585
 20
359.6490191636034
 30
0.0
 11
383.5309023236583
 21
359.6490191636034
 31
0.0
  0
LINE
  5
143
330
1F
100
AcDbEntity
  8
HEWI
100
AcDbLine
 10
373.4290223236584
 20
263.3348291636033
 30
0.0
 11
372.9135423236584
 21
263.3348291636033
 31
0.0
  0
LINE
  5
144
330
1F
100
AcDbEntity
  8
HEWI
100
AcDbLine
 10
383.5309023236583
 20
359.6490191636034
 30
0.0
 11
383.5309023236583
 21
253.7606291636033
 31
0.0
  0
LINE
  5
145
330
1F
100
AcDbEntity
  8
HEWI
100
AcDbLine
 10
372.9135423236584
 20
263.3348291636033
 30
0.0
 11
372.5245423236584
 21
261.5827991636032
 31
0.0
  0
LINE
  5
146
330
1F
100
AcDbEntity
  8
HEWI
100
AcDbLine
 10
314.8047523236584
 20
252.4217591636033
 30
0.0
 11
314.8047523236584
 21
252.8048491636033
 31
0.0
  0
LINE
  5
147
330
1F
100
AcDbEntity
  8
HEWI
100
AcDbLine
 10
221.0878223236583
 20
253.2037191636035
 30
0.0
 11
221.6447323236585
 21
253.7606291636033
 31
0.0
  0
LINE
  5
148
330
1F
100
AcDbEntity
  8
HEWI
100
AcDbLine
 10
221.6878223236583
 20
253.8048291636034
 30
0.0
 11
221.6878223236583
 21
359.6048291636031
 31
0.0
  0
LINE
  5
149
330
1F
100
AcDbEntity
  8
HEWI
100
AcDbLine
 10
221.6887923236583
 20
359.6490191636034
 30
0.0
 11
221.6447323236585
 21
359.6490191636034
 31
0.0
  0
LINE
  5
14A
330
1F
100
AcDbEntity
  8
HEWI
100
AcDbLine
 10
382.5320123236585
 20
252.8057991636032
 30
0.0
 11
382.5320123236585
 21
252.7617391636032
 31
0.0
  0
LINE
  5
14B
330
1F
100
AcDbEntity
  8
HEWI
100
AcDbLine
 10
221.0878223236583
 20
253.2037191636035
 30
0.0
 11
221.0878223236583
 21
360.2059391636034
 31
0.0
  0
LINE
  5
14C
330
1F
100
AcDbEntity
  8
HEWI
100
AcDbLine
 10
373.8148623236583
 20
261.5701491636033
 30
0.0
 11
373.4290223236584
 21
263.3348291636033
 31
0.0
  0
LINE
  5
14D
330
1F
100
AcDbEntity
  8
HEWI
100
AcDbLine
 10
294.3878223236584
 20
252.2548291636034
 30
0.0
 11
314.0223923236586
 21
252.2548291636034
 31
0.0
  0
LINE
  5
14E
330
1F
100
AcDbEntity
  8
HEWI
100
AcDbLine
 10
382.5320123236585
 20
360.6479091636034
 30
0.0
 11
382.5320123236585
 21
360.6038491636033
 31
0.0
  0
LINE
  5
14F
330
1F
100
AcDbEntity
  8
HEWI
100
AcDbLine
 10
383.0878223236583
 20
361.2548291636033
 30
0.0
 11
222.0878223236584
 21
361.2548291636033
 31
0.0
  0
LINE
  5
150
330
1F
100
AcDbEntity
  8
HEWI
100
AcDbLine
 10
370.3993623236584
 20
262.8920791636034
 30
0.0
 11
371.4714423236584
 21
262.8920791636034
 31
0.0
  0
LINE
  5
151
330
1F
100
AcDbEntity
  8
HEWI
100
AcDbLine
 10
368.0179923236583
 20
260.8048291636031
 30
0.0
 11
367.5088223236585
 21
260.8048291636031
 31
0.0
  0
LINE
  5
152
330
1F
100
AcDbEntity
  8
HEWI
100
AcDbLine
 10
367.5088223236585
 20
263.3348291636033
 30
0.0
 11
368.0179923236583
 21
263.3348291636033
 31
0.0
  0
LINE
  5
153
330
1F
100
AcDbEntity
  8
HEWI
100
AcDbLine
 10
373.5713423236584
 20
260.8048291636031
 30
0.0
 11
374.0678623236584
 21
260.8048291636031
 31
0.0
  0
LINE
  5
154
330
1F
100
AcDbEntity
  8
HEWI
100
AcDbLine
 10
373.1665423236584
 20
262.5315491636032
 30
0.0
 11
373.5713423236584
 21
260.8048291636031
 31
0.0
  0
LINE
  5
155
330
1F
100
AcDbEntity
  8
HEWI
100
AcDbLine
 10
375.4878223236584
 20
260.8048291636031
 30
0.0
 11
375.4878223236584
 21
263.3348291636033
 31
0.0
  0
LINE
  5
156
330
1F
100
AcDbEntity
  8
HEWI
100
AcDbLine
 10
372.5245423236584
 20
261.5827991636032
 30
0.0
 11
372.0849723236583
 21
263.3348291636033
 31
0.0
  0
LINE
  5
157
330
1F
100
AcDbEntity
  8
HEWI
100
AcDbLine
 10
369.0394723236583
 20
262.3259991636031
 30
0.0
 11
369.0394723236583
 21
263.3348291636033
 31
0.0
  0
LINE
  5
158
330
1F
100
AcDbEntity
  8
HEWI
100
AcDbLine
 10
368.0179923236583
 20
261.9243491636033
 30
0.0
 11
368.0179923236583
 21
260.8048291636031
 31
0.0
  0
LINE
  5
159
330
1F
100
AcDbEntity
  8
HEWI
100
AcDbLine
 10
382.4878223236583
 20
360.6048291636033
 30
0.0
 11
222.6878223236584
 21
360.6048291636033
 31
0.0
  0
LINE
  5
15A
330
1F
100
AcDbEntity
  8
HEWI
100
AcDbLine
 10
369.8901923236584
 20
260.8048291636031
 30
0.0
 11
371.4714423236584
 21
260.8048291636031
 31
0.0
  0
LINE
  5
15B
330
1F
100
AcDbEntity
  8
HEWI
100
AcDbLine
 10
370.3993623236584
 20
261.2285991636035
 30
0.0
 11
370.3993623236584
 21
261.9243491636033
 31
0.0
  0
LINE
  5
15C
330
1F
100
AcDbEntity
  8
HEWI
100
AcDbLine
 10
369.5486423236584
 20
260.8048291636031
 30
0.0
 11
369.0394723236583
 21
260.8048291636031
 31
0.0
  0
LINE
  5
15D
330
1F
100
AcDbEntity
  8
HEWI
100
AcDbLine
 10
367.5088223236585
 20
260.8048291636031
 30
0.0
 11
367.5088223236585
 21
263.3348291636033
 31
0.0
  0
LINE
  5
15E
330
1F
100
AcDbEntity
  8
HEWI
100
AcDbLine
 10
374.9628423236584
 20
260.8048291636031
 30
0.0
 11
375.4878223236584
 21
260.8048291636031
 31
0.0
  0
LINE
  5
15F
330
1F
100
AcDbEntity
  8
HEWI
100
AcDbLine
 10
370.3993623236584
 20
262.3259991636031
 30
0.0
 11
370.3993623236584
 21
262.8920791636034
 31
0.0
  0
LINE
  5
160
330
1F
100
AcDbEntity
  8
HEWI
100
AcDbLine
 10
290.7878223236585
 20
252.2590891636034
 30
0.0
 11
290.6420223236584
 21
252.2590891636034
 31
0.0
  0
LINE
  5
161
330
1F
100
AcDbEntity
  8
HEWI
100
AcDbLine
 10
374.0678623236584
 20
260.8048291636031
 30
0.0
 11
374.8268623236584
 21
263.3348291636033
 31
0.0
  0
LINE
  5
162
330
1F
100
AcDbEntity
  8
HEWI
100
AcDbLine
 10
374.8268623236584
 20
263.3348291636033
 30
0.0
 11
374.2670923236584
 21
263.3348291636033
 31
0.0
  0
LINE
  5
163
330
1F
100
AcDbEntity
  8
HEWI
100
AcDbLine
 10
372.2588923236585
 20
260.8048291636031
 30
0.0
 11
372.7554223236584
 21
260.8048291636031
 31
0.0
  0
LINE
  5
164
330
1F
100
AcDbEntity
  8
HEWI
100
AcDbLine
 10
371.3860623236584
 20
262.3259991636031
 30
0.0
 11
370.3993623236584
 21
262.3259991636031
 31
0.0
  0
LINE
  5
165
330
1F
100
AcDbEntity
  8
HEWI
100
AcDbLine
 10
370.3993623236584
 20
261.9243491636033
 30
0.0
 11
371.3860623236584
 21
261.9243491636033
 31
0.0
  0
LINE
  5
166
330
1F
100
AcDbEntity
  8
HEWI
100
AcDbLine
 10
368.0179923236583
 20
263.3348291636033
 30
0.0
 11
368.0179923236583
 21
262.3259991636031
 31
0.0
  0
LINE
  5
167
330
1F
100
AcDbEntity
  8
HEWI
100
AcDbLine
 10
375.4878223236584
 20
263.3348291636033
 30
0.0
 11
374.9628423236584
 21
263.3348291636033
 31
0.0
  0
LINE
  5
168
330
1F
100
AcDbEntity
  8
HEWI
100
AcDbLine
 10
383.4878223236584
 20
253.8048291636034
 30
0.0
 11
383.4878223236584
 21
359.6048291636031
 31
0.0
  0
LINE
  5
169
330
1F
100
AcDbEntity
  8
HEWI
100
AcDbLine
 10
371.4714423236584
 20
261.2285991636035
 30
0.0
 11
370.3993623236584
 21
261.2285991636035
 31
0.0
  0
LINE
  5
16A
330
1F
100
AcDbEntity
  8
HEWI
100
AcDbLine
 10
371.5473423236584
 20
263.3348291636033
 30
0.0
 11
372.2588923236585
 21
260.8048291636031
 31
0.0
  0
LINE
  5
16B
330
1F
100
AcDbEntity
  8
HEWI
100
AcDbLine
 10
372.7554223236584
 20
260.8048291636031
 30
0.0
 11
373.1665423236584
 21
262.5315491636032
 31
0.0
  0
LINE
  5
16C
330
1F
100
AcDbEntity
  8
HEWI
100
AcDbLine
 10
369.5486423236584
 20
263.3348291636033
 30
0.0
 11
369.5486423236584
 21
260.8048291636031
 31
0.0
  0
LINE
  5
16D
330
1F
100
AcDbEntity
  8
HEWI
100
AcDbLine
 10
371.3860623236584
 20
261.9243491636033
 30
0.0
 11
371.3860623236584
 21
262.3259991636031
 31
0.0
  0
LINE
  5
16E
330
1F
100
AcDbEntity
  8
HEWI
100
AcDbLine
 10
371.4714423236584
 20
262.8920791636034
 30
0.0
 11
371.4714423236584
 21
263.3348291636033
 31
0.0
  0
LINE
  5
16F
330
1F
100
AcDbEntity
  8
HEWI
100
AcDbLine
 10
369.8901923236584
 20
263.3348291636033
 30
0.0
 11
369.8901923236584
 21
260.8048291636031
 31
0.0
  0
LINE
  5
170
330
1F
100
AcDbEntity
  8
HEWI
100
AcDbLine
 10
222.6878223236584
 20
252.8048291636034
 30
0.0
 11
382.4878223236583
 21
252.8048291636034
 31
0.0
  0
LINE
  5
171
330
1F
100
AcDbEntity
  8
HEWI
100
AcDbLine
 10
372.0849723236583
 20
263.3348291636033
 30
0.0
 11
371.5473423236584
 21
263.3348291636033
 31
0.0
  0
LINE
  5
172
330
1F
100
AcDbEntity
  8
HEWI
100
AcDbLine
 10
369.0394723236583
 20
263.3348291636033
 30
0.0
 11
369.5486423236584
 21
263.3348291636033
 31
0.0
  0
LINE
  5
173
330
1F
100
AcDbEntity
  8
HEWI
100
AcDbLine
 10
374.9628423236584
 20
263.3348291636033
 30
0.0
 11
374.9628423236584
 21
260.8048291636031
 31
0.0
  0
LINE
  5
174
330
1F
100
AcDbEntity
  8
HEWI
100
AcDbLine
 10
369.0394723236583
 20
261.9243491636033
 30
0.0
 11
368.0179923236583
 21
261.9243491636033
 31
0.0
  0
LINE
  5
175
330
1F
100
AcDbEntity
  8
HEWI
100
AcDbLine
 10
371.4714423236584
 20
260.8048291636031
 30
0.0
 11
371.4714423236584
 21
261.2285991636035
 31
0.0
  0
LINE
  5
176
330
1F
100
AcDbEntity
  8
HEWI
100
AcDbLine
 10
368.0179923236583
 20
262.3259991636031
 30
0.0
 11
369.0394723236583
 21
262.3259991636031
 31
0.0
  0
LINE
  5
177
330
1F
100
AcDbEntity
  8
HEWI
100
AcDbLine
 10
371.4714423236584
 20
263.3348291636033
 30
0.0
 11
369.8901923236584
 21
263.3348291636033
 31
0.0
  0
LINE
  5
178
330
1F
100
AcDbEntity
  8
HEWI
100
AcDbLine
 10
369.0394723236583
 20
260.8048291636031
 30
0.0
 11
369.0394723236583
 21
261.9243491636033
 31
0.0
  0
LINE
  5
17A
330
1F
100
AcDbEntity
  8
HEWI
100
AcDbLine
 10
30.94754232365841
 20
360.2548291636032
 30
0.0
 11
30.94754232365841
 21
361.2548291636033
 31
0.0
  0
LINE
  5
17C
330
1F
100
AcDbEntity
  8
HEWI
100
AcDbLine
 10
30.94754232365841
 20
253.2548291636032
 30
0.0
 11
30.94754232365841
 21
360.2548291636032
 31
0.0
  0
LINE
  5
17D
330
1F
100
AcDbEntity
  8
HEWI
100
AcDbLine
 10
30.94754232365841
 20
253.2037191636035
 30
0.0
 11
30.94754232365841
 21
252.2048291636032
 31
0.0
  0
LINE
  5
17E
330
1F
100
AcDbEntity
  8
HEWI
100
AcDbLine
 10
19.13812232365831
 20
360.6479091636034
 30
0.0
 11
30.94754232365841
 21
361.2048291636035
 31
0.0
  0
LINE
  5
17F
330
1F
100
AcDbEntity
  8
HEWI
100
AcDbLine
 10
19.13812232365831
 20
359.6490191636034
 30
0.0
 11
19.13812232365831
 21
253.7606291636033
 31
0.0
  0
LINE
  5
181
330
1F
100
AcDbEntity
  8
HEWI
100
AcDbLine
 10
30.94754232365841
 20
252.2048291636032
 30
0.0
 11
19.13812232365831
 21
252.7617391636032
 31
0.0
  0
LINE
  5
184
330
1F
100
AcDbEntity
  8
HEWI
100
AcDbLine
 10
30.94754232365841
 20
252.2048291636032
 30
0.0
 11
19.13812232365831
 21
252.7617391636032
 31
0.0
  0
LINE
  5
186
330
1F
100
AcDbEntity
  8
HEWI
100
AcDbLine
 10
19.13812232365831
 20
360.6479091636034
 30
0.0
 11
30.94754232365841
 21
361.2048291636035
 31
0.0
  0
LINE
  5
188
330
1F
100
AcDbEntity
  8
HEWI
100
AcDbLine
 10
30.94754232365841
 20
253.2037191636035
 30
0.0
 11
30.94754232365841
 21
252.2048291636032
 31
0.0
  0
LINE
  5
189
330
1F
100
AcDbEntity
  8
HEWI
100
AcDbLine
 10
30.94754232365841
 20
360.2059391636034
 30
0.0
 11
30.94754232365841
 21
253.2037191636035
 31
0.0
  0
LINE
  5
18A
330
1F
100
AcDbEntity
  8
HEWI
100
AcDbLine
 10
30.94754232365841
 20
360.2059391636034
 30
0.0
 11
30.94754232365841
 21
253.2037191636035
 31
0.0
  0
LINE
  5
18C
330
1F
100
AcDbEntity
  8
HEWI
100
AcDbLine
 10
19.13812232365831
 20
359.6490191636034
 30
0.0
 11
19.13812232365831
 21
253.7606291636033
 31
0.0
  0
LINE
  5
18D
330
1F
100
AcDbEntity
  8
HEWI
100
AcDbLine
 10
21.33577232365837
 20
252.6581091636032
 30
0.0
 11
21.6475423236584
 21
252.3463391636034
 31
0.0
  0
LINE
  5
18E
330
1F
100
AcDbEntity
  8
HEWI
100
AcDbLine
 10
21.6475423236584
 20
252.3463391636034
 30
0.0
 11
25.6475423236584
 21
252.3463391636034
 31
0.0
  0
LINE
  5
18F
330
1F
100
AcDbEntity
  8
HEWI
100
AcDbLine
 10
25.6475423236584
 20
252.3463391636034
 30
0.0
 11
25.75108232365841
 21
252.4498891636034
 31
0.0
  0
LINE
  5
193
330
1F
100
AcDbEntity
  8
HEWI
100
AcDbLine
 10
19.13572152945903
 20
252.8086301433492
 30
0.0
 11
17.94754232365835
 21
252.8048291636034
 31
0.0
  0
LINE
  5
196
330
1F
100
AcDbEntity
  8
HEWI
100
AcDbLine
 10
17.94754232365835
 20
360.6048291636033
 30
0.0
 11
19.13572171926694
 21
360.6010275801379
 31
0.0
  0
LINE
  5
197
330
1F
100
AcDbEntity
  8
HEWI
100
AcDbLine
 10
17.94754232365835
 20
359.6048291636031
 30
0.0
 11
17.94754232365835
 21
360.6048291636033
 31
0.0
  0
LINE
  5
199
330
1F
100
AcDbEntity
  8
HEWI
100
AcDbLine
 10
25.6475423236584
 20
252.3463391636034
 30
0.0
 11
25.6475423236584
 21
252.4547191636033
 31
0.0
  0
LINE
  5
19A
330
1F
100
AcDbEntity
  8
HEWI
100
AcDbLine
 10
17.94754232365835
 20
253.8048291636034
 30
0.0
 11
17.94754232365835
 21
359.6048291636031
 31
0.0
  0
LINE
  5
19B
330
1F
100
AcDbEntity
  8
HEWI
100
AcDbLine
 10
21.6475423236584
 20
252.6431691636034
 30
0.0
 11
21.6475423236584
 21
252.3463391636034
 31
0.0
  0
LINE
  5
19C
330
1F
100
AcDbEntity
  8
HEWI
100
AcDbLine
 10
17.94754232365835
 20
252.8048291636034
 30
0.0
 11
17.94754232365835
 21
253.8048291636034
 31
0.0
  0
LINE
  5
1A2
330
1F
100
AcDbEntity
  8
HEWI
100
AcDbLine
 10
30.94754232365841
 20
253.2036991636033
 30
0.0
 11
30.94754232365841
 21
253.2548291636032
 31
0.0
  0
LINE
  5
1A3
330
1F
100
AcDbEntity
  8
HEWI
100
AcDbLine
 10
221.6447323236585
 20
16.29462916360342
 30
0.0
 11
221.0878223236583
 21
28.10404916360324
 31
0.0
  0
LINE
  5
1A4
330
1F
100
AcDbEntity
  8
HEWI
100
AcDbLine
 10
384.0878223236584
 20
28.10404916360324
 30
0.0
 11
383.0878223236583
 21
28.10404916360324
 31
0.0
  0
LINE
  5
1A6
330
1F
100
AcDbEntity
  8
HEWI
100
AcDbLine
 10
384.0878223236584
 20
28.10404916360324
 30
0.0
 11
383.5309023236583
 21
16.29462916360342
 31
0.0
  0
LINE
  5
1AC
330
1F
100
AcDbEntity
  8
HEWI
100
AcDbLine
 10
221.6447323236585
 20
16.29462916360342
 30
0.0
 11
221.0878223236583
 21
28.10404916360324
 31
0.0
  0
LINE
  5
1AF
330
1F
100
AcDbEntity
  8
HEWI
100
AcDbLine
 10
384.0878223236584
 20
28.10404916360324
 30
0.0
 11
383.5309023236583
 21
16.29462916360342
 31
0.0
  0
LINE
  5
1B2
330
1F
100
AcDbEntity
  8
HEWI
100
AcDbLine
 10
383.0878223236583
 20
28.10404916360324
 30
0.0
 11
222.0878223236584
 21
28.10404916360324
 31
0.0
  0
LINE
  5
1B3
330
1F
100
AcDbEntity
  8
HEWI
100
AcDbLine
 10
383.4878223236584
 20
16.10404916360323
 30
0.0
 11
383.4878223236584
 21
15.10404916360323
 31
0.0
  0
LINE
  5
1B7
330
1F
100
AcDbEntity
  8
HEWI
100
AcDbLine
 10
221.6878223236583
 20
15.10404916360323
 30
0.0
 11
221.6878223236583
 21
16.10404916360323
 31
0.0
  0
LINE
  5
1B9
330
1F
100
AcDbEntity
  8
HEWI
100
AcDbLine
 10
383.4878223236584
 20
15.10404916360323
 30
0.0
 11
382.4878223236583
 21
15.10404916360323
 31
0.0
  0
LINE
  5
1BA
330
1F
100
AcDbEntity
  8
HEWI
100
AcDbLine
 10
382.4878223236583
 20
15.10404916360323
 30
0.0
 11
222.6878223236584
 21
15.10404916360323
 31
0.0
  0
LINE
  5
1BB
330
1F
100
AcDbEntity
  8
HEWI
100
AcDbLine
 10
222.6878223236584
 20
15.10404916360323
 30
0.0
 11
221.6878223236583
 21
15.10404916360323
 31
0.0
  0
LINE
  5
1BC
330
1F
100
AcDbEntity
  8
HEWI
100
AcDbLine
 10
222.0878223236584
 20
28.10404916360324
 30
0.0
 11
221.0878223236583
 21
28.10404916360324
 31
0.0
  0
ARC
  5
1C3
330
1F
100
AcDbEntity
  8
HEWI
100
AcDbCircle
 10
383.0878223236583
 20
360.2548291636032
 30
0.0
 40
1.0
100
AcDbArc
 50
0.0
 51
90.0
  0
ARC
  5
1C4
330
1F
100
AcDbEntity
  8
HEWI
100
AcDbCircle
 10
294.3878223236584
 20
253.0548291636031
 30
0.0
 40
0.8
100
AcDbArc
 50
198.2112529999993
 51
270.0
  0
ARC
  5
1C5
330
1F
100
AcDbEntity
  8
HEWI
100
AcDbCircle
 10
382.4878223236583
 20
359.6048291636031
 30
0.0
 40
1.0
100
AcDbArc
 50
0.0
 51
90.0
  0
ARC
  5
1C6
330
1F
100
AcDbEntity
  8
HEWI
100
AcDbCircle
 10
222.6878223236584
 20
359.6048291636031
 30
0.0
 40
1.0
100
AcDbArc
 50
90.0
 51
180.0
  0
ARC
  5
1C7
330
1F
100
AcDbEntity
  8
HEWI
100
AcDbCircle
 10
-302.5878223236584
 20
262.3463391636034
 30
0.0
 40
10.0
210
0.0
220
0.0
230
-1.0
100
AcDbArc
 50
252.5849850000003
 51
287.4149749999991
  0
ARC
  5
1C8
330
1F
100
AcDbEntity
  8
HEWI
100
AcDbCircle
 10
222.0878223236584
 20
360.2548291636032
 30
0.0
 40
1.0
100
AcDbArc
 50
90.0
 51
180.0
  0
ARC
  5
1C9
330
1F
100
AcDbEntity
  8
HEWI
100
AcDbCircle
 10
222.6878223236584
 20
253.8048291636034
 30
0.0
 40
1.0
100
AcDbArc
 50
180.0
 51
270.0
  0
ARC
  5
1CA
330
1F
100
AcDbEntity
  8
HEWI
100
AcDbCircle
 10
382.4878223236583
 20
253.8048291636034
 30
0.0
 40
1.0
100
AcDbArc
 50
270.0
 51
0.0
  0
ARC
  5
1CB
330
1F
100
AcDbEntity
  8
HEWI
100
AcDbCircle
 10
-221.8445123236585
 20
16.30404916360328
 30
0.0
 40
0.2
210
0.0
220
0.0
230
-1.0
100
AcDbArc
 50
270.0
 51
357.3000000000005
  0
ARC
  5
1CC
330
1F
100
AcDbEntity
  8
HEWI
100
AcDbCircle
 10
383.3311223236584
 20
16.30404916360328
 30
0.0
 40
0.2
100
AcDbArc
 50
270.0
 51
357.3000000000005
  0
ARC
  5
1CD
330
1F
100
AcDbEntity
  8
HEWI
100
AcDbCircle
 10
383.3311223236584
 20
16.30404916360328
 30
0.0
 40
0.2
100
AcDbArc
 50
270.0
 51
357.3000000000005
  0
ARC
  5
1CE
330
1F
100
AcDbEntity
  8
HEWI
100
AcDbCircle
 10
-221.8445123236585
 20
16.30404916360328
 30
0.0
 40
0.2
210
0.0
220
0.0
230
-1.0
100
AcDbArc
 50
270.0
 51
357.3000000000005
  0
ELLIPSE
  5
1CF
330
1F
100
AcDbEntity
  8
HEWI
100
AcDbEllipse
 10
854.8410897714912
 20
409.8294682833792
 30
0.0
 11
0.5
 21
0.8660254037844389
 31
0.0
210
0.0
220
0.0
230
1.0
 40
0.5773500000000002
 41
5.978448617391072
 42
7.068583470577006
  0
ELLIPSE
  5
1D0
330
1F
100
AcDbEntity
  8
HEWI
100
AcDbEllipse
 10
862.7906697714911
 20
404.2884182833793
 30
0.0
 11
0.5147406148822738
 21
0.8590043700747472
 31
0.0
210
0.0
220
0.0
230
0.9999999999999998
 40
0.576479
 41
5.940806380061327
 42
7.076844531164861
  0
ELLIPSE
  5
1D1
330
1F
100
AcDbEntity
  8
HEWI
100
AcDbEllipse
 10
749.7350297714911
 20
252.5611082833792
 30
0.0
 11
0.4865492990069748
 21
0.8752806338880477
 31
0.0
210
0.0
220
0.0
230
0.9999999999999998
 40
0.5764789999999999
 41
2.347933429605848
 42
3.483971580707458
  0
ELLIPSE
  5
1D2
330
1F
100
AcDbEntity
  8
HEWI
100
AcDbEllipse
 10
749.7350297714911
 20
339.0157082833793
 30
0.0
 11
0.5000000000004711
 21
0.8660254037851881
 31
0.0
210
0.0
220
0.0
230
1.0
 40
0.5672540000000002
 41
0.7865076731581535
 42
2.355084980431763
  0
ELLIPSE
  5
1D3
330
1F
100
AcDbEntity
  8
HEWI
100
AcDbEllipse
 10
740.9976797714912
 20
256.6968982833793
 30
0.0
 11
0.5011107425953029
 21
0.8679492663936335
 31
0.0
210
0.0
220
0.0
230
0.9999999999999998
 40
0.576071
 41
2.357303999952117
 42
3.188601644104203
  0
ELLIPSE
  5
1D4
330
1F
100
AcDbEntity
  8
HEWI
100
AcDbEllipse
 10
749.1687097714914
 20
252.2326982833793
 30
0.0
 11
-0.2
 21
0.0
 31
0.0
210
0.0
220
0.0
230
1.0
 40
0.5773500000000002
 41
0.8325220532013334
 42
1.724529894032968
  0
ELLIPSE
  5
1D5
330
1F
100
AcDbEntity
  8
HEWI
100
AcDbEllipse
 10
854.8402997714909
 20
409.7872882833792
 30
0.0
 11
0.5011107425955547
 21
0.8679492663939564
 31
0.0
210
0.0
220
0.0
230
1.0
 40
0.576071
 41
6.236176316665277
 42
7.067473960817201
  0
ELLIPSE
  5
1D6
330
1F
100
AcDbEntity
  8
HEWI
100
AcDbEllipse
 10
749.7350297714911
 20
252.5611082833792
 30
0.0
 11
0.4865492990069845
 21
0.8752806338880779
 31
0.0
210
0.0
220
0.0
230
1.0
 40
0.576479
 41
2.347933429605856
 42
3.48397158070745
  0
ELLIPSE
  5
1D7
330
1F
100
AcDbEntity
  8
HEWI
100
AcDbEllipse
 10
749.1687097714914
 20
338.6901982833793
 30
0.0
 11
0.2
 21
0.0
 31
0.0
210
0.0
220
0.0
230
1.0
 40
0.5773500000000002
 41
3.974114706791088
 42
4.877972855850113
  0
ELLIPSE
  5
1D8
330
1F
100
AcDbEntity
  8
HEWI
100
AcDbEllipse
 10
740.9976797714912
 20
344.0602182833794
 30
0.0
 11
0.4999999999999645
 21
0.8660254037846987
 31
0.0
210
0.0
220
0.0
230
1.0
 40
0.578633
 41
0.7865076731571559
 42
2.355084980432101
  0
ELLIPSE
  5
1D9
330
1F
100
AcDbEntity
  8
HEWI
100
AcDbEllipse
 10
862.7919297714909
 20
404.9430682833791
 30
0.0
 11
-0.1
 21
0.1732050807568878
 31
0.0
210
0.0
220
0.0
230
0.9999999999999996
 40
0.5773500000000002
 41
4.558655413146706
 42
5.450663253978405
  0
ELLIPSE
  5
1DA
330
1F
100
AcDbEntity
  8
HEWI
100
AcDbEllipse
 10
740.9976797714912
 20
256.6968982833793
 30
0.0
 11
0.5011107425953113
 21
0.8679492663936462
 31
0.0
210
0.0
220
0.0
230
1.0
 40
0.576071
 41
2.357303999952125
 42
3.188601644104203
  0
ELLIPSE
  5
1DB
330
1F
100
AcDbEntity
  8
HEWI
100
AcDbEllipse
 10
740.9976797714912
 20
344.0602182833794
 30
0.0
 11
0.5000000000001981
 21
0.8660254037848959
 31
0.0
210
0.0
220
0.0
230
1.0
 40
0.578633
 41
0.786507673157615
 42
2.355084980431994
  0
ELLIPSE
  5
1DC
330
1F
100
AcDbEntity
  8
HEWI
100
AcDbEllipse
 10
854.8402997714909
 20
409.7872882833792
 30
0.0
 11
0.5011107425957127
 21
0.8679492663938892
 31
0.0
210
0.0
220
0.0
230
1.0
 40
0.5760709999999999
 41
6.236176316665405
 42
7.06747396081729
  0
ELLIPSE
  5
1DD
330
1F
100
AcDbEntity
  8
HEWI
100
AcDbEllipse
 10
749.1687097714914
 20
252.2326982833793
 30
0.0
 11
-0.2
 21
0.0
 31
0.0
210
0.0
220
0.0
230
1.0
 40
0.5773500000000002
 41
0.8325220532013048
 42
1.724529894032959
  0
ELLIPSE
  5
1DE
330
1F
100
AcDbEntity
  8
HEWI
100
AcDbEllipse
 10
862.7906697714911
 20
404.2884182833793
 30
0.0
 11
0.5147406148817357
 21
0.8590043700735602
 31
0.0
210
0.0
220
0.0
230
1.0
 40
0.576479
 41
5.940806380061284
 42
7.076844531165492
  0
ELLIPSE
  5
1DF
330
1F
100
AcDbEntity
  8
HEWI
100
AcDbEllipse
 10
749.7350297714911
 20
339.0157082833793
 30
0.0
 11
0.5000000000001417
 21
0.8660254037848089
 31
0.0
210
0.0
220
0.0
230
0.9999999999999998
 40
0.5672540000000002
 41
0.7865076731575003
 42
2.355084980432073
  0
ELLIPSE
  5
1E0
330
1F
100
AcDbEntity
  8
HEWI
100
AcDbEllipse
 10
749.1687097714914
 20
338.6901982833793
 30
0.0
 11
0.2
 21
0.0
 31
0.0
210
0.0
220
0.0
230
1.0
 40
0.5773500000000002
 41
3.974114706791088
 42
4.877972855850113
  0
ELLIPSE
  5
1E1
330
1F
100
AcDbEntity
  8
HEWI
100
AcDbEllipse
 10
862.7919297714909
 20
404.9430682833791
 30
0.0
 11
-0.1
 21
0.1732050807568878
 31
0.0
210
0.0
220
0.0
230
0.9999999999999996
 40
0.5773500000000002
 41
4.558655413146596
 42
5.450663253978238
  0
ELLIPSE
  5
1E4
330
1F
100
AcDbEntity
  8
HEWI
100
AcDbEllipse
 10
862.9020997714913
 20
404.1548182833793
 30
0.0
 11
-0.5
 21
-0.8660254037844389
 31
0.0
210
0.0
220
0.0
230
1.0
 40
0.5773500000000002
 41
3.141594056882071
 42
3.926990816987211
  0
ELLIPSE
  5
1E5
330
1F
100
AcDbEntity
  8
HEWI
100
AcDbEllipse
 10
863.6092097714913
 20
403.7465682833791
 30
0.0
 11
0.5
 21
0.8660254037844389
 31
0.0
210
0.0
220
0.0
230
1.0
 40
0.5773500000000002
 41
5.497787143782124
 42
7.068583470577054
  0
ELLIPSE
  5
1E6
330
1F
100
AcDbEntity
  8
HEWI
100
AcDbEllipse
 10
749.9064397714912
 20
338.9167482833794
 30
0.0
 11
-0.5
 21
-0.8660254037844389
 31
0.0
210
0.0
220
0.0
230
1.0
 40
0.5773500000000002
 41
3.926990816987236
 42
5.497787143782141
  0
ELLIPSE
  5
1E7
330
1F
100
AcDbEntity
  8
HEWI
100
AcDbEllipse
 10
750.6135497714909
 20
338.5084982833796
 30
0.0
 11
0.5
 21
0.8660254037844389
 31
0.0
210
0.0
220
0.0
230
1.0
 40
0.5773500000000002
 41
0.7853981633974489
 42
2.356194490192335
  0
ELLIPSE
  5
1E8
330
1F
100
AcDbEntity
  8
HEWI
100
AcDbEllipse
 10
740.9968897714914
 20
344.1014982833793
 30
0.0
 11
0.5
 21
0.8660254037844389
 31
0.0
210
0.0
220
0.0
230
1.0
 40
0.5773500000000002
 41
0.7853981633974589
 42
2.356194490192353
  0
ELLIPSE
  5
1E9
330
1F
100
AcDbEntity
  8
HEWI
100
AcDbEllipse
 10
750.6135497714909
 20
252.1231582833792
 30
0.0
 11
0.5
 21
0.8660254037844389
 31
0.0
210
0.0
220
0.0
230
1.0
 40
0.5773500000000002
 41
2.356194490192343
 42
3.926990816987236
  0
ELLIPSE
  5
1EA
330
1F
100
AcDbEntity
  8
HEWI
100
AcDbEllipse
 10
749.9064397714912
 20
252.5314082833792
 30
0.0
 11
-0.5
 21
-0.8660254037844389
 31
0.0
210
0.0
220
0.0
230
1.0
 40
0.5773500000000002
 41
5.497787143782138
 42
6.283183903887294
  0
ELLIPSE
  5
1EB
330
1F
100
AcDbEntity
  8
HEWI
100
AcDbEllipse
 10
863.6092097714913
 20
317.3612382833795
 30
0.0
 11
0.5
 21
0.8660254037844389
 31
0.0
210
0.0
220
0.0
230
1.0
 40
0.5773500000000002
 41
3.926990816987223
 42
5.497787143782162
  0
ELLIPSE
  5
1F1
330
1F
100
AcDbEntity
  8
HEWI
100
AcDbEllipse
 10
247.7309123236584
 20
252.2118991636034
 30
0.0
 11
0.1499999999999724
 21
0.0
 31
0.0
210
0.0
220
0.0
230
1.0
 40
0.047159
 41
3.188716543393468
 42
4.71238898038469
  0
ELLIPSE
  5
1F2
330
1F
100
AcDbEntity
  8
HEWI
100
AcDbEllipse
 10
382.5302323236584
 20
253.7624091636033
 30
0.0
 11
-0.7080499738995762
 21
0.7080499738995764
 31
0.0
210
0.0
220
0.0
230
1.0
 40
0.9986679999999999
 41
2.357303999952431
 42
3.925881307227125
  0
ELLIPSE
  5
1F3
330
1F
100
AcDbEntity
  8
HEWI
100
AcDbEllipse
 10
382.5302323236584
 20
359.6472391636035
 30
0.0
 11
0.7080499738967464
 21
0.7080499738967464
 31
0.0
210
0.0
220
0.0
230
1.0
 40
0.9986679999999999
 41
5.498896653540613
 42
7.067473960818557
  0
ELLIPSE
  5
1F4
330
1F
100
AcDbEntity
  8
HEWI
100
AcDbEllipse
 10
222.6454023236584
 20
253.7624091636033
 30
0.0
 11
0.708049973899021
 21
0.7080499738990209
 31
0.0
210
0.0
220
0.0
230
0.9999999999999996
 40
0.9986679999999998
 41
2.357303999952123
 42
3.925881307227471
  0
ELLIPSE
  5
1F5
330
1F
100
AcDbEntity
  8
HEWI
100
AcDbEllipse
 10
357.4447223236584
 20
252.2118991636034
 30
0.0
 11
0.1500000000002012
 21
0.0
 31
0.0
210
0.0
220
0.0
230
1.0
 40
0.047159
 41
4.71238898038469
 42
6.236061417374518
  0
ELLIPSE
  5
1F6
330
1F
100
AcDbEntity
  8
HEWI
100
AcDbEllipse
 10
222.6454023236584
 20
359.6472391636035
 30
0.0
 11
-0.7080499738997597
 21
0.7080499738997598
 31
0.0
210
0.0
220
0.0
230
1.0
 40
0.9986680000000001
 41
5.498896653542331
 42
7.067473960816843
  0
ELLIPSE
  5
1F7
330
1F
100
AcDbEntity
  8
HEWI
100
AcDbEllipse
 10
383.0867023236583
 20
253.2059391636034
 30
0.0
 11
0.7086776084291341
 21
-0.7086776084291344
 31
0.0
210
0.0
220
0.0
230
-1.0
 40
0.9977829999999999
 41
5.498896653541914
 42
7.067473960817302
  0
ELLIPSE
  5
1F8
330
1F
100
AcDbEntity
  8
HEWI
100
AcDbEllipse
 10
237.4447223236584
 20
252.2118991636034
 30
0.0
 11
0.1499999999999664
 21
0.0
 31
0.0
210
0.0
220
0.0
230
1.0
 40
0.047159
 41
4.71238898038469
 42
6.236061417375949
  0
ELLIPSE
  5
1F9
330
1F
100
AcDbEntity
  8
HEWI
100
AcDbEllipse
 10
222.0889323236583
 20
253.2059391636034
 30
0.0
 11
-0.7086776084291341
 21
-0.7086776084291344
 31
0.0
210
0.0
220
0.0
230
-1.0
 40
0.9977829999999999
 41
5.49889665354191
 42
7.067473960817258
  0
ELLIPSE
  5
1FA
330
1F
100
AcDbEntity
  8
HEWI
100
AcDbEllipse
 10
383.0867023236583
 20
360.2037091636033
 30
0.0
 11
0.7086776084291344
 21
0.7086776084291341
 31
0.0
210
0.0
220
0.0
230
-1.0
 40
0.9977829999999999
 41
5.498896653541867
 42
7.067473960817276
  0
ELLIPSE
  5
1FB
330
1F
100
AcDbEntity
  8
HEWI
100
AcDbEllipse
 10
222.6454023236584
 20
253.7624091636033
 30
0.0
 11
0.7080499738990195
 21
0.7080499738990194
 31
0.0
210
0.0
220
0.0
230
1.0
 40
0.9986679999999999
 41
2.357303999952121
 42
3.925881307227471
  0
ELLIPSE
  5
1FC
330
1F
100
AcDbEntity
  8
HEWI
100
AcDbEllipse
 10
247.3975623236583
 20
252.2449091636034
 30
0.0
 11
0.1499999999999659
 21
0.0
 31
0.0
210
0.0
220
0.0
230
1.0
 40
0.047159
 41
0.0471238898036575
 42
1.570796326794897
  0
ELLIPSE
  5
1FD
330
1F
100
AcDbEntity
  8
HEWI
100
AcDbEllipse
 10
367.3975623236584
 20
252.2449091636034
 30
0.0
 11
0.1500000000001777
 21
0.0
 31
0.0
210
0.0
220
0.0
230
1.0
 40
0.047159
 41
0.0471238898049582
 42
1.570796326794897
  0
ELLIPSE
  5
1FE
330
1F
100
AcDbEntity
  8
HEWI
100
AcDbEllipse
 10
237.7780723236583
 20
252.2449091636034
 30
0.0
 11
0.1499999999999657
 21
0.0
 31
0.0
210
0.0
220
0.0
230
1.0
 40
0.047159
 41
1.570796326794897
 42
3.094468763786146
  0
ELLIPSE
  5
1FF
330
1F
100
AcDbEntity
  8
HEWI
100
AcDbEllipse
 10
222.0889323236583
 20
360.2037091636033
 30
0.0
 11
-0.7086776084291344
 21
0.7086776084291341
 31
0.0
210
0.0
220
0.0
230
-1.0
 40
0.9977829999999999
 41
5.498896653541896
 42
7.067473960817262
  0
ELLIPSE
  5
200
330
1F
100
AcDbEntity
  8
HEWI
100
AcDbEllipse
 10
367.7309123236583
 20
252.2118991636034
 30
0.0
 11
0.1500000000002005
 21
0.0
 31
0.0
210
0.0
220
0.0
230
1.0
 40
0.047159
 41
3.188716543394848
 42
4.71238898038469
  0
ELLIPSE
  5
201
330
1F
100
AcDbEntity
  8
HEWI
100
AcDbEllipse
 10
357.7780723236583
 20
252.2449091636034
 30
0.0
 11
0.1500000000001777
 21
0.0
 31
0.0
210
0.0
220
0.0
230
1.0
 40
0.047159
 41
1.570796326794897
 42
3.094468763784834
  0
ELLIPSE
  5
202
330
1F
100
AcDbEntity
  8
HEWI
100
AcDbEllipse
 10
222.0889323236583
 20
253.2059391636034
 30
0.0
 11
-0.7086776084291341
 21
-0.7086776084291344
 31
0.0
210
0.0
220
0.0
230
-1.0
 40
0.9977829999999999
 41
5.49889665354191
 42
7.067473960817258
  0
ELLIPSE
  5
203
330
1F
100
AcDbEntity
  8
HEWI
100
AcDbEllipse
 10
247.7309123236584
 20
252.2118991636034
 30
0.0
 11
0.1499999999999964
 21
0.0
 31
0.0
210
0.0
220
0.0
230
1.0
 40
0.047159
 41
3.188716543393636
 42
4.71238898038469
  0
ELLIPSE
  5
204
330
1F
100
AcDbEntity
  8
HEWI
100
AcDbEllipse
 10
222.0889323236583
 20
360.2037091636033
 30
0.0
 11
-0.7086776084291344
 21
0.7086776084291341
 31
0.0
210
0.0
220
0.0
230
-1.0
 40
0.9977829999999999
 41
5.498896653541896
 42
7.067473960817262
  0
ELLIPSE
  5
205
330
1F
100
AcDbEntity
  8
HEWI
100
AcDbEllipse
 10
357.7780723236583
 20
252.2449091636034
 30
0.0
 11
0.1500000000002195
 21
0.0
 31
0.0
210
0.0
220
0.0
230
1.0
 40
0.047159
 41
1.570796326794897
 42
3.094468763784663
  0
ELLIPSE
  5
206
330
1F
100
AcDbEntity
  8
HEWI
100
AcDbEllipse
 10
382.5302323236584
 20
253.7624091636033
 30
0.0
 11
-0.7080499739007422
 21
0.7080499739007423
 31
0.0
210
0.0
220
0.0
230
1.0
 40
0.9986679999999999
 41
2.357303999953118
 42
3.925881307226464
  0
ELLIPSE
  5
207
330
1F
100
AcDbEntity
  8
HEWI
100
AcDbEllipse
 10
357.4447223236584
 20
252.2118991636034
 30
0.0
 11
0.1500000000002154
 21
0.0
 31
0.0
210
0.0
220
0.0
230
1.0
 40
0.047159
 41
4.71238898038469
 42
6.236061417374481
  0
ELLIPSE
  5
208
330
1F
100
AcDbEntity
  8
HEWI
100
AcDbEllipse
 10
367.7309123236583
 20
252.2118991636034
 30
0.0
 11
0.1500000000002154
 21
0.0
 31
0.0
210
0.0
220
0.0
230
1.0
 40
0.047159
 41
3.188716543394898
 42
4.71238898038469
  0
ELLIPSE
  5
209
330
1F
100
AcDbEntity
  8
HEWI
100
AcDbEllipse
 10
383.0867023236583
 20
360.2037091636033
 30
0.0
 11
0.7086776084291344
 21
0.7086776084291341
 31
0.0
210
0.0
220
0.0
230
-1.0
 40
0.9977829999999999
 41
5.49889665354191
 42
7.067473960817276
  0
ELLIPSE
  5
20A
330
1F
100
AcDbEntity
  8
HEWI
100
AcDbEllipse
 10
247.3975623236583
 20
252.2449091636034
 30
0.0
 11
0.1500000000000004
 21
0.0
 31
0.0
210
0.0
220
0.0
230
1.0
 40
0.047159
 41
0.0471238898038672
 42
1.570796326794897
  0
ELLIPSE
  5
20B
330
1F
100
AcDbEntity
  8
HEWI
100
AcDbEllipse
 10
367.3975623236584
 20
252.2449091636034
 30
0.0
 11
0.1500000000002195
 21
0.0
 31
0.0
210
0.0
220
0.0
230
1.0
 40
0.047159
 41
0.0471238898051302
 42
1.570796326794897
  0
ELLIPSE
  5
20C
330
1F
100
AcDbEntity
  8
HEWI
100
AcDbEllipse
 10
382.5302323236584
 20
359.6472391636035
 30
0.0
 11
0.7080499738960872
 21
0.7080499738960869
 31
0.0
210
0.0
220
0.0
230
0.9999999999999998
 40
0.9986680000000001
 41
5.498896653540248
 42
7.067473960818947
  0
ELLIPSE
  5
20D
330
1F
100
AcDbEntity
  8
HEWI
100
AcDbEllipse
 10
383.0867023236583
 20
253.2059391636034
 30
0.0
 11
0.7086776084291341
 21
-0.7086776084291344
 31
0.0
210
0.0
220
0.0
230
-1.0
 40
0.9977829999999999
 41
5.498896653541914
 42
7.067473960817262
  0
ELLIPSE
  5
20E
330
1F
100
AcDbEntity
  8
HEWI
100
AcDbEllipse
 10
237.7780723236583
 20
252.2449091636034
 30
0.0
 11
0.1500000000000004
 21
0.0
 31
0.0
210
0.0
220
0.0
230
1.0
 40
0.047159
 41
1.570796326794897
 42
3.094468763785926
  0
ELLIPSE
  5
20F
330
1F
100
AcDbEntity
  8
HEWI
100
AcDbEllipse
 10
222.6454023236584
 20
359.6472391636035
 30
0.0
 11
-0.7080499738990466
 21
0.7080499738990466
 31
0.0
210
0.0
220
0.0
230
1.0
 40
0.9986680000000001
 41
5.498896653541945
 42
7.067473960817241
  0
ELLIPSE
  5
210
330
1F
100
AcDbEntity
  8
HEWI
100
AcDbEllipse
 10
237.4447223236584
 20
252.2118991636034
 30
0.0
 11
0.1499999999999963
 21
0.0
 31
0.0
210
0.0
220
0.0
230
1.0
 40
0.047159
 41
4.71238898038469
 42
6.236061417375742
  0
ELLIPSE
  5
211
330
1F
100
AcDbEntity
  8
HEWI
100
AcDbEllipse
 10
19.1475423236584
 20
253.7624091636033
 30
0.0
 11
0.0094179564439736
 21
1.000667156313435
 31
0.0
210
0.0
220
0.0
230
-1.0
 40
0.009397
 41
3.141947223969152
 42
4.710524531233624
  0
ELLIPSE
  5
212
330
1F
100
AcDbEntity
  8
HEWI
100
AcDbEllipse
 10
19.1475423236584
 20
359.6472391636035
 30
0.0
 11
-0.0094179564439007
 21
1.000667156308655
 31
0.0
210
0.0
220
0.0
230
-0.9999999999999998
 40
0.009397
 41
4.714253429530991
 42
6.282830736800973
  0
ELLIPSE
  5
213
330
1F
100
AcDbEntity
  8
HEWI
100
AcDbEllipse
 10
19.1475423236584
 20
253.7624091636033
 30
0.0
 11
0.0094179564439816
 21
1.000667156313929
 31
0.0
210
0.0
220
0.0
230
-1.0
 40
0.009397
 41
3.141947223969185
 42
4.710524531233144
  0
ELLIPSE
  5
214
330
1F
100
AcDbEntity
  8
HEWI
100
AcDbEllipse
 10
19.1475423236584
 20
359.6472391636035
 30
0.0
 11
-0.0094179564439033
 21
1.000667156308834
 31
0.0
210
0.0
220
0.0
230
-1.0
 40
0.009397
 41
4.71425342953115
 42
6.282830736800955
  0
SPLINE
  5
219
330
1F
100
AcDbEntity
  8
HEWI
100
AcDbSpline
210
0.0
220
0.0
230
1.0
 70
    24
 71
     1
 72
     4
 73
     2
 74
     0
 42
0.000000001
 43
0.0000000001
 40
0.0
 40
0.0
 40
1.0
 40
1.0
 10
290.9904051816709
 20
252.350469894974
 30
0.0
 10
290.9921302084228
 20
252.4217558182344
 30
0.0
  0
SPLINE
  5
21A
330
1F
100
AcDbEntity
  8
HEWI
100
AcDbSpline
210
0.0
220
0.0
230
1.0
 70
    24
 71
     1
 72
     4
 73
     2
 74
     0
 42
0.000000001
 43
0.0000000001
 40
0.0
 40
0.0
 40
1.0
 40
1.0
 10
314.1835059173573
 20
252.4217558182344
 30
0.0
 10
314.1852309441092
 20
252.350469894974
 30
0.0
  0
SPLINE
  5
21B
330
1F
100
AcDbEntity
  8
HEWI
100
AcDbSpline
210
0.0
220
0.0
230
1.0
 70
    24
 71
     1
 72
     4
 73
     2
 74
     0
 42
0.000000001
 43
0.0000000001
 40
0.0
 40
0.0
 40
1.0
 40
1.0
 10
290.9921302084228
 20
252.4217558182344
 30
0.0
 10
291.3854104485432
 20
252.8048258285852
 30
0.0
  0
SPLINE
  5
21C
330
1F
100
AcDbEntity
  8
HEWI
100
AcDbSpline
210
0.0
220
0.0
230
1.0
 70
    24
 71
     1
 72
     4
 73
     2
 74
     0
 42
0.000000001
 43
0.0000000001
 40
0.0
 40
0.0
 40
1.0
 40
1.0
 10
290.9904051816709
 20
252.350469894974
 30
0.0
 10
290.9921302084228
 20
252.4217558182344
 30
0.0
  0
SPLINE
  5
21D
330
1F
100
AcDbEntity
  8
HEWI
100
AcDbSpline
210
0.0
220
0.0
230
1.0
 70
    24
 71
     1
 72
     4
 73
     2
 74
     0
 42
0.000000001
 43
0.0000000001
 40
0.0
 40
0.0
 40
1.0
 40
1.0
 10
313.790225677237
 20
252.8048258285852
 30
0.0
 10
314.1835059173573
 20
252.4217558182344
 30
0.0
  0
SPLINE
  5
21E
330
1F
100
AcDbEntity
  8
HEWI
100
AcDbSpline
210
0.0
220
0.0
230
1.0
 70
    24
 71
     1
 72
     4
 73
     2
 74
     0
 42
0.000000001
 43
0.0000000001
 40
0.0
 40
0.0
 40
1.0
 40
1.0
 10
313.790225677237
 20
252.8048258285852
 30
0.0
 10
314.1835059173573
 20
252.4217558182344
 30
0.0
  0
SPLINE
  5
21F
330
1F
100
AcDbEntity
  8
HEWI
100
AcDbSpline
210
0.0
220
0.0
230
1.0
 70
    24
 71
     1
 72
     4
 73
     2
 74
     0
 42
0.000000001
 43
0.0000000001
 40
0.0
 40
0.0
 40
1.0
 40
1.0
 10
314.1835059173573
 20
252.4217558182344
 30
0.0
 10
314.1852309441092
 20
252.350469894974
 30
0.0
  0
SPLINE
  5
220
330
1F
100
AcDbEntity
  8
HEWI
100
AcDbSpline
210
0.0
220
0.0
230
1.0
 70
    24
 71
     1
 72
     4
 73
     2
 74
     0
 42
0.000000001
 43
0.0000000001
 40
0.0
 40
0.0
 40
1.0
 40
1.0
 10
290.9921302084228
 20
252.4217558182344
 30
0.0
 10
291.3854104485432
 20
252.8048258285852
 30
0.0
  0
LINE
  5
298
330
1F
100
AcDbEntity
  8
HEWI
100
AcDbLine
 10
574.2281023236581
 20
360.2548291636032
 30
0.0
 11
574.2281023236581
 21
361.2548291636033
 31
0.0
  0
LINE
  5
299
330
1F
100
AcDbEntity
  8
HEWI
100
AcDbLine
 10
574.2281023236581
 20
253.2548291636032
 30
0.0
 11
574.2281023236581
 21
360.2548291636032
 31
0.0
  0
LINE
  5
29A
330
1F
100
AcDbEntity
  8
HEWI
100
AcDbLine
 10
574.2281023236581
 20
253.2037191636035
 30
0.0
 11
574.2281023236581
 21
252.2048291636032
 31
0.0
  0
LINE
  5
29B
330
1F
100
AcDbEntity
  8
HEWI
100
AcDbLine
 10
586.0375223236582
 20
360.6479091636034
 30
0.0
 11
574.2281023236581
 21
361.2048291636035
 31
0.0
  0
LINE
  5
29C
330
1F
100
AcDbEntity
  8
HEWI
100
AcDbLine
 10
586.0375223236582
 20
359.6490191636034
 30
0.0
 11
586.0375223236582
 21
253.7606291636033
 31
0.0
  0
LINE
  5
29D
330
1F
100
AcDbEntity
  8
HEWI
100
AcDbLine
 10
574.2281023236581
 20
252.2048291636032
 30
0.0
 11
586.0375223236582
 21
252.7617391636032
 31
0.0
  0
LINE
  5
29E
330
1F
100
AcDbEntity
  8
HEWI
100
AcDbLine
 10
574.2281023236581
 20
252.2048291636032
 30
0.0
 11
586.0375223236582
 21
252.7617391636032
 31
0.0
  0
LINE
  5
29F
330
1F
100
AcDbEntity
  8
HEWI
100
AcDbLine
 10
586.0375223236582
 20
360.6479091636034
 30
0.0
 11
574.2281023236581
 21
361.2048291636035
 31
0.0
  0
LINE
  5
2A0
330
1F
100
AcDbEntity
  8
HEWI
100
AcDbLine
 10
574.2281023236581
 20
253.2037191636035
 30
0.0
 11
574.2281023236581
 21
252.2048291636032
 31
0.0
  0
LINE
  5
2A1
330
1F
100
AcDbEntity
  8
HEWI
100
AcDbLine
 10
574.2281023236581
 20
360.2059391636034
 30
0.0
 11
574.2281023236581
 21
253.2037191636035
 31
0.0
  0
LINE
  5
2A2
330
1F
100
AcDbEntity
  8
HEWI
100
AcDbLine
 10
574.2281023236581
 20
360.2059391636034
 30
0.0
 11
574.2281023236581
 21
253.2037191636035
 31
0.0
  0
LINE
  5
2A3
330
1F
100
AcDbEntity
  8
HEWI
100
AcDbLine
 10
586.0375223236582
 20
359.6490191636034
 30
0.0
 11
586.0375223236582
 21
253.7606291636033
 31
0.0
  0
LINE
  5
2A4
330
1F
100
AcDbEntity
  8
HEWI
100
AcDbLine
 10
583.8398723236582
 20
252.6581091636032
 30
0.0
 11
583.5281023236582
 21
252.3463391636034
 31
0.0
  0
LINE
  5
2A5
330
1F
100
AcDbEntity
  8
HEWI
100
AcDbLine
 10
583.5281023236582
 20
252.3463391636034
 30
0.0
 11
579.5281023236583
 21
252.3463391636034
 31
0.0
  0
LINE
  5
2A6
330
1F
100
AcDbEntity
  8
HEWI
100
AcDbLine
 10
579.5281023236583
 20
252.3463391636034
 30
0.0
 11
579.4245623236584
 21
252.4498891636034
 31
0.0
  0
LINE
  5
2A9
330
1F
100
AcDbEntity
  8
HEWI
100
AcDbLine
 10
586.0399231178575
 20
252.8086301433492
 30
0.0
 11
587.2281023236581
 21
252.8048291636034
 31
0.0
  0
LINE
  5
2AB
330
1F
100
AcDbEntity
  8
HEWI
100
AcDbLine
 10
587.2281023236581
 20
360.6048291636033
 30
0.0
 11
586.0399229280496
 21
360.6010275801379
 31
0.0
  0
LINE
  5
2AC
330
1F
100
AcDbEntity
  8
HEWI
100
AcDbLine
 10
587.2281023236581
 20
359.6048291636031
 30
0.0
 11
587.2281023236581
 21
360.6048291636033
 31
0.0
  0
LINE
  5
2AD
330
1F
100
AcDbEntity
  8
HEWI
100
AcDbLine
 10
579.5281023236583
 20
252.3463391636034
 30
0.0
 11
579.5281023236583
 21
252.4547191636033
 31
0.0
  0
LINE
  5
2AE
330
1F
100
AcDbEntity
  8
HEWI
100
AcDbLine
 10
587.2281023236581
 20
253.8048291636034
 30
0.0
 11
587.2281023236581
 21
359.6048291636031
 31
0.0
  0
LINE
  5
2AF
330
1F
100
AcDbEntity
  8
HEWI
100
AcDbLine
 10
583.5281023236582
 20
252.6431691636034
 30
0.0
 11
583.5281023236582
 21
252.3463391636034
 31
0.0
  0
LINE
  5
2B0
330
1F
100
AcDbEntity
  8
HEWI
100
AcDbLine
 10
587.2281023236581
 20
252.8048291636034
 30
0.0
 11
587.2281023236581
 21
253.8048291636034
 31
0.0
  0
LINE
  5
2B4
330
1F
100
AcDbEntity
  8
HEWI
100
AcDbLine
 10
574.2281023236581
 20
253.2036991636033
 30
0.0
 11
574.2281023236581
 21
253.2548291636032
 31
0.0
  0
ELLIPSE
  5
2B5
330
1F
100
AcDbEntity
  8
HEWI
100
AcDbEllipse
 10
586.0281023236582
 20
253.7624091636033
 30
0.0
 11
-0.0094179564439736
 21
1.000667156313435
 31
0.0
210
0.0
220
0.0
230
1.0
 40
0.009397
 41
3.141947223969152
 42
4.710524531233624
  0
ELLIPSE
  5
2B6
330
1F
100
AcDbEntity
  8
HEWI
100
AcDbEllipse
 10
586.0281023236582
 20
359.6472391636035
 30
0.0
 11
0.0094179564439007
 21
1.000667156308655
 31
0.0
210
0.0
220
0.0
230
0.9999999999999998
 40
0.009397
 41
4.714253429530991
 42
6.282830736800973
  0
ELLIPSE
  5
2B7
330
1F
100
AcDbEntity
  8
HEWI
100
AcDbEllipse
 10
586.0281023236582
 20
253.7624091636033
 30
0.0
 11
-0.0094179564439816
 21
1.000667156313929
 31
0.0
210
0.0
220
0.0
230
1.0
 40
0.009397
 41
3.141947223969185
 42
4.710524531233144
  0
ELLIPSE
  5
2B8
330
1F
100
AcDbEntity
  8
HEWI
100
AcDbEllipse
 10
586.0281023236582
 20
359.6472391636035
 30
0.0
 11
0.0094179564439033
 21
1.000667156308834
 31
0.0
210
0.0
220
0.0
230
1.0
 40
0.009397
 41
4.71425342953115
 42
6.282830736800955
  0
ENDSEC
  0
SECTION
  2
OBJECTS
  0
DICTIONARY
  5
C
330
0
100
AcDbDictionary
281
     1
  3
ACAD_CIP_PREVIOUS_PRODUCT_INFO
350
280
  3
ACAD_COLOR
350
265
  3
ACAD_DETAILVIEWSTYLE
350
27C
  3
ACAD_GROUP
350
D
  3
ACAD_LAYOUT
350
1A
  3
ACAD_MATERIAL
350
3B
  3
ACAD_MLEADERSTYLE
350
258
  3
ACAD_MLINESTYLE
350
17
  3
ACAD_PLOTSETTINGS
350
19
  3
ACAD_PLOTSTYLENAME
350
E
  3
ACAD_SCALELIST
350
267
  3
ACAD_SECTIONVIEWSTYLE
350
27A
  3
ACAD_TABLESTYLE
350
257
  3
ACAD_VISUALSTYLE
350
2A
  3
ACDB_RECOMPOSE_DATA
350
397
  3
AcDbVariableDictionary
350
30C
  0
DICTIONARY
  5
2BD
330
2
100
AcDbDictionary
280
     1
281
     1
  3
ACAD_LAYERSTATES
360
2BE
  0
DICTIONARY
  5
306
330
10
100
AcDbDictionary
280
     1
281
     1
  3
ADSK_XREC_LAYER_RECONCILED
360
307
  0
DICTIONARY
  5
308
330
46
100
AcDbDictionary
280
     1
281
     1
  3
ADSK_XREC_LAYER_RECONCILED
360
309
  0
DICTIONARY
  5
30A
330
2B9
100
AcDbDictionary
280
     1
281
     1
  3
ADSK_XREC_LAYER_RECONCILED
360
30B
  0
XRECORD
  5
280
102
{ACAD_REACTORS
330
C
102
}
330
C
100
AcDbXrecord
280
     1
300
ACDLT
300
2016
300
ACDLT_F_S
  0
DICTIONARY
  5
265
102
{ACAD_REACTORS
330
C
102
}
330
C
100
AcDbDictionary
281
     1
  0
DICTIONARY
  5
27C
102
{ACAD_REACTORS
330
C
102
}
330
C
100
AcDbDictionary
281
     1
  3
Imperial24
350
2C0
  3
Metric50
350
27D
  0
DICTIONARY
  5
D
102
{ACAD_REACTORS
330
C
102
}
330
C
100
AcDbDictionary
281
     1
  0
DICTIONARY
  5
1A
102
{ACAD_REACTORS
330
C
102
}
330
C
100
AcDbDictionary
281
     1
  3
Layout1
350
1E
  3
Layout2
350
26
  3
Model
350
22
  0
DICTIONARY
  5
3B
102
{ACAD_REACTORS
330
C
102
}
330
C
100
AcDbDictionary
281
     1
  3
BYBLOCK
350
3D
  3
BYLAYER
350
3C
  3
Global
350
3E
  0
DICTIONARY
  5
258
102
{ACAD_REACTORS
330
C
102
}
330
C
100
AcDbDictionary
281
     1
  3
Standard
350
279
  0
DICTIONARY
  5
17
102
{ACAD_REACTORS
330
C
102
}
330
C
100
AcDbDictionary
281
     1
  3
Standard
350
18
  0
DICTIONARY
  5
19
102
{ACAD_REACTORS
330
C
102
}
330
C
100
AcDbDictionary
281
     1
  0
ACDBDICTIONARYWDFLT
  5
E
102
{ACAD_REACTORS
330
C
102
}
330
C
100
AcDbDictionary
281
     1
  3
Normal
350
F
100
AcDbDictionaryWithDefault
340
F
  0
DICTIONARY
  5
267
102
{ACAD_REACTORS
330
C
102
}
330
C
100
AcDbDictionary
281
     1
  3
A0
350
268
  3
A1
350
269
  3
A2
350
26A
  3
A3
350
26B
  3
A4
350
26C
  3
A5
350
26D
  3
A6
350
26E
  3
A7
350
26F
  3
A8
350
270
  3
A9
350
271
  3
B0
350
272
  3
B1
350
273
  3
B2
350
274
  3
B3
350
275
  3
B4
350
276
  3
B5
350
277
  3
B6
350
278
  0
DICTIONARY
  5
27A
102
{ACAD_REACTORS
330
C
102
}
330
C
100
AcDbDictionary
281
     1
  3
Imperial24
350
2BF
  3
Metric50
350
27B
  0
DICTIONARY
  5
257
102
{ACAD_REACTORS
330
C
102
}
330
C
100
AcDbDictionary
281
     1
  3
Standard
350
266
  0
DICTIONARY
  5
2A
102
{ACAD_REACTORS
330
C
102
}
330
C
100
AcDbDictionary
281
     1
  3
2dWireframe
350
2F
  3
3D Hidden
350
31
  3
3dWireframe
350
30
  3
Basic
350
32
  3
Brighten
350
36
  3
ColorChange
350
3A
  3
Conceptual
350
34
  3
Dim
350
35
  3
EdgeColorOff
350
264
  3
Facepattern
350
39
  3
Flat
350
2B
  3
FlatWithEdges
350
2C
  3
Gouraud
350
2D
  3
GouraudWithEdges
350
2E
  3
Hidden
350
25C
  3
JitterOff
350
262
  3
Linepattern
350
38
  3
OverhangOff
350
263
  3
Realistic
350
33
  3
Shaded
350
261
  3
Shaded with edges
350
260
  3
Shades of Gray
350
25D
  3
Sketchy
350
25E
  3
Thicken
350
37
  3
Wireframe
350
25B
  3
X-Ray
350
25F
  0
XRECORD
  5
397
102
{ACAD_REACTORS
330
C
102
}
330
C
100
AcDbXrecord
280
     1
 90
        1
330
266
  0
DICTIONARY
  5
30C
102
{ACAD_REACTORS
330
C
102
}
330
C
100
AcDbDictionary
281
     1
  3
CANNOSCALE
350
312
  3
CMLEADERSTYLE
350
30E
  3
CTABLESTYLE
350
30D
  3
CVIEWDETAILSTYLE
350
30F
  3
CVIEWSECTIONSTYLE
350
310
  3
LAYEREVAL
350
314
  3
LAYERNOTIFY
350
315
  3
LIGHTINGUNITS
350
313
  3
MSLTSCALE
350
311
  0
DICTIONARY
  5
2BE
102
{ACAD_REACTORS
330
2BD
102
}
330
2BD
100
AcDbDictionary
281
     1
  0
XRECORD
  5
307
102
{ACAD_REACTORS
330
306
102
}
330
306
100
AcDbXrecord
280
     1
290
     1
  0
XRECORD
  5
309
102
{ACAD_REACTORS
330
308
102
}
330
308
100
AcDbXrecord
280
     1
290
     1
  0
XRECORD
  5
30B
102
{ACAD_REACTORS
330
30A
102
}
330
30A
100
AcDbXrecord
280
     1
290
     1
  0
ACDBDETAILVIEWSTYLE
  5
2C0
102
{ACAD_XDICTIONARY
360
3D2
102
}
102
{ACAD_REACTORS
330
27C
102
}
330
27C
100
AcDbModelDocViewStyle
 70
     0
  3
Imperial24
290
     0
100
AcDbDetailViewStyle
 70
     0
 71
     0
 90
        3
 71
     1
340
11
 62
   256
 40
0.24
340
0
 62
   256
 40
0.24
300

 40
0.36
280
     3
 71
     2
340
16
 90
       25
 62
   256
 71
     3
340
11
 62
   256
 40
0.24
 90
        1
 40
0.75
 90
        1
300
%<\AcVar ViewType \f "%tc1">% %<\AcVar ViewDetailId>%\PVARIA %<\AcVar ViewScale \f "%sn">%
 71
     4
340
16
 90
       25
 62
   256
340
16
 90
       25
 62
   256
280
     0
  0
ACDBDETAILVIEWSTYLE
  5
27D
102
{ACAD_XDICTIONARY
360
3CE
102
}
102
{ACAD_REACTORS
330
27C
102
}
330
27C
100
AcDbModelDocViewStyle
 70
     0
  3
Metric50
290
     0
100
AcDbDetailViewStyle
 70
     0
 71
     0
 90
        3
 71
     1
340
11
 62
   256
 40
5.0
340
0
 62
   256
 40
5.0
300

 40
0.0
280
     1
 71
     2
340
16
 90
       25
 62
   256
 71
     3
340
11
 62
   256
 40
5.0
 90
        0
 40
15.0
 90
        1
300
%<\AcVar ViewDetailId>% (%<\AcVar ViewScale \f "%sn">%)
 71
     4
340
16
 90
       25
 62
   256
340
16
 90
       25
 62
   256
280
     0
  0
LAYOUT
  5
1E
102
{ACAD_REACTORS
330
1A
102
}
330
1A
100
AcDbPlotSettings
  1

  2
none_device
  4

  6

 40
0.0
 41
0.0
 42
0.0
 43
0.0
 44
0.0
 45
0.0
 46
0.0
 47
0.0
 48
0.0
 49
0.0
140
0.0
141
0.0
142
1.0
143
1.0
 70
   688
 72
     0
 73
     0
 74
     5
  7

 75
    16
147
1.0
 76
     0
 77
     2
 78
   300
148
0.0
149
0.0
100
AcDbLayout
  1
Layout1
 70
     1
 71
     1
 10
-0.5
 20
-0.5
 11
5.0
 21
5.0
 12
0.0
 22
0.0
 32
0.0
 14
-0.5
 24
-0.5
 34
-0.5
 15
5.0
 25
5.0
 35
5.0
146
0.0
 13
0.0
 23
0.0
 33
0.0
 16
1.0
 26
0.0
 36
0.0
 17
0.0
 27
1.0
 37
0.0
 76
     0
330
1B
  0
LAYOUT
  5
26
102
{ACAD_REACTORS
330
1A
102
}
330
1A
100
AcDbPlotSettings
  1

  2
none_device
  4

  6

 40
0.0
 41
0.0
 42
0.0
 43
0.0
 44
0.0
 45
0.0
 46
0.0
 47
0.0
 48
0.0
 49
0.0
140
0.0
141
0.0
142
1.0
143
1.0
 70
   688
 72
     0
 73
     0
 74
     5
  7

 75
    16
147
1.0
 76
     0
 77
     2
 78
   300
148
0.0
149
0.0
100
AcDbLayout
  1
Layout2
 70
     1
 71
     2
 10
0.0
 20
0.0
 11
0.0
 21
0.0
 12
0.0
 22
0.0
 32
0.0
 14
0.0
 24
0.0
 34
0.0
 15
0.0
 25
0.0
 35
0.0
146
0.0
 13
0.0
 23
0.0
 33
0.0
 16
1.0
 26
0.0
 36
0.0
 17
0.0
 27
1.0
 37
0.0
 76
     0
330
23
  0
LAYOUT
  5
22
102
{ACAD_REACTORS
330
1A
102
}
330
1A
100
AcDbPlotSettings
  1

  2
none_device
  4

  6

 40
0.0
 41
0.0
 42
0.0
 43
0.0
 44
0.0
 45
0.0
 46
0.0
 47
0.0
 48
0.0
 49
0.0
140
0.0
141
0.0
142
1.0
143
1.0
 70
  1712
 72
     0
 73
     0
 74
     0
  7

 75
     0
147
1.0
 76
     0
 77
     2
 78
   300
148
0.0
149
0.0
100
AcDbLayout
  1
Model
 70
     1
 71
     0
 10
-0.5
 20
-0.5
 11
5.0
 21
5.0
 12
0.0
 22
0.0
 32
0.0
 14
-0.5
 24
-0.5
 34
-0.5
 15
5.0
 25
5.0
 35
5.0
146
0.0
 13
0.0
 23
0.0
 33
0.0
 16
1.0
 26
0.0
 36
0.0
 17
0.0
 27
1.0
 37
0.0
 76
     0
330
1F
331
221
  0
MATERIAL
  5
3D
102
{ACAD_XDICTIONARY
360
253
102
}
102
{ACAD_REACTORS
330
3B
102
}
330
3B
100
AcDbMaterial
  1
BYBLOCK
  0
MATERIAL
  5
3C
102
{ACAD_XDICTIONARY
360
251
102
}
102
{ACAD_REACTORS
330
3B
102
}
330
3B
100
AcDbMaterial
  1
BYLAYER
  0
MATERIAL
  5
3E
102
{ACAD_XDICTIONARY
360
255
102
}
102
{ACAD_REACTORS
330
3B
102
}
330
3B
100
AcDbMaterial
  1
Global
  0
MLEADERSTYLE
  5
279
102
{ACAD_REACTORS
330
258
102
}
330
258
100
AcDbMLeaderStyle
179
     2
170
     2
171
     1
172
     0
 90
        2
 40
0.0
 41
0.0
173
     1
 91
-1056964608
340
14
 92
       -2
290
     1
 42
2.0
291
     1
 43
0.36
  3
Standard
 44
4.0
300

342
11
174
     1
178
     6
175
     1
176
     0
 93
-1056964608
 45
4.0
292
     0
297
     0
 46
4.0
 94
-1056964608
 47
1.0
 49
1.0
140
1.0
293
     1
141
0.0
294
     1
177
     0
142
1.0
295
     0
296
     0
143
0.125
271
     0
272
     9
273
     9
  0
MLINESTYLE
  5
18
102
{ACAD_REACTORS
330
17
102
}
330
17
100
AcDbMlineStyle
  2
STANDARD
 70
     0
  3

 62
   256
 51
90.0
 52
90.0
 71
     2
 49
0.5
 62
   256
  6
BYLAYER
 49
-0.5
 62
   256
  6
BYLAYER
  0
ACDBPLACEHOLDER
  5
F
102
{ACAD_REACTORS
330
E
102
}
330
E
  0
SCALE
  5
268
102
{ACAD_REACTORS
330
267
102
}
330
267
100
AcDbScale
 70
     0
300
1:1
140
1.0
141
1.0
290
     1
  0
SCALE
  5
269
102
{ACAD_REACTORS
330
267
102
}
330
267
100
AcDbScale
 70
     0
300
1:2
140
1.0
141
2.0
290
     0
  0
SCALE
  5
26A
102
{ACAD_REACTORS
330
267
102
}
330
267
100
AcDbScale
 70
     0
300
1:4
140
1.0
141
4.0
290
     0
  0
SCALE
  5
26B
102
{ACAD_REACTORS
330
267
102
}
330
267
100
AcDbScale
 70
     0
300
1:5
140
1.0
141
5.0
290
     0
  0
SCALE
  5
26C
102
{ACAD_REACTORS
330
267
102
}
330
267
100
AcDbScale
 70
     0
300
1:8
140
1.0
141
8.0
290
     0
  0
SCALE
  5
26D
102
{ACAD_REACTORS
330
267
102
}
330
267
100
AcDbScale
 70
     0
300
1:10
140
1.0
141
10.0
290
     0
  0
SCALE
  5
26E
102
{ACAD_REACTORS
330
267
102
}
330
267
100
AcDbScale
 70
     0
300
1:16
140
1.0
141
16.0
290
     0
  0
SCALE
  5
26F
102
{ACAD_REACTORS
330
267
102
}
330
267
100
AcDbScale
 70
     0
300
1:20
140
1.0
141
20.0
290
     0
  0
SCALE
  5
270
102
{ACAD_REACTORS
330
267
102
}
330
267
100
AcDbScale
 70
     0
300
1:30
140
1.0
141
30.0
290
     0
  0
SCALE
  5
271
102
{ACAD_REACTORS
330
267
102
}
330
267
100
AcDbScale
 70
     0
300
1:40
140
1.0
141
40.0
290
     0
  0
SCALE
  5
272
102
{ACAD_REACTORS
330
267
102
}
330
267
100
AcDbScale
 70
     0
300
1:50
140
1.0
141
50.0
290
     0
  0
SCALE
  5
273
102
{ACAD_REACTORS
330
267
102
}
330
267
100
AcDbScale
 70
     0
300
1:100
140
1.0
141
100.0
290
     0
  0
SCALE
  5
274
102
{ACAD_REACTORS
330
267
102
}
330
267
100
AcDbScale
 70
     0
300
2:1
140
2.0
141
1.0
290
     0
  0
SCALE
  5
275
102
{ACAD_REACTORS
330
267
102
}
330
267
100
AcDbScale
 70
     0
300
4:1
140
4.0
141
1.0
290
     0
  0
SCALE
  5
276
102
{ACAD_REACTORS
330
267
102
}
330
267
100
AcDbScale
 70
     0
300
8:1
140
8.0
141
1.0
290
     0
  0
SCALE
  5
277
102
{ACAD_REACTORS
330
267
102
}
330
267
100
AcDbScale
 70
     0
300
10:1
140
10.0
141
1.0
290
     0
  0
SCALE
  5
278
102
{ACAD_REACTORS
330
267
102
}
330
267
100
AcDbScale
 70
     0
300
100:1
140
100.0
141
1.0
290
     0
  0
ACDBSECTIONVIEWSTYLE
  5
2BF
102
{ACAD_XDICTIONARY
360
3D0
102
}
102
{ACAD_REACTORS
330
27A
102
}
330
27A
100
AcDbModelDocViewStyle
 70
     0
  3
Imperial24
290
     0
100
AcDbSectionViewStyle
 70
     0
 71
     0
 90
       78
 71
     1
340
11
 62
   256
 40
0.24
340
0
340
0
 62
   256
 40
0.24
300
I, O, Q, S, X, Z
 40
0.48
 90
        3
 40
0.18
 90
        1
 71
     2
340
16
 90
       25
 62
   256
340
16
 90
       50
 62
   256
 40
0.24
 40
0.0
 40
0.24
 71
     3
340
11
 62
   256
 40
0.24
 90
        1
 40
0.75
 90
        1
300
%<\AcVar ViewType \f "%tc1">% %<\AcVar ViewSectionStartId>%-%<\AcVar ViewSectionEndId>%\PVARIA %<\AcVar ViewScale \f "%sn">%
 71
     4
 62
   256
 62
   257
300
ANSI31
 40
1.0
 90
        0
290
     0
290
     0
 90
        6
 40
0.0
 40
1.570796326794896
 40
0.2617993877991494
 40
1.308996938995747
 40
-0.2617993877991494
 40
1.832595714594045
  0
ACDBSECTIONVIEWSTYLE
  5
27B
102
{ACAD_XDICTIONARY
360
3CC
102
}
102
{ACAD_REACTORS
330
27A
102
}
330
27A
100
AcDbModelDocViewStyle
 70
     0
  3
Metric50
290
     0
100
AcDbSectionViewStyle
 70
     0
 71
     0
 90
      102
 71
     1
340
11
 62
   256
 40
5.0
340
0
340
0
 62
   256
 40
5.0
300
I, O, Q, S, X, Z
 40
10.0
 90
        0
 40
2.5
 90
        0
 71
     2
340
16
 90
       25
 62
   256
340
16
 90
       50
 62
   256
 40
5.0
 40
2.5
 40
5.0
 71
     3
340
11
 62
   256
 40
5.0
 90
        0
 40
15.0
 90
        1
300
%<\AcVar ViewSectionStartId>%-%<\AcVar ViewSectionEndId>% (%<\AcVar ViewScale \f "%sn">%)
 71
     4
 62
   256
 62
   257
300
ANSI31
 40
1.0
 90
        0
290
     0
290
     0
 90
        6
 40
0.0
 40
1.570796326794896
 40
0.2617993877991494
 40
1.308996938995747
 40
-0.2617993877991494
 40
1.832595714594045
  0
TABLESTYLE
  5
266
102
{ACAD_XDICTIONARY
360
316
102
}
102
{ACAD_REACTORS
330
257
102
}
330
257
100
AcDbTableStyle
280
     0
  3
Standard
 70
     0
 71
     0
 40
1.5
 41
1.5
280
     0
281
     0
  7
Standard
140
4.5
170
     2
 62
     0
 63
     7
283
     0
 90
      512
 91
        0
  1

274
    -2
284
     1
 64
     0
275
    -2
285
     1
 65
     0
276
    -2
286
     1
 66
     0
277
    -2
287
     1
 67
     0
278
    -2
288
     1
 68
     0
279
    -2
289
     1
 69
     0
  7
Standard
140
6.0
170
     5
 62
     0
 63
     7
283
     0
 90
      512
 91
        0
  1

274
    -2
284
     1
 64
     0
275
    -2
285
     1
 65
     0
276
    -2
286
     1
 66
     0
277
    -2
287
     1
 67
     0
278
    -2
288
     1
 68
     0
279
    -2
289
     1
 69
     0
  7
Standard
140
4.5
170
     5
 62
     0
 63
     7
283
     0
 90
      512
 91
        0
  1

274
    -2
284
     1
 64
     0
275
    -2
285
     1
 65
     0
276
    -2
286
     1
 66
     0
277
    -2
287
     1
 67
     0
278
    -2
288
     1
 68
     0
279
    -2
289
     1
 69
     0
  0
VISUALSTYLE
  5
2F
102
{ACAD_XDICTIONARY
360
3A0
102
}
102
{ACAD_REACTORS
330
2A
102
}
330
2A
100
AcDbVisualStyle
  2

 70
     4
177
     2
291
     0
 71
     0
176
     1
 72
     2
176
     1
 73
     0
176
     1
 90
        0
176
     1
 40
0.6
176
     1
 41
30.0
176
     1
 63
     7
421
 16777215
176
     1
 74
     1
176
     1
 91
        4
176
     1
 64
     7
176
     1
 65
   257
176
     1
 75
     1
176
     1
175
     1
176
     1
 42
1.0
176
     1
 92
        0
176
     1
 66
   257
176
     1
 43
1.0
176
     1
 76
     1
176
     1
 77
     6
176
     1
 78
     2
176
     1
 67
     7
176
     1
 79
     5
176
     1
170
     0
176
     1
171
     0
176
     1
290
     0
176
     1
 93
        1
176
     1
 44
0.0
176
     1
173
     0
176
     1
1001
ACAD
1000
AcDbSavedByObjectVersion
1070
     0
  0
VISUALSTYLE
  5
31
102
{ACAD_XDICTIONARY
360
3A4
102
}
102
{ACAD_REACTORS
330
2A
102
}
330
2A
100
AcDbVisualStyle
  2

 70
     6
177
     2
291
     0
 71
     1
176
     1
 72
     2
176
     1
 73
     2
176
     1
 90
        0
176
     1
 40
0.6
176
     1
 41
30.0
176
     1
 63
     7
421
 16777215
176
     1
 74
     2
176
     1
 91
        2
176
     1
 64
     7
176
     1
 65
   257
176
     1
 75
     2
176
     1
175
     1
176
     1
 42
40.0
176
     1
 92
        0
176
     1
 66
   257
176
     1
 43
1.0
176
     1
 76
     1
176
     1
 77
     6
176
     1
 78
     2
176
     1
 67
     7
176
     1
 79
     3
176
     1
170
     0
176
     1
171
     0
176
     1
290
     0
176
     1
 93
        1
176
     1
 44
0.0
176
     1
173
     0
176
     1
1001
ACAD
1000
AcDbSavedByObjectVersion
1070
     0
  0
VISUALSTYLE
  5
30
102
{ACAD_XDICTIONARY
360
3A2
102
}
102
{ACAD_REACTORS
330
2A
102
}
330
2A
100
AcDbVisualStyle
  2

 70
     5
177
     2
291
     0
 71
     0
176
     1
 72
     2
176
     1
 73
     0
176
     1
 90
        0
176
     1
 40
0.6
176
     1
 41
30.0
176
     1
 63
     7
421
 16777215
176
     1
 74
     1
176
     1
 91
        4
176
     1
 64
     7
176
     1
 65
   257
176
     1
 75
     1
176
     1
175
     1
176
     1
 42
1.0
176
     1
 92
        0
176
     1
 66
   257
176
     1
 43
1.0
176
     1
 76
     1
176
     1
 77
     6
176
     1
 78
     2
176
     1
 67
     7
176
     1
 79
     5
176
     1
170
     0
176
     1
171
     0
176
     1
290
     0
176
     1
 93
        1
176
     1
 44
0.0
176
     1
173
     0
176
     1
1001
ACAD
1000
AcDbSavedByObjectVersion
1070
     0
  0
VISUALSTYLE
  5
32
102
{ACAD_XDICTIONARY
360
3A6
102
}
102
{ACAD_REACTORS
330
2A
102
}
330
2A
100
AcDbVisualStyle
  2

 70
     7
177
     2
291
     1
 71
     1
176
     1
 72
     0
176
     1
 73
     1
176
     1
 90
        0
176
     1
 40
0.6
176
     1
 41
30.0
176
     1
 63
     7
421
 16777215
176
     1
 74
     0
176
     1
 91
        4
176
     1
 64
     7
176
     1
 65
   257
176
     1
 75
     1
176
     1
175
     1
176
     1
 42
1.0
176
     1
 92
        8
176
     1
 66
     7
176
     1
 43
1.0
176
     1
 76
     1
176
     1
 77
     6
176
     1
 78
     2
176
     1
 67
     7
176
     1
 79
     5
176
     1
170
     0
176
     1
171
     0
176
     1
290
     0
176
     1
 93
        1
176
     1
 44
0.0
176
     1
173
     0
176
     1
1001
ACAD
1000
AcDbSavedByObjectVersion
1070
     0
  0
VISUALSTYLE
  5
36
102
{ACAD_XDICTIONARY
360
3AE
102
}
102
{ACAD_REACTORS
330
2A
102
}
330
2A
100
AcDbVisualStyle
  2

 70
    12
177
     2
291
     1
 71
     2
176
     1
 72
     2
176
     1
 73
     0
176
     1
 90
        0
176
     1
 40
0.6
176
     1
 41
30.0
176
     1
 63
     7
421
 16777215
176
     1
 74
     1
176
     1
 91
        4
176
     1
 64
     7
176
     1
 65
   257
176
     1
 75
     1
176
     1
175
     1
176
     1
 42
1.0
176
     1
 92
        8
176
     1
 66
     7
176
     1
 43
1.0
176
     1
 76
     1
176
     1
 77
     6
176
     1
 78
     2
176
     1
 67
     7
176
     1
 79
     5
176
     1
170
     0
176
     1
171
     0
176
     1
290
     0
176
     1
 93
        1
176
     1
 44
50.0
176
     1
173
     0
176
     1
1001
ACAD
1000
AcDbSavedByObjectVersion
1070
     0
  0
VISUALSTYLE
  5
3A
102
{ACAD_XDICTIONARY
360
3B6
102
}
102
{ACAD_REACTORS
330
2A
102
}
330
2A
100
AcDbVisualStyle
  2

 70
    16
177
     2
291
     1
 71
     2
176
     1
 72
     2
176
     1
 73
     3
176
     1
 90
        0
176
     1
 40
0.6
176
     1
 41
30.0
176
     1
 63
     8
421
  8421504
176
     1
 74
     1
176
     1
 91
        4
176
     1
 64
     7
176
     1
 65
   257
176
     1
 75
     1
176
     1
175
     1
176
     1
 42
1.0
176
     1
 92
        8
176
     1
 66
     8
424
  8421504
176
     1
 43
1.0
176
     1
 76
     1
176
     1
 77
     6
176
     1
 78
     2
176
     1
 67
     7
176
     1
 79
     5
176
     1
170
     0
176
     1
171
     0
176
     1
290
     0
176
     1
 93
        1
176
     1
 44
0.0
176
     1
173
     0
176
     1
1001
ACAD
1000
AcDbSavedByObjectVersion
1070
     0
  0
VISUALSTYLE
  5
34
102
{ACAD_XDICTIONARY
360
3AA
102
}
102
{ACAD_REACTORS
330
2A
102
}
330
2A
100
AcDbVisualStyle
  2

 70
     9
177
     2
291
     0
 71
     3
176
     1
 72
     2
176
     1
 73
     0
176
     1
 90
        0
176
     1
 40
0.6
176
     1
 41
30.0
176
     1
 63
     7
421
 16777215
176
     1
 74
     2
176
     1
 91
        2
176
     1
 64
     7
176
     1
 65
   257
176
     1
 75
     1
176
     1
175
     1
176
     1
 42
40.0
176
     1
 92
        8
176
     1
 66
     7
176
     1
 43
1.0
176
     1
 76
     1
176
     1
 77
     6
176
     1
 78
     2
176
     1
 67
     7
176
     1
 79
     3
176
     1
170
     0
176
     1
171
     0
176
     1
290
     0
176
     1
 93
        1
176
     1
 44
0.0
176
     1
173
     0
176
     1
1001
ACAD
1000
AcDbSavedByObjectVersion
1070
     0
  0
VISUALSTYLE
  5
35
102
{ACAD_XDICTIONARY
360
3AC
102
}
102
{ACAD_REACTORS
330
2A
102
}
330
2A
100
AcDbVisualStyle
  2

 70
    11
177
     2
291
     1
 71
     2
176
     1
 72
     2
176
     1
 73
     0
176
     1
 90
        0
176
     1
 40
0.6
176
     1
 41
30.0
176
     1
 63
     7
421
 16777215
176
     1
 74
     1
176
     1
 91
        4
176
     1
 64
     7
176
     1
 65
   257
176
     1
 75
     1
176
     1
175
     1
176
     1
 42
1.0
176
     1
 92
        8
176
     1
 66
     7
176
     1
 43
1.0
176
     1
 76
     1
176
     1
 77
     6
176
     1
 78
     2
176
     1
 67
     7
176
     1
 79
     5
176
     1
170
     0
176
     1
171
     0
176
     1
290
     0
176
     1
 93
        1
176
     1
 44
-50.0
176
     1
173
     0
176
     1
1001
ACAD
1000
AcDbSavedByObjectVersion
1070
     0
  0
VISUALSTYLE
  5
264
102
{ACAD_XDICTIONARY
360
3CA
102
}
102
{ACAD_REACTORS
330
2A
102
}
330
2A
100
AcDbVisualStyle
  2
EdgeColorOff
 70
    22
177
     2
291
     1
 71
     2
176
     0
 72
     2
176
     0
 73
     0
176
     0
 90
        0
176
     0
 40
0.6
176
     0
 41
30.0
176
     0
 63
     7
421
 16777215
176
     0
 74
     1
176
     0
 91
        4
176
     0
 64
     7
176
     0
 65
   257
176
     0
 75
     1
176
     0
175
     1
176
     0
 42
1.0
176
     0
 92
        8
176
     2
 66
     7
176
     0
 43
1.0
176
     0
 76
     1
176
     0
 77
     6
176
     0
 78
     2
176
     0
 67
     7
176
     0
 79
     5
176
     0
170
     0
176
     0
171
     0
176
     0
290
     0
176
     0
 93
        1
176
     0
 44
0.0
176
     0
173
     0
176
     0
1001
ACAD
1000
AcDbSavedByObjectVersion
1070
     0
  0
VISUALSTYLE
  5
39
102
{ACAD_XDICTIONARY
360
3B4
102
}
102
{ACAD_REACTORS
330
2A
102
}
330
2A
100
AcDbVisualStyle
  2

 70
    15
177
     2
291
     1
 71
     2
176
     1
 72
     2
176
     1
 73
     0
176
     1
 90
        0
176
     1
 40
0.6
176
     1
 41
30.0
176
     1
 63
     7
421
 16777215
176
     1
 74
     1
176
     1
 91
        4
176
     1
 64
     7
176
     1
 65
   257
176
     1
 75
     1
176
     1
175
     1
176
     1
 42
1.0
176
     1
 92
        8
176
     1
 66
     7
176
     1
 43
1.0
176
     1
 76
     1
176
     1
 77
     6
176
     1
 78
     2
176
     1
 67
     7
176
     1
 79
     5
176
     1
170
     0
176
     1
171
     0
176
     1
290
     0
176
     1
 93
        1
176
     1
 44
0.0
176
     1
173
     0
176
     1
1001
ACAD
1000
AcDbSavedByObjectVersion
1070
     0
  0
VISUALSTYLE
  5
2B
102
{ACAD_XDICTIONARY
360
398
102
}
102
{ACAD_REACTORS
330
2A
102
}
330
2A
100
AcDbVisualStyle
  2

 70
     0
177
     2
291
     1
 71
     2
176
     1
 72
     1
176
     1
 73
     1
176
     1
 90
        2
176
     1
 40
0.6
176
     1
 41
30.0
176
     1
 63
     7
421
 16777215
176
     1
 74
     0
176
     1
 91
        4
176
     1
 64
     7
176
     1
 65
   257
176
     1
 75
     1
176
     1
175
     1
176
     1
 42
1.0
176
     1
 92
        8
176
     1
 66
     7
176
     1
 43
1.0
176
     1
 76
     1
176
     1
 77
     6
176
     1
 78
     2
176
     1
 67
     7
176
     1
 79
     5
176
     1
170
     0
176
     1
171
     0
176
     1
290
     0
176
     1
 93
       13
176
     1
 44
0.0
176
     1
173
     0
176
     1
1001
ACAD
1000
AcDbSavedByObjectVersion
1070
     0
  0
VISUALSTYLE
  5
2C
102
{ACAD_XDICTIONARY
360
39A
102
}
102
{ACAD_REACTORS
330
2A
102
}
330
2A
100
AcDbVisualStyle
  2

 70
     1
177
     2
291
     1
 71
     2
176
     1
 72
     1
176
     1
 73
     1
176
     1
 90
        2
176
     1
 40
0.6
176
     1
 41
30.0
176
     1
 63
     7
421
 16777215
176
     1
 74
     1
176
     1
 91
        4
176
     1
 64
     7
176
     1
 65
   257
176
     1
 75
     1
176
     1
175
     1
176
     1
 42
1.0
176
     1
 92
        0
176
     1
 66
   257
176
     1
 43
1.0
176
     1
 76
     1
176
     1
 77
     6
176
     1
 78
     2
176
     1
 67
     7
176
     1
 79
     5
176
     1
170
     0
176
     1
171
     0
176
     1
290
     0
176
     1
 93
       13
176
     1
 44
0.0
176
     1
173
     0
176
     1
1001
ACAD
1000
AcDbSavedByObjectVersion
1070
     0
  0
VISUALSTYLE
  5
2D
102
{ACAD_XDICTIONARY
360
39C
102
}
102
{ACAD_REACTORS
330
2A
102
}
330
2A
100
AcDbVisualStyle
  2

 70
     2
177
     2
291
     1
 71
     2
176
     1
 72
     2
176
     1
 73
     1
176
     1
 90
        2
176
     1
 40
0.6
176
     1
 41
30.0
176
     1
 63
     7
421
 16777215
176
     1
 74
     0
176
     1
 91
        4
176
     1
 64
     7
176
     1
 65
   257
176
     1
 75
     1
176
     1
175
     1
176
     1
 42
1.0
176
     1
 92
        0
176
     1
 66
     7
176
     1
 43
1.0
176
     1
 76
     1
176
     1
 77
     6
176
     1
 78
     2
176
     1
 67
     7
176
     1
 79
     5
176
     1
170
     0
176
     1
171
     0
176
     1
290
     0
176
     1
 93
       13
176
     1
 44
0.0
176
     1
173
     0
176
     1
1001
ACAD
1000
AcDbSavedByObjectVersion
1070
     0
  0
VISUALSTYLE
  5
2E
102
{ACAD_XDICTIONARY
360
39E
102
}
102
{ACAD_REACTORS
330
2A
102
}
330
2A
100
AcDbVisualStyle
  2

 70
     3
177
     2
291
     1
 71
     2
176
     1
 72
     2
176
     1
 73
     1
176
     1
 90
        2
176
     1
 40
0.6
176
     1
 41
30.0
176
     1
 63
     7
421
 16777215
176
     1
 74
     1
176
     1
 91
        4
176
     1
 64
     7
176
     1
 65
   257
176
     1
 75
     1
176
     1
175
     1
176
     1
 42
1.0
176
     1
 92
        0
176
     1
 66
   257
176
     1
 43
1.0
176
     1
 76
     1
176
     1
 77
     6
176
     1
 78
     2
176
     1
 67
     7
176
     1
 79
     5
176
     1
170
     0
176
     1
171
     0
176
     1
290
     0
176
     1
 93
       13
176
     1
 44
0.0
176
     1
173
     0
176
     1
1001
ACAD
1000
AcDbSavedByObjectVersion
1070
     0
  0
VISUALSTYLE
  5
25C
102
{ACAD_XDICTIONARY
360
3BA
102
}
102
{ACAD_REACTORS
330
2A
102
}
330
2A
100
AcDbVisualStyle
  2
Hidden
 70
     6
177
     2
291
     0
 71
     1
176
     1
 72
     2
176
     1
 73
     2
176
     1
 90
        0
176
     1
 40
0.6
176
     1
 41
30.0
176
     1
 63
     7
421
 16777215
176
     1
 74
     2
176
     1
 91
        2
176
     1
 64
     7
176
     1
 65
   257
176
     1
 75
     2
176
     1
175
     1
176
     1
 42
40.0
176
     1
 92
        0
176
     1
 66
   257
176
     1
 43
1.0
176
     1
 76
     1
176
     1
 77
     6
176
     1
 78
     2
176
     1
 67
     7
176
     1
 79
     3
176
     1
170
     0
176
     1
171
     0
176
     1
290
     0
176
     1
 93
        1
176
     1
 44
0.0
176
     1
173
     0
176
     1
1001
ACAD
1000
AcDbSavedByObjectVersion
1070
     0
  0
VISUALSTYLE
  5
262
102
{ACAD_XDICTIONARY
360
3C6
102
}
102
{ACAD_REACTORS
330
2A
102
}
330
2A
100
AcDbVisualStyle
  2
JitterOff
 70
    20
177
     2
291
     1
 71
     2
176
     0
 72
     2
176
     0
 73
     0
176
     0
 90
        0
176
     0
 40
0.6
176
     0
 41
30.0
176
     0
 63
     7
421
 16777215
176
     0
 74
     1
176
     0
 91
        4
176
     0
 64
     7
176
     0
 65
   257
176
     0
 75
     1
176
     0
175
     1
176
     0
 42
1.0
176
     0
 92
       10
176
     2
 66
     7
176
     0
 43
1.0
176
     0
 76
     1
176
     0
 77
     6
176
     0
 78
     2
176
     0
 67
     7
176
     0
 79
     5
176
     0
170
     0
176
     0
171
     0
176
     0
290
     0
176
     0
 93
        1
176
     0
 44
0.0
176
     0
173
     0
176
     0
1001
ACAD
1000
AcDbSavedByObjectVersion
1070
     0
  0
VISUALSTYLE
  5
38
102
{ACAD_XDICTIONARY
360
3B2
102
}
102
{ACAD_REACTORS
330
2A
102
}
330
2A
100
AcDbVisualStyle
  2

 70
    14
177
     2
291
     1
 71
     2
176
     1
 72
     2
176
     1
 73
     0
176
     1
 90
        0
176
     1
 40
0.6
176
     1
 41
30.0
176
     1
 63
     7
421
 16777215
176
     1
 74
     1
176
     1
 91
        4
176
     1
 64
     7
176
     1
 65
   257
176
     1
 75
     7
176
     1
175
     7
176
     1
 42
1.0
176
     1
 92
        8
176
     1
 66
     7
176
     1
 43
1.0
176
     1
 76
     1
176
     1
 77
     6
176
     1
 78
     2
176
     1
 67
     7
176
     1
 79
     5
176
     1
170
     0
176
     1
171
     0
176
     1
290
     0
176
     1
 93
        1
176
     1
 44
0.0
176
     1
173
     0
176
     1
1001
ACAD
1000
AcDbSavedByObjectVersion
1070
     0
  0
VISUALSTYLE
  5
263
102
{ACAD_XDICTIONARY
360
3C8
102
}
102
{ACAD_REACTORS
330
2A
102
}
330
2A
100
AcDbVisualStyle
  2
OverhangOff
 70
    21
177
     2
291
     1
 71
     2
176
     0
 72
     2
176
     0
 73
     0
176
     0
 90
        0
176
     0
 40
0.6
176
     0
 41
30.0
176
     0
 63
     7
421
 16777215
176
     0
 74
     1
176
     0
 91
        4
176
     0
 64
     7
176
     0
 65
   257
176
     0
 75
     1
176
     0
175
     1
176
     0
 42
1.0
176
     0
 92
        9
176
     2
 66
     7
176
     0
 43
1.0
176
     0
 76
     1
176
     0
 77
     6
176
     0
 78
     2
176
     0
 67
     7
176
     0
 79
     5
176
     0
170
     0
176
     0
171
     0
176
     0
290
     0
176
     0
 93
        1
176
     0
 44
0.0
176
     0
173
     0
176
     0
1001
ACAD
1000
AcDbSavedByObjectVersion
1070
     0
  0
VISUALSTYLE
  5
33
102
{ACAD_XDICTIONARY
360
3A8
102
}
102
{ACAD_REACTORS
330
2A
102
}
330
2A
100
AcDbVisualStyle
  2

 70
     8
177
     2
291
     0
 71
     2
176
     1
 72
     2
176
     1
 73
     0
176
     1
 90
        0
176
     1
 40
0.6
176
     1
 41
30.0
176
     1
 63
     7
421
 16777215
176
     1
 74
     1
176
     1
 91
        0
176
     1
 64
     7
176
     1
 65
   257
176
     1
 75
     1
176
     1
175
     1
176
     1
 42
1.0
176
     1
 92
        8
176
     1
 66
     8
424
  7895160
176
     1
 43
1.0
176
     1
 76
     1
176
     1
 77
     6
176
     1
 78
     2
176
     1
 67
     7
176
     1
 79
     5
176
     1
170
     0
176
     1
171
     0
176
     1
290
     0
176
     1
 93
       13
176
     1
 44
0.0
176
     1
173
     0
176
     1
1001
ACAD
1000
AcDbSavedByObjectVersion
1070
     0
  0
VISUALSTYLE
  5
261
102
{ACAD_XDICTIONARY
360
3C4
102
}
102
{ACAD_REACTORS
330
2A
102
}
330
2A
100
AcDbVisualStyle
  2
Shaded
 70
    27
177
     2
291
     0
 71
     2
176
     1
 72
     2
176
     1
 73
     1
176
     1
 90
        2
176
     1
 40
0.6
176
     1
 41
30.0
176
     1
 63
     7
421
 16777215
176
     1
 74
     0
176
     1
 91
        4
176
     1
 64
     7
176
     1
 65
   257
176
     1
 75
     1
176
     1
175
     1
176
     1
 42
1.0
176
     1
 92
        8
176
     1
 66
   257
176
     1
 43
1.0
176
     1
 76
     1
176
     1
 77
     6
176
     1
 78
     2
176
     1
 67
     8
425
  7895160
176
     1
 79
     3
176
     1
170
     0
176
     1
171
     0
176
     1
290
     0
176
     1
 93
        5
176
     1
 44
0.0
176
     1
173
     0
176
     1
1001
ACAD
1000
AcDbSavedByObjectVersion
1070
     0
  0
VISUALSTYLE
  5
260
102
{ACAD_XDICTIONARY
360
3C2
102
}
102
{ACAD_REACTORS
330
2A
102
}
330
2A
100
AcDbVisualStyle
  2
Shaded with edges
 70
    26
177
     2
291
     0
 71
     2
176
     1
 72
     2
176
     1
 73
     1
176
     1
 90
        2
176
     1
 40
0.6
176
     1
 41
30.0
176
     1
 63
     7
421
 16777215
176
     1
 74
     1
176
     1
 91
        2
176
     1
 64
     7
176
     1
 65
   257
176
     1
 75
     2
176
     1
175
     1
176
     1
 42
1.0
176
     1
 92
        8
176
     1
 66
   257
176
     1
 43
1.0
176
     1
 76
     1
176
     1
 77
     6
176
     1
 78
     2
176
     1
 67
     7
176
     1
 79
     3
176
     1
170
     0
176
     1
171
     0
176
     1
290
     0
176
     1
 93
        5
176
     1
 44
0.0
176
     1
173
     0
176
     1
1001
ACAD
1000
AcDbSavedByObjectVersion
1070
     0
  0
VISUALSTYLE
  5
25D
102
{ACAD_XDICTIONARY
360
3BC
102
}
102
{ACAD_REACTORS
330
2A
102
}
330
2A
100
AcDbVisualStyle
  2
Shades of Gray
 70
    23
177
     2
291
     0
 71
     2
176
     1
 72
     2
176
     1
 73
     3
176
     1
 90
        0
176
     1
 40
0.6
176
     1
 41
30.0
176
     1
 63
     7
421
 16777215
176
     1
 74
     2
176
     1
 91
        2
176
     1
 64
     7
176
     1
 65
     7
176
     1
 75
     1
176
     1
175
     1
176
     1
 42
40.0
176
     1
 92
        8
176
     1
 66
     7
176
     1
 43
1.0
176
     1
 76
     1
176
     1
 77
     6
176
     1
 78
     2
176
     1
 67
     7
176
     1
 79
     3
176
     1
170
     0
176
     1
171
     0
176
     1
290
     0
176
     1
 93
        1
176
     1
 44
0.0
176
     1
173
     0
176
     1
1001
ACAD
1000
AcDbSavedByObjectVersion
1070
     0
  0
VISUALSTYLE
  5
25E
102
{ACAD_XDICTIONARY
360
3BE
102
}
102
{ACAD_REACTORS
330
2A
102
}
330
2A
100
AcDbVisualStyle
  2
Sketchy
 70
    24
177
     2
291
     0
 71
     1
176
     1
 72
     2
176
     1
 73
     2
176
     1
 90
        0
176
     1
 40
0.6
176
     1
 41
30.0
176
     1
 63
     7
421
 16777215
176
     1
 74
     2
176
     1
 91
        2
176
     1
 64
     7
176
     1
 65
     7
176
     1
 75
     1
176
     1
175
     1
176
     1
 42
40.0
176
     1
 92
       11
176
     1
 66
     7
176
     1
 43
1.0
176
     1
 76
     1
176
     1
 77
     6
176
     1
 78
     2
176
     1
 67
     7
176
     1
 79
     6
176
     1
170
     0
176
     1
171
     0
176
     1
290
     0
176
     1
 93
        1
176
     1
 44
0.0
176
     1
173
     0
176
     1
1001
ACAD
1000
AcDbSavedByObjectVersion
1070
     0
  0
VISUALSTYLE
  5
37
102
{ACAD_XDICTIONARY
360
3B0
102
}
102
{ACAD_REACTORS
330
2A
102
}
330
2A
100
AcDbVisualStyle
  2

 70
    13
177
     2
291
     1
 71
     2
176
     1
 72
     2
176
     1
 73
     0
176
     1
 90
        0
176
     1
 40
0.6
176
     1
 41
30.0
176
     1
 63
     7
421
 16777215
176
     1
 74
     1
176
     1
 91
        4
176
     1
 64
     7
176
     1
 65
   257
176
     1
 75
     1
176
     1
175
     1
176
     1
 42
1.0
176
     1
 92
       12
176
     1
 66
     7
176
     1
 43
1.0
176
     1
 76
     1
176
     1
 77
     6
176
     1
 78
     2
176
     1
 67
     7
176
     1
 79
     5
176
     1
170
     0
176
     1
171
     0
176
     1
290
     0
176
     1
 93
        1
176
     1
 44
0.0
176
     1
173
     0
176
     1
1001
ACAD
1000
AcDbSavedByObjectVersion
1070
     0
  0
VISUALSTYLE
  5
25B
102
{ACAD_XDICTIONARY
360
3B8
102
}
102
{ACAD_REACTORS
330
2A
102
}
330
2A
100
AcDbVisualStyle
  2
Wireframe
 70
     5
177
     2
291
     0
 71
     0
176
     1
 72
     2
176
     1
 73
     0
176
     1
 90
        0
176
     1
 40
0.6
176
     1
 41
30.0
176
     1
 63
     7
421
 16777215
176
     1
 74
     1
176
     1
 91
        4
176
     1
 64
     7
176
     1
 65
   257
176
     1
 75
     1
176
     1
175
     1
176
     1
 42
1.0
176
     1
 92
        0
176
     1
 66
   257
176
     1
 43
1.0
176
     1
 76
     1
176
     1
 77
     6
176
     1
 78
     2
176
     1
 67
     7
176
     1
 79
     3
176
     1
170
     0
176
     1
171
     0
176
     1
290
     0
176
     1
 93
        1
176
     1
 44
0.0
176
     1
173
     0
176
     1
1001
ACAD
1000
AcDbSavedByObjectVersion
1070
     0
  0
VISUALSTYLE
  5
25F
102
{ACAD_XDICTIONARY
360
3C0
102
}
102
{ACAD_REACTORS
330
2A
102
}
330
2A
100
AcDbVisualStyle
  2
X-Ray
 70
    25
177
     2
291
     0
 71
     2
176
     1
 72
     2
176
     1
 73
     1
176
     1
 90
        1
176
     1
 40
0.5
176
     1
 41
30.0
176
     1
 63
     7
421
 16777215
176
     1
 74
     1
176
     1
 91
        0
176
     1
 64
     7
176
     1
 65
   257
176
     1
 75
     1
176
     1
175
     1
176
     1
 42
1.0
176
     1
 92
        8
176
     1
 66
     7
176
     1
 43
1.0
176
     1
 76
     1
176
     1
 77
     6
176
     1
 78
     2
176
     1
 67
     7
176
     1
 79
     3
176
     1
170
     0
176
     1
171
     0
176
     1
290
     0
176
     1
 93
       13
176
     1
 44
0.0
176
     1
173
     0
176
     1
1001
ACAD
1000
AcDbSavedByObjectVersion
1070
     0
  0
DICTIONARYVAR
  5
312
102
{ACAD_REACTORS
330
30C
102
}
330
30C
100
DictionaryVariables
280
     0
  1
1:1
  0
DICTIONARYVAR
  5
30E
102
{ACAD_REACTORS
330
30C
102
}
330
30C
100
DictionaryVariables
280
     0
  1
STANDARD
  0
DICTIONARYVAR
  5
30D
102
{ACAD_REACTORS
330
30C
102
}
330
30C
100
DictionaryVariables
280
     0
  1
STANDARD
  0
DICTIONARYVAR
  5
30F
102
{ACAD_REACTORS
330
30C
102
}
330
30C
100
DictionaryVariables
280
     0
  1
Metric50
  0
DICTIONARYVAR
  5
310
102
{ACAD_REACTORS
330
30C
102
}
330
30C
100
DictionaryVariables
280
     0
  1
Metric50
  0
DICTIONARYVAR
  5
314
102
{ACAD_REACTORS
330
30C
102
}
330
30C
100
DictionaryVariables
280
     0
  1
1
  0
DICTIONARYVAR
  5
315
102
{ACAD_REACTORS
330
30C
102
}
330
30C
100
DictionaryVariables
280
     0
  1
15
  0
DICTIONARYVAR
  5
313
102
{ACAD_REACTORS
330
30C
102
}
330
30C
100
DictionaryVariables
280
     0
  1
0
  0
DICTIONARYVAR
  5
311
102
{ACAD_REACTORS
330
30C
102
}
330
30C
100
DictionaryVariables
280
     0
  1
0
  0
DICTIONARY
  5
3D2
330
2C0
100
AcDbDictionary
280
     1
281
     1
  3
ACAD_XREC_ROUNDTRIP
360
3D3
  0
DICTIONARY
  5
3CE
330
27D
100
AcDbDictionary
280
     1
281
     1
  3
ACAD_XREC_ROUNDTRIP
360
3CF
  0
DICTIONARY
  5
253
330
3D
100
AcDbDictionary
280
     1
281
     1
  3
ACAD_XREC_ROUNDTRIP
360
254
  0
DICTIONARY
  5
251
330
3C
100
AcDbDictionary
280
     1
281
     1
  3
ACAD_XREC_ROUNDTRIP
360
252
  0
DICTIONARY
  5
255
330
3E
100
AcDbDictionary
280
     1
281
     1
  3
ACAD_XREC_ROUNDTRIP
360
256
  0
DICTIONARY
  5
3D0
330
2BF
100
AcDbDictionary
280
     1
281
     1
  3
ACAD_XREC_ROUNDTRIP
360
3D1
  0
DICTIONARY
  5
3CC
330
27B
100
AcDbDictionary
280
     1
281
     1
  3
ACAD_XREC_ROUNDTRIP
360
3CD
  0
DICTIONARY
  5
316
330
266
100
AcDbDictionary
280
     1
281
     1
  3
ACAD_ROUNDTRIP_2008_TABLESTYLE_CELLSTYLEMAP
360
396
  0
DICTIONARY
  5
3A0
330
2F
100
AcDbDictionary
280
     1
281
     1
  3
ACAD_XREC_ROUNDTRIP
360
3A1
  0
DICTIONARY
  5
3A4
330
31
100
AcDbDictionary
280
     1
281
     1
  3
ACAD_XREC_ROUNDTRIP
360
3A5
  0
DICTIONARY
  5
3A2
330
30
100
AcDbDictionary
280
     1
281
     1
  3
ACAD_XREC_ROUNDTRIP
360
3A3
  0
DICTIONARY
  5
3A6
330
32
100
AcDbDictionary
280
     1
281
     1
  3
ACAD_XREC_ROUNDTRIP
360
3A7
  0
DICTIONARY
  5
3AE
330
36
100
AcDbDictionary
280
     1
281
     1
  3
ACAD_XREC_ROUNDTRIP
360
3AF
  0
DICTIONARY
  5
3B6
330
3A
100
AcDbDictionary
280
     1
281
     1
  3
ACAD_XREC_ROUNDTRIP
360
3B7
  0
DICTIONARY
  5
3AA
330
34
100
AcDbDictionary
280
     1
281
     1
  3
ACAD_XREC_ROUNDTRIP
360
3AB
  0
DICTIONARY
  5
3AC
330
35
100
AcDbDictionary
280
     1
281
     1
  3
ACAD_XREC_ROUNDTRIP
360
3AD
  0
DICTIONARY
  5
3CA
330
264
100
AcDbDictionary
280
     1
281
     1
  3
ACAD_XREC_ROUNDTRIP
360
3CB
  0
DICTIONARY
  5
3B4
330
39
100
AcDbDictionary
280
     1
281
     1
  3
ACAD_XREC_ROUNDTRIP
360
3B5
  0
DICTIONARY
  5
398
330
2B
100
AcDbDictionary
280
     1
281
     1
  3
ACAD_XREC_ROUNDTRIP
360
399
  0
DICTIONARY
  5
39A
330
2C
100
AcDbDictionary
280
     1
281
     1
  3
ACAD_XREC_ROUNDTRIP
360
39B
  0
DICTIONARY
  5
39C
330
2D
100
AcDbDictionary
280
     1
281
     1
  3
ACAD_XREC_ROUNDTRIP
360
39D
  0
DICTIONARY
  5
39E
330
2E
100
AcDbDictionary
280
     1
281
     1
  3
ACAD_XREC_ROUNDTRIP
360
39F
  0
DICTIONARY
  5
3BA
330
25C
100
AcDbDictionary
280
     1
281
     1
  3
ACAD_XREC_ROUNDTRIP
360
3BB
  0
DICTIONARY
  5
3C6
330
262
100
AcDbDictionary
280
     1
281
     1
  3
ACAD_XREC_ROUNDTRIP
360
3C7
  0
DICTIONARY
  5
3B2
330
38
100
AcDbDictionary
280
     1
281
     1
  3
ACAD_XREC_ROUNDTRIP
360
3B3
  0
DICTIONARY
  5
3C8
330
263
100
AcDbDictionary
280
     1
281
     1
  3
ACAD_XREC_ROUNDTRIP
360
3C9
  0
DICTIONARY
  5
3A8
330
33
100
AcDbDictionary
280
     1
281
     1
  3
ACAD_XREC_ROUNDTRIP
360
3A9
  0
DICTIONARY
  5
3C4
330
261
100
AcDbDictionary
280
     1
281
     1
  3
ACAD_XREC_ROUNDTRIP
360
3C5
  0
DICTIONARY
  5
3C2
330
260
100
AcDbDictionary
280
     1
281
     1
  3
ACAD_XREC_ROUNDTRIP
360
3C3
  0
DICTIONARY
  5
3BC
330
25D
100
AcDbDictionary
280
     1
281
     1
  3
ACAD_XREC_ROUNDTRIP
360
3BD
  0
DICTIONARY
  5
3BE
330
25E
100
AcDbDictionary
280
     1
281
     1
  3
ACAD_XREC_ROUNDTRIP
360
3BF
  0
DICTIONARY
  5
3B0
330
37
100
AcDbDictionary
280
     1
281
     1
  3
ACAD_XREC_ROUNDTRIP
360
3B1
  0
DICTIONARY
  5
3B8
330
25B
100
AcDbDictionary
280
     1
281
     1
  3
ACAD_XREC_ROUNDTRIP
360
3B9
  0
DICTIONARY
  5
3C0
330
25F
100
AcDbDictionary
280
     1
281
     1
  3
ACAD_XREC_ROUNDTRIP
360
3C1
  0
XRECORD
  5
3D3
102
{ACAD_REACTORS
330
3D2
102
}
330
3D2
100
AcDbXrecord
280
     1
102
DISPLAYNAME
  1
Imperial24
102
FLAGS
 90
        0
  0
XRECORD
  5
3CF
102
{ACAD_REACTORS
330
3CE
102
}
330
3CE
100
AcDbXrecord
280
     1
102
DISPLAYNAME
  1
Metric50
102
FLAGS
 90
        0
  0
XRECORD
  5
254
102
{ACAD_REACTORS
330
253
102
}
330
253
100
AcDbXrecord
280
     1
102
MATERIAL
148
0.0
149
0.0
149
0.0
 93
        0
 94
      127
282
     0
 72
     1
 77
     1
171
     1
175
     1
179
     1
273
     0
  0
XRECORD
  5
252
102
{ACAD_REACTORS
330
251
102
}
330
251
100
AcDbXrecord
280
     1
102
MATERIAL
148
0.0
149
0.0
149
0.0
 93
        0
 94
      127
282
     0
 72
     1
 77
     1
171
     1
175
     1
179
     1
273
     0
  0
XRECORD
  5
256
102
{ACAD_REACTORS
330
255
102
}
330
255
100
AcDbXrecord
280
     1
102
MATERIAL
148
0.0
149
0.0
149
0.0
 93
        0
 94
      127
282
     0
 72
     1
 77
     1
171
     1
175
     1
179
     1
273
     0
  0
XRECORD
  5
3D1
102
{ACAD_REACTORS
330
3D0
102
}
330
3D0
100
AcDbXrecord
280
     1
102
DISPLAYNAME
  1
Imperial24
102
FLAGS
 90
        0
  0
XRECORD
  5
3CD
102
{ACAD_REACTORS
330
3CC
102
}
330
3CC
100
AcDbXrecord
280
     1
102
DISPLAYNAME
  1
Metric50
102
FLAGS
 90
        0
  0
CELLSTYLEMAP
  5
396
102
{ACAD_REACTORS
330
316
102
}
330
316
100
AcDbCellStyleMap
 90
        3
300
CELLSTYLE
  1
TABLEFORMAT_BEGIN
 90
        5
170
     1
 91
        0
 92
    32768
 62
   257
 93
        1
300
CONTENTFORMAT
  1
CONTENTFORMAT_BEGIN
 90
        0
 91
        0
 92
      512
 93
        0
300

 40
0.0
140
1.0
 94
        5
 62
     0
340
11
144
6.0
309
CONTENTFORMAT_END
171
     1
301
MARGIN
  1
CELLMARGIN_BEGIN
 40
1.5
 40
1.5
 40
1.5
 40
1.5
 40
0.18
 40
0.18
309
CELLMARGIN_END
 94
        6
 95
        1
302
GRIDFORMAT
  1
GRIDFORMAT_BEGIN
 90
        0
 91
        1
 62
     0
 92
       -2
340
0
 93
        0
 40
1.125
309
GRIDFORMAT_END
 95
        2
302
GRIDFORMAT
  1
GRIDFORMAT_BEGIN
 90
        0
 91
        1
 62
     0
 92
       -2
340
0
 93
        0
 40
1.125
309
GRIDFORMAT_END
 95
        4
302
GRIDFORMAT
  1
GRIDFORMAT_BEGIN
 90
        0
 91
        1
 62
     0
 92
       -2
340
0
 93
        0
 40
1.125
309
GRIDFORMAT_END
 95
        8
302
GRIDFORMAT
  1
GRIDFORMAT_BEGIN
 90
        0
 91
        1
 62
     0
 92
       -2
340
0
 93
        0
 40
1.125
309
GRIDFORMAT_END
 95
       16
302
GRIDFORMAT
  1
GRIDFORMAT_BEGIN
 90
        0
 91
        1
 62
     0
 92
       -2
340
0
 93
        0
 40
1.125
309
GRIDFORMAT_END
 95
       32
302
GRIDFORMAT
  1
GRIDFORMAT_BEGIN
 90
        0
 91
        1
 62
     0
 92
       -2
340
0
 93
        0
 40
1.125
309
GRIDFORMAT_END
309
TABLEFORMAT_END
  1
CELLSTYLE_BEGIN
 90
        1
 91
        1
300
_TITLE
309
CELLSTYLE_END
300
CELLSTYLE
  1
TABLEFORMAT_BEGIN
 90
        5
170
     1
 91
        0
 92
        0
 62
   257
 93
        1
300
CONTENTFORMAT
  1
CONTENTFORMAT_BEGIN
 90
        0
 91
        0
 92
      512
 93
        0
300

 40
0.0
140
1.0
 94
        5
 62
     0
340
11
144
4.5
309
CONTENTFORMAT_END
171
     1
301
MARGIN
  1
CELLMARGIN_BEGIN
 40
1.5
 40
1.5
 40
1.5
 40
1.5
 40
0.18
 40
0.18
309
CELLMARGIN_END
 94
        6
 95
        1
302
GRIDFORMAT
  1
GRIDFORMAT_BEGIN
 90
        0
 91
        1
 62
     0
 92
       -2
340
0
 93
        0
 40
1.125
309
GRIDFORMAT_END
 95
        2
302
GRIDFORMAT
  1
GRIDFORMAT_BEGIN
 90
        0
 91
        1
 62
     0
 92
       -2
340
0
 93
        0
 40
1.125
309
GRIDFORMAT_END
 95
        4
302
GRIDFORMAT
  1
GRIDFORMAT_BEGIN
 90
        0
 91
        1
 62
     0
 92
       -2
340
0
 93
        0
 40
1.125
309
GRIDFORMAT_END
 95
        8
302
GRIDFORMAT
  1
GRIDFORMAT_BEGIN
 90
        0
 91
        1
 62
     0
 92
       -2
340
0
 93
        0
 40
1.125
309
GRIDFORMAT_END
 95
       16
302
GRIDFORMAT
  1
GRIDFORMAT_BEGIN
 90
        0
 91
        1
 62
     0
 92
       -2
340
0
 93
        0
 40
1.125
309
GRIDFORMAT_END
 95
       32
302
GRIDFORMAT
  1
GRIDFORMAT_BEGIN
 90
        0
 91
        1
 62
     0
 92
       -2
340
0
 93
        0
 40
1.125
309
GRIDFORMAT_END
309
TABLEFORMAT_END
  1
CELLSTYLE_BEGIN
 90
        2
 91
        1
300
_HEADER
309
CELLSTYLE_END
300
CELLSTYLE
  1
TABLEFORMAT_BEGIN
 90
        5
170
     1
 91
        0
 92
        0
 62
   257
 93
        1
300
CONTENTFORMAT
  1
CONTENTFORMAT_BEGIN
 90
        0
 91
        0
 92
      512
 93
        0
300

 40
0.0
140
1.0
 94
        2
 62
     0
340
11
144
4.5
309
CONTENTFORMAT_END
171
     1
301
MARGIN
  1
CELLMARGIN_BEGIN
 40
1.5
 40
1.5
 40
1.5
 40
1.5
 40
0.18
 40
0.18
309
CELLMARGIN_END
 94
        6
 95
        1
302
GRIDFORMAT
  1
GRIDFORMAT_BEGIN
 90
        0
 91
        1
 62
     0
 92
       -2
340
0
 93
        0
 40
1.125
309
GRIDFORMAT_END
 95
        2
302
GRIDFORMAT
  1
GRIDFORMAT_BEGIN
 90
        0
 91
        1
 62
     0
 92
       -2
340
0
 93
        0
 40
1.125
309
GRIDFORMAT_END
 95
        4
302
GRIDFORMAT
  1
GRIDFORMAT_BEGIN
 90
        0
 91
        1
 62
     0
 92
       -2
340
0
 93
        0
 40
1.125
309
GRIDFORMAT_END
 95
        8
302
GRIDFORMAT
  1
GRIDFORMAT_BEGIN
 90
        0
 91
        1
 62
     0
 92
       -2
340
0
 93
        0
 40
1.125
309
GRIDFORMAT_END
 95
       16
302
GRIDFORMAT
  1
GRIDFORMAT_BEGIN
 90
        0
 91
        1
 62
     0
 92
       -2
340
0
 93
        0
 40
1.125
309
GRIDFORMAT_END
 95
       32
302
GRIDFORMAT
  1
GRIDFORMAT_BEGIN
 90
        0
 91
        1
 62
     0
 92
       -2
340
0
 93
        0
 40
1.125
309
GRIDFORMAT_END
309
TABLEFORMAT_END
  1
CELLSTYLE_BEGIN
 90
        3
 91
        2
300
_DATA
309
CELLSTYLE_END
  0
XRECORD
  5
3A1
102
{ACAD_REACTORS
330
3A0
102
}
330
3A0
100
AcDbXrecord
280
     1
102
RTVSPost2010Prop28
280
     1
102
RTVSPost2010PropOp28
 70
     1
102
RTVSPost2010Prop29
280
     1
102
RTVSPost2010PropOp29
 70
     1
102
RTVSPost2010Prop30
280
     0
102
RTVSPost2010PropOp30
 70
     1
102
RTVSPost2010Prop31
280
     0
102
RTVSPost2010PropOp31
 70
     1
102
RTVSPost2010Prop32
280
     0
102
RTVSPost2010PropOp32
 70
     1
102
RTVSPost2010Prop33
280
     0
102
RTVSPost2010PropOp33
 70
     1
102
RTVSPost2010Prop34
280
     0
102
RTVSPost2010PropOp34
 70
     1
102
RTVSPost2010Prop35
280
     0
102
RTVSPost2010PropOp35
 70
     1
102
RTVSPost2010Prop36
280
     0
102
RTVSPost2010PropOp36
 70
     1
102
RTVSPost2010Prop37
 90
       50
102
RTVSPost2010PropOp37
 70
     1
102
RTVSPost2010Prop38
140
0.0
102
RTVSPost2010PropOp38
 70
     1
102
RTVSPost2010Prop39
140
1.0
102
RTVSPost2010PropOp39
 70
     1
102
RTVSPost2010Prop40
 90
        0
102
RTVSPost2010PropOp40
 70
     1
102
RTVSPost2010Prop41ColorIndex
 90
       18
102
RTVSPost2010Prop41ColorRGB
 90
        0
102
RTVSPost2010PropOp41
 70
     1
102
RTVSPost2010Prop42
 90
       50
102
RTVSPost2010PropOp42
 70
     1
102
RTVSPost2010Prop43
 90
        3
102
RTVSPost2010PropOp43
 70
     1
102
RTVSPost2010Prop44ColorIndex
 90
        5
102
RTVSPost2010Prop44ColorRGB
 90
      255
102
RTVSPost2010PropOp44
 70
     1
102
RTVSPost2010Prop45
280
     0
102
RTVSPost2010PropOp45
 70
     1
102
RTVSPost2010Prop46
 90
       50
102
RTVSPost2010PropOp46
 70
     1
102
RTVSPost2010Prop47
 90
       50
102
RTVSPost2010PropOp47
 70
     1
102
RTVSPost2010Prop48
 90
       50
102
RTVSPost2010PropOp48
 70
     1
102
RTVSPost2010Prop49
280
     0
102
RTVSPost2010PropOp49
 70
     1
102
RTVSPost2010Prop50
 90
       50
102
RTVSPost2010PropOp50
 70
     1
102
RTVSPost2010Prop51ColorIndex
 90
      256
102
RTVSPost2010Prop51ColorRGB
 90
-16777216
102
RTVSPost2010PropOp51
 70
     0
102
RTVSPost2010Prop52
140
1.0
102
RTVSPost2010PropOp52
 70
     0
102
RTVSPost2010Prop53
 90
        2
102
RTVSPost2010PropOp53
 70
     1
102
RTVSPost2010Prop54
  1
strokes_ogs.tif
102
RTVSPost2010PropOp54
 70
     1
102
RTVSPost2010Prop55
280
     0
102
RTVSPost2010PropOp55
 70
     1
102
RTVSPost2010Prop56
140
1.0
102
RTVSPost2010PropOp56
 70
     1
102
RTVSPost2010Prop57
140
1.0
102
RTVSPost2010PropOp57
 70
     1
  0
XRECORD
  5
3A5
102
{ACAD_REACTORS
330
3A4
102
}
330
3A4
100
AcDbXrecord
280
     1
102
RTVSPost2010Prop28
280
     0
102
RTVSPost2010PropOp28
 70
     1
102
RTVSPost2010Prop29
280
     1
102
RTVSPost2010PropOp29
 70
     1
102
RTVSPost2010Prop30
280
     1
102
RTVSPost2010PropOp30
 70
     1
102
RTVSPost2010Prop31
280
     0
102
RTVSPost2010PropOp31
 70
     1
102
RTVSPost2010Prop32
280
     0
102
RTVSPost2010PropOp32
 70
     1
102
RTVSPost2010Prop33
280
     0
102
RTVSPost2010PropOp33
 70
     1
102
RTVSPost2010Prop34
280
     0
102
RTVSPost2010PropOp34
 70
     1
102
RTVSPost2010Prop35
280
     0
102
RTVSPost2010PropOp35
 70
     1
102
RTVSPost2010Prop36
280
     0
102
RTVSPost2010PropOp36
 70
     1
102
RTVSPost2010Prop37
 90
       50
102
RTVSPost2010PropOp37
 70
     1
102
RTVSPost2010Prop38
140
0.0
102
RTVSPost2010PropOp38
 70
     1
102
RTVSPost2010Prop39
140
1.0
102
RTVSPost2010PropOp39
 70
     1
102
RTVSPost2010Prop40
 90
        0
102
RTVSPost2010PropOp40
 70
     1
102
RTVSPost2010Prop41ColorIndex
 90
       18
102
RTVSPost2010Prop41ColorRGB
 90
        0
102
RTVSPost2010PropOp41
 70
     1
102
RTVSPost2010Prop42
 90
       50
102
RTVSPost2010PropOp42
 70
     1
102
RTVSPost2010Prop43
 90
        3
102
RTVSPost2010PropOp43
 70
     1
102
RTVSPost2010Prop44ColorIndex
 90
        5
102
RTVSPost2010Prop44ColorRGB
 90
      255
102
RTVSPost2010PropOp44
 70
     1
102
RTVSPost2010Prop45
280
     0
102
RTVSPost2010PropOp45
 70
     1
102
RTVSPost2010Prop46
 90
       50
102
RTVSPost2010PropOp46
 70
     1
102
RTVSPost2010Prop47
 90
       50
102
RTVSPost2010PropOp47
 70
     1
102
RTVSPost2010Prop48
 90
       50
102
RTVSPost2010PropOp48
 70
     1
102
RTVSPost2010Prop49
280
     0
102
RTVSPost2010PropOp49
 70
     1
102
RTVSPost2010Prop50
 90
       50
102
RTVSPost2010PropOp50
 70
     1
102
RTVSPost2010Prop51ColorIndex
 90
      256
102
RTVSPost2010Prop51ColorRGB
 90
-16777216
102
RTVSPost2010PropOp51
 70
     0
102
RTVSPost2010Prop52
140
1.0
102
RTVSPost2010PropOp52
 70
     0
102
RTVSPost2010Prop53
 90
        2
102
RTVSPost2010PropOp53
 70
     1
102
RTVSPost2010Prop54
  1
strokes_ogs.tif
102
RTVSPost2010PropOp54
 70
     1
102
RTVSPost2010Prop55
280
     0
102
RTVSPost2010PropOp55
 70
     1
102
RTVSPost2010Prop56
140
1.0
102
RTVSPost2010PropOp56
 70
     1
102
RTVSPost2010Prop57
140
1.0
102
RTVSPost2010PropOp57
 70
     1
  0
XRECORD
  5
3A3
102
{ACAD_REACTORS
330
3A2
102
}
330
3A2
100
AcDbXrecord
280
     1
102
RTVSPost2010Prop28
280
     0
102
RTVSPost2010PropOp28
 70
     1
102
RTVSPost2010Prop29
280
     1
102
RTVSPost2010PropOp29
 70
     1
102
RTVSPost2010Prop30
280
     1
102
RTVSPost2010PropOp30
 70
     1
102
RTVSPost2010Prop31
280
     0
102
RTVSPost2010PropOp31
 70
     1
102
RTVSPost2010Prop32
280
     0
102
RTVSPost2010PropOp32
 70
     1
102
RTVSPost2010Prop33
280
     0
102
RTVSPost2010PropOp33
 70
     1
102
RTVSPost2010Prop34
280
     0
102
RTVSPost2010PropOp34
 70
     1
102
RTVSPost2010Prop35
280
     0
102
RTVSPost2010PropOp35
 70
     1
102
RTVSPost2010Prop36
280
     0
102
RTVSPost2010PropOp36
 70
     1
102
RTVSPost2010Prop37
 90
       50
102
RTVSPost2010PropOp37
 70
     1
102
RTVSPost2010Prop38
140
0.0
102
RTVSPost2010PropOp38
 70
     1
102
RTVSPost2010Prop39
140
1.0
102
RTVSPost2010PropOp39
 70
     1
102
RTVSPost2010Prop40
 90
        0
102
RTVSPost2010PropOp40
 70
     1
102
RTVSPost2010Prop41ColorIndex
 90
       18
102
RTVSPost2010Prop41ColorRGB
 90
        0
102
RTVSPost2010PropOp41
 70
     1
102
RTVSPost2010Prop42
 90
       50
102
RTVSPost2010PropOp42
 70
     1
102
RTVSPost2010Prop43
 90
        3
102
RTVSPost2010PropOp43
 70
     1
102
RTVSPost2010Prop44ColorIndex
 90
        5
102
RTVSPost2010Prop44ColorRGB
 90
      255
102
RTVSPost2010PropOp44
 70
     1
102
RTVSPost2010Prop45
280
     0
102
RTVSPost2010PropOp45
 70
     1
102
RTVSPost2010Prop46
 90
       50
102
RTVSPost2010PropOp46
 70
     1
102
RTVSPost2010Prop47
 90
       50
102
RTVSPost2010PropOp47
 70
     1
102
RTVSPost2010Prop48
 90
       50
102
RTVSPost2010PropOp48
 70
     1
102
RTVSPost2010Prop49
280
     0
102
RTVSPost2010PropOp49
 70
     1
102
RTVSPost2010Prop50
 90
       50
102
RTVSPost2010PropOp50
 70
     1
102
RTVSPost2010Prop51ColorIndex
 90
      256
102
RTVSPost2010Prop51ColorRGB
 90
-16777216
102
RTVSPost2010PropOp51
 70
     0
102
RTVSPost2010Prop52
140
1.0
102
RTVSPost2010PropOp52
 70
     0
102
RTVSPost2010Prop53
 90
        2
102
RTVSPost2010PropOp53
 70
     1
102
RTVSPost2010Prop54
  1
strokes_ogs.tif
102
RTVSPost2010PropOp54
 70
     1
102
RTVSPost2010Prop55
280
     0
102
RTVSPost2010PropOp55
 70
     1
102
RTVSPost2010Prop56
140
1.0
102
RTVSPost2010PropOp56
 70
     1
102
RTVSPost2010Prop57
140
1.0
102
RTVSPost2010PropOp57
 70
     1
  0
XRECORD
  5
3A7
102
{ACAD_REACTORS
330
3A6
102
}
330
3A6
100
AcDbXrecord
280
     1
102
RTVSPost2010Prop28
280
     0
102
RTVSPost2010PropOp28
 70
     1
102
RTVSPost2010Prop29
280
     1
102
RTVSPost2010PropOp29
 70
     1
102
RTVSPost2010Prop30
280
     1
102
RTVSPost2010PropOp30
 70
     1
102
RTVSPost2010Prop31
280
     0
102
RTVSPost2010PropOp31
 70
     1
102
RTVSPost2010Prop32
280
     0
102
RTVSPost2010PropOp32
 70
     1
102
RTVSPost2010Prop33
280
     0
102
RTVSPost2010PropOp33
 70
     1
102
RTVSPost2010Prop34
280
     0
102
RTVSPost2010PropOp34
 70
     1
102
RTVSPost2010Prop35
280
     0
102
RTVSPost2010PropOp35
 70
     1
102
RTVSPost2010Prop36
280
     0
102
RTVSPost2010PropOp36
 70
     1
102
RTVSPost2010Prop37
 90
       50
102
RTVSPost2010PropOp37
 70
     1
102
RTVSPost2010Prop38
140
0.0
102
RTVSPost2010PropOp38
 70
     1
102
RTVSPost2010Prop39
140
1.0
102
RTVSPost2010PropOp39
 70
     1
102
RTVSPost2010Prop40
 90
        0
102
RTVSPost2010PropOp40
 70
     1
102
RTVSPost2010Prop41ColorIndex
 90
       18
102
RTVSPost2010Prop41ColorRGB
 90
        0
102
RTVSPost2010PropOp41
 70
     1
102
RTVSPost2010Prop42
 90
       50
102
RTVSPost2010PropOp42
 70
     1
102
RTVSPost2010Prop43
 90
        3
102
RTVSPost2010PropOp43
 70
     1
102
RTVSPost2010Prop44ColorIndex
 90
        5
102
RTVSPost2010Prop44ColorRGB
 90
      255
102
RTVSPost2010PropOp44
 70
     1
102
RTVSPost2010Prop45
280
     0
102
RTVSPost2010PropOp45
 70
     1
102
RTVSPost2010Prop46
 90
       50
102
RTVSPost2010PropOp46
 70
     1
102
RTVSPost2010Prop47
 90
       50
102
RTVSPost2010PropOp47
 70
     1
102
RTVSPost2010Prop48
 90
       50
102
RTVSPost2010PropOp48
 70
     1
102
RTVSPost2010Prop49
280
     0
102
RTVSPost2010PropOp49
 70
     1
102
RTVSPost2010Prop50
 90
       50
102
RTVSPost2010PropOp50
 70
     1
102
RTVSPost2010Prop51ColorIndex
 90
      256
102
RTVSPost2010Prop51ColorRGB
 90
-16777216
102
RTVSPost2010PropOp51
 70
     0
102
RTVSPost2010Prop52
140
1.0
102
RTVSPost2010PropOp52
 70
     0
102
RTVSPost2010Prop53
 90
        2
102
RTVSPost2010PropOp53
 70
     1
102
RTVSPost2010Prop54
  1
strokes_ogs.tif
102
RTVSPost2010PropOp54
 70
     1
102
RTVSPost2010Prop55
280
     0
102
RTVSPost2010PropOp55
 70
     1
102
RTVSPost2010Prop56
140
1.0
102
RTVSPost2010PropOp56
 70
     1
102
RTVSPost2010Prop57
140
1.0
102
RTVSPost2010PropOp57
 70
     1
  0
XRECORD
  5
3AF
102
{ACAD_REACTORS
330
3AE
102
}
330
3AE
100
AcDbXrecord
280
     1
102
RTVSPost2010Prop28
280
     0
102
RTVSPost2010PropOp28
 70
     1
102
RTVSPost2010Prop29
280
     1
102
RTVSPost2010PropOp29
 70
     1
102
RTVSPost2010Prop30
280
     1
102
RTVSPost2010PropOp30
 70
     1
102
RTVSPost2010Prop31
280
     0
102
RTVSPost2010PropOp31
 70
     1
102
RTVSPost2010Prop32
280
     0
102
RTVSPost2010PropOp32
 70
     1
102
RTVSPost2010Prop33
280
     0
102
RTVSPost2010PropOp33
 70
     1
102
RTVSPost2010Prop34
280
     0
102
RTVSPost2010PropOp34
 70
     1
102
RTVSPost2010Prop35
280
     0
102
RTVSPost2010PropOp35
 70
     1
102
RTVSPost2010Prop36
280
     0
102
RTVSPost2010PropOp36
 70
     1
102
RTVSPost2010Prop37
 90
       50
102
RTVSPost2010PropOp37
 70
     1
102
RTVSPost2010Prop38
140
0.0
102
RTVSPost2010PropOp38
 70
     1
102
RTVSPost2010Prop39
140
1.0
102
RTVSPost2010PropOp39
 70
     1
102
RTVSPost2010Prop40
 90
        0
102
RTVSPost2010PropOp40
 70
     1
102
RTVSPost2010Prop41ColorIndex
 90
       18
102
RTVSPost2010Prop41ColorRGB
 90
        0
102
RTVSPost2010PropOp41
 70
     1
102
RTVSPost2010Prop42
 90
       50
102
RTVSPost2010PropOp42
 70
     1
102
RTVSPost2010Prop43
 90
        3
102
RTVSPost2010PropOp43
 70
     1
102
RTVSPost2010Prop44ColorIndex
 90
        5
102
RTVSPost2010Prop44ColorRGB
 90
      255
102
RTVSPost2010PropOp44
 70
     1
102
RTVSPost2010Prop45
280
     0
102
RTVSPost2010PropOp45
 70
     1
102
RTVSPost2010Prop46
 90
       50
102
RTVSPost2010PropOp46
 70
     1
102
RTVSPost2010Prop47
 90
       50
102
RTVSPost2010PropOp47
 70
     1
102
RTVSPost2010Prop48
 90
       50
102
RTVSPost2010PropOp48
 70
     1
102
RTVSPost2010Prop49
280
     0
102
RTVSPost2010PropOp49
 70
     1
102
RTVSPost2010Prop50
 90
       50
102
RTVSPost2010PropOp50
 70
     1
102
RTVSPost2010Prop51ColorIndex
 90
      256
102
RTVSPost2010Prop51ColorRGB
 90
-16777216
102
RTVSPost2010PropOp51
 70
     0
102
RTVSPost2010Prop52
140
1.0
102
RTVSPost2010PropOp52
 70
     0
102
RTVSPost2010Prop53
 90
        2
102
RTVSPost2010PropOp53
 70
     1
102
RTVSPost2010Prop54
  1
strokes_ogs.tif
102
RTVSPost2010PropOp54
 70
     1
102
RTVSPost2010Prop55
280
     0
102
RTVSPost2010PropOp55
 70
     1
102
RTVSPost2010Prop56
140
1.0
102
RTVSPost2010PropOp56
 70
     1
102
RTVSPost2010Prop57
140
1.0
102
RTVSPost2010PropOp57
 70
     1
  0
XRECORD
  5
3B7
102
{ACAD_REACTORS
330
3B6
102
}
330
3B6
100
AcDbXrecord
280
     1
102
RTVSPost2010Prop28
280
     0
102
RTVSPost2010PropOp28
 70
     1
102
RTVSPost2010Prop29
280
     1
102
RTVSPost2010PropOp29
 70
     1
102
RTVSPost2010Prop30
280
     1
102
RTVSPost2010PropOp30
 70
     1
102
RTVSPost2010Prop31
280
     0
102
RTVSPost2010PropOp31
 70
     1
102
RTVSPost2010Prop32
280
     0
102
RTVSPost2010PropOp32
 70
     1
102
RTVSPost2010Prop33
280
     0
102
RTVSPost2010PropOp33
 70
     1
102
RTVSPost2010Prop34
280
     0
102
RTVSPost2010PropOp34
 70
     1
102
RTVSPost2010Prop35
280
     0
102
RTVSPost2010PropOp35
 70
     1
102
RTVSPost2010Prop36
280
     0
102
RTVSPost2010PropOp36
 70
     1
102
RTVSPost2010Prop37
 90
       50
102
RTVSPost2010PropOp37
 70
     1
102
RTVSPost2010Prop38
140
0.0
102
RTVSPost2010PropOp38
 70
     1
102
RTVSPost2010Prop39
140
1.0
102
RTVSPost2010PropOp39
 70
     1
102
RTVSPost2010Prop40
 90
        0
102
RTVSPost2010PropOp40
 70
     1
102
RTVSPost2010Prop41ColorIndex
 90
       18
102
RTVSPost2010Prop41ColorRGB
 90
        0
102
RTVSPost2010PropOp41
 70
     1
102
RTVSPost2010Prop42
 90
       50
102
RTVSPost2010PropOp42
 70
     1
102
RTVSPost2010Prop43
 90
        3
102
RTVSPost2010PropOp43
 70
     1
102
RTVSPost2010Prop44ColorIndex
 90
        5
102
RTVSPost2010Prop44ColorRGB
 90
      255
102
RTVSPost2010PropOp44
 70
     1
102
RTVSPost2010Prop45
280
     0
102
RTVSPost2010PropOp45
 70
     1
102
RTVSPost2010Prop46
 90
       50
102
RTVSPost2010PropOp46
 70
     1
102
RTVSPost2010Prop47
 90
       50
102
RTVSPost2010PropOp47
 70
     1
102
RTVSPost2010Prop48
 90
       50
102
RTVSPost2010PropOp48
 70
     1
102
RTVSPost2010Prop49
280
     0
102
RTVSPost2010PropOp49
 70
     1
102
RTVSPost2010Prop50
 90
       50
102
RTVSPost2010PropOp50
 70
     1
102
RTVSPost2010Prop51ColorIndex
 90
      256
102
RTVSPost2010Prop51ColorRGB
 90
-16777216
102
RTVSPost2010PropOp51
 70
     0
102
RTVSPost2010Prop52
140
1.0
102
RTVSPost2010PropOp52
 70
     0
102
RTVSPost2010Prop53
 90
        2
102
RTVSPost2010PropOp53
 70
     1
102
RTVSPost2010Prop54
  1
strokes_ogs.tif
102
RTVSPost2010PropOp54
 70
     1
102
RTVSPost2010Prop55
280
     0
102
RTVSPost2010PropOp55
 70
     1
102
RTVSPost2010Prop56
140
1.0
102
RTVSPost2010PropOp56
 70
     1
102
RTVSPost2010Prop57
140
1.0
102
RTVSPost2010PropOp57
 70
     1
  0
XRECORD
  5
3AB
102
{ACAD_REACTORS
330
3AA
102
}
330
3AA
100
AcDbXrecord
280
     1
102
RTVSPost2010Prop28
280
     0
102
RTVSPost2010PropOp28
 70
     1
102
RTVSPost2010Prop29
280
     1
102
RTVSPost2010PropOp29
 70
     1
102
RTVSPost2010Prop30
280
     1
102
RTVSPost2010PropOp30
 70
     1
102
RTVSPost2010Prop31
280
     0
102
RTVSPost2010PropOp31
 70
     1
102
RTVSPost2010Prop32
280
     0
102
RTVSPost2010PropOp32
 70
     1
102
RTVSPost2010Prop33
280
     0
102
RTVSPost2010PropOp33
 70
     1
102
RTVSPost2010Prop34
280
     0
102
RTVSPost2010PropOp34
 70
     1
102
RTVSPost2010Prop35
280
     0
102
RTVSPost2010PropOp35
 70
     1
102
RTVSPost2010Prop36
280
     0
102
RTVSPost2010PropOp36
 70
     1
102
RTVSPost2010Prop37
 90
       50
102
RTVSPost2010PropOp37
 70
     1
102
RTVSPost2010Prop38
140
0.0
102
RTVSPost2010PropOp38
 70
     1
102
RTVSPost2010Prop39
140
1.0
102
RTVSPost2010PropOp39
 70
     1
102
RTVSPost2010Prop40
 90
        0
102
RTVSPost2010PropOp40
 70
     1
102
RTVSPost2010Prop41ColorIndex
 90
       18
102
RTVSPost2010Prop41ColorRGB
 90
        0
102
RTVSPost2010PropOp41
 70
     1
102
RTVSPost2010Prop42
 90
       50
102
RTVSPost2010PropOp42
 70
     1
102
RTVSPost2010Prop43
 90
        3
102
RTVSPost2010PropOp43
 70
     1
102
RTVSPost2010Prop44ColorIndex
 90
        5
102
RTVSPost2010Prop44ColorRGB
 90
      255
102
RTVSPost2010PropOp44
 70
     1
102
RTVSPost2010Prop45
280
     0
102
RTVSPost2010PropOp45
 70
     1
102
RTVSPost2010Prop46
 90
       50
102
RTVSPost2010PropOp46
 70
     1
102
RTVSPost2010Prop47
 90
       50
102
RTVSPost2010PropOp47
 70
     1
102
RTVSPost2010Prop48
 90
       50
102
RTVSPost2010PropOp48
 70
     1
102
RTVSPost2010Prop49
280
     0
102
RTVSPost2010PropOp49
 70
     1
102
RTVSPost2010Prop50
 90
       50
102
RTVSPost2010PropOp50
 70
     1
102
RTVSPost2010Prop51ColorIndex
 90
      256
102
RTVSPost2010Prop51ColorRGB
 90
-16777216
102
RTVSPost2010PropOp51
 70
     0
102
RTVSPost2010Prop52
140
1.0
102
RTVSPost2010PropOp52
 70
     0
102
RTVSPost2010Prop53
 90
        2
102
RTVSPost2010PropOp53
 70
     1
102
RTVSPost2010Prop54
  1
strokes_ogs.tif
102
RTVSPost2010PropOp54
 70
     1
102
RTVSPost2010Prop55
280
     0
102
RTVSPost2010PropOp55
 70
     1
102
RTVSPost2010Prop56
140
1.0
102
RTVSPost2010PropOp56
 70
     1
102
RTVSPost2010Prop57
140
1.0
102
RTVSPost2010PropOp57
 70
     1
  0
XRECORD
  5
3AD
102
{ACAD_REACTORS
330
3AC
102
}
330
3AC
100
AcDbXrecord
280
     1
102
RTVSPost2010Prop28
280
     0
102
RTVSPost2010PropOp28
 70
     1
102
RTVSPost2010Prop29
280
     1
102
RTVSPost2010PropOp29
 70
     1
102
RTVSPost2010Prop30
280
     1
102
RTVSPost2010PropOp30
 70
     1
102
RTVSPost2010Prop31
280
     0
102
RTVSPost2010PropOp31
 70
     1
102
RTVSPost2010Prop32
280
     0
102
RTVSPost2010PropOp32
 70
     1
102
RTVSPost2010Prop33
280
     0
102
RTVSPost2010PropOp33
 70
     1
102
RTVSPost2010Prop34
280
     0
102
RTVSPost2010PropOp34
 70
     1
102
RTVSPost2010Prop35
280
     0
102
RTVSPost2010PropOp35
 70
     1
102
RTVSPost2010Prop36
280
     0
102
RTVSPost2010PropOp36
 70
     1
102
RTVSPost2010Prop37
 90
       50
102
RTVSPost2010PropOp37
 70
     1
102
RTVSPost2010Prop38
140
0.0
102
RTVSPost2010PropOp38
 70
     1
102
RTVSPost2010Prop39
140
1.0
102
RTVSPost2010PropOp39
 70
     1
102
RTVSPost2010Prop40
 90
        0
102
RTVSPost2010PropOp40
 70
     1
102
RTVSPost2010Prop41ColorIndex
 90
       18
102
RTVSPost2010Prop41ColorRGB
 90
        0
102
RTVSPost2010PropOp41
 70
     1
102
RTVSPost2010Prop42
 90
       50
102
RTVSPost2010PropOp42
 70
     1
102
RTVSPost2010Prop43
 90
        3
102
RTVSPost2010PropOp43
 70
     1
102
RTVSPost2010Prop44ColorIndex
 90
        5
102
RTVSPost2010Prop44ColorRGB
 90
      255
102
RTVSPost2010PropOp44
 70
     1
102
RTVSPost2010Prop45
280
     0
102
RTVSPost2010PropOp45
 70
     1
102
RTVSPost2010Prop46
 90
       50
102
RTVSPost2010PropOp46
 70
     1
102
RTVSPost2010Prop47
 90
       50
102
RTVSPost2010PropOp47
 70
     1
102
RTVSPost2010Prop48
 90
       50
102
RTVSPost2010PropOp48
 70
     1
102
RTVSPost2010Prop49
280
     0
102
RTVSPost2010PropOp49
 70
     1
102
RTVSPost2010Prop50
 90
       50
102
RTVSPost2010PropOp50
 70
     1
102
RTVSPost2010Prop51ColorIndex
 90
      256
102
RTVSPost2010Prop51ColorRGB
 90
-16777216
102
RTVSPost2010PropOp51
 70
     0
102
RTVSPost2010Prop52
140
1.0
102
RTVSPost2010PropOp52
 70
     0
102
RTVSPost2010Prop53
 90
        2
102
RTVSPost2010PropOp53
 70
     1
102
RTVSPost2010Prop54
  1
strokes_ogs.tif
102
RTVSPost2010PropOp54
 70
     1
102
RTVSPost2010Prop55
280
     0
102
RTVSPost2010PropOp55
 70
     1
102
RTVSPost2010Prop56
140
1.0
102
RTVSPost2010PropOp56
 70
     1
102
RTVSPost2010Prop57
140
1.0
102
RTVSPost2010PropOp57
 70
     1
  0
XRECORD
  5
3CB
102
{ACAD_REACTORS
330
3CA
102
}
330
3CA
100
AcDbXrecord
280
     1
102
RTVSPost2010Prop28
280
     0
102
RTVSPost2010PropOp28
 70
     1
102
RTVSPost2010Prop29
280
     1
102
RTVSPost2010PropOp29
 70
     1
102
RTVSPost2010Prop30
280
     1
102
RTVSPost2010PropOp30
 70
     1
102
RTVSPost2010Prop31
280
     0
102
RTVSPost2010PropOp31
 70
     1
102
RTVSPost2010Prop32
280
     0
102
RTVSPost2010PropOp32
 70
     1
102
RTVSPost2010Prop33
280
     0
102
RTVSPost2010PropOp33
 70
     1
102
RTVSPost2010Prop34
280
     0
102
RTVSPost2010PropOp34
 70
     1
102
RTVSPost2010Prop35
280
     0
102
RTVSPost2010PropOp35
 70
     1
102
RTVSPost2010Prop36
280
     0
102
RTVSPost2010PropOp36
 70
     1
102
RTVSPost2010Prop37
 90
       50
102
RTVSPost2010PropOp37
 70
     0
102
RTVSPost2010Prop38
140
0.0
102
RTVSPost2010PropOp38
 70
     0
102
RTVSPost2010Prop39
140
1.0
102
RTVSPost2010PropOp39
 70
     0
102
RTVSPost2010Prop40
 90
        0
102
RTVSPost2010PropOp40
 70
     0
102
RTVSPost2010Prop41ColorIndex
 90
       18
102
RTVSPost2010Prop41ColorRGB
 90
        0
102
RTVSPost2010PropOp41
 70
     0
102
RTVSPost2010Prop42
 90
       50
102
RTVSPost2010PropOp42
 70
     0
102
RTVSPost2010Prop43
 90
        3
102
RTVSPost2010PropOp43
 70
     0
102
RTVSPost2010Prop44ColorIndex
 90
        5
102
RTVSPost2010Prop44ColorRGB
 90
      255
102
RTVSPost2010PropOp44
 70
     0
102
RTVSPost2010Prop45
280
     0
102
RTVSPost2010PropOp45
 70
     1
102
RTVSPost2010Prop46
 90
       50
102
RTVSPost2010PropOp46
 70
     0
102
RTVSPost2010Prop47
 90
       50
102
RTVSPost2010PropOp47
 70
     0
102
RTVSPost2010Prop48
 90
       50
102
RTVSPost2010PropOp48
 70
     0
102
RTVSPost2010Prop49
280
     0
102
RTVSPost2010PropOp49
 70
     1
102
RTVSPost2010Prop50
 90
       50
102
RTVSPost2010PropOp50
 70
     0
102
RTVSPost2010Prop51ColorIndex
 90
      256
102
RTVSPost2010Prop51ColorRGB
 90
-16777216
102
RTVSPost2010PropOp51
 70
     0
102
RTVSPost2010Prop52
140
1.0
102
RTVSPost2010PropOp52
 70
     0
102
RTVSPost2010Prop53
 90
        2
102
RTVSPost2010PropOp53
 70
     0
102
RTVSPost2010Prop54
  1
strokes_ogs.tif
102
RTVSPost2010PropOp54
 70
     0
102
RTVSPost2010Prop55
280
     0
102
RTVSPost2010PropOp55
 70
     1
102
RTVSPost2010Prop56
140
1.0
102
RTVSPost2010PropOp56
 70
     0
102
RTVSPost2010Prop57
140
1.0
102
RTVSPost2010PropOp57
 70
     0
  0
XRECORD
  5
3B5
102
{ACAD_REACTORS
330
3B4
102
}
330
3B4
100
AcDbXrecord
280
     1
102
RTVSPost2010Prop28
280
     0
102
RTVSPost2010PropOp28
 70
     1
102
RTVSPost2010Prop29
280
     1
102
RTVSPost2010PropOp29
 70
     1
102
RTVSPost2010Prop30
280
     1
102
RTVSPost2010PropOp30
 70
     1
102
RTVSPost2010Prop31
280
     0
102
RTVSPost2010PropOp31
 70
     1
102
RTVSPost2010Prop32
280
     0
102
RTVSPost2010PropOp32
 70
     1
102
RTVSPost2010Prop33
280
     0
102
RTVSPost2010PropOp33
 70
     1
102
RTVSPost2010Prop34
280
     0
102
RTVSPost2010PropOp34
 70
     1
102
RTVSPost2010Prop35
280
     0
102
RTVSPost2010PropOp35
 70
     1
102
RTVSPost2010Prop36
280
     0
102
RTVSPost2010PropOp36
 70
     1
102
RTVSPost2010Prop37
 90
       50
102
RTVSPost2010PropOp37
 70
     1
102
RTVSPost2010Prop38
140
0.0
102
RTVSPost2010PropOp38
 70
     1
102
RTVSPost2010Prop39
140
1.0
102
RTVSPost2010PropOp39
 70
     1
102
RTVSPost2010Prop40
 90
        0
102
RTVSPost2010PropOp40
 70
     1
102
RTVSPost2010Prop41ColorIndex
 90
       18
102
RTVSPost2010Prop41ColorRGB
 90
        0
102
RTVSPost2010PropOp41
 70
     1
102
RTVSPost2010Prop42
 90
       50
102
RTVSPost2010PropOp42
 70
     1
102
RTVSPost2010Prop43
 90
        3
102
RTVSPost2010PropOp43
 70
     1
102
RTVSPost2010Prop44ColorIndex
 90
        5
102
RTVSPost2010Prop44ColorRGB
 90
      255
102
RTVSPost2010PropOp44
 70
     1
102
RTVSPost2010Prop45
280
     0
102
RTVSPost2010PropOp45
 70
     1
102
RTVSPost2010Prop46
 90
       50
102
RTVSPost2010PropOp46
 70
     1
102
RTVSPost2010Prop47
 90
       50
102
RTVSPost2010PropOp47
 70
     1
102
RTVSPost2010Prop48
 90
       50
102
RTVSPost2010PropOp48
 70
     1
102
RTVSPost2010Prop49
280
     0
102
RTVSPost2010PropOp49
 70
     1
102
RTVSPost2010Prop50
 90
       50
102
RTVSPost2010PropOp50
 70
     1
102
RTVSPost2010Prop51ColorIndex
 90
      256
102
RTVSPost2010Prop51ColorRGB
 90
-16777216
102
RTVSPost2010PropOp51
 70
     0
102
RTVSPost2010Prop52
140
1.0
102
RTVSPost2010PropOp52
 70
     0
102
RTVSPost2010Prop53
 90
        2
102
RTVSPost2010PropOp53
 70
     1
102
RTVSPost2010Prop54
  1
strokes_ogs.tif
102
RTVSPost2010PropOp54
 70
     1
102
RTVSPost2010Prop55
280
     0
102
RTVSPost2010PropOp55
 70
     1
102
RTVSPost2010Prop56
140
1.0
102
RTVSPost2010PropOp56
 70
     1
102
RTVSPost2010Prop57
140
1.0
102
RTVSPost2010PropOp57
 70
     1
  0
XRECORD
  5
399
102
{ACAD_REACTORS
330
398
102
}
330
398
100
AcDbXrecord
280
     1
102
RTVSPost2010Prop28
280
     0
102
RTVSPost2010PropOp28
 70
     1
102
RTVSPost2010Prop29
280
     1
102
RTVSPost2010PropOp29
 70
     1
102
RTVSPost2010Prop30
280
     1
102
RTVSPost2010PropOp30
 70
     1
102
RTVSPost2010Prop31
280
     0
102
RTVSPost2010PropOp31
 70
     1
102
RTVSPost2010Prop32
280
     0
102
RTVSPost2010PropOp32
 70
     1
102
RTVSPost2010Prop33
280
     0
102
RTVSPost2010PropOp33
 70
     1
102
RTVSPost2010Prop34
280
     0
102
RTVSPost2010PropOp34
 70
     1
102
RTVSPost2010Prop35
280
     0
102
RTVSPost2010PropOp35
 70
     1
102
RTVSPost2010Prop36
280
     0
102
RTVSPost2010PropOp36
 70
     1
102
RTVSPost2010Prop37
 90
       50
102
RTVSPost2010PropOp37
 70
     1
102
RTVSPost2010Prop38
140
0.0
102
RTVSPost2010PropOp38
 70
     1
102
RTVSPost2010Prop39
140
1.0
102
RTVSPost2010PropOp39
 70
     1
102
RTVSPost2010Prop40
 90
        0
102
RTVSPost2010PropOp40
 70
     1
102
RTVSPost2010Prop41ColorIndex
 90
       18
102
RTVSPost2010Prop41ColorRGB
 90
        0
102
RTVSPost2010PropOp41
 70
     1
102
RTVSPost2010Prop42
 90
       50
102
RTVSPost2010PropOp42
 70
     1
102
RTVSPost2010Prop43
 90
        3
102
RTVSPost2010PropOp43
 70
     1
102
RTVSPost2010Prop44ColorIndex
 90
        5
102
RTVSPost2010Prop44ColorRGB
 90
      255
102
RTVSPost2010PropOp44
 70
     1
102
RTVSPost2010Prop45
280
     0
102
RTVSPost2010PropOp45
 70
     1
102
RTVSPost2010Prop46
 90
       50
102
RTVSPost2010PropOp46
 70
     1
102
RTVSPost2010Prop47
 90
       50
102
RTVSPost2010PropOp47
 70
     1
102
RTVSPost2010Prop48
 90
       50
102
RTVSPost2010PropOp48
 70
     1
102
RTVSPost2010Prop49
280
     0
102
RTVSPost2010PropOp49
 70
     1
102
RTVSPost2010Prop50
 90
       50
102
RTVSPost2010PropOp50
 70
     1
102
RTVSPost2010Prop51ColorIndex
 90
      256
102
RTVSPost2010Prop51ColorRGB
 90
-16777216
102
RTVSPost2010PropOp51
 70
     0
102
RTVSPost2010Prop52
140
1.0
102
RTVSPost2010PropOp52
 70
     0
102
RTVSPost2010Prop53
 90
        2
102
RTVSPost2010PropOp53
 70
     1
102
RTVSPost2010Prop54
  1
strokes_ogs.tif
102
RTVSPost2010PropOp54
 70
     1
102
RTVSPost2010Prop55
280
     0
102
RTVSPost2010PropOp55
 70
     1
102
RTVSPost2010Prop56
140
1.0
102
RTVSPost2010PropOp56
 70
     1
102
RTVSPost2010Prop57
140
1.0
102
RTVSPost2010PropOp57
 70
     1
  0
XRECORD
  5
39B
102
{ACAD_REACTORS
330
39A
102
}
330
39A
100
AcDbXrecord
280
     1
102
RTVSPost2010Prop28
280
     0
102
RTVSPost2010PropOp28
 70
     1
102
RTVSPost2010Prop29
280
     1
102
RTVSPost2010PropOp29
 70
     1
102
RTVSPost2010Prop30
280
     1
102
RTVSPost2010PropOp30
 70
     1
102
RTVSPost2010Prop31
280
     0
102
RTVSPost2010PropOp31
 70
     1
102
RTVSPost2010Prop32
280
     0
102
RTVSPost2010PropOp32
 70
     1
102
RTVSPost2010Prop33
280
     0
102
RTVSPost2010PropOp33
 70
     1
102
RTVSPost2010Prop34
280
     0
102
RTVSPost2010PropOp34
 70
     1
102
RTVSPost2010Prop35
280
     0
102
RTVSPost2010PropOp35
 70
     1
102
RTVSPost2010Prop36
280
     0
102
RTVSPost2010PropOp36
 70
     1
102
RTVSPost2010Prop37
 90
       50
102
RTVSPost2010PropOp37
 70
     1
102
RTVSPost2010Prop38
140
0.0
102
RTVSPost2010PropOp38
 70
     1
102
RTVSPost2010Prop39
140
1.0
102
RTVSPost2010PropOp39
 70
     1
102
RTVSPost2010Prop40
 90
        0
102
RTVSPost2010PropOp40
 70
     1
102
RTVSPost2010Prop41ColorIndex
 90
       18
102
RTVSPost2010Prop41ColorRGB
 90
        0
102
RTVSPost2010PropOp41
 70
     1
102
RTVSPost2010Prop42
 90
       50
102
RTVSPost2010PropOp42
 70
     1
102
RTVSPost2010Prop43
 90
        3
102
RTVSPost2010PropOp43
 70
     1
102
RTVSPost2010Prop44ColorIndex
 90
        5
102
RTVSPost2010Prop44ColorRGB
 90
      255
102
RTVSPost2010PropOp44
 70
     1
102
RTVSPost2010Prop45
280
     0
102
RTVSPost2010PropOp45
 70
     1
102
RTVSPost2010Prop46
 90
       50
102
RTVSPost2010PropOp46
 70
     1
102
RTVSPost2010Prop47
 90
       50
102
RTVSPost2010PropOp47
 70
     1
102
RTVSPost2010Prop48
 90
       50
102
RTVSPost2010PropOp48
 70
     1
102
RTVSPost2010Prop49
280
     0
102
RTVSPost2010PropOp49
 70
     1
102
RTVSPost2010Prop50
 90
       50
102
RTVSPost2010PropOp50
 70
     1
102
RTVSPost2010Prop51ColorIndex
 90
      256
102
RTVSPost2010Prop51ColorRGB
 90
-16777216
102
RTVSPost2010PropOp51
 70
     0
102
RTVSPost2010Prop52
140
1.0
102
RTVSPost2010PropOp52
 70
     0
102
RTVSPost2010Prop53
 90
        2
102
RTVSPost2010PropOp53
 70
     1
102
RTVSPost2010Prop54
  1
strokes_ogs.tif
102
RTVSPost2010PropOp54
 70
     1
102
RTVSPost2010Prop55
280
     0
102
RTVSPost2010PropOp55
 70
     1
102
RTVSPost2010Prop56
140
1.0
102
RTVSPost2010PropOp56
 70
     1
102
RTVSPost2010Prop57
140
1.0
102
RTVSPost2010PropOp57
 70
     1
  0
XRECORD
  5
39D
102
{ACAD_REACTORS
330
39C
102
}
330
39C
100
AcDbXrecord
280
     1
102
RTVSPost2010Prop28
280
     0
102
RTVSPost2010PropOp28
 70
     1
102
RTVSPost2010Prop29
280
     1
102
RTVSPost2010PropOp29
 70
     1
102
RTVSPost2010Prop30
280
     1
102
RTVSPost2010PropOp30
 70
     1
102
RTVSPost2010Prop31
280
     0
102
RTVSPost2010PropOp31
 70
     1
102
RTVSPost2010Prop32
280
     0
102
RTVSPost2010PropOp32
 70
     1
102
RTVSPost2010Prop33
280
     0
102
RTVSPost2010PropOp33
 70
     1
102
RTVSPost2010Prop34
280
     0
102
RTVSPost2010PropOp34
 70
     1
102
RTVSPost2010Prop35
280
     0
102
RTVSPost2010PropOp35
 70
     1
102
RTVSPost2010Prop36
280
     0
102
RTVSPost2010PropOp36
 70
     1
102
RTVSPost2010Prop37
 90
       50
102
RTVSPost2010PropOp37
 70
     1
102
RTVSPost2010Prop38
140
0.0
102
RTVSPost2010PropOp38
 70
     1
102
RTVSPost2010Prop39
140
1.0
102
RTVSPost2010PropOp39
 70
     1
102
RTVSPost2010Prop40
 90
        0
102
RTVSPost2010PropOp40
 70
     1
102
RTVSPost2010Prop41ColorIndex
 90
       18
102
RTVSPost2010Prop41ColorRGB
 90
        0
102
RTVSPost2010PropOp41
 70
     1
102
RTVSPost2010Prop42
 90
       50
102
RTVSPost2010PropOp42
 70
     1
102
RTVSPost2010Prop43
 90
        3
102
RTVSPost2010PropOp43
 70
     1
102
RTVSPost2010Prop44ColorIndex
 90
        5
102
RTVSPost2010Prop44ColorRGB
 90
      255
102
RTVSPost2010PropOp44
 70
     1
102
RTVSPost2010Prop45
280
     0
102
RTVSPost2010PropOp45
 70
     1
102
RTVSPost2010Prop46
 90
       50
102
RTVSPost2010PropOp46
 70
     1
102
RTVSPost2010Prop47
 90
       50
102
RTVSPost2010PropOp47
 70
     1
102
RTVSPost2010Prop48
 90
       50
102
RTVSPost2010PropOp48
 70
     1
102
RTVSPost2010Prop49
280
     0
102
RTVSPost2010PropOp49
 70
     1
102
RTVSPost2010Prop50
 90
       50
102
RTVSPost2010PropOp50
 70
     1
102
RTVSPost2010Prop51ColorIndex
 90
      256
102
RTVSPost2010Prop51ColorRGB
 90
-16777216
102
RTVSPost2010PropOp51
 70
     0
102
RTVSPost2010Prop52
140
1.0
102
RTVSPost2010PropOp52
 70
     0
102
RTVSPost2010Prop53
 90
        2
102
RTVSPost2010PropOp53
 70
     1
102
RTVSPost2010Prop54
  1
strokes_ogs.tif
102
RTVSPost2010PropOp54
 70
     1
102
RTVSPost2010Prop55
280
     0
102
RTVSPost2010PropOp55
 70
     1
102
RTVSPost2010Prop56
140
1.0
102
RTVSPost2010PropOp56
 70
     1
102
RTVSPost2010Prop57
140
1.0
102
RTVSPost2010PropOp57
 70
     1
  0
XRECORD
  5
39F
102
{ACAD_REACTORS
330
39E
102
}
330
39E
100
AcDbXrecord
280
     1
102
RTVSPost2010Prop28
280
     0
102
RTVSPost2010PropOp28
 70
     1
102
RTVSPost2010Prop29
280
     1
102
RTVSPost2010PropOp29
 70
     1
102
RTVSPost2010Prop30
280
     1
102
RTVSPost2010PropOp30
 70
     1
102
RTVSPost2010Prop31
280
     0
102
RTVSPost2010PropOp31
 70
     1
102
RTVSPost2010Prop32
280
     0
102
RTVSPost2010PropOp32
 70
     1
102
RTVSPost2010Prop33
280
     0
102
RTVSPost2010PropOp33
 70
     1
102
RTVSPost2010Prop34
280
     0
102
RTVSPost2010PropOp34
 70
     1
102
RTVSPost2010Prop35
280
     0
102
RTVSPost2010PropOp35
 70
     1
102
RTVSPost2010Prop36
280
     0
102
RTVSPost2010PropOp36
 70
     1
102
RTVSPost2010Prop37
 90
       50
102
RTVSPost2010PropOp37
 70
     1
102
RTVSPost2010Prop38
140
0.0
102
RTVSPost2010PropOp38
 70
     1
102
RTVSPost2010Prop39
140
1.0
102
RTVSPost2010PropOp39
 70
     1
102
RTVSPost2010Prop40
 90
        0
102
RTVSPost2010PropOp40
 70
     1
102
RTVSPost2010Prop41ColorIndex
 90
       18
102
RTVSPost2010Prop41ColorRGB
 90
        0
102
RTVSPost2010PropOp41
 70
     1
102
RTVSPost2010Prop42
 90
       50
102
RTVSPost2010PropOp42
 70
     1
102
RTVSPost2010Prop43
 90
        3
102
RTVSPost2010PropOp43
 70
     1
102
RTVSPost2010Prop44ColorIndex
 90
        5
102
RTVSPost2010Prop44ColorRGB
 90
      255
102
RTVSPost2010PropOp44
 70
     1
102
RTVSPost2010Prop45
280
     0
102
RTVSPost2010PropOp45
 70
     1
102
RTVSPost2010Prop46
 90
       50
102
RTVSPost2010PropOp46
 70
     1
102
RTVSPost2010Prop47
 90
       50
102
RTVSPost2010PropOp47
 70
     1
102
RTVSPost2010Prop48
 90
       50
102
RTVSPost2010PropOp48
 70
     1
102
RTVSPost2010Prop49
280
     0
102
RTVSPost2010PropOp49
 70
     1
102
RTVSPost2010Prop50
 90
       50
102
RTVSPost2010PropOp50
 70
     1
102
RTVSPost2010Prop51ColorIndex
 90
      256
102
RTVSPost2010Prop51ColorRGB
 90
-16777216
102
RTVSPost2010PropOp51
 70
     0
102
RTVSPost2010Prop52
140
1.0
102
RTVSPost2010PropOp52
 70
     0
102
RTVSPost2010Prop53
 90
        2
102
RTVSPost2010PropOp53
 70
     1
102
RTVSPost2010Prop54
  1
strokes_ogs.tif
102
RTVSPost2010PropOp54
 70
     1
102
RTVSPost2010Prop55
280
     0
102
RTVSPost2010PropOp55
 70
     1
102
RTVSPost2010Prop56
140
1.0
102
RTVSPost2010PropOp56
 70
     1
102
RTVSPost2010Prop57
140
1.0
102
RTVSPost2010PropOp57
 70
     1
  0
XRECORD
  5
3BB
102
{ACAD_REACTORS
330
3BA
102
}
330
3BA
100
AcDbXrecord
280
     1
102
RTVSPost2010Prop28
280
     0
102
RTVSPost2010PropOp28
 70
     1
102
RTVSPost2010Prop29
280
     1
102
RTVSPost2010PropOp29
 70
     1
102
RTVSPost2010Prop30
280
     1
102
RTVSPost2010PropOp30
 70
     1
102
RTVSPost2010Prop31
280
     0
102
RTVSPost2010PropOp31
 70
     1
102
RTVSPost2010Prop32
280
     0
102
RTVSPost2010PropOp32
 70
     1
102
RTVSPost2010Prop33
280
     0
102
RTVSPost2010PropOp33
 70
     1
102
RTVSPost2010Prop34
280
     0
102
RTVSPost2010PropOp34
 70
     1
102
RTVSPost2010Prop35
280
     0
102
RTVSPost2010PropOp35
 70
     1
102
RTVSPost2010Prop36
280
     0
102
RTVSPost2010PropOp36
 70
     1
102
RTVSPost2010Prop37
 90
       50
102
RTVSPost2010PropOp37
 70
     1
102
RTVSPost2010Prop38
140
0.0
102
RTVSPost2010PropOp38
 70
     1
102
RTVSPost2010Prop39
140
1.0
102
RTVSPost2010PropOp39
 70
     1
102
RTVSPost2010Prop40
 90
        0
102
RTVSPost2010PropOp40
 70
     1
102
RTVSPost2010Prop41ColorIndex
 90
       18
102
RTVSPost2010Prop41ColorRGB
 90
        0
102
RTVSPost2010PropOp41
 70
     1
102
RTVSPost2010Prop42
 90
       50
102
RTVSPost2010PropOp42
 70
     1
102
RTVSPost2010Prop43
 90
        3
102
RTVSPost2010PropOp43
 70
     1
102
RTVSPost2010Prop44ColorIndex
 90
        5
102
RTVSPost2010Prop44ColorRGB
 90
      255
102
RTVSPost2010PropOp44
 70
     1
102
RTVSPost2010Prop45
280
     0
102
RTVSPost2010PropOp45
 70
     1
102
RTVSPost2010Prop46
 90
       50
102
RTVSPost2010PropOp46
 70
     1
102
RTVSPost2010Prop47
 90
       50
102
RTVSPost2010PropOp47
 70
     1
102
RTVSPost2010Prop48
 90
       50
102
RTVSPost2010PropOp48
 70
     1
102
RTVSPost2010Prop49
280
     0
102
RTVSPost2010PropOp49
 70
     1
102
RTVSPost2010Prop50
 90
       50
102
RTVSPost2010PropOp50
 70
     1
102
RTVSPost2010Prop51ColorIndex
 90
      256
102
RTVSPost2010Prop51ColorRGB
 90
-16777216
102
RTVSPost2010PropOp51
 70
     0
102
RTVSPost2010Prop52
140
1.0
102
RTVSPost2010PropOp52
 70
     0
102
RTVSPost2010Prop53
 90
        2
102
RTVSPost2010PropOp53
 70
     1
102
RTVSPost2010Prop54
  1
strokes_ogs.tif
102
RTVSPost2010PropOp54
 70
     1
102
RTVSPost2010Prop55
280
     0
102
RTVSPost2010PropOp55
 70
     1
102
RTVSPost2010Prop56
140
1.0
102
RTVSPost2010PropOp56
 70
     1
102
RTVSPost2010Prop57
140
1.0
102
RTVSPost2010PropOp57
 70
     1
  0
XRECORD
  5
3C7
102
{ACAD_REACTORS
330
3C6
102
}
330
3C6
100
AcDbXrecord
280
     1
102
RTVSPost2010Prop28
280
     0
102
RTVSPost2010PropOp28
 70
     1
102
RTVSPost2010Prop29
280
     1
102
RTVSPost2010PropOp29
 70
     1
102
RTVSPost2010Prop30
280
     1
102
RTVSPost2010PropOp30
 70
     1
102
RTVSPost2010Prop31
280
     0
102
RTVSPost2010PropOp31
 70
     1
102
RTVSPost2010Prop32
280
     0
102
RTVSPost2010PropOp32
 70
     1
102
RTVSPost2010Prop33
280
     0
102
RTVSPost2010PropOp33
 70
     1
102
RTVSPost2010Prop34
280
     0
102
RTVSPost2010PropOp34
 70
     1
102
RTVSPost2010Prop35
280
     0
102
RTVSPost2010PropOp35
 70
     1
102
RTVSPost2010Prop36
280
     0
102
RTVSPost2010PropOp36
 70
     1
102
RTVSPost2010Prop37
 90
       50
102
RTVSPost2010PropOp37
 70
     0
102
RTVSPost2010Prop38
140
0.0
102
RTVSPost2010PropOp38
 70
     0
102
RTVSPost2010Prop39
140
1.0
102
RTVSPost2010PropOp39
 70
     0
102
RTVSPost2010Prop40
 90
        0
102
RTVSPost2010PropOp40
 70
     0
102
RTVSPost2010Prop41ColorIndex
 90
       18
102
RTVSPost2010Prop41ColorRGB
 90
        0
102
RTVSPost2010PropOp41
 70
     0
102
RTVSPost2010Prop42
 90
       50
102
RTVSPost2010PropOp42
 70
     0
102
RTVSPost2010Prop43
 90
        3
102
RTVSPost2010PropOp43
 70
     0
102
RTVSPost2010Prop44ColorIndex
 90
        5
102
RTVSPost2010Prop44ColorRGB
 90
      255
102
RTVSPost2010PropOp44
 70
     0
102
RTVSPost2010Prop45
280
     0
102
RTVSPost2010PropOp45
 70
     1
102
RTVSPost2010Prop46
 90
       50
102
RTVSPost2010PropOp46
 70
     0
102
RTVSPost2010Prop47
 90
       50
102
RTVSPost2010PropOp47
 70
     0
102
RTVSPost2010Prop48
 90
       50
102
RTVSPost2010PropOp48
 70
     0
102
RTVSPost2010Prop49
280
     0
102
RTVSPost2010PropOp49
 70
     1
102
RTVSPost2010Prop50
 90
       50
102
RTVSPost2010PropOp50
 70
     0
102
RTVSPost2010Prop51ColorIndex
 90
      256
102
RTVSPost2010Prop51ColorRGB
 90
-16777216
102
RTVSPost2010PropOp51
 70
     0
102
RTVSPost2010Prop52
140
1.0
102
RTVSPost2010PropOp52
 70
     0
102
RTVSPost2010Prop53
 90
        2
102
RTVSPost2010PropOp53
 70
     0
102
RTVSPost2010Prop54
  1
strokes_ogs.tif
102
RTVSPost2010PropOp54
 70
     0
102
RTVSPost2010Prop55
280
     0
102
RTVSPost2010PropOp55
 70
     1
102
RTVSPost2010Prop56
140
1.0
102
RTVSPost2010PropOp56
 70
     0
102
RTVSPost2010Prop57
140
1.0
102
RTVSPost2010PropOp57
 70
     0
  0
XRECORD
  5
3B3
102
{ACAD_REACTORS
330
3B2
102
}
330
3B2
100
AcDbXrecord
280
     1
102
RTVSPost2010Prop28
280
     0
102
RTVSPost2010PropOp28
 70
     1
102
RTVSPost2010Prop29
280
     1
102
RTVSPost2010PropOp29
 70
     1
102
RTVSPost2010Prop30
280
     1
102
RTVSPost2010PropOp30
 70
     1
102
RTVSPost2010Prop31
280
     0
102
RTVSPost2010PropOp31
 70
     1
102
RTVSPost2010Prop32
280
     0
102
RTVSPost2010PropOp32
 70
     1
102
RTVSPost2010Prop33
280
     0
102
RTVSPost2010PropOp33
 70
     1
102
RTVSPost2010Prop34
280
     0
102
RTVSPost2010PropOp34
 70
     1
102
RTVSPost2010Prop35
280
     0
102
RTVSPost2010PropOp35
 70
     1
102
RTVSPost2010Prop36
280
     0
102
RTVSPost2010PropOp36
 70
     1
102
RTVSPost2010Prop37
 90
       50
102
RTVSPost2010PropOp37
 70
     1
102
RTVSPost2010Prop38
140
0.0
102
RTVSPost2010PropOp38
 70
     1
102
RTVSPost2010Prop39
140
1.0
102
RTVSPost2010PropOp39
 70
     1
102
RTVSPost2010Prop40
 90
        0
102
RTVSPost2010PropOp40
 70
     1
102
RTVSPost2010Prop41ColorIndex
 90
       18
102
RTVSPost2010Prop41ColorRGB
 90
        0
102
RTVSPost2010PropOp41
 70
     1
102
RTVSPost2010Prop42
 90
       50
102
RTVSPost2010PropOp42
 70
     1
102
RTVSPost2010Prop43
 90
        3
102
RTVSPost2010PropOp43
 70
     1
102
RTVSPost2010Prop44ColorIndex
 90
        5
102
RTVSPost2010Prop44ColorRGB
 90
      255
102
RTVSPost2010PropOp44
 70
     1
102
RTVSPost2010Prop45
280
     0
102
RTVSPost2010PropOp45
 70
     1
102
RTVSPost2010Prop46
 90
       50
102
RTVSPost2010PropOp46
 70
     1
102
RTVSPost2010Prop47
 90
       50
102
RTVSPost2010PropOp47
 70
     1
102
RTVSPost2010Prop48
 90
       50
102
RTVSPost2010PropOp48
 70
     1
102
RTVSPost2010Prop49
280
     0
102
RTVSPost2010PropOp49
 70
     1
102
RTVSPost2010Prop50
 90
       50
102
RTVSPost2010PropOp50
 70
     1
102
RTVSPost2010Prop51ColorIndex
 90
      256
102
RTVSPost2010Prop51ColorRGB
 90
-16777216
102
RTVSPost2010PropOp51
 70
     0
102
RTVSPost2010Prop52
140
1.0
102
RTVSPost2010PropOp52
 70
     0
102
RTVSPost2010Prop53
 90
        2
102
RTVSPost2010PropOp53
 70
     1
102
RTVSPost2010Prop54
  1
strokes_ogs.tif
102
RTVSPost2010PropOp54
 70
     1
102
RTVSPost2010Prop55
280
     0
102
RTVSPost2010PropOp55
 70
     1
102
RTVSPost2010Prop56
140
1.0
102
RTVSPost2010PropOp56
 70
     1
102
RTVSPost2010Prop57
140
1.0
102
RTVSPost2010PropOp57
 70
     1
  0
XRECORD
  5
3C9
102
{ACAD_REACTORS
330
3C8
102
}
330
3C8
100
AcDbXrecord
280
     1
102
RTVSPost2010Prop28
280
     0
102
RTVSPost2010PropOp28
 70
     1
102
RTVSPost2010Prop29
280
     1
102
RTVSPost2010PropOp29
 70
     1
102
RTVSPost2010Prop30
280
     1
102
RTVSPost2010PropOp30
 70
     1
102
RTVSPost2010Prop31
280
     0
102
RTVSPost2010PropOp31
 70
     1
102
RTVSPost2010Prop32
280
     0
102
RTVSPost2010PropOp32
 70
     1
102
RTVSPost2010Prop33
280
     0
102
RTVSPost2010PropOp33
 70
     1
102
RTVSPost2010Prop34
280
     0
102
RTVSPost2010PropOp34
 70
     1
102
RTVSPost2010Prop35
280
     0
102
RTVSPost2010PropOp35
 70
     1
102
RTVSPost2010Prop36
280
     0
102
RTVSPost2010PropOp36
 70
     1
102
RTVSPost2010Prop37
 90
       50
102
RTVSPost2010PropOp37
 70
     0
102
RTVSPost2010Prop38
140
0.0
102
RTVSPost2010PropOp38
 70
     0
102
RTVSPost2010Prop39
140
1.0
102
RTVSPost2010PropOp39
 70
     0
102
RTVSPost2010Prop40
 90
        0
102
RTVSPost2010PropOp40
 70
     0
102
RTVSPost2010Prop41ColorIndex
 90
       18
102
RTVSPost2010Prop41ColorRGB
 90
        0
102
RTVSPost2010PropOp41
 70
     0
102
RTVSPost2010Prop42
 90
       50
102
RTVSPost2010PropOp42
 70
     0
102
RTVSPost2010Prop43
 90
        3
102
RTVSPost2010PropOp43
 70
     0
102
RTVSPost2010Prop44ColorIndex
 90
        5
102
RTVSPost2010Prop44ColorRGB
 90
      255
102
RTVSPost2010PropOp44
 70
     0
102
RTVSPost2010Prop45
280
     0
102
RTVSPost2010PropOp45
 70
     1
102
RTVSPost2010Prop46
 90
       50
102
RTVSPost2010PropOp46
 70
     0
102
RTVSPost2010Prop47
 90
       50
102
RTVSPost2010PropOp47
 70
     0
102
RTVSPost2010Prop48
 90
       50
102
RTVSPost2010PropOp48
 70
     0
102
RTVSPost2010Prop49
280
     0
102
RTVSPost2010PropOp49
 70
     1
102
RTVSPost2010Prop50
 90
       50
102
RTVSPost2010PropOp50
 70
     0
102
RTVSPost2010Prop51ColorIndex
 90
      256
102
RTVSPost2010Prop51ColorRGB
 90
-16777216
102
RTVSPost2010PropOp51
 70
     0
102
RTVSPost2010Prop52
140
1.0
102
RTVSPost2010PropOp52
 70
     0
102
RTVSPost2010Prop53
 90
        2
102
RTVSPost2010PropOp53
 70
     0
102
RTVSPost2010Prop54
  1
strokes_ogs.tif
102
RTVSPost2010PropOp54
 70
     0
102
RTVSPost2010Prop55
280
     0
102
RTVSPost2010PropOp55
 70
     1
102
RTVSPost2010Prop56
140
1.0
102
RTVSPost2010PropOp56
 70
     0
102
RTVSPost2010Prop57
140
1.0
102
RTVSPost2010PropOp57
 70
     0
  0
XRECORD
  5
3A9
102
{ACAD_REACTORS
330
3A8
102
}
330
3A8
100
AcDbXrecord
280
     1
102
RTVSPost2010Prop28
280
     0
102
RTVSPost2010PropOp28
 70
     1
102
RTVSPost2010Prop29
280
     1
102
RTVSPost2010PropOp29
 70
     1
102
RTVSPost2010Prop30
280
     1
102
RTVSPost2010PropOp30
 70
     1
102
RTVSPost2010Prop31
280
     0
102
RTVSPost2010PropOp31
 70
     1
102
RTVSPost2010Prop32
280
     0
102
RTVSPost2010PropOp32
 70
     1
102
RTVSPost2010Prop33
280
     0
102
RTVSPost2010PropOp33
 70
     1
102
RTVSPost2010Prop34
280
     0
102
RTVSPost2010PropOp34
 70
     1
102
RTVSPost2010Prop35
280
     0
102
RTVSPost2010PropOp35
 70
     1
102
RTVSPost2010Prop36
280
     0
102
RTVSPost2010PropOp36
 70
     1
102
RTVSPost2010Prop37
 90
       50
102
RTVSPost2010PropOp37
 70
     1
102
RTVSPost2010Prop38
140
0.0
102
RTVSPost2010PropOp38
 70
     1
102
RTVSPost2010Prop39
140
1.0
102
RTVSPost2010PropOp39
 70
     1
102
RTVSPost2010Prop40
 90
        0
102
RTVSPost2010PropOp40
 70
     1
102
RTVSPost2010Prop41ColorIndex
 90
       18
102
RTVSPost2010Prop41ColorRGB
 90
        0
102
RTVSPost2010PropOp41
 70
     1
102
RTVSPost2010Prop42
 90
       50
102
RTVSPost2010PropOp42
 70
     1
102
RTVSPost2010Prop43
 90
        3
102
RTVSPost2010PropOp43
 70
     1
102
RTVSPost2010Prop44ColorIndex
 90
        5
102
RTVSPost2010Prop44ColorRGB
 90
      255
102
RTVSPost2010PropOp44
 70
     1
102
RTVSPost2010Prop45
280
     0
102
RTVSPost2010PropOp45
 70
     1
102
RTVSPost2010Prop46
 90
       50
102
RTVSPost2010PropOp46
 70
     1
102
RTVSPost2010Prop47
 90
       50
102
RTVSPost2010PropOp47
 70
     1
102
RTVSPost2010Prop48
 90
       50
102
RTVSPost2010PropOp48
 70
     1
102
RTVSPost2010Prop49
280
     0
102
RTVSPost2010PropOp49
 70
     1
102
RTVSPost2010Prop50
 90
       50
102
RTVSPost2010PropOp50
 70
     1
102
RTVSPost2010Prop51ColorIndex
 90
      256
102
RTVSPost2010Prop51ColorRGB
 90
-16777216
102
RTVSPost2010PropOp51
 70
     0
102
RTVSPost2010Prop52
140
1.0
102
RTVSPost2010PropOp52
 70
     0
102
RTVSPost2010Prop53
 90
        2
102
RTVSPost2010PropOp53
 70
     1
102
RTVSPost2010Prop54
  1
strokes_ogs.tif
102
RTVSPost2010PropOp54
 70
     1
102
RTVSPost2010Prop55
280
     0
102
RTVSPost2010PropOp55
 70
     1
102
RTVSPost2010Prop56
140
1.0
102
RTVSPost2010PropOp56
 70
     1
102
RTVSPost2010Prop57
140
1.0
102
RTVSPost2010PropOp57
 70
     1
  0
XRECORD
  5
3C5
102
{ACAD_REACTORS
330
3C4
102
}
330
3C4
100
AcDbXrecord
280
     1
102
RTVSPost2010Prop28
280
     0
102
RTVSPost2010PropOp28
 70
     1
102
RTVSPost2010Prop29
280
     1
102
RTVSPost2010PropOp29
 70
     1
102
RTVSPost2010Prop30
280
     1
102
RTVSPost2010PropOp30
 70
     1
102
RTVSPost2010Prop31
280
     0
102
RTVSPost2010PropOp31
 70
     1
102
RTVSPost2010Prop32
280
     0
102
RTVSPost2010PropOp32
 70
     1
102
RTVSPost2010Prop33
280
     0
102
RTVSPost2010PropOp33
 70
     1
102
RTVSPost2010Prop34
280
     0
102
RTVSPost2010PropOp34
 70
     1
102
RTVSPost2010Prop35
280
     0
102
RTVSPost2010PropOp35
 70
     1
102
RTVSPost2010Prop36
280
     0
102
RTVSPost2010PropOp36
 70
     1
102
RTVSPost2010Prop37
 90
       50
102
RTVSPost2010PropOp37
 70
     1
102
RTVSPost2010Prop38
140
0.0
102
RTVSPost2010PropOp38
 70
     1
102
RTVSPost2010Prop39
140
1.0
102
RTVSPost2010PropOp39
 70
     1
102
RTVSPost2010Prop40
 90
        0
102
RTVSPost2010PropOp40
 70
     1
102
RTVSPost2010Prop41ColorIndex
 90
       18
102
RTVSPost2010Prop41ColorRGB
 90
        0
102
RTVSPost2010PropOp41
 70
     1
102
RTVSPost2010Prop42
 90
       50
102
RTVSPost2010PropOp42
 70
     1
102
RTVSPost2010Prop43
 90
        3
102
RTVSPost2010PropOp43
 70
     1
102
RTVSPost2010Prop44ColorIndex
 90
        5
102
RTVSPost2010Prop44ColorRGB
 90
      255
102
RTVSPost2010PropOp44
 70
     1
102
RTVSPost2010Prop45
280
     0
102
RTVSPost2010PropOp45
 70
     1
102
RTVSPost2010Prop46
 90
       50
102
RTVSPost2010PropOp46
 70
     1
102
RTVSPost2010Prop47
 90
       50
102
RTVSPost2010PropOp47
 70
     1
102
RTVSPost2010Prop48
 90
       50
102
RTVSPost2010PropOp48
 70
     1
102
RTVSPost2010Prop49
280
     0
102
RTVSPost2010PropOp49
 70
     1
102
RTVSPost2010Prop50
 90
       50
102
RTVSPost2010PropOp50
 70
     1
102
RTVSPost2010Prop51ColorIndex
 90
      256
102
RTVSPost2010Prop51ColorRGB
 90
-16777216
102
RTVSPost2010PropOp51
 70
     0
102
RTVSPost2010Prop52
140
1.0
102
RTVSPost2010PropOp52
 70
     0
102
RTVSPost2010Prop53
 90
        2
102
RTVSPost2010PropOp53
 70
     1
102
RTVSPost2010Prop54
  1
strokes_ogs.tif
102
RTVSPost2010PropOp54
 70
     1
102
RTVSPost2010Prop55
280
     0
102
RTVSPost2010PropOp55
 70
     1
102
RTVSPost2010Prop56
140
1.0
102
RTVSPost2010PropOp56
 70
     1
102
RTVSPost2010Prop57
140
1.0
102
RTVSPost2010PropOp57
 70
     1
  0
XRECORD
  5
3C3
102
{ACAD_REACTORS
330
3C2
102
}
330
3C2
100
AcDbXrecord
280
     1
102
RTVSPost2010Prop28
280
     0
102
RTVSPost2010PropOp28
 70
     1
102
RTVSPost2010Prop29
280
     1
102
RTVSPost2010PropOp29
 70
     1
102
RTVSPost2010Prop30
280
     1
102
RTVSPost2010PropOp30
 70
     1
102
RTVSPost2010Prop31
280
     0
102
RTVSPost2010PropOp31
 70
     1
102
RTVSPost2010Prop32
280
     0
102
RTVSPost2010PropOp32
 70
     1
102
RTVSPost2010Prop33
280
     0
102
RTVSPost2010PropOp33
 70
     1
102
RTVSPost2010Prop34
280
     0
102
RTVSPost2010PropOp34
 70
     1
102
RTVSPost2010Prop35
280
     0
102
RTVSPost2010PropOp35
 70
     1
102
RTVSPost2010Prop36
280
     0
102
RTVSPost2010PropOp36
 70
     1
102
RTVSPost2010Prop37
 90
       50
102
RTVSPost2010PropOp37
 70
     1
102
RTVSPost2010Prop38
140
0.0
102
RTVSPost2010PropOp38
 70
     1
102
RTVSPost2010Prop39
140
1.0
102
RTVSPost2010PropOp39
 70
     1
102
RTVSPost2010Prop40
 90
        0
102
RTVSPost2010PropOp40
 70
     1
102
RTVSPost2010Prop41ColorIndex
 90
       18
102
RTVSPost2010Prop41ColorRGB
 90
        0
102
RTVSPost2010PropOp41
 70
     1
102
RTVSPost2010Prop42
 90
       50
102
RTVSPost2010PropOp42
 70
     1
102
RTVSPost2010Prop43
 90
        3
102
RTVSPost2010PropOp43
 70
     1
102
RTVSPost2010Prop44ColorIndex
 90
        5
102
RTVSPost2010Prop44ColorRGB
 90
      255
102
RTVSPost2010PropOp44
 70
     1
102
RTVSPost2010Prop45
280
     0
102
RTVSPost2010PropOp45
 70
     1
102
RTVSPost2010Prop46
 90
       50
102
RTVSPost2010PropOp46
 70
     1
102
RTVSPost2010Prop47
 90
       50
102
RTVSPost2010PropOp47
 70
     1
102
RTVSPost2010Prop48
 90
       50
102
RTVSPost2010PropOp48
 70
     1
102
RTVSPost2010Prop49
280
     0
102
RTVSPost2010PropOp49
 70
     1
102
RTVSPost2010Prop50
 90
       50
102
RTVSPost2010PropOp50
 70
     1
102
RTVSPost2010Prop51ColorIndex
 90
      256
102
RTVSPost2010Prop51ColorRGB
 90
-16777216
102
RTVSPost2010PropOp51
 70
     0
102
RTVSPost2010Prop52
140
1.0
102
RTVSPost2010PropOp52
 70
     0
102
RTVSPost2010Prop53
 90
        2
102
RTVSPost2010PropOp53
 70
     1
102
RTVSPost2010Prop54
  1
strokes_ogs.tif
102
RTVSPost2010PropOp54
 70
     1
102
RTVSPost2010Prop55
280
     0
102
RTVSPost2010PropOp55
 70
     1
102
RTVSPost2010Prop56
140
1.0
102
RTVSPost2010PropOp56
 70
     1
102
RTVSPost2010Prop57
140
1.0
102
RTVSPost2010PropOp57
 70
     1
  0
XRECORD
  5
3BD
102
{ACAD_REACTORS
330
3BC
102
}
330
3BC
100
AcDbXrecord
280
     1
102
RTVSPost2010Prop28
280
     0
102
RTVSPost2010PropOp28
 70
     1
102
RTVSPost2010Prop29
280
     1
102
RTVSPost2010PropOp29
 70
     1
102
RTVSPost2010Prop30
280
     1
102
RTVSPost2010PropOp30
 70
     1
102
RTVSPost2010Prop31
280
     0
102
RTVSPost2010PropOp31
 70
     1
102
RTVSPost2010Prop32
280
     0
102
RTVSPost2010PropOp32
 70
     1
102
RTVSPost2010Prop33
280
     0
102
RTVSPost2010PropOp33
 70
     1
102
RTVSPost2010Prop34
280
     0
102
RTVSPost2010PropOp34
 70
     1
102
RTVSPost2010Prop35
280
     0
102
RTVSPost2010PropOp35
 70
     1
102
RTVSPost2010Prop36
280
     0
102
RTVSPost2010PropOp36
 70
     1
102
RTVSPost2010Prop37
 90
       50
102
RTVSPost2010PropOp37
 70
     1
102
RTVSPost2010Prop38
140
0.0
102
RTVSPost2010PropOp38
 70
     1
102
RTVSPost2010Prop39
140
1.0
102
RTVSPost2010PropOp39
 70
     1
102
RTVSPost2010Prop40
 90
        0
102
RTVSPost2010PropOp40
 70
     1
102
RTVSPost2010Prop41ColorIndex
 90
       18
102
RTVSPost2010Prop41ColorRGB
 90
        0
102
RTVSPost2010PropOp41
 70
     1
102
RTVSPost2010Prop42
 90
       50
102
RTVSPost2010PropOp42
 70
     1
102
RTVSPost2010Prop43
 90
        3
102
RTVSPost2010PropOp43
 70
     1
102
RTVSPost2010Prop44ColorIndex
 90
        5
102
RTVSPost2010Prop44ColorRGB
 90
      255
102
RTVSPost2010PropOp44
 70
     1
102
RTVSPost2010Prop45
280
     0
102
RTVSPost2010PropOp45
 70
     1
102
RTVSPost2010Prop46
 90
       50
102
RTVSPost2010PropOp46
 70
     1
102
RTVSPost2010Prop47
 90
       50
102
RTVSPost2010PropOp47
 70
     1
102
RTVSPost2010Prop48
 90
       50
102
RTVSPost2010PropOp48
 70
     1
102
RTVSPost2010Prop49
280
     0
102
RTVSPost2010PropOp49
 70
     1
102
RTVSPost2010Prop50
 90
       50
102
RTVSPost2010PropOp50
 70
     1
102
RTVSPost2010Prop51ColorIndex
 90
      256
102
RTVSPost2010Prop51ColorRGB
 90
-16777216
102
RTVSPost2010PropOp51
 70
     0
102
RTVSPost2010Prop52
140
1.0
102
RTVSPost2010PropOp52
 70
     0
102
RTVSPost2010Prop53
 90
        2
102
RTVSPost2010PropOp53
 70
     1
102
RTVSPost2010Prop54
  1
strokes_ogs.tif
102
RTVSPost2010PropOp54
 70
     1
102
RTVSPost2010Prop55
280
     0
102
RTVSPost2010PropOp55
 70
     1
102
RTVSPost2010Prop56
140
1.0
102
RTVSPost2010PropOp56
 70
     1
102
RTVSPost2010Prop57
140
1.0
102
RTVSPost2010PropOp57
 70
     1
  0
XRECORD
  5
3BF
102
{ACAD_REACTORS
330
3BE
102
}
330
3BE
100
AcDbXrecord
280
     1
102
RTVSPost2010Prop28
280
     0
102
RTVSPost2010PropOp28
 70
     1
102
RTVSPost2010Prop29
280
     1
102
RTVSPost2010PropOp29
 70
     1
102
RTVSPost2010Prop30
280
     1
102
RTVSPost2010PropOp30
 70
     1
102
RTVSPost2010Prop31
280
     0
102
RTVSPost2010PropOp31
 70
     1
102
RTVSPost2010Prop32
280
     0
102
RTVSPost2010PropOp32
 70
     1
102
RTVSPost2010Prop33
280
     0
102
RTVSPost2010PropOp33
 70
     1
102
RTVSPost2010Prop34
280
     0
102
RTVSPost2010PropOp34
 70
     1
102
RTVSPost2010Prop35
280
     0
102
RTVSPost2010PropOp35
 70
     1
102
RTVSPost2010Prop36
280
     0
102
RTVSPost2010PropOp36
 70
     1
102
RTVSPost2010Prop37
 90
       50
102
RTVSPost2010PropOp37
 70
     1
102
RTVSPost2010Prop38
140
0.0
102
RTVSPost2010PropOp38
 70
     1
102
RTVSPost2010Prop39
140
1.0
102
RTVSPost2010PropOp39
 70
     1
102
RTVSPost2010Prop40
 90
        0
102
RTVSPost2010PropOp40
 70
     1
102
RTVSPost2010Prop41ColorIndex
 90
       18
102
RTVSPost2010Prop41ColorRGB
 90
        0
102
RTVSPost2010PropOp41
 70
     1
102
RTVSPost2010Prop42
 90
       50
102
RTVSPost2010PropOp42
 70
     1
102
RTVSPost2010Prop43
 90
        3
102
RTVSPost2010PropOp43
 70
     1
102
RTVSPost2010Prop44ColorIndex
 90
        5
102
RTVSPost2010Prop44ColorRGB
 90
      255
102
RTVSPost2010PropOp44
 70
     1
102
RTVSPost2010Prop45
280
     0
102
RTVSPost2010PropOp45
 70
     1
102
RTVSPost2010Prop46
 90
       50
102
RTVSPost2010PropOp46
 70
     1
102
RTVSPost2010Prop47
 90
       50
102
RTVSPost2010PropOp47
 70
     1
102
RTVSPost2010Prop48
 90
       50
102
RTVSPost2010PropOp48
 70
     1
102
RTVSPost2010Prop49
280
     0
102
RTVSPost2010PropOp49
 70
     1
102
RTVSPost2010Prop50
 90
       50
102
RTVSPost2010PropOp50
 70
     1
102
RTVSPost2010Prop51ColorIndex
 90
      256
102
RTVSPost2010Prop51ColorRGB
 90
-16777216
102
RTVSPost2010PropOp51
 70
     0
102
RTVSPost2010Prop52
140
1.0
102
RTVSPost2010PropOp52
 70
     0
102
RTVSPost2010Prop53
 90
        2
102
RTVSPost2010PropOp53
 70
     1
102
RTVSPost2010Prop54
  1
strokes_ogs.tif
102
RTVSPost2010PropOp54
 70
     1
102
RTVSPost2010Prop55
280
     0
102
RTVSPost2010PropOp55
 70
     1
102
RTVSPost2010Prop56
140
1.0
102
RTVSPost2010PropOp56
 70
     1
102
RTVSPost2010Prop57
140
1.0
102
RTVSPost2010PropOp57
 70
     1
  0
XRECORD
  5
3B1
102
{ACAD_REACTORS
330
3B0
102
}
330
3B0
100
AcDbXrecord
280
     1
102
RTVSPost2010Prop28
280
     0
102
RTVSPost2010PropOp28
 70
     1
102
RTVSPost2010Prop29
280
     1
102
RTVSPost2010PropOp29
 70
     1
102
RTVSPost2010Prop30
280
     1
102
RTVSPost2010PropOp30
 70
     1
102
RTVSPost2010Prop31
280
     0
102
RTVSPost2010PropOp31
 70
     1
102
RTVSPost2010Prop32
280
     0
102
RTVSPost2010PropOp32
 70
     1
102
RTVSPost2010Prop33
280
     0
102
RTVSPost2010PropOp33
 70
     1
102
RTVSPost2010Prop34
280
     0
102
RTVSPost2010PropOp34
 70
     1
102
RTVSPost2010Prop35
280
     0
102
RTVSPost2010PropOp35
 70
     1
102
RTVSPost2010Prop36
280
     0
102
RTVSPost2010PropOp36
 70
     1
102
RTVSPost2010Prop37
 90
       50
102
RTVSPost2010PropOp37
 70
     1
102
RTVSPost2010Prop38
140
0.0
102
RTVSPost2010PropOp38
 70
     1
102
RTVSPost2010Prop39
140
1.0
102
RTVSPost2010PropOp39
 70
     1
102
RTVSPost2010Prop40
 90
        0
102
RTVSPost2010PropOp40
 70
     1
102
RTVSPost2010Prop41ColorIndex
 90
       18
102
RTVSPost2010Prop41ColorRGB
 90
        0
102
RTVSPost2010PropOp41
 70
     1
102
RTVSPost2010Prop42
 90
       50
102
RTVSPost2010PropOp42
 70
     1
102
RTVSPost2010Prop43
 90
        3
102
RTVSPost2010PropOp43
 70
     1
102
RTVSPost2010Prop44ColorIndex
 90
        5
102
RTVSPost2010Prop44ColorRGB
 90
      255
102
RTVSPost2010PropOp44
 70
     1
102
RTVSPost2010Prop45
280
     0
102
RTVSPost2010PropOp45
 70
     1
102
RTVSPost2010Prop46
 90
       50
102
RTVSPost2010PropOp46
 70
     1
102
RTVSPost2010Prop47
 90
       50
102
RTVSPost2010PropOp47
 70
     1
102
RTVSPost2010Prop48
 90
       50
102
RTVSPost2010PropOp48
 70
     1
102
RTVSPost2010Prop49
280
     0
102
RTVSPost2010PropOp49
 70
     1
102
RTVSPost2010Prop50
 90
       50
102
RTVSPost2010PropOp50
 70
     1
102
RTVSPost2010Prop51ColorIndex
 90
      256
102
RTVSPost2010Prop51ColorRGB
 90
-16777216
102
RTVSPost2010PropOp51
 70
     0
102
RTVSPost2010Prop52
140
1.0
102
RTVSPost2010PropOp52
 70
     0
102
RTVSPost2010Prop53
 90
        2
102
RTVSPost2010PropOp53
 70
     1
102
RTVSPost2010Prop54
  1
strokes_ogs.tif
102
RTVSPost2010PropOp54
 70
     1
102
RTVSPost2010Prop55
280
     0
102
RTVSPost2010PropOp55
 70
     1
102
RTVSPost2010Prop56
140
1.0
102
RTVSPost2010PropOp56
 70
     1
102
RTVSPost2010Prop57
140
1.0
102
RTVSPost2010PropOp57
 70
     1
  0
XRECORD
  5
3B9
102
{ACAD_REACTORS
330
3B8
102
}
330
3B8
100
AcDbXrecord
280
     1
102
RTVSPost2010Prop28
280
     0
102
RTVSPost2010PropOp28
 70
     1
102
RTVSPost2010Prop29
280
     1
102
RTVSPost2010PropOp29
 70
     1
102
RTVSPost2010Prop30
280
     1
102
RTVSPost2010PropOp30
 70
     1
102
RTVSPost2010Prop31
280
     0
102
RTVSPost2010PropOp31
 70
     1
102
RTVSPost2010Prop32
280
     0
102
RTVSPost2010PropOp32
 70
     1
102
RTVSPost2010Prop33
280
     0
102
RTVSPost2010PropOp33
 70
     1
102
RTVSPost2010Prop34
280
     0
102
RTVSPost2010PropOp34
 70
     1
102
RTVSPost2010Prop35
280
     0
102
RTVSPost2010PropOp35
 70
     1
102
RTVSPost2010Prop36
280
     0
102
RTVSPost2010PropOp36
 70
     1
102
RTVSPost2010Prop37
 90
       50
102
RTVSPost2010PropOp37
 70
     1
102
RTVSPost2010Prop38
140
0.0
102
RTVSPost2010PropOp38
 70
     1
102
RTVSPost2010Prop39
140
1.0
102
RTVSPost2010PropOp39
 70
     1
102
RTVSPost2010Prop40
 90
        0
102
RTVSPost2010PropOp40
 70
     1
102
RTVSPost2010Prop41ColorIndex
 90
       18
102
RTVSPost2010Prop41ColorRGB
 90
        0
102
RTVSPost2010PropOp41
 70
     1
102
RTVSPost2010Prop42
 90
       50
102
RTVSPost2010PropOp42
 70
     1
102
RTVSPost2010Prop43
 90
        3
102
RTVSPost2010PropOp43
 70
     1
102
RTVSPost2010Prop44ColorIndex
 90
        5
102
RTVSPost2010Prop44ColorRGB
 90
      255
102
RTVSPost2010PropOp44
 70
     1
102
RTVSPost2010Prop45
280
     0
102
RTVSPost2010PropOp45
 70
     1
102
RTVSPost2010Prop46
 90
       50
102
RTVSPost2010PropOp46
 70
     1
102
RTVSPost2010Prop47
 90
       50
102
RTVSPost2010PropOp47
 70
     1
102
RTVSPost2010Prop48
 90
       50
102
RTVSPost2010PropOp48
 70
     1
102
RTVSPost2010Prop49
280
     0
102
RTVSPost2010PropOp49
 70
     1
102
RTVSPost2010Prop50
 90
       50
102
RTVSPost2010PropOp50
 70
     1
102
RTVSPost2010Prop51ColorIndex
 90
      256
102
RTVSPost2010Prop51ColorRGB
 90
-16777216
102
RTVSPost2010PropOp51
 70
     0
102
RTVSPost2010Prop52
140
1.0
102
RTVSPost2010PropOp52
 70
     0
102
RTVSPost2010Prop53
 90
        2
102
RTVSPost2010PropOp53
 70
     1
102
RTVSPost2010Prop54
  1
strokes_ogs.tif
102
RTVSPost2010PropOp54
 70
     1
102
RTVSPost2010Prop55
280
     0
102
RTVSPost2010PropOp55
 70
     1
102
RTVSPost2010Prop56
140
1.0
102
RTVSPost2010PropOp56
 70
     1
102
RTVSPost2010Prop57
140
1.0
102
RTVSPost2010PropOp57
 70
     1
  0
XRECORD
  5
3C1
102
{ACAD_REACTORS
330
3C0
102
}
330
3C0
100
AcDbXrecord
280
     1
102
RTVSPost2010Prop28
280
     0
102
RTVSPost2010PropOp28
 70
     1
102
RTVSPost2010Prop29
280
     1
102
RTVSPost2010PropOp29
 70
     1
102
RTVSPost2010Prop30
280
     1
102
RTVSPost2010PropOp30
 70
     1
102
RTVSPost2010Prop31
280
     0
102
RTVSPost2010PropOp31
 70
     1
102
RTVSPost2010Prop32
280
     0
102
RTVSPost2010PropOp32
 70
     1
102
RTVSPost2010Prop33
280
     0
102
RTVSPost2010PropOp33
 70
     1
102
RTVSPost2010Prop34
280
     0
102
RTVSPost2010PropOp34
 70
     1
102
RTVSPost2010Prop35
280
     0
102
RTVSPost2010PropOp35
 70
     1
102
RTVSPost2010Prop36
280
     0
102
RTVSPost2010PropOp36
 70
     1
102
RTVSPost2010Prop37
 90
       50
102
RTVSPost2010PropOp37
 70
     1
102
RTVSPost2010Prop38
140
0.0
102
RTVSPost2010PropOp38
 70
     1
102
RTVSPost2010Prop39
140
1.0
102
RTVSPost2010PropOp39
 70
     1
102
RTVSPost2010Prop40
 90
        0
102
RTVSPost2010PropOp40
 70
     1
102
RTVSPost2010Prop41ColorIndex
 90
       18
102
RTVSPost2010Prop41ColorRGB
 90
        0
102
RTVSPost2010PropOp41
 70
     1
102
RTVSPost2010Prop42
 90
       50
102
RTVSPost2010PropOp42
 70
     1
102
RTVSPost2010Prop43
 90
        3
102
RTVSPost2010PropOp43
 70
     1
102
RTVSPost2010Prop44ColorIndex
 90
        5
102
RTVSPost2010Prop44ColorRGB
 90
      255
102
RTVSPost2010PropOp44
 70
     1
102
RTVSPost2010Prop45
280
     0
102
RTVSPost2010PropOp45
 70
     1
102
RTVSPost2010Prop46
 90
       50
102
RTVSPost2010PropOp46
 70
     1
102
RTVSPost2010Prop47
 90
       50
102
RTVSPost2010PropOp47
 70
     1
102
RTVSPost2010Prop48
 90
       50
102
RTVSPost2010PropOp48
 70
     1
102
RTVSPost2010Prop49
280
     0
102
RTVSPost2010PropOp49
 70
     1
102
RTVSPost2010Prop50
 90
       50
102
RTVSPost2010PropOp50
 70
     1
102
RTVSPost2010Prop51ColorIndex
 90
      256
102
RTVSPost2010Prop51ColorRGB
 90
-16777216
102
RTVSPost2010PropOp51
 70
     0
102
RTVSPost2010Prop52
140
1.0
102
RTVSPost2010PropOp52
 70
     0
102
RTVSPost2010Prop53
 90
        2
102
RTVSPost2010PropOp53
 70
     1
102
RTVSPost2010Prop54
  1
strokes_ogs.tif
102
RTVSPost2010PropOp54
 70
     1
102
RTVSPost2010Prop55
280
     0
102
RTVSPost2010PropOp55
 70
     1
102
RTVSPost2010Prop56
140
1.0
102
RTVSPost2010PropOp56
 70
     1
102
RTVSPost2010Prop57
140
1.0
102
RTVSPost2010PropOp57
 70
     1
  0
ENDSEC
  0
EOF
