  0
SECTION
  2
HEADER
  9
$ACADVER
  1
AC1027
  9
$ACADMAINTVER
 70
   125
  9
$DWGCODEPAGE
  3
ANSI_1252
  9
$LASTSAVEDBY
  1
kaschu
  9
$REQUIREDVERSIONS
160
                 0
  9
$INSBASE
 10
0.0
 20
0.0
 30
0.0
  9
$EXTMIN
 10
-902.4288121952611
 20
-149.9999957938967
 30
-0.0000000000000774
  9
$EXTMAX
 10
4238.449307148308
 20
4621.970779020291
 30
0.000000000000037
  9
$LIMMIN
 10
0.0
 20
0.0
  9
$LIMMAX
 10
420.0
 20
297.0
  9
$ORTHOMODE
 70
     1
  9
$REGENMODE
 70
     1
  9
$FILLMODE
 70
     1
  9
$QTEXTMODE
 70
     0
  9
$MIRRTEXT
 70
     1
  9
$LTSCALE
 40
1.0
  9
$ATTMODE
 70
     1
  9
$TEXTSIZE
 40
2.5
  9
$TRACEWID
 40
1.0
  9
$TEXTSTYLE
  7
Standard
  9
$CLAYER
  8
0
  9
$CELTYPE
  6
ByLayer
  9
$CECOLOR
 62
   256
  9
$CELTSCALE
 40
1.0
  9
$DISPSILH
 70
     0
  9
$DIMSCALE
 40
1.0
  9
$DIMASZ
 40
2.5
  9
$DIMEXO
 40
0.625
  9
$DIMDLI
 40
3.75
  9
$DIMRND
 40
0.0
  9
$DIMDLE
 40
0.0
  9
$DIMEXE
 40
1.25
  9
$DIMTP
 40
0.0
  9
$DIMTM
 40
0.0
  9
$DIMTXT
 40
2.5
  9
$DIMCEN
 40
2.5
  9
$DIMTSZ
 40
0.0
  9
$DIMTOL
 70
     0
  9
$DIMLIM
 70
     0
  9
$DIMTIH
 70
     0
  9
$DIMTOH
 70
     0
  9
$DIMSE1
 70
     0
  9
$DIMSE2
 70
     0
  9
$DIMTAD
 70
     1
  9
$DIMZIN
 70
     8
  9
$DIMBLK
  1

  9
$DIMASO
 70
     1
  9
$DIMSHO
 70
     1
  9
$DIMPOST
  1

  9
$DIMAPOST
  1

  9
$DIMALT
 70
     0
  9
$DIMALTD
 70
     3
  9
$DIMALTF
 40
0.03937007874016
  9
$DIMLFAC
 40
1.0
  9
$DIMTOFL
 70
     1
  9
$DIMTVP
 40
0.0
  9
$DIMTIX
 70
     0
  9
$DIMSOXD
 70
     0
  9
$DIMSAH
 70
     0
  9
$DIMBLK1
  1

  9
$DIMBLK2
  1

  9
$DIMSTYLE
  2
ISO-25
  9
$DIMCLRD
 70
     0
  9
$DIMCLRE
 70
     0
  9
$DIMCLRT
 70
     0
  9
$DIMTFAC
 40
1.0
  9
$DIMGAP
 40
0.625
  9
$DIMJUST
 70
     0
  9
$DIMSD1
 70
     0
  9
$DIMSD2
 70
     0
  9
$DIMTOLJ
 70
     0
  9
$DIMTZIN
 70
     8
  9
$DIMALTZ
 70
     0
  9
$DIMALTTZ
 70
     0
  9
$DIMUPT
 70
     0
  9
$DIMDEC
 70
     2
  9
$DIMTDEC
 70
     2
  9
$DIMALTU
 70
     2
  9
$DIMALTTD
 70
     3
  9
$DIMTXSTY
  7
Standard
  9
$DIMAUNIT
 70
     0
  9
$DIMADEC
 70
     0
  9
$DIMALTRND
 40
0.0
  9
$DIMAZIN
 70
     0
  9
$DIMDSEP
 70
    44
  9
$DIMATFIT
 70
     3
  9
$DIMFRAC
 70
     0
  9
$DIMLDRBLK
  1

  9
$DIMLUNIT
 70
     2
  9
$DIMLWD
 70
    -2
  9
$DIMLWE
 70
    -2
  9
$DIMTMOVE
 70
     0
  9
$DIMFXL
 40
1.0
  9
$DIMFXLON
 70
     0
  9
$DIMJOGANG
 40
0.7853981633974483
  9
$DIMTFILL
 70
     0
  9
$DIMTFILLCLR
 70
     0
  9
$DIMARCSYM
 70
     0
  9
$DIMLTYPE
  6

  9
$DIMLTEX1
  6

  9
$DIMLTEX2
  6

  9
$DIMTXTDIRECTION
 70
     0
  9
$LUNITS
 70
     2
  9
$LUPREC
 70
     4
  9
$SKETCHINC
 40
1.0
  9
$FILLETRAD
 40
10.0
  9
$AUNITS
 70
     0
  9
$AUPREC
 70
     0
  9
$MENU
  1
.
  9
$ELEVATION
 40
0.0
  9
$PELEVATION
 40
0.0
  9
$THICKNESS
 40
0.0
  9
$LIMCHECK
 70
     0
  9
$CHAMFERA
 40
0.0
  9
$CHAMFERB
 40
0.0
  9
$CHAMFERC
 40
0.0
  9
$CHAMFERD
 40
0.0
  9
$SKPOLY
 70
     0
  9
$TDCREATE
 40
2459124.429664352
  9
$TDUCREATE
 40
2459124.346339595
  9
$TDUPDATE
 40
2459124.441678241
  9
$TDUUPDATE
 40
2459124.358344908
  9
$TDINDWG
 40
0.0115393634
  9
$TDUSRTIMER
 40
0.0115393634
  9
$USRTIMER
 70
     1
  9
$ANGBASE
 50
0.0
  9
$ANGDIR
 70
     0
  9
$PDMODE
 70
     0
  9
$PDSIZE
 40
0.0
  9
$PLINEWID
 40
0.0
  9
$SPLFRAME
 70
     0
  9
$SPLINETYPE
 70
     6
  9
$SPLINESEGS
 70
     8
  9
$HANDSEED
  5
10F7
  9
$SURFTAB1
 70
     6
  9
$SURFTAB2
 70
     6
  9
$SURFTYPE
 70
     6
  9
$SURFU
 70
     6
  9
$SURFV
 70
     6
  9
$UCSBASE
  2

  9
$UCSNAME
  2

  9
$UCSORG
 10
0.0
 20
0.0
 30
0.0
  9
$UCSXDIR
 10
1.0
 20
0.0
 30
0.0
  9
$UCSYDIR
 10
0.0
 20
1.0
 30
0.0
  9
$UCSORTHOREF
  2

  9
$UCSORTHOVIEW
 70
     0
  9
$UCSORGTOP
 10
0.0
 20
0.0
 30
0.0
  9
$UCSORGBOTTOM
 10
0.0
 20
0.0
 30
0.0
  9
$UCSORGLEFT
 10
0.0
 20
0.0
 30
0.0
  9
$UCSORGRIGHT
 10
0.0
 20
0.0
 30
0.0
  9
$UCSORGFRONT
 10
0.0
 20
0.0
 30
0.0
  9
$UCSORGBACK
 10
0.0
 20
0.0
 30
0.0
  9
$PUCSBASE
  2

  9
$PUCSNAME
  2

  9
$PUCSORG
 10
0.0
 20
0.0
 30
0.0
  9
$PUCSXDIR
 10
1.0
 20
0.0
 30
0.0
  9
$PUCSYDIR
 10
0.0
 20
1.0
 30
0.0
  9
$PUCSORTHOREF
  2

  9
$PUCSORTHOVIEW
 70
     0
  9
$PUCSORGTOP
 10
0.0
 20
0.0
 30
0.0
  9
$PUCSORGBOTTOM
 10
0.0
 20
0.0
 30
0.0
  9
$PUCSORGLEFT
 10
0.0
 20
0.0
 30
0.0
  9
$PUCSORGRIGHT
 10
0.0
 20
0.0
 30
0.0
  9
$PUCSORGFRONT
 10
0.0
 20
0.0
 30
0.0
  9
$PUCSORGBACK
 10
0.0
 20
0.0
 30
0.0
  9
$USERI1
 70
     0
  9
$USERI2
 70
     0
  9
$USERI3
 70
     0
  9
$USERI4
 70
     0
  9
$USERI5
 70
     0
  9
$USERR1
 40
0.0
  9
$USERR2
 40
0.0
  9
$USERR3
 40
0.0
  9
$USERR4
 40
0.0
  9
$USERR5
 40
0.0
  9
$WORLDVIEW
 70
     1
  9
$SHADEDGE
 70
     3
  9
$SHADEDIF
 70
    70
  9
$TILEMODE
 70
     1
  9
$MAXACTVP
 70
    64
  9
$PINSBASE
 10
0.0
 20
0.0
 30
0.0
  9
$PLIMCHECK
 70
     0
  9
$PEXTMIN
 10
1.000000000000000E+20
 20
1.000000000000000E+20
 30
1.000000000000000E+20
  9
$PEXTMAX
 10
-1.000000000000000E+20
 20
-1.000000000000000E+20
 30
-1.000000000000000E+20
  9
$PLIMMIN
 10
0.0
 20
0.0
  9
$PLIMMAX
 10
420.0
 20
297.0
  9
$UNITMODE
 70
     0
  9
$VISRETAIN
 70
     1
  9
$PLINEGEN
 70
     0
  9
$PSLTSCALE
 70
     1
  9
$TREEDEPTH
 70
  3020
  9
$CMLSTYLE
  2
Standard
  9
$CMLJUST
 70
     0
  9
$CMLSCALE
 40
20.0
  9
$PROXYGRAPHICS
 70
     1
  9
$MEASUREMENT
 70
     1
  9
$CELWEIGHT
370
    -1
  9
$ENDCAPS
280
     0
  9
$JOINSTYLE
280
     0
  9
$LWDISPLAY
290
     0
  9
$INSUNITS
 70
     5
  9
$HYPERLINKBASE
  1

  9
$STYLESHEET
  1

  9
$XEDIT
290
     1
  9
$CEPSNTYPE
380
     0
  9
$PSTYLEMODE
290
     1
  9
$FINGERPRINTGUID
  2
{d65f844e-a70c-446a-bafe-ce0d367131df}
  9
$VERSIONGUID
  2
{127C2EF2-CC93-C14C-8A12-A87AF8F8DBD6}
  9
$EXTNAMES
290
     1
  9
$PSVPSCALE
 40
0.0
  9
$OLESTARTUP
290
     0
  9
$SORTENTS
280
   127
  9
$INDEXCTL
280
     0
  9
$HIDETEXT
280
     1
  9
$XCLIPFRAME
280
     2
  9
$HALOGAP
280
     0
  9
$OBSCOLOR
 70
   257
  9
$OBSLTYPE
280
     0
  9
$INTERSECTIONDISPLAY
280
     0
  9
$INTERSECTIONCOLOR
 70
   257
  9
$DIMASSOC
280
     2
  9
$PROJECTNAME
  1

  9
$CAMERADISPLAY
290
     0
  9
$LENSLENGTH
 40
50.0
  9
$CAMERAHEIGHT
 40
0.0
  9
$STEPSPERSEC
 40
2.0
  9
$STEPSIZE
 40
6.0
  9
$3DDWFPREC
 40
2.0
  9
$PSOLWIDTH
 40
5.0
  9
$PSOLHEIGHT
 40
80.0
  9
$LOFTANG1
 40
1.570796326794896
  9
$LOFTANG2
 40
1.570796326794896
  9
$LOFTMAG1
 40
0.0
  9
$LOFTMAG2
 40
0.0
  9
$LOFTPARAM
 70
     7
  9
$LOFTNORMALS
280
     1
  9
$LATITUDE
 40
37.795
  9
$LONGITUDE
 40
-122.394
  9
$NORTHDIRECTION
 40
0.0
  9
$TIMEZONE
 70
 -8000
  9
$LIGHTGLYPHDISPLAY
280
     1
  9
$TILEMODELIGHTSYNCH
280
     1
  9
$CMATERIAL
347
44
  9
$SOLIDHIST
280
     0
  9
$SHOWHIST
280
     1
  9
$DWFFRAME
280
     2
  9
$DGNFRAME
280
     2
  9
$REALWORLDSCALE
290
     1
  9
$INTERFERECOLOR
 62
   256
  9
$INTERFEREOBJVS
345
33
  9
$INTERFEREVPVS
346
30
  9
$CSHADOW
280
     0
  9
$SHADOWPLANELOCATION
 40
0.0
  0
ENDSEC
  0
SECTION
  2
CLASSES
  0
CLASS
  1
ACDBDICTIONARYWDFLT
  2
AcDbDictionaryWithDefault
  3
ObjectDBX Classes
 90
        0
 91
        1
280
     0
281
     0
  0
CLASS
  1
VISUALSTYLE
  2
AcDbVisualStyle
  3
ObjectDBX Classes
 90
     4095
 91
       24
280
     0
281
     0
  0
CLASS
  1
MATERIAL
  2
AcDbMaterial
  3
ObjectDBX Classes
 90
     1153
 91
        3
280
     0
281
     0
  0
CLASS
  1
SCALE
  2
AcDbScale
  3
ObjectDBX Classes
 90
     1153
 91
       33
280
     0
281
     0
  0
CLASS
  1
TABLESTYLE
  2
AcDbTableStyle
  3
ObjectDBX Classes
 90
     4095
 91
        1
280
     0
281
     0
  0
CLASS
  1
MLEADERSTYLE
  2
AcDbMLeaderStyle
  3
ACDB_MLEADERSTYLE_CLASS
 90
     4095
 91
        1
280
     0
281
     0
  0
CLASS
  1
SUN
  2
AcDbSun
  3
SCENEOE
 90
     1153
 91
        1
280
     0
281
     0
  0
CLASS
  1
DICTIONARYVAR
  2
AcDbDictionaryVar
  3
ObjectDBX Classes
 90
        0
 91
        7
280
     0
281
     0
  0
CLASS
  1
ACDBSECTIONVIEWSTYLE
  2
AcDbSectionViewStyle
  3
ObjectDBX Classes
 90
     1025
 91
        1
280
     0
281
     0
  0
CLASS
  1
ACDBDETAILVIEWSTYLE
  2
AcDbDetailViewStyle
  3
ObjectDBX Classes
 90
     1025
 91
        1
280
     0
281
     0
  0
CLASS
  1
SORTENTSTABLE
  2
AcDbSortentsTable
  3
ObjectDBX Classes
 90
        0
 91
        5
280
     0
281
     0
  0
CLASS
  1
DIMASSOC
  2
AcDbDimAssoc
  3
"AcDbDimAssoc|Product Desc:     AcDim ARX App For Dimension|Company:          Autodesk, Inc.|WEB Address:      www.autodesk.com"
 90
        0
 91
        4
280
     0
281
     0
  0
CLASS
  1
CELLSTYLEMAP
  2
AcDbCellStyleMap
  3
ObjectDBX Classes
 90
     1152
 91
        5
280
     0
281
     0
  0
ENDSEC
  0
SECTION
  2
TABLES
  0
TABLE
  2
VPORT
  5
8
330
0
100
AcDbSymbolTable
 70
     1
1001
ACAD
1000
DbSaveVer
1071
      224
  0
VPORT
  5
29
330
8
100
AcDbSymbolTableRecord
100
AcDbViewportTableRecord
  2
*Active
 70
     0
 10
0.0
 20
0.0
 11
1.0
 21
1.0
 12
1722.678677852205
 22
874.6667877407736
 13
0.0
 23
0.0
 14
10.0
 24
10.0
 15
10.0
 25
10.0
 16
0.0
 26
0.0
 36
1.0
 17
0.0
 27
0.0
 37
0.0
 40
3388.346844645968
 41
2.046436285097192
 42
50.0
 43
0.0
 44
0.0
 50
0.0
 51
0.0
 71
     0
 72
   100
 73
     1
 74
     3
 75
     0
 76
     0
 77
     0
 78
     0
281
     0
 65
     1
110
0.0
120
0.0
130
0.0
111
1.0
121
0.0
131
0.0
112
0.0
122
1.0
132
0.0
 79
     0
146
0.0
348
2F
 60
     3
 61
     5
292
     1
282
     1
141
0.0
142
0.0
361
6D
1001
ACAD_NAV_VCDISPLAY
1070
     3
  0
ENDTAB
  0
TABLE
  2
LTYPE
  5
5
330
0
100
AcDbSymbolTable
 70
    11
  0
LTYPE
  5
14
330
5
100
AcDbSymbolTableRecord
100
AcDbLinetypeTableRecord
  2
ByBlock
 70
     0
  3

 72
    65
 73
     0
 40
0.0
  0
LTYPE
  5
15
330
5
100
AcDbSymbolTableRecord
100
AcDbLinetypeTableRecord
  2
ByLayer
 70
     0
  3

 72
    65
 73
     0
 40
0.0
  0
LTYPE
  5
16
330
5
100
AcDbSymbolTableRecord
100
AcDbLinetypeTableRecord
  2
Continuous
 70
     0
  3
Solid line
 72
    65
 73
     0
 40
0.0
  0
LTYPE
  5
6F
330
5
100
AcDbSymbolTableRecord
100
AcDbLinetypeTableRecord
  2
CUSTOM
 70
     0
  3

 72
    65
 73
     0
 40
0.0
  0
LTYPE
  5
70
330
5
100
AcDbSymbolTableRecord
100
AcDbLinetypeTableRecord
  2
SOLID
 70
     0
  3

 72
    65
 73
     0
 40
0.0
  0
LTYPE
  5
71
330
5
100
AcDbSymbolTableRecord
100
AcDbLinetypeTableRecord
  2
DASHED
 70
     0
  3

 72
    65
 73
     2
 40
2.626795013961151
 49
1.313397506980575
 74
     0
 49
-1.313397506980575
 74
     0
  0
LTYPE
  5
72
330
5
100
AcDbSymbolTableRecord
100
AcDbLinetypeTableRecord
  2
LONG_DASH
 70
     0
  3

 72
    65
 73
     2
 40
2.626795013961151
 49
1.970096260470863
 74
     0
 49
-0.6566987534902879
 74
     0
  0
LTYPE
  5
73
330
5
100
AcDbSymbolTableRecord
100
AcDbLinetypeTableRecord
  2
SHORT_DASH
 70
     0
  3

 72
    65
 73
     4
 40
2.626795013961151
 49
0.5253590027922303
 74
     0
 49
-0.7880385041883455
 74
     0
 49
0.5253590027922303
 74
     0
 49
-0.7880385041883455
 74
     0
  0
LTYPE
  5
74
330
5
100
AcDbSymbolTableRecord
100
AcDbLinetypeTableRecord
  2
DOTTED
 70
     0
  3

 72
    65
 73
     8
 40
2.626795013961151
 49
0.1313397506980576
 74
     0
 49
-0.5253590027922303
 74
     0
 49
0.1313397506980576
 74
     0
 49
-0.5253590027922303
 74
     0
 49
0.1313397506980576
 74
     0
 49
-0.5253590027922303
 74
     0
 49
0.1313397506980576
 74
     0
 49
-0.5253590027922303
 74
     0
  0
LTYPE
  5
75
330
5
100
AcDbSymbolTableRecord
100
AcDbLinetypeTableRecord
  2
DOTDASH
 70
     0
  3

 72
    65
 73
     4
 40
2.626795013961151
 49
0.1313397506980576
 74
     0
 49
-0.6566987534902879
 74
     0
 49
1.182057756282518
 74
     0
 49
-0.6566987534902879
 74
     0
  0
LTYPE
  5
76
330
5
100
AcDbSymbolTableRecord
100
AcDbLinetypeTableRecord
  2
DOTDOTDASH
 70
     0
  3

 72
    65
 73
     6
 40
2.626795013961151
 49
0.1313397506980576
 74
     0
 49
-0.3940192520941727
 74
     0
 49
0.1313397506980576
 74
     0
 49
-0.3940192520941727
 74
     0
 49
1.182057756282518
 74
     0
 49
-0.3940192520941727
 74
     0
  0
LTYPE
  5
77
330
5
100
AcDbSymbolTableRecord
100
AcDbLinetypeTableRecord
  2
DASHDASHDOT
 70
     0
  3

 72
    65
 73
     6
 40
2.626795013961151
 49
0.1313397506980576
 74
     0
 49
-0.3940192520941727
 74
     0
 49
0.1313397506980576
 74
     0
 49
-0.3940192520941727
 74
     0
 49
1.182057756282518
 74
     0
 49
-0.3940192520941727
 74
     0
  0
ENDTAB
  0
TABLE
  2
LAYER
  5
2
102
{ACAD_XDICTIONARY
360
374
102
}
330
0
100
AcDbSymbolTable
 70
     3
  0
LAYER
  5
10
330
2
100
AcDbSymbolTableRecord
100
AcDbLayerTableRecord
  2
0
 70
     0
 62
     7
  6
Continuous
370
    -3
390
F
347
46
348
0
  0
LAYER
  5
371
102
{ACAD_XDICTIONARY
360
372
102
}
330
2
100
AcDbSymbolTableRecord
100
AcDbLayerTableRecord
  2
Hewi
 70
     0
 62
     7
  6
Continuous
370
    -3
390
F
347
46
348
0
  0
LAYER
  5
475
330
2
100
AcDbSymbolTableRecord
100
AcDbLayerTableRecord
  2
Defpoints
 70
     0
 62
     7
  6
Continuous
290
     0
370
    -3
390
F
347
46
348
0
  0
ENDTAB
  0
TABLE
  2
STYLE
  5
3
330
0
100
AcDbSymbolTable
 70
     1
  0
STYLE
  5
11
330
3
100
AcDbSymbolTableRecord
100
AcDbTextStyleTableRecord
  2
Standard
 70
     0
 40
0.0
 41
1.0
 50
0.0
 71
     0
 42
2.5
  3
txt
  4

  0
ENDTAB
  0
TABLE
  2
VIEW
  5
6
330
0
100
AcDbSymbolTable
 70
     0
  0
ENDTAB
  0
TABLE
  2
UCS
  5
7
330
0
100
AcDbSymbolTable
 70
     0
  0
ENDTAB
  0
TABLE
  2
APPID
  5
9
330
0
100
AcDbSymbolTable
 70
     4
  0
APPID
  5
12
330
9
100
AcDbSymbolTableRecord
100
AcDbRegAppTableRecord
  2
ACAD
 70
     0
  0
APPID
  5
176
330
9
100
AcDbSymbolTableRecord
100
AcDbRegAppTableRecord
  2
ACAD_NAV_VCDISPLAY
 70
     0
  0
APPID
  5
373
330
9
100
AcDbSymbolTableRecord
100
AcDbRegAppTableRecord
  2
ACAD_PSEXT
 70
     0
  0
APPID
  5
5CB
330
9
100
AcDbSymbolTableRecord
100
AcDbRegAppTableRecord
  2
ACAD_EXEMPT_FROM_CAD_STANDARDS
 70
     0
  0
ENDTAB
  0
TABLE
  2
DIMSTYLE
  5
A
330
0
100
AcDbSymbolTable
 70
     3
100
AcDbDimStyleTable
 71
     2
340
27
340
615
  0
DIMSTYLE
105
27
330
A
100
AcDbSymbolTableRecord
100
AcDbDimStyleTableRecord
  2
ISO-25
 70
     0
 41
2.5
 42
0.625
 43
3.75
 44
1.25
 73
     0
 74
     0
 77
     1
 78
     8
140
2.5
141
2.5
143
0.03937007874016
147
0.625
171
     3
172
     1
271
     2
272
     2
274
     3
278
    44
283
     0
284
     8
340
11
  0
DIMSTYLE
105
615
102
{ACAD_REACTORS
330
617
102
}
330
A
100
AcDbSymbolTableRecord
100
AcDbDimStyleTableRecord
  2
Standard
 70
     0
340
11
  0
ENDTAB
  0
TABLE
  2
BLOCK_RECORD
  5
1
330
0
100
AcDbSymbolTable
 70
    19
  0
BLOCK_RECORD
  5
1F
102
{ACAD_XDICTIONARY
360
5EE
102
}
330
1
100
AcDbSymbolTableRecord
100
AcDbBlockTableRecord
  2
*Model_Space
340
22
 70
     0
280
     1
281
     0
  0
BLOCK_RECORD
  5
1B
330
1
100
AcDbSymbolTableRecord
100
AcDbBlockTableRecord
  2
*Paper_Space
340
1E
 70
     0
280
     1
281
     0
  0
BLOCK_RECORD
  5
23
330
1
100
AcDbSymbolTableRecord
100
AcDbBlockTableRecord
  2
*Paper_Space0
340
26
 70
     0
280
     1
281
     0
  0
BLOCK_RECORD
  5
476
330
1
100
AcDbSymbolTableRecord
100
AcDbBlockTableRecord
  2
*D4
340
0
 70
     0
280
     1
281
     0
  0
BLOCK_RECORD
  5
48E
330
1
100
AcDbSymbolTableRecord
100
AcDbBlockTableRecord
  2
*D5
340
0
 70
     0
280
     1
281
     0
  0
BLOCK_RECORD
  5
5D5
330
1
100
AcDbSymbolTableRecord
100
AcDbBlockTableRecord
  2
*D8
340
0
 70
     0
280
     1
281
     0
  0
BLOCK_RECORD
  5
5F1
330
1
100
AcDbSymbolTableRecord
100
AcDbBlockTableRecord
  2
*D9
340
0
 70
     0
280
     1
281
     0
  0
BLOCK_RECORD
  5
608
330
1
100
AcDbSymbolTableRecord
100
AcDbBlockTableRecord
  2
*D10
340
0
 70
     0
280
     1
281
     0
  0
BLOCK_RECORD
  5
61E
330
1
100
AcDbSymbolTableRecord
100
AcDbBlockTableRecord
  2
*D12
340
0
 70
     0
280
     1
281
     0
  0
ENDTAB
  0
ENDSEC
  0
SECTION
  2
BLOCKS
  0
BLOCK
  5
20
330
1F
100
AcDbEntity
  8
0
100
AcDbBlockBegin
  2
*Model_Space
 70
     0
 10
0.0
 20
0.0
 30
0.0
  3
*Model_Space
  1

  0
ENDBLK
  5
21
330
1F
100
AcDbEntity
  8
0
100
AcDbBlockEnd
  0
BLOCK
  5
1C
330
1B
100
AcDbEntity
 67
     1
  8
0
100
AcDbBlockBegin
  2
*Paper_Space
 70
     0
 10
0.0
 20
0.0
 30
0.0
  3
*Paper_Space
  1

  0
ENDBLK
  5
1D
330
1B
100
AcDbEntity
 67
     1
  8
0
100
AcDbBlockEnd
  0
BLOCK
  5
24
330
23
100
AcDbEntity
 67
     1
  8
0
100
AcDbBlockBegin
  2
*Paper_Space0
 70
     0
 10
0.0
 20
0.0
 30
0.0
  3
*Paper_Space0
  1

  0
ENDBLK
  5
25
330
23
100
AcDbEntity
 67
     1
  8
0
100
AcDbBlockEnd
  0
BLOCK
  5
477
330
476
100
AcDbEntity
  8
0
100
AcDbBlockBegin
  2
*D4
 70
     1
 10
0.0
 20
0.0
 30
0.0
  3
*D4
  1

  0
LINE
  5
483
330
476
100
AcDbEntity
  8
0
 62
     0
440
 16777216
370
    -2
100
AcDbLine
 10
-800.7192584712061
 20
354.7344635462159
 30
0.0
 11
-800.7192584712061
 21
-43.13625633940501
 31
0.0
  0
LINE
  5
484
330
476
100
AcDbEntity
  8
0
 62
     0
440
 16777216
370
    -2
100
AcDbLine
 10
-349.3131849181895
 20
354.2972717940668
 30
0.0
 11
-349.3131849181895
 21
-43.13625633940501
 31
0.0
  0
LINE
  5
485
330
476
100
AcDbEntity
  8
0
 62
     0
440
 16777216
370
    -2
100
AcDbLine
 10
-798.2192584712061
 20
-41.88625633940501
 30
0.0
 11
-351.8131849181895
 21
-41.88625633940501
 31
0.0
  0
SOLID
  5
486
330
476
100
AcDbEntity
  8
0
 62
     0
440
 16777216
100
AcDbTrace
 10
-798.2192584712061
 20
-41.46958967273834
 30
0.0
 11
-798.2192584712061
 21
-42.30292300607167
 31
0.0
 12
-800.7192584712061
 22
-41.88625633940501
 32
0.0
 13
-800.7192584712061
 23
-41.88625633940501
 33
0.0
  0
SOLID
  5
487
330
476
100
AcDbEntity
  8
0
 62
     0
440
 16777216
100
AcDbTrace
 10
-351.8131849181895
 20
-41.46958967273834
 30
0.0
 11
-351.8131849181895
 21
-42.30292300607167
 31
0.0
 12
-349.3131849181895
 22
-41.88625633940501
 32
0.0
 13
-349.3131849181895
 23
-41.88625633940501
 33
0.0
  0
MTEXT
  5
488
330
476
100
AcDbEntity
  8
0
 62
     0
440
 16777216
100
AcDbMText
 10
-575.0162216946978
 20
-39.80292300607167
 30
0.0
 40
2.5
 41
0.0
 46
0.0
 71
     5
 72
     1
  1
451,41
 73
     1
 44
1.0
  0
POINT
  5
489
330
476
100
AcDbEntity
  8
Defpoints
 62
     0
440
 16777216
100
AcDbPoint
 10
-800.7192584712061
 20
355.3594635462159
 30
0.0
  0
POINT
  5
48A
330
476
100
AcDbEntity
  8
Defpoints
 62
     0
440
 16777216
100
AcDbPoint
 10
-349.3131849181895
 20
354.9222717940668
 30
0.0
  0
POINT
  5
48B
330
476
100
AcDbEntity
  8
Defpoints
 62
     0
440
 16777216
100
AcDbPoint
 10
-349.3131849181895
 20
-41.88625633940501
 30
0.0
  0
ENDBLK
  5
478
330
476
100
AcDbEntity
  8
0
100
AcDbBlockEnd
  0
BLOCK
  5
48F
330
48E
100
AcDbEntity
  8
0
100
AcDbBlockBegin
  2
*D5
 70
     1
 10
0.0
 20
0.0
 30
0.0
  3
*D5
  1

  0
LINE
  5
49B
330
48E
100
AcDbEntity
  8
0
 62
     0
440
 16777216
370
    -2
100
AcDbLine
 10
558.9797251066082
 20
268.0084426498826
 30
0.0
 11
558.9797251066082
 21
-29.98344755254766
 31
0.0
  0
LINE
  5
49C
330
48E
100
AcDbEntity
  8
0
 62
     0
440
 16777216
370
    -2
100
AcDbLine
 10
910.3485060788294
 20
268.0084424956772
 30
0.0
 11
910.3485060788294
 21
-29.98344755254766
 31
0.0
  0
LINE
  5
49D
330
48E
100
AcDbEntity
  8
0
 62
     0
440
 16777216
370
    -2
100
AcDbLine
 10
561.4797251066082
 20
-28.73344755254766
 30
0.0
 11
907.8485060788294
 21
-28.73344755254766
 31
0.0
  0
SOLID
  5
49E
330
48E
100
AcDbEntity
  8
0
 62
     0
440
 16777216
100
AcDbTrace
 10
561.4797251066082
 20
-28.31678088588099
 30
0.0
 11
561.4797251066082
 21
-29.15011421921433
 31
0.0
 12
558.9797251066082
 22
-28.73344755254766
 32
0.0
 13
558.9797251066082
 23
-28.73344755254766
 33
0.0
  0
SOLID
  5
49F
330
48E
100
AcDbEntity
  8
0
 62
     0
440
 16777216
100
AcDbTrace
 10
907.8485060788294
 20
-28.31678088588099
 30
0.0
 11
907.8485060788294
 21
-29.15011421921433
 31
0.0
 12
910.3485060788294
 22
-28.73344755254766
 32
0.0
 13
910.3485060788294
 23
-28.73344755254766
 33
0.0
  0
MTEXT
  5
4A0
330
48E
100
AcDbEntity
  8
0
 62
     0
440
 16777216
100
AcDbMText
 10
734.6641155927188
 20
-26.65011421921433
 30
0.0
 40
2.5
 41
0.0
 46
0.0
 71
     5
 72
     1
  1
351,37
 73
     1
 44
1.0
  0
POINT
  5
4A1
330
48E
100
AcDbEntity
  8
Defpoints
 62
     0
440
 16777216
100
AcDbPoint
 10
558.9797251066082
 20
268.6334426498826
 30
0.0
  0
POINT
  5
4A2
330
48E
100
AcDbEntity
  8
Defpoints
 62
     0
440
 16777216
100
AcDbPoint
 10
910.3485060788294
 20
268.6334424956772
 30
0.0
  0
POINT
  5
4A3
330
48E
100
AcDbEntity
  8
Defpoints
 62
     0
440
 16777216
100
AcDbPoint
 10
910.3485060788294
 20
-28.73344755254766
 30
0.0
  0
ENDBLK
  5
490
330
48E
100
AcDbEntity
  8
0
100
AcDbBlockEnd
  0
BLOCK
  5
5D6
330
5D5
100
AcDbEntity
  8
0
100
AcDbBlockBegin
  2
*D8
 70
     1
 10
0.0
 20
0.0
 30
0.0
  3
*D8
  1

  0
LINE
  5
5E2
330
5D5
100
AcDbEntity
  8
0
 62
     0
440
 16777216
370
    -2
100
AcDbLine
 10
253.7974772608703
 20
1375.497280960956
 30
0.0
 11
698.9585352098551
 21
1375.497280960957
 31
0.0
  0
LINE
  5
5E3
330
5D5
100
AcDbEntity
  8
0
 62
     0
440
 16777216
370
    -2
100
AcDbLine
 10
251.8719772506362
 20
931.355280993235
 30
0.0
 11
698.9585352098552
 21
931.3552809932351
 31
0.0
  0
LINE
  5
5E4
330
5D5
100
AcDbEntity
  8
0
 62
     0
440
 16777216
370
    -2
100
AcDbLine
 10
697.708535209855
 20
1372.997280960956
 30
0.0
 11
697.7085352098551
 21
933.8552809932352
 31
0.0
  0
SOLID
  5
5E5
330
5D5
100
AcDbEntity
  8
0
 62
     0
440
 16777216
100
AcDbTrace
 10
697.2918685431884
 20
1372.997280960956
 30
0.0
 11
698.1252018765217
 21
1372.997280960956
 31
0.0
 12
697.708535209855
 22
1375.497280960957
 32
0.0
 13
697.708535209855
 23
1375.497280960957
 33
0.0
  0
SOLID
  5
5E6
330
5D5
100
AcDbEntity
  8
0
 62
     0
440
 16777216
100
AcDbTrace
 10
697.2918685431885
 20
933.8552809932352
 30
0.0
 11
698.1252018765218
 21
933.8552809932352
 31
0.0
 12
697.7085352098551
 22
931.3552809932351
 32
0.0
 13
697.7085352098551
 23
931.3552809932351
 33
0.0
  0
MTEXT
  5
5E7
330
5D5
100
AcDbEntity
  8
0
 62
     0
440
 16777216
100
AcDbMText
 10
695.625201876522
 20
1153.426280977095
 30
0.0
 40
2.5
 41
0.0
 46
0.0
 71
     5
 72
     1
  1
444,14
 11
0.0000000000000001
 21
1.0
 31
0.0
 73
     1
 44
1.0
  0
POINT
  5
5E8
330
5D5
100
AcDbEntity
  8
Defpoints
 62
     0
440
 16777216
100
AcDbPoint
 10
253.1724772608703
 20
1375.497280960956
 30
0.0
  0
POINT
  5
5E9
330
5D5
100
AcDbEntity
  8
Defpoints
 62
     0
440
 16777216
100
AcDbPoint
 10
251.2469772506362
 20
931.355280993235
 30
0.0
  0
POINT
  5
5EA
330
5D5
100
AcDbEntity
  8
Defpoints
 62
     0
440
 16777216
100
AcDbPoint
 10
697.7085352098551
 20
931.3552809932351
 30
0.0
  0
ENDBLK
  5
5D7
330
5D5
100
AcDbEntity
  8
0
100
AcDbBlockEnd
  0
BLOCK
  5
5F2
330
5F1
100
AcDbEntity
  8
0
100
AcDbBlockBegin
  2
*D9
 70
     1
 10
0.0
 20
0.0
 30
0.0
  3
*D9
  1

  0
LINE
  5
B71
330
5F1
100
AcDbEntity
  8
0
 62
     0
440
 16777216
370
    -2
100
AcDbLine
 10
1303.942935917601
 20
1385.436893062689
 30
0.0
 11
1392.283879461031
 21
1385.436893062689
 31
0.0
  0
LINE
  5
B72
330
5F1
100
AcDbEntity
  8
0
 62
     0
440
 16777216
370
    -2
100
AcDbLine
 10
1303.942935917601
 20
935.4368930626886
 30
0.0
 11
1392.283879461031
 21
935.4368930626886
 31
0.0
  0
LINE
  5
B73
330
5F1
100
AcDbEntity
  8
0
 62
     0
440
 16777216
370
    -2
100
AcDbLine
 10
1392.103879461031
 20
1365.436893062688
 30
0.0
 11
1392.103879461031
 21
1252.103559729355
 31
0.0
  0
LINE
  5
B74
330
5F1
100
AcDbEntity
  8
0
 62
     0
440
 16777216
370
    -2
100
AcDbLine
 10
1392.103879461031
 20
955.4368930626885
 30
0.0
 11
1392.103879461031
 21
1068.770226396022
 31
0.0
  0
SOLID
  5
B75
330
5F1
100
AcDbEntity
  8
0
 62
     0
440
 16777216
100
AcDbTrace
 10
1388.770546127698
 20
1365.436893062688
 30
0.0
 11
1395.437212794364
 21
1365.436893062688
 31
0.0
 12
1392.103879461031
 22
1385.436893062689
 32
0.0
 13
1392.103879461031
 23
1385.436893062689
 33
0.0
  0
SOLID
  5
B76
330
5F1
100
AcDbEntity
  8
0
 62
     0
440
 16777216
100
AcDbTrace
 10
1388.770546127698
 20
955.4368930626885
 30
0.0
 11
1395.437212794364
 21
955.4368930626885
 31
0.0
 12
1392.103879461031
 22
935.4368930626886
 32
0.0
 13
1392.103879461031
 23
935.4368930626886
 33
0.0
  0
MTEXT
  5
B77
330
5F1
100
AcDbEntity
  8
0
 62
     0
440
 16777216
100
AcDbMText
 10
1392.103879461031
 20
1160.436893062688
 30
0.0
 40
20.0
 41
0.0
 46
0.0
 71
     5
 72
     1
  1
\A1;450 - 500
 11
0.0000000000000001
 21
1.0
 31
0.0
 73
     1
 44
1.0
  0
POINT
  5
B78
330
5F1
100
AcDbEntity
  8
Defpoints
 62
     0
440
 16777216
100
AcDbPoint
 10
1303.880435917601
 20
1385.436893062689
 30
0.0
  0
POINT
  5
B79
330
5F1
100
AcDbEntity
  8
Defpoints
 62
     0
440
 16777216
100
AcDbPoint
 10
1303.880435917601
 20
935.4368930626886
 30
0.0
  0
POINT
  5
B7A
330
5F1
100
AcDbEntity
  8
Defpoints
 62
     0
440
 16777216
100
AcDbPoint
 10
1392.103879461031
 20
935.4368930626886
 30
0.0
  0
ENDBLK
  5
5F3
330
5F1
100
AcDbEntity
  8
0
100
AcDbBlockEnd
  0
BLOCK
  5
609
330
608
100
AcDbEntity
  8
0
100
AcDbBlockBegin
  2
*D10
 70
     1
 10
0.0
 20
0.0
 30
0.0
  3
*D10
  1

  0
LINE
  5
60A
330
608
100
AcDbEntity
  8
0
 62
     0
440
 16777216
370
    -2
100
AcDbLine
 10
8827.271211518562
 20
3629.287160529622
 30
0.0
 11
8933.579193293446
 21
3629.287160529622
 31
0.0
  0
LINE
  5
60B
330
608
100
AcDbEntity
  8
0
 62
     0
440
 16777216
370
    -2
100
AcDbLine
 10
8827.271211518562
 20
4394.208989478697
 30
0.0
 11
8933.579193293448
 21
4394.208989478697
 31
0.0
  0
LINE
  5
60C
330
608
100
AcDbEntity
  8
0
 62
     0
440
 16777216
370
    -2
100
AcDbLine
 10
8933.399193293446
 20
3649.287160529623
 30
0.0
 11
8933.399193293446
 21
3985.081408337493
 31
0.0
  0
LINE
  5
60D
330
608
100
AcDbEntity
  8
0
 62
     0
440
 16777216
370
    -2
100
AcDbLine
 10
8933.399193293448
 20
4374.208989478697
 30
0.0
 11
8933.399193293446
 21
4038.414741670826
 31
0.0
  0
SOLID
  5
60E
330
608
100
AcDbEntity
  8
0
 62
     0
440
 16777216
100
AcDbTrace
 10
8930.065859960112
 20
3649.287160529623
 30
0.0
 11
8936.73252662678
 21
3649.287160529623
 31
0.0
 12
8933.399193293446
 22
3629.287160529622
 32
0.0
 13
8933.399193293446
 23
3629.287160529622
 33
0.0
  0
SOLID
  5
60F
330
608
100
AcDbEntity
  8
0
 62
     0
440
 16777216
100
AcDbTrace
 10
8930.065859960114
 20
4374.208989478697
 30
0.0
 11
8936.732526626782
 21
4374.208989478697
 31
0.0
 12
8933.399193293448
 22
4394.208989478697
 32
0.0
 13
8933.399193293448
 23
4394.208989478697
 33
0.0
  0
MTEXT
  5
610
330
608
100
AcDbEntity
  8
0
 62
     0
440
 16777216
100
AcDbMText
 10
8933.399193293446
 20
4011.74807500416
 30
0.0
 40
20.0
 41
0.0
 46
0.0
 71
     5
 72
     1
  1
\A1;W1
 11
0.0000000000000001
 21
1.0
 31
0.0
 73
     1
 44
1.0
  0
POINT
  5
611
330
608
100
AcDbEntity
  8
Defpoints
 62
     0
440
 16777216
100
AcDbPoint
 10
8827.208711518563
 20
3629.287160529622
 30
0.0
  0
POINT
  5
612
330
608
100
AcDbEntity
  8
Defpoints
 62
     0
440
 16777216
100
AcDbPoint
 10
8827.208711518563
 20
4394.208989478697
 30
0.0
  0
POINT
  5
613
330
608
100
AcDbEntity
  8
Defpoints
 62
     0
440
 16777216
100
AcDbPoint
 10
8933.399193293448
 20
4394.208989478697
 30
0.0
  0
ENDBLK
  5
614
330
608
100
AcDbEntity
  8
0
100
AcDbBlockEnd
  0
BLOCK
  5
61F
330
61E
100
AcDbEntity
  8
0
100
AcDbBlockBegin
  2
*D12
 70
     1
 10
0.0
 20
0.0
 30
0.0
  3
*D12
  1

  0
LINE
  5
62B
330
61E
100
AcDbEntity
  8
0
 62
     0
440
 16777216
370
    -2
100
AcDbLine
 10
1889.478745376819
 20
886.172568930961
 30
0.0
 11
1995.786727151705
 21
886.172568930961
 31
0.0
  0
LINE
  5
62C
330
61E
100
AcDbEntity
  8
0
 62
     0
440
 16777216
370
    -2
100
AcDbLine
 10
1889.478745376819
 20
1651.094397880036
 30
0.0
 11
1995.786727151705
 21
1651.094397880036
 31
0.0
  0
LINE
  5
62D
330
61E
100
AcDbEntity
  8
0
 62
     0
440
 16777216
370
    -2
100
AcDbLine
 10
1995.606727151705
 20
906.1725689309609
 30
0.0
 11
1995.606727151705
 21
1241.966816738832
 31
0.0
  0
LINE
  5
62E
330
61E
100
AcDbEntity
  8
0
 62
     0
440
 16777216
370
    -2
100
AcDbLine
 10
1995.606727151705
 20
1631.094397880036
 30
0.0
 11
1995.606727151705
 21
1295.300150072165
 31
0.0
  0
SOLID
  5
62F
330
61E
100
AcDbEntity
  8
0
 62
     0
440
 16777216
100
AcDbTrace
 10
1992.273393818372
 20
906.1725689309609
 30
0.0
 11
1998.940060485038
 21
906.1725689309609
 31
0.0
 12
1995.606727151705
 22
886.172568930961
 32
0.0
 13
1995.606727151705
 23
886.172568930961
 33
0.0
  0
SOLID
  5
630
330
61E
100
AcDbEntity
  8
0
 62
     0
440
 16777216
100
AcDbTrace
 10
1992.273393818372
 20
1631.094397880036
 30
0.0
 11
1998.940060485038
 21
1631.094397880036
 31
0.0
 12
1995.606727151705
 22
1651.094397880036
 32
0.0
 13
1995.606727151705
 23
1651.094397880036
 33
0.0
  0
MTEXT
  5
631
330
61E
100
AcDbEntity
  8
0
 62
     0
440
 16777216
100
AcDbMText
 10
1995.606727151705
 20
1268.633483405497
 30
0.0
 40
20.0
 41
0.0
 46
0.0
 71
     5
 72
     1
  1
\A1;W1
 11
0.0000000000000001
 21
1.0
 31
0.0
 73
     1
 44
1.0
  0
POINT
  5
632
330
61E
100
AcDbEntity
  8
Defpoints
 62
     0
440
 16777216
100
AcDbPoint
 10
1889.416245376819
 20
886.172568930961
 30
0.0
  0
POINT
  5
633
330
61E
100
AcDbEntity
  8
Defpoints
 62
     0
440
 16777216
100
AcDbPoint
 10
1889.416245376819
 20
1651.094397880036
 30
0.0
  0
POINT
  5
634
330
61E
100
AcDbEntity
  8
Defpoints
 62
     0
440
 16777216
100
AcDbPoint
 10
1995.606727151705
 20
1651.094397880036
 30
0.0
  0
ENDBLK
  5
620
330
61E
100
AcDbEntity
  8
0
100
AcDbBlockEnd
  0
ENDSEC
  0
SECTION
  2
ENTITIES
  0
LWPOLYLINE
  5
CA5
330
1F
100
AcDbEntity
  8
Hewi
  6
CUSTOM
 62
    18
420
        0
370
     9
100
AcDbPolyline
 90
       30
 70
     0
 43
0.0
 10
616.1332130644623
 20
973.7669861943013
 10
616.1332130644623
 20
1123.766985704631
 10
616.1332130644623
 20
1125.887985697707
 10
616.1332130644623
 20
1127.913985691093
 10
616.1332130644623
 20
1129.164985687008
 10
616.1332130644623
 20
1130.657985682135
 10
616.1332130644623
 20
1132.122985677352
 10
616.1332130644623
 20
1133.14398567402
 10
616.1332130644623
 20
1133.559985672662
 10
616.1332130644623
 20
1133.766985671986
 10
612.1332129235051
 20
1133.766985671986
 10
612.1332129235051
 20
1133.375985673261
 10
612.1332129235051
 20
1132.243985676958
 10
612.1332129235051
 20
1131.110985680656
 10
612.1332129235051
 20
1130.33498568319
 10
612.1332129235051
 20
1128.096985690496
 10
612.1332129235051
 20
1125.547985698817
 10
612.1332129235051
 20
1123.766985704631
 10
612.1332129235051
 20
973.7669861943013
 10
611.7992129117374
 20
971.9709862001636
 10
610.9792128828412
 20
970.5719862047317
 10
609.755212839711
 20
969.5089862082005
 10
608.495212795311
 20
968.9559862100068
 10
607.1332127473142
 20
968.7669862106249
 10
587.1332120425468
 20
968.7669862106249
 10
585.3372119792547
 20
969.1009862095325
 10
583.9382119299589
 20
969.9209862068565
 10
582.8752118925003
 20
971.1449862028603
 10
582.3222118730118
 20
972.4049861987477
 10
582.1332118663522
 20
973.7669861943013
  0
LWPOLYLINE
  5
CA6
330
1F
100
AcDbEntity
  8
Hewi
  6
CUSTOM
 62
    18
420
        0
370
     9
100
AcDbPolyline
 90
        3
 70
     0
 43
0.0
 10
578.1332117254023
 20
973.7669861943013
 10
578.432211735937
 20
971.4659862018143
 10
578.7342117465741
 20
970.533986204855
  0
LWPOLYLINE
  5
CA7
330
1F
100
AcDbEntity
  8
Hewi
  6
CUSTOM
 62
    18
420
        0
370
     9
100
AcDbPolyline
 90
       19
 70
     0
 43
0.0
 10
582.1332118663522
 20
993.0845169718741
 10
582.1332118663522
 20
1123.766985704631
 10
582.1332118663522
 20
1125.887985697707
 10
582.1332118663522
 20
1127.913985691093
 10
582.1332118663522
 20
1129.164985687008
 10
582.1332118663522
 20
1130.657985682135
 10
582.1332118663522
 20
1132.122985677352
 10
582.1332118663522
 20
1133.14398567402
 10
582.1332118663522
 20
1133.559985672662
 10
582.1332118663522
 20
1133.766985671986
 10
578.1332117254023
 20
1133.766985671986
 10
578.1332117254023
 20
1133.375985673261
 10
578.1332117254023
 20
1132.243985676958
 10
578.1332117254023
 20
1131.110985680656
 10
578.1332117254023
 20
1130.33498568319
 10
578.1332117254023
 20
1128.096985690496
 10
578.1332117254023
 20
1125.547985698817
 10
578.1332117254023
 20
1123.766985704631
 10
578.1332117254023
 20
994.6432983820104
  0
LINE
  5
CA8
330
1F
100
AcDbEntity
  8
Hewi
  6
CUSTOM
 62
    18
420
        0
370
     9
100
AcDbLine
 10
578.7342117465741
 20
970.533986204855
 30
0.0
 11
578.1332117254023
 21
973.7669861943013
 31
0.0
  0
LINE
  5
CA9
330
1F
100
AcDbEntity
  8
Hewi
  6
CUSTOM
 62
    18
420
        0
370
     9
100
AcDbLine
 10
607.1332127473142
 20
964.7669862236817
 30
0.0
 11
587.1332120425468
 21
964.7669862236817
 31
0.0
  0
LWPOLYLINE
  5
CAA
330
1F
100
AcDbEntity
  8
Hewi
  6
CUSTOM
 62
    18
420
        0
370
     9
100
AcDbPolyline
 90
        3
 70
     0
 43
0.0
 10
612.8842129499717
 20
966.8439862169016
 10
611.0972128870017
 20
965.6869862206786
 10
610.6212133844346
 20
965.5174622986088
  0
LINE
  5
CAB
330
1F
100
AcDbEntity
  8
Hewi
  6
CUSTOM
 62
    18
420
        0
370
     9
100
AcDbLine
 10
587.1332120425468
 20
964.7669862236817
 30
0.0
 11
584.68121195614
 21
965.1079862225687
 31
0.0
  0
LWPOLYLINE
  5
CAC
330
1F
100
AcDbEntity
  8
Hewi
  6
CUSTOM
 62
    18
420
        0
370
     9
100
AcDbPolyline
 90
        4
 70
     0
 43
0.0
 10
580.2102117985887
 20
968.0159862130748
 10
580.3132118022185
 20
967.8939862134738
 10
582.2392118700881
 20
966.2139862189578
 10
582.4142118762538
 20
966.102986219319
  0
LWPOLYLINE
  5
CAD
330
1F
100
AcDbEntity
  8
Hewi
  6
CUSTOM
 62
    18
420
        0
370
     9
100
AcDbPolyline
 90
        4
 70
     0
 43
0.0
 10
612.8842129499717
 20
966.8439862169016
 10
612.9442129520866
 20
966.8939862167372
 10
614.4472130050489
 20
968.5219862114227
 10
614.7972130173839
 20
969.0479862097054
  0
LINE
  5
CAE
330
1F
100
AcDbEntity
  8
Hewi
  6
CUSTOM
 62
    18
420
        0
370
     9
100
AcDbLine
 10
582.4142118762538
 20
966.102986219319
 30
0.0
 11
580.2102117985887
 21
968.0159862130748
 31
0.0
  0
LWPOLYLINE
  5
CAF
330
1F
100
AcDbEntity
  8
Hewi
  6
CUSTOM
 62
    18
420
        0
370
     9
100
AcDbPolyline
 90
        3
 70
     0
 43
0.0
 10
587.1332120425468
 20
964.7669862236817
 10
586.1722120086815
 20
964.8179862235174
 10
584.68121195614
 20
965.1079862225687
  0
LINE
  5
CB0
330
1F
100
AcDbEntity
  8
Hewi
  6
CUSTOM
 62
    18
420
        0
370
     9
100
AcDbLine
 10
616.1332130644623
 20
973.7669861943013
 30
0.0
 11
615.7922130524493
 21
971.3149862023074
 31
0.0
  0
LWPOLYLINE
  5
CB1
330
1F
100
AcDbEntity
  8
Hewi
  6
CUSTOM
 62
    18
420
        0
370
     9
100
AcDbPolyline
 90
        3
 70
     0
 43
0.0
 10
616.1332130644623
 20
973.7669861943013
 10
615.8852130557242
 20
971.6689862011516
 10
615.7922130524493
 20
971.3149862023074
  0
LWPOLYLINE
  5
CB2
330
1F
100
AcDbEntity
  8
Hewi
  6
CUSTOM
 62
    18
420
        0
370
     9
100
AcDbPolyline
 90
        3
 70
     0
 43
0.0
 10
614.7972130173839
 20
969.0479862097054
 10
615.228213032573
 20
969.8329862071441
 10
615.7922130524493
 20
971.3149862023074
  0
LINE
  5
CB3
330
1F
100
AcDbEntity
  8
Hewi
  6
CUSTOM
 62
    18
420
        0
370
     9
100
AcDbLine
 10
614.7972130173839
 20
969.0479862097054
 30
0.0
 11
612.8842129499717
 21
966.8439862169016
 31
0.0
  0
LINE
  5
CB4
330
1F
100
AcDbEntity
  8
Hewi
  6
CUSTOM
 62
    18
420
        0
370
     9
100
AcDbLine
 10
580.2102117985887
 20
968.0159862130748
 30
0.0
 11
578.7342117465741
 21
970.533986204855
 31
0.0
  0
LINE
  5
CB5
330
1F
100
AcDbEntity
  8
Hewi
  6
CUSTOM
 62
    18
420
        0
370
     9
100
AcDbLine
 10
615.7922130524493
 20
971.3149862023074
 30
0.0
 11
614.7972130173839
 21
969.0479862097054
 31
0.0
  0
LWPOLYLINE
  5
CB6
330
1F
100
AcDbEntity
  8
Hewi
  6
CUSTOM
 62
    18
420
        0
370
     9
100
AcDbPolyline
 90
        3
 70
     0
 43
0.0
 10
607.1332127473142
 20
964.7669862236817
 10
609.1682128190259
 20
964.9999862229215
 10
610.3662128612413
 20
965.3679862217195
  0
LWPOLYLINE
  5
CB7
330
1F
100
AcDbEntity
  8
Hewi
  6
CUSTOM
 62
    18
420
        0
370
     9
100
AcDbPolyline
 90
        3
 70
     0
 43
0.0
 10
580.2102117985887
 20
968.0159862130748
 10
579.191211762678
 20
969.5339862081199
 10
578.9287015671179
 20
970.2021939529222
  0
LINE
  5
CB8
330
1F
100
AcDbEntity
  8
Hewi
  6
CUSTOM
 62
    18
420
        0
370
     9
100
AcDbLine
 10
584.68121195614
 20
965.1079862225687
 30
0.0
 11
582.4142118762538
 21
966.102986219319
 31
0.0
  0
LINE
  5
CB9
330
1F
100
AcDbEntity
  8
Hewi
  6
CUSTOM
 62
    18
420
        0
370
     9
100
AcDbLine
 10
612.8842129499717
 20
966.8439862169016
 30
0.0
 11
610.3662128612413
 21
965.3679862217195
 31
0.0
  0
LWPOLYLINE
  5
CBA
330
1F
100
AcDbEntity
  8
Hewi
  6
CUSTOM
 62
    18
420
        0
370
     9
100
AcDbPolyline
 90
        3
 70
     0
 43
0.0
 10
584.68121195614
 20
965.1079862225687
 10
584.5272119507135
 20
965.1529862224215
 10
583.6169139879166
 20
965.5751130149637
  0
LWPOLYLINE
  5
CBB
330
1F
100
AcDbEntity
  8
Hewi
  6
CUSTOM
 62
    18
420
        0
370
     9
100
AcDbPolyline
 90
       10
 70
     0
 43
0.0
 10
612.1332129235051
 20
1131.266985680147
 10
606.1332127120768
 20
1131.266985680147
 10
606.1332127120768
 20
1131.14698568054
 10
606.1332127120768
 20
1130.578985682392
 10
606.1332127120768
 20
1129.579985685655
 10
606.1332127120768
 20
1128.692985688549
 10
606.1332127120768
 20
1127.013985694031
 10
606.1332127120768
 20
1125.10298570027
 10
606.1332127120768
 20
1123.766985704631
 10
606.1332127120768
 20
968.7669862106249
  0
LINE
  5
CBC
330
1F
100
AcDbEntity
  8
Hewi
  6
CUSTOM
 62
    18
420
        0
370
     9
100
AcDbLine
 10
610.9981524290233
 20
970.6042989199177
 30
0.0
 11
610.9630922611868
 21
970.5579860209564
 31
0.0
  0
LINE
  5
CBD
330
1F
100
AcDbEntity
  8
Hewi
  6
CUSTOM
 62
    18
420
        0
370
     9
100
AcDbLine
 10
610.3684651730909
 20
970.0415737942986
 30
0.0
 11
609.7035046636592
 21
969.4862920516298
 31
0.0
  0
LINE
  5
CBE
330
1F
100
AcDbEntity
  8
Hewi
  6
CUSTOM
 62
    18
420
        0
370
     9
100
AcDbLine
 10
609.8380464340916
 20
969.580924207692
 30
0.0
 11
609.7163752934248
 21
969.4919408395854
 31
0.0
  0
LINE
  5
CBF
330
1F
100
AcDbEntity
  8
Hewi
  6
CUSTOM
 62
    18
420
        0
370
     9
100
AcDbLine
 10
611.7811752872221
 20
971.9453621520152
 30
0.0
 11
611.7796904874849
 21
971.9376790334591
 31
0.0
  0
LWPOLYLINE
  5
CC0
330
1F
100
AcDbEntity
  8
Hewi
  6
CUSTOM
 62
    18
420
        0
370
     9
100
AcDbPolyline
 90
        8
 70
     0
 43
0.0
 10
588.1332120777842
 20
990.7463397157716
 10
588.1332120777842
 20
1123.766985704631
 10
588.1332120777842
 20
1125.810985697959
 10
588.1332120777842
 20
1127.698985691793
 10
588.1332120777842
 20
1129.535985685799
 10
588.1332120777842
 20
1130.765985681782
 10
588.1332120777842
 20
1131.266985680147
 10
582.1332118663522
 20
1131.266985680147
  0
LINE
  5
CC1
330
1F
100
AcDbEntity
  8
Hewi
  6
CUSTOM
 62
    18
420
        0
370
     9
100
AcDbLine
 10
582.1332118663522
 20
973.7669861943013
 30
0.0
 11
582.1332118663522
 21
975.9125296023976
 31
0.0
  0
LINE
  5
CC2
330
1F
100
AcDbEntity
  8
Hewi
  6
CUSTOM
 62
    18
420
        0
370
     9
100
AcDbLine
 10
588.1332120777842
 20
968.7669862106249
 30
0.0
 11
588.1332120777842
 21
973.5743523835463
 31
0.0
  0
LINE
  5
CC3
330
1F
100
AcDbEntity
  8
Hewi
  6
CUSTOM
 62
    18
420
        0
370
     9
100
AcDbLine
 10
582.3528382901786
 20
972.3989222888794
 30
0.0
 11
582.3079999813963
 21
972.5074020640112
 31
0.0
  0
LINE
  5
CC4
330
1F
100
AcDbEntity
  8
Hewi
  6
CUSTOM
 62
    18
420
        0
370
     9
100
AcDbLine
 10
582.8436925005662
 20
971.216802534489
 30
0.0
 11
582.9041395712701
 21
971.1116771981851
 31
0.0
  0
LINE
  5
CC5
330
1F
100
AcDbEntity
  8
Hewi
  6
CUSTOM
 62
    18
420
        0
370
     9
100
AcDbLine
 10
582.9212191344486
 20
971.0920107907694
 30
0.0
 11
582.7597475587135
 21
971.4080694830427
 31
0.0
  0
LINE
  5
CC6
330
1F
100
AcDbEntity
  8
Hewi
  6
CUSTOM
 62
    18
420
        0
370
     9
100
AcDbLine
 10
609.3754989971385
 20
969.3423340281642
 30
0.0
 11
608.3222429667475
 21
968.9319837876936
 31
0.0
  0
LINE
  5
CC7
330
1F
100
AcDbEntity
  8
Hewi
  6
CUSTOM
 62
    18
420
        0
370
     9
100
AcDbLine
 10
583.8943717499823
 20
969.9714663371869
 30
0.0
 11
584.0650480310723
 21
969.8466433901502
 31
0.0
  0
LINE
  5
CC8
330
1F
100
AcDbEntity
  8
Hewi
  6
CUSTOM
 62
    18
420
        0
370
     9
100
AcDbLine
 10
585.3426838698978
 20
969.0999686084142
 30
0.0
 11
583.8721551022318
 21
969.9970478993218
 31
0.0
  0
LINE
  5
CC9
330
1F
100
AcDbEntity
  8
Hewi
  6
CUSTOM
 62
    18
420
        0
370
     9
100
AcDbLine
 10
582.2872593995708
 20
972.6568659219502
 30
0.0
 11
582.3913419125201
 21
972.2474747201212
 31
0.0
  0
LINE
  5
CCA
330
1F
100
AcDbEntity
  8
Hewi
  6
CUSTOM
 62
    18
420
        0
370
     9
100
AcDbLine
 10
582.4206365308018
 20
972.1807274940365
 30
0.0
 11
582.1332118663522
 21
973.7669861943013
 31
0.0
  0
LWPOLYLINE
  5
CCB
330
1F
100
AcDbEntity
  8
Hewi
  6
CUSTOM
 62
    18
420
        0
370
     9
100
AcDbPolyline
 90
        3
 70
     0
 43
0.0
 10
611.1332128882677
 20
1186.766985498969
 10
611.1232128879164
 20
1188.525985493228
 10
611.0807388449575
 20
1188.974617554706
  0
LINE
  5
CCC
330
1F
100
AcDbEntity
  8
Hewi
  6
CUSTOM
 62
    18
420
        0
370
     9
100
AcDbLine
 10
610.9767535580504
 20
1190.053376442409
 30
0.0
 11
610.9684912375232
 21
1190.074847421682
 31
0.0
  0
LINE
  5
CCD
330
1F
100
AcDbEntity
  8
Hewi
  6
CUSTOM
 62
    18
420
        0
370
     9
100
AcDbLine
 10
611.0741429569461
 20
970.7339461682405
 30
0.0
 11
610.9508856368448
 21
970.5473850242597
 31
0.0
  0
LINE
  5
CCE
330
1F
100
AcDbEntity
  8
Hewi
  6
CUSTOM
 62
    18
420
        0
370
     9
100
AcDbLine
 10
608.1805794073879
 20
1191.730959875536
 30
0.0
 11
607.6962081415949
 21
1191.759104833225
 31
0.0
  0
LINE
  5
CCF
330
1F
100
AcDbEntity
  8
Hewi
  6
CUSTOM
 62
    18
420
        0
370
     9
100
AcDbLine
 10
611.7606794833809
 20
971.905244414971
 30
0.0
 11
611.8020440552172
 21
971.9862099497513
 31
0.0
  0
LINE
  5
CD0
330
1F
100
AcDbEntity
  8
Hewi
  6
CUSTOM
 62
    18
420
        0
370
     9
100
AcDbLine
 10
585.3397967390883
 20
969.1005055248606
 30
0.0
 11
585.3300511495181
 21
969.1051834076715
 31
0.0
  0
LINE
  5
CD1
330
1F
100
AcDbEntity
  8
Hewi
  6
CUSTOM
 62
    18
420
        0
370
     9
100
AcDbLine
 10
610.3662128612413
 20
965.3679862217195
 30
0.0
 11
607.1332127473142
 21
964.7669862236817
 31
0.0
  0
LINE
  5
CD2
330
1F
100
AcDbEntity
  8
Hewi
  6
CUSTOM
 62
    18
420
        0
370
     9
100
AcDbLine
 10
578.1332117254023
 20
977.4713135271031
 30
0.0
 11
578.1332117254023
 21
973.7669861943013
 31
0.0
  0
LINE
  5
CD3
330
1F
100
AcDbEntity
  8
Hewi
  6
CUSTOM
 62
    18
420
        0
370
     9
100
AcDbLine
 10
611.8799419242095
 20
972.4050859025355
 30
0.0
 11
611.6890474129395
 21
971.7830331225068
 31
0.0
  0
LINE
  5
CD4
330
1F
100
AcDbEntity
  8
Hewi
  6
CUSTOM
 62
    18
420
        0
370
     9
100
AcDbLine
 10
582.894922049516
 20
971.1277076724382
 30
0.0
 11
582.8687061602067
 21
971.1598093729971
 31
0.0
  0
LWPOLYLINE
  5
CD5
330
1F
100
AcDbEntity
  8
Hewi
  6
CUSTOM
 62
    18
420
        0
370
     9
100
AcDbPolyline
 90
        3
 70
     0
 43
0.0
 10
555.8742109410268
 20
1215.825985404106
 10
556.0312109465558
 20
1215.888985403902
 10
556.4584931006793
 20
1216.013199724453
  0
LWPOLYLINE
  5
CD6
330
1F
100
AcDbEntity
  8
Hewi
  6
CUSTOM
 62
    18
420
        0
370
     9
100
AcDbPolyline
 90
        9
 70
     0
 43
0.0
 10
550.4812277191777
 20
1211.487576075384
 10
549.8782107297338
 20
1210.637985421042
 10
549.3452107109515
 20
1209.636985424309
 10
549.3232107101793
 20
1209.588985424467
 10
548.4402106790621
 20
1207.018985432856
 10
548.3622106763105
 20
1206.648985434065
 10
548.1332106682457
 20
1204.266985441842
 10
548.1512106688787
 20
1203.587985444055
 10
548.1885463288745
 20
1203.317069402033
  0
LINE
  5
CD7
330
1F
100
AcDbEntity
  8
Hewi
  6
CUSTOM
 62
    18
420
        0
370
     9
100
AcDbLine
 10
609.6538485407181
 20
1191.507810574259
 30
0.0
 11
609.2275669852388
 21
1191.623112787192
 31
0.0
  0
LWPOLYLINE
  5
CD8
330
1F
100
AcDbEntity
  8
Hewi
  6
CUSTOM
 62
    18
420
        0
370
     9
100
AcDbPolyline
 90
        3
 70
     0
 43
0.0
 10
558.207211023233
 20
1216.52898540181
 10
558.2912110261968
 20
1216.545985401757
 10
560.6332111087286
 20
1216.766985401035
  0
LWPOLYLINE
  5
CD9
330
1F
100
AcDbEntity
  8
Hewi
  6
CUSTOM
 62
    18
420
        0
370
     9
100
AcDbPolyline
 90
        6
 70
     0
 43
0.0
 10
555.8742109410268
 20
1215.825985404106
 10
554.4142108895721
 20
1215.109985406443
 10
553.3192108509865
 20
1214.403985408749
 10
551.4622107855502
 20
1212.759985414114
 10
551.0692107717041
 20
1212.315985415565
 10
550.8663778127411
 20
1212.030214053657
  0
LWPOLYLINE
  5
CDA
330
1F
100
AcDbEntity
  8
Hewi
  6
CUSTOM
 62
    18
420
        0
370
     9
100
AcDbPolyline
 90
        6
 70
     0
 43
0.0
 10
551.6422107918952
 20
1195.582985470189
 10
549.4602107150021
 20
1198.661985460137
 10
548.745210689809
 20
1200.403985454452
 10
548.469210680083
 20
1201.386985451241
 10
548.4322106787804
 20
1201.548985450714
 10
548.3114630938762
 20
1202.42515739426
  0
LWPOLYLINE
  5
CDB
330
1F
100
AcDbEntity
  8
Hewi
  6
CUSTOM
 62
    18
420
        0
370
     9
100
AcDbPolyline
 90
        3
 70
     0
 43
0.0
 10
550.1732107401294
 20
1203.351985444828
 10
550.1332107387206
 20
1204.265985441843
 10
550.3232107454168
 20
1206.254985435351
  0
LINE
  5
CDC
330
1F
100
AcDbEntity
  8
Hewi
  6
CUSTOM
 62
    18
420
        0
370
     9
100
AcDbLine
 10
610.5459735707372
 20
1190.942790309316
 30
0.0
 11
610.2632027941399
 21
1191.193048853854
 31
0.0
  0
LWPOLYLINE
  5
CDD
330
1F
100
AcDbEntity
  8
Hewi
  6
CUSTOM
 62
    18
420
        0
370
     9
100
AcDbPolyline
 90
        3
 70
     0
 43
0.0
 10
568.6018506198998
 20
1194.716745835287
 10
569.1122114075114
 20
1195.082985471821
 10
570.1372114436308
 20
1196.146985468347
  0
LINE
  5
CDE
330
1F
100
AcDbEntity
  8
Hewi
  6
CUSTOM
 62
    18
420
        0
370
     9
100
AcDbLine
 10
557.0422109821847
 20
1214.133985409631
 30
0.0
 11
559.2622110604097
 21
1214.676985407857
 31
0.0
  0
LWPOLYLINE
  5
CDF
330
1F
100
AcDbEntity
  8
Hewi
  6
CUSTOM
 62
    18
420
        0
370
     9
100
AcDbPolyline
 90
        7
 70
     0
 43
0.0
 10
560.6332111087286
 20
1191.766985482647
 10
563.173211198231
 20
1192.027985481794
 10
563.7422112182794
 20
1192.159985481363
 10
565.6072112840011
 20
1192.798985479277
 10
566.619211319663
 20
1193.293985477661
 10
568.0632113705469
 20
1194.214985474655
 10
570.1372114436308
 20
1196.146985468347
  0
LINE
  5
CE0
330
1F
100
AcDbEntity
  8
Hewi
  6
CUSTOM
 62
    18
420
        0
370
     9
100
AcDbLine
 10
548.1885463288745
 20
1203.317069402033
 30
0.0
 11
548.3114630938762
 21
1202.42515739426
 31
0.0
  0
LWPOLYLINE
  5
CE1
330
1F
100
AcDbEntity
  8
Hewi
  6
CUSTOM
 62
    18
420
        0
370
     9
100
AcDbPolyline
 90
        5
 70
     0
 43
0.0
 10
554.6112108965171
 20
1193.3129854776
 10
554.6432108976441
 20
1193.295985477656
 10
557.5352109995547
 20
1192.156985481373
 10
557.5422109997998
 20
1192.15498548138
 10
560.6332111087286
 20
1191.766985482647
  0
LWPOLYLINE
  5
CE2
330
1F
100
AcDbEntity
  8
Hewi
  6
CUSTOM
 62
    18
420
        0
370
     9
100
AcDbPolyline
 90
        3
 70
     0
 43
0.0
 10
551.6422107918952
 20
1195.582985470189
 10
551.9992108044752
 20
1195.227985471347
 10
552.8678541189292
 20
1194.525470217833
  0
LWPOLYLINE
  5
CE3
330
1F
100
AcDbEntity
  8
Hewi
  6
CUSTOM
 62
    18
420
        0
370
     9
100
AcDbPolyline
 90
       11
 70
     0
 43
0.0
 10
571.1132114780229
 20
1211.080985419598
 10
570.3322114505026
 20
1212.152985416096
 10
569.3082114144199
 20
1213.266985412461
 10
568.9062114002517
 20
1213.636985411252
 10
567.9802113676232
 20
1214.379985408828
 10
567.0572113350972
 20
1214.989985406835
 10
565.4132112771658
 20
1215.816985404135
 10
565.3652112754716
 20
1215.836985404072
 10
563.0442111936827
 20
1216.531985401801
 10
562.5942111778276
 20
1216.61198540154
 10
560.6332111087286
 20
1216.766985401035
  0
LINE
  5
CE4
330
1F
100
AcDbEntity
  8
Hewi
  6
CUSTOM
 62
    18
420
        0
370
     9
100
AcDbLine
 10
572.6172115310219
 20
1207.820985430238
 30
0.0
 11
571.1132114780229
 21
1211.080985419598
 31
0.0
  0
LWPOLYLINE
  5
CE5
330
1F
100
AcDbEntity
  8
Hewi
  6
CUSTOM
 62
    18
420
        0
370
     9
100
AcDbPolyline
 90
        3
 70
     0
 43
0.0
 10
551.6422107918952
 20
1195.582985470189
 10
550.0572107360421
 20
1197.603985463591
 10
549.933299764798
 20
1197.86842959935
  0
LWPOLYLINE
  5
CE6
330
1F
100
AcDbEntity
  8
Hewi
  6
CUSTOM
 62
    18
420
        0
370
     9
100
AcDbPolyline
 90
        3
 70
     0
 43
0.0
 10
571.1132114780229
 20
1211.080985419598
 10
571.9612115079071
 20
1209.551985424588
 10
572.6172115310219
 20
1207.820985430238
  0
LINE
  5
CE7
330
1F
100
AcDbEntity
  8
Hewi
  6
CUSTOM
 62
    18
420
        0
370
     9
100
AcDbLine
 10
552.8922108359402
 20
1197.172985464998
 30
0.0
 11
551.5402107883018
 21
1199.01698545898
 31
0.0
  0
LWPOLYLINE
  5
CE8
330
1F
100
AcDbEntity
  8
Hewi
  6
CUSTOM
 62
    18
420
        0
370
     9
100
AcDbPolyline
 90
        4
 70
     0
 43
0.0
 10
573.1332115492041
 20
1204.266985441842
 10
573.0782115472684
 20
1205.433985438032
 10
572.9122115414175
 20
1206.608985434197
 10
572.6172115310219
 20
1207.820985430238
  0
LINE
  5
CE9
330
1F
100
AcDbEntity
  8
Hewi
  6
CUSTOM
 62
    18
420
        0
370
     9
100
AcDbLine
 10
563.3512112045027
 20
1194.124985474949
 30
0.0
 11
561.0912111248653
 21
1193.776985476084
 31
0.0
  0
LWPOLYLINE
  5
CEA
330
1F
100
AcDbEntity
  8
Hewi
  6
CUSTOM
 62
    18
420
        0
370
     9
100
AcDbPolyline
 90
        7
 70
     0
 43
0.0
 10
570.1372114436308
 20
1196.146985468347
 10
570.5042114565658
 20
1196.597985466875
 10
571.1872114806283
 20
1197.568985463707
 10
571.2532114829555
 20
1197.67498546336
 10
572.50921152722
 20
1200.364985454578
 10
572.6542115323281
 20
1200.838985453032
 10
573.1332115492041
 20
1204.266985441842
  0
LINE
  5
CEB
330
1F
100
AcDbEntity
  8
Hewi
  6
CUSTOM
 62
    18
420
        0
370
     9
100
AcDbLine
 10
553.2082108470822
 20
1211.691985417603
 30
0.0
 11
554.9912109099095
 21
1213.122985412929
 31
0.0
  0
LINE
  5
CEC
330
1F
100
AcDbEntity
  8
Hewi
  6
CUSTOM
 62
    18
420
        0
370
     9
100
AcDbLine
 10
550.8663778127411
 20
1212.030214053657
 30
0.0
 11
550.4812277191777
 21
1211.487576075384
 31
0.0
  0
LINE
  5
CED
330
1F
100
AcDbEntity
  8
Hewi
  6
CUSTOM
 62
    18
420
        0
370
     9
100
AcDbLine
 10
549.7590610196457
 20
1198.240280565542
 30
0.0
 11
549.933299764798
 21
1197.86842959935
 31
0.0
  0
LWPOLYLINE
  5
CEE
330
1F
100
AcDbEntity
  8
Hewi
  6
CUSTOM
 62
    18
420
        0
370
     9
100
AcDbPolyline
 90
        3
 70
     0
 43
0.0
 10
553.3998250200893
 20
1194.095238768082
 10
553.5992108608589
 20
1193.933985475572
 10
554.6112108965171
 20
1193.3129854776
  0
LINE
  5
CEF
330
1F
100
AcDbEntity
  8
Hewi
  6
CUSTOM
 62
    18
420
        0
370
     9
100
AcDbLine
 10
552.8678541189292
 20
1194.525470217833
 30
0.0
 11
553.3998250200893
 21
1194.095238768082
 31
0.0
  0
LWPOLYLINE
  5
CF0
330
1F
100
AcDbEntity
  8
Hewi
  6
CUSTOM
 62
    18
420
        0
370
     9
100
AcDbPolyline
 90
        4
 70
     0
 43
0.0
 10
570.3342114505757
 20
1208.284985428723
 10
570.9732114730904
 20
1206.089985435889
 10
571.1332114787292
 20
1204.266985441842
 10
570.8842114699546
 20
1201.99398544926
  0
LWPOLYLINE
  5
CF1
330
1F
100
AcDbEntity
  8
Hewi
  6
CUSTOM
 62
    18
420
        0
370
     9
100
AcDbPolyline
 90
        3
 70
     0
 43
0.0
 10
572.7816981620126
 20
1201.751353212023
 10
573.1012115480807
 20
1203.376985444746
 10
573.1332115492041
 20
1204.266985441842
  0
LINE
  5
CF2
330
1F
100
AcDbEntity
  8
Hewi
  6
CUSTOM
 62
    18
420
        0
370
     9
100
AcDbLine
 10
560.6332111087286
 20
1216.766985401035
 30
0.0
 11
558.207211023233
 21
1216.52898540181
 31
0.0
  0
LINE
  5
CF3
330
1F
100
AcDbEntity
  8
Hewi
  6
CUSTOM
 62
    18
420
        0
370
     9
100
AcDbLine
 10
557.5086316499364
 20
1216.318483352903
 30
0.0
 11
556.4584931006793
 21
1216.013199724453
 31
0.0
  0
LINE
  5
CF4
330
1F
100
AcDbEntity
  8
Hewi
  6
CUSTOM
 62
    18
420
        0
370
     9
100
AcDbLine
 10
558.207211023233
 20
1216.52898540181
 30
0.0
 11
555.8742109410268
 21
1215.825985404106
 31
0.0
  0
LWPOLYLINE
  5
CF5
330
1F
100
AcDbEntity
  8
Hewi
  6
CUSTOM
 62
    18
420
        0
370
     9
100
AcDbPolyline
 90
       11
 70
     0
 43
0.0
 10
606.1332127120768
 20
1191.766985482647
 10
607.5612127623935
 20
1191.766985482647
 10
609.6402128356603
 20
1191.766985482647
 10
611.5572129032116
 20
1191.766985482647
 10
613.3772129673452
 20
1191.766985482647
 10
614.7932130172448
 20
1191.766985482647
 10
615.3922130383507
 20
1191.605985483173
 10
615.7982130526615
 20
1191.125985484739
 10
616.018213060408
 20
1190.35098548727
 10
616.1252130641805
 20
1188.727985492567
 10
616.1332130644623
 20
1186.766985498969
  0
LWPOLYLINE
  5
CF6
330
1F
100
AcDbEntity
  8
Hewi
  6
CUSTOM
 62
    18
420
        0
370
     9
100
AcDbPolyline
 90
       11
 70
     0
 43
0.0
 10
616.1332130644623
 20
1186.766985498969
 10
616.1332130644623
 20
1216.766985401035
 10
615.4582130406743
 20
1216.766985401035
 10
614.4092130037133
 20
1216.766985401035
 10
612.953212952405
 20
1216.766985401035
 10
611.78621291128
 20
1216.766985401035
 10
610.0222128491187
 20
1216.766985401035
 10
608.9302128106392
 20
1216.766985401035
 10
607.6402127651854
 20
1216.766985401035
 10
606.1332127120768
 20
1216.766985401035
 10
560.6332111087286
 20
1216.766985401035
  0
LWPOLYLINE
  5
CF7
330
1F
100
AcDbEntity
  8
Hewi
  6
CUSTOM
 62
    18
420
        0
370
     9
100
AcDbPolyline
 90
       14
 70
     0
 43
0.0
 10
611.1332128882677
 20
1186.766985498969
 10
611.1332128882677
 20
1161.766985580581
 10
611.1332128882677
 20
1160.61598558434
 10
611.1332128882677
 20
1159.385985588355
 10
611.1332128882677
 20
1158.32098559183
 10
611.1332128882677
 20
1157.171985595581
 10
611.1332128882677
 20
1156.766985596903
 10
616.1332130644623
 20
1156.766985596903
 10
616.1332130644623
 20
1156.955985596285
 10
616.1332130644623
 20
1157.50898559448
 10
616.1332130644623
 20
1158.571985591012
 10
616.1332130644623
 20
1159.970985586444
 10
616.1332130644623
 20
1161.766985580581
 10
616.1332130644623
 20
1186.766985498969
  0
LWPOLYLINE
  5
CF8
330
1F
100
AcDbEntity
  8
Hewi
  6
CUSTOM
 62
    18
420
        0
370
     9
100
AcDbPolyline
 90
        7
 70
     0
 43
0.0
 10
606.1332127120768
 20
1191.766985482647
 10
607.9182127749772
 20
1191.757985482676
 10
609.4812128300581
 20
1191.596985483202
 10
610.4782128651895
 20
1191.081985484883
 10
610.9762128827351
 20
1190.058985488222
 10
611.1232128879164
 20
1188.533985493201
 10
611.1332128882677
 20
1186.766985498969
  0
LINE
  5
CF9
330
1F
100
AcDbEntity
  8
Hewi
  6
CUSTOM
 62
    18
420
        0
370
     9
100
AcDbLine
 10
558.4502110317953
 20
1216.574985401661
 30
0.0
 11
560.6332111087286
 21
1216.766985401035
 31
0.0
  0
LINE
  5
CFA
330
1F
100
AcDbEntity
  8
Hewi
  6
CUSTOM
 62
    18
420
        0
370
     9
100
AcDbLine
 10
560.6332111087286
 20
1191.766985482647
 30
0.0
 11
558.0522110177735
 21
1192.035985481769
 31
0.0
  0
LWPOLYLINE
  5
CFB
330
1F
100
AcDbEntity
  8
Hewi
  6
CUSTOM
 62
    18
420
        0
370
     9
100
AcDbPolyline
 90
        3
 70
     0
 43
0.0
 10
560.6332111087286
 20
1191.766985482647
 10
558.4502110317953
 20
1191.95898548202
 10
558.0522110177735
 20
1192.035985481769
  0
LWPOLYLINE
  5
CFC
330
1F
100
AcDbEntity
  8
Hewi
  6
CUSTOM
 62
    18
420
        0
370
     9
100
AcDbPolyline
 90
        3
 70
     0
 43
0.0
 10
548.1382106684177
 20
1204.607985440729
 10
548.2032106707083
 20
1205.592985437512
 10
548.3500426409737
 20
1206.522416636175
  0
LINE
  5
CFD
330
1F
100
AcDbEntity
  8
Hewi
  6
CUSTOM
 62
    18
420
        0
370
     9
100
AcDbLine
 10
555.468210926716
 20
1192.880985479011
 30
0.0
 11
555.0019901594823
 21
1193.154682034952
 31
0.0
  0
LINE
  5
CFE
330
1F
100
AcDbEntity
  8
Hewi
  6
CUSTOM
 62
    18
420
        0
370
     9
100
AcDbLine
 10
553.3998250620534
 20
1194.095238741201
 30
0.0
 11
553.2282108477848
 21
1194.195985474716
 31
0.0
  0
LWPOLYLINE
  5
CFF
330
1F
100
AcDbEntity
  8
Hewi
  6
CUSTOM
 62
    18
420
        0
370
     9
100
AcDbPolyline
 90
        3
 70
     0
 43
0.0
 10
553.2872033693601
 20
1214.375649212537
 10
553.2282108477848
 20
1214.337985408963
 10
552.6652108279413
 20
1213.8979854104
  0
LINE
  5
D00
330
1F
100
AcDbEntity
  8
Hewi
  6
CUSTOM
 62
    18
420
        0
370
     9
100
AcDbLine
 10
606.1332127120768
 20
1191.766985482647
 30
0.0
 11
560.6332111087286
 21
1191.766985482647
 31
0.0
  0
LWPOLYLINE
  5
D01
330
1F
100
AcDbEntity
  8
Hewi
  6
CUSTOM
 62
    18
420
        0
370
     9
100
AcDbPolyline
 90
        3
 70
     0
 43
0.0
 10
555.468210926716
 20
1192.880985479011
 10
554.6222108969049
 20
1193.305985477624
 10
554.6114250329664
 20
1193.312871717606
  0
LINE
  5
D02
330
1F
100
AcDbEntity
  8
Hewi
  6
CUSTOM
 62
    18
420
        0
370
     9
100
AcDbLine
 10
553.4516187266635
 20
1194.053350607753
 30
0.0
 11
553.2282108477848
 21
1194.195985474716
 31
0.0
  0
LWPOLYLINE
  5
D03
330
1F
100
AcDbEntity
  8
Hewi
  6
CUSTOM
 62
    18
420
        0
370
     9
100
AcDbPolyline
 90
        3
 70
     0
 43
0.0
 10
548.7359255075753
 20
1200.437055504122
 10
548.7232106890332
 20
1200.469985454236
 10
548.7182106888613
 20
1200.486985454179
  0
LINE
  5
D04
330
1F
100
AcDbEntity
  8
Hewi
  6
CUSTOM
 62
    18
420
        0
370
     9
100
AcDbLine
 10
558.0522110177735
 20
1192.035985481769
 30
0.0
 11
557.77933000162
 21
1192.125220949949
 31
0.0
  0
LWPOLYLINE
  5
D05
330
1F
100
AcDbEntity
  8
Hewi
  6
CUSTOM
 62
    18
420
        0
370
     9
100
AcDbPolyline
 90
        3
 70
     0
 43
0.0
 10
552.4327257823642
 20
1194.877380258373
 10
552.6652108279413
 20
1194.635985473282
 10
553.2282108477848
 20
1194.195985474716
  0
LINE
  5
D06
330
1F
100
AcDbEntity
  8
Hewi
  6
CUSTOM
 62
    18
420
        0
370
     9
100
AcDbLine
 10
556.8160211594077
 20
1192.440234858741
 30
0.0
 11
555.468210926716
 21
1192.880985479011
 31
0.0
  0
LWPOLYLINE
  5
D07
330
1F
100
AcDbEntity
  8
Hewi
  6
CUSTOM
 62
    18
420
        0
370
     9
100
AcDbPolyline
 90
        3
 70
     0
 43
0.0
 10
556.0968596916682
 20
1192.675409549325
 10
556.8532109755251
 20
1192.351985480736
 10
557.4181135336694
 20
1192.203103744707
  0
LWPOLYLINE
  5
D08
330
1F
100
AcDbEntity
  8
Hewi
  6
CUSTOM
 62
    18
420
        0
370
     9
100
AcDbPolyline
 90
        3
 70
     0
 43
0.0
 10
550.2755857275224
 20
1197.325540136742
 10
550.7082107589813
 20
1196.667985466649
 10
551.267210778682
 20
1195.988985468864
  0
LINE
  5
D09
330
1F
100
AcDbEntity
  8
Hewi
  6
CUSTOM
 62
    18
420
        0
370
     9
100
AcDbLine
 10
548.7232106890332
 20
1208.063985429444
 30
0.0
 11
549.2572107078522
 21
1209.446985424931
 31
0.0
  0
LWPOLYLINE
  5
D0A
330
1F
100
AcDbEntity
  8
Hewi
  6
CUSTOM
 62
    18
420
        0
370
     9
100
AcDbPolyline
 90
        3
 70
     0
 43
0.0
 10
555.6279850021346
 20
1215.705233503946
 10
555.468210926716
 20
1215.652985404671
 10
554.6222108969049
 20
1215.22798540606
  0
LWPOLYLINE
  5
D0B
330
1F
100
AcDbEntity
  8
Hewi
  6
CUSTOM
 62
    18
420
        0
370
     9
100
AcDbPolyline
 90
        3
 70
     0
 43
0.0
 10
558.197823391969
 20
1216.526156639051
 10
558.0522110177735
 20
1216.497985401913
 10
556.8532109755251
 20
1216.181985402944
  0
LWPOLYLINE
  5
D0C
330
1F
100
AcDbEntity
  8
Hewi
  6
CUSTOM
 62
    18
420
        0
370
     9
100
AcDbPolyline
 90
        3
 70
     0
 43
0.0
 10
548.7232106890332
 20
1208.063985429444
 10
548.7182106888613
 20
1208.046985429502
 10
548.4773697025266
 20
1207.127137959478
  0
LWPOLYLINE
  5
D0D
330
1F
100
AcDbEntity
  8
Hewi
  6
CUSTOM
 62
    18
420
        0
370
     9
100
AcDbPolyline
 90
        3
 70
     0
 43
0.0
 10
551.2918361667979
 20
1212.567501130879
 10
551.267210778682
 20
1212.544985414816
 10
551.2047200240958
 20
1212.469079832115
  0
LINE
  5
D0E
330
1F
100
AcDbEntity
  8
Hewi
  6
CUSTOM
 62
    18
420
        0
370
     9
100
AcDbLine
 10
554.6222108969049
 20
1215.22798540606
 30
0.0
 11
554.5141686739189
 21
1215.159005797197
 31
0.0
  0
LWPOLYLINE
  5
D0F
330
1F
100
AcDbEntity
  8
Hewi
  6
CUSTOM
 62
    18
420
        0
370
     9
100
AcDbPolyline
 90
        3
 70
     0
 43
0.0
 10
452.6824458375922
 20
1027.307751882936
 10
453.0618541996264
 20
1027.055792722463
 10
453.4599202423305
 20
1026.861128371294
  0
LWPOLYLINE
  5
D10
330
1F
100
AcDbEntity
  8
Hewi
  6
CUSTOM
 62
    18
420
        0
370
     9
100
AcDbPolyline
 90
        7
 70
     0
 43
0.0
 10
440.9826564129689
 20
1037.844039776375
 10
444.0645501868893
 20
1034.389214290673
 10
446.8336379358843
 20
1031.651941403066
 10
453.6729533722027
 20
1026.707105041531
 10
456.8741715900141
 20
1024.990592625094
 10
457.5248695511399
 20
1024.69945439
 10
460.1996868281712
 20
1023.537957638769
  0
LWPOLYLINE
  5
D11
330
1F
100
AcDbEntity
  8
Hewi
  6
CUSTOM
 62
    18
420
        0
370
     9
100
AcDbPolyline
 90
        3
 70
     0
 43
0.0
 10
460.1996868281712
 20
1023.537957638769
 10
460.8522482905645
 20
1023.246093204337
 10
570.8261045793988
 20
980.3188662578795
  0
LINE
  5
D12
330
1F
100
AcDbEntity
  8
Hewi
  6
CUSTOM
 62
    18
420
        0
370
     9
100
AcDbLine
 10
548.6671357999621
 20
1200.682056517658
 30
0.0
 11
548.7182106888613
 21
1200.486985454179
 31
0.0
  0
LINE
  5
D13
330
1F
100
AcDbEntity
  8
Hewi
  6
CUSTOM
 62
    18
420
        0
370
     9
100
AcDbLine
 10
548.1382106684177
 20
1204.607985440729
 30
0.0
 11
548.2938044065595
 21
1205.937440765983
 31
0.0
  0
LINE
  5
D14
330
1F
100
AcDbEntity
  8
Hewi
  6
CUSTOM
 62
    18
420
        0
370
     9
100
AcDbLine
 10
551.267210778682
 20
1195.988985468864
 30
0.0
 11
550.7283168263348
 21
1196.748272302264
 31
0.0
  0
LINE
  5
D15
330
1F
100
AcDbEntity
  8
Hewi
  6
CUSTOM
 62
    18
420
        0
370
     9
100
AcDbLine
 10
548.1462275369376
 20
1204.402383605315
 30
0.0
 11
548.1382106684177
 21
1204.607985440729
 31
0.0
  0
LINE
  5
D16
330
1F
100
AcDbEntity
  8
Hewi
  6
CUSTOM
 62
    18
420
        0
370
     9
100
AcDbLine
 10
551.0099799040508
 20
1212.232535044244
 30
0.0
 11
550.7082107589813
 21
1211.865985417033
 31
0.0
  0
LINE
  5
D17
330
1F
100
AcDbEntity
  8
Hewi
  6
CUSTOM
 62
    18
420
        0
370
     9
100
AcDbLine
 10
552.6652108279413
 20
1213.8979854104
 30
0.0
 11
553.020047950089
 21
1214.139136843349
 31
0.0
  0
LINE
  5
D18
330
1F
100
AcDbEntity
  8
Hewi
  6
CUSTOM
 62
    18
420
        0
370
     9
100
AcDbLine
 10
548.3956388207552
 20
1206.807554858414
 30
0.0
 11
548.3972106775472
 21
1206.820985433504
 31
0.0
  0
LINE
  5
D19
330
1F
100
AcDbEntity
  8
Hewi
  6
CUSTOM
 62
    18
420
        0
370
     9
100
AcDbLine
 10
556.8532109755251
 20
1216.181985402944
 30
0.0
 11
557.9574207780206
 21
1216.453716420898
 31
0.0
  0
LINE
  5
D1A
330
1F
100
AcDbEntity
  8
Hewi
  6
CUSTOM
 62
    18
420
        0
370
     9
100
AcDbLine
 10
548.2032106707083
 20
1202.94098544617
 30
0.0
 11
548.18854632898
 21
1203.317069395698
 31
0.0
  0
LWPOLYLINE
  5
D1B
330
1F
100
AcDbEntity
  8
Hewi
  6
CUSTOM
 62
    18
420
        0
370
     9
100
AcDbPolyline
 90
        3
 70
     0
 43
0.0
 10
548.8039798177014
 20
1200.260802494229
 10
549.2572107078522
 20
1199.086985458751
 10
549.4072019109589
 20
1198.791134177567
  0
LWPOLYLINE
  5
D1C
330
1F
100
AcDbEntity
  8
Hewi
  6
CUSTOM
 62
    18
420
        0
370
     9
100
AcDbPolyline
 90
        3
 70
     0
 43
0.0
 10
549.7714837760395
 20
1210.437546994844
 10
549.7292107244829
 20
1210.377985421894
 10
549.5191745888005
 20
1209.963698060043
  0
LINE
  5
D1D
330
1F
100
AcDbEntity
  8
Hewi
  6
CUSTOM
 62
    18
420
        0
370
     9
100
AcDbLine
 10
549.9332997965138
 20
1197.868429543678
 30
0.0
 11
549.7292107244829
 21
1198.15598546179
 31
0.0
  0
LINE
  5
D1E
330
1F
100
AcDbEntity
  8
Hewi
  6
CUSTOM
 62
    18
420
        0
370
     9
100
AcDbLine
 10
548.3114630973359
 20
1202.425157398194
 30
0.0
 11
548.2032106707083
 21
1202.94098544617
 31
0.0
  0
LINE
  5
D1F
330
1F
100
AcDbEntity
  8
Hewi
  6
CUSTOM
 62
    18
420
        0
370
     9
100
AcDbLine
 10
548.4036745055637
 20
1206.845672825537
 30
0.0
 11
548.3972106775472
 21
1206.820985433504
 31
0.0
  0
LINE
  5
D20
330
1F
100
AcDbEntity
  8
Hewi
  6
CUSTOM
 62
    18
420
        0
370
     9
100
AcDbLine
 10
549.3106127835963
 20
1209.552318752476
 30
0.0
 11
549.2572107078522
 21
1209.446985424931
 31
0.0
  0
LINE
  5
D21
330
1F
100
AcDbEntity
  8
Hewi
  6
CUSTOM
 62
    18
420
        0
370
     9
100
AcDbLine
 10
554.5376735950084
 20
1215.170532873002
 30
0.0
 11
554.6222108969049
 21
1215.22798540606
 31
0.0
  0
LINE
  5
D22
330
1F
100
AcDbEntity
  8
Hewi
  6
CUSTOM
 62
    18
420
        0
370
     9
100
AcDbLine
 10
556.4584930074561
 20
1216.013199689347
 30
0.0
 11
556.8532109755251
 21
1216.181985402944
 31
0.0
  0
LINE
  5
D23
330
1F
100
AcDbEntity
  8
Hewi
  6
CUSTOM
 62
    18
420
        0
370
     9
100
AcDbLine
 10
548.3934444755614
 20
1206.797145764116
 30
0.0
 11
548.3972106775472
 21
1206.820985433504
 31
0.0
  0
LINE
  5
D24
330
1F
100
AcDbEntity
  8
Hewi
  6
CUSTOM
 62
    18
420
        0
370
     9
100
AcDbLine
 10
549.9701635899945
 20
1197.78975681003
 30
0.0
 11
549.7292107244829
 21
1198.15598546179
 31
0.0
  0
LINE
  5
D25
330
1F
100
AcDbEntity
  8
Hewi
  6
CUSTOM
 62
    18
420
        0
370
     9
100
AcDbLine
 10
548.7286911598821
 20
1200.462821283041
 30
0.0
 11
548.7182106888613
 21
1200.486985454179
 31
0.0
  0
LINE
  5
D26
330
1F
100
AcDbEntity
  8
Hewi
  6
CUSTOM
 62
    18
420
        0
370
     9
100
AcDbLine
 10
549.5040164712118
 20
1198.600171567143
 30
0.0
 11
549.7292107244829
 21
1198.15598546179
 31
0.0
  0
LINE
  5
D27
330
1F
100
AcDbEntity
  8
Hewi
  6
CUSTOM
 62
    18
420
        0
370
     9
100
AcDbLine
 10
549.7292107244829
 20
1198.15598546179
 30
0.0
 11
549.587891648207
 21
1198.481816079107
 31
0.0
  0
LINE
  5
D28
330
1F
100
AcDbEntity
  8
Hewi
  6
CUSTOM
 62
    18
420
        0
370
     9
100
AcDbLine
 10
548.7182106888613
 20
1200.486985454179
 30
0.0
 11
548.7072729711581
 21
1200.539104207972
 31
0.0
  0
LINE
  5
D29
330
1F
100
AcDbEntity
  8
Hewi
  6
CUSTOM
 62
    18
420
        0
370
     9
100
AcDbLine
 10
548.1690641531822
 20
1203.45843649953
 30
0.0
 11
548.2032106707083
 21
1202.94098544617
 31
0.0
  0
LINE
  5
D2A
330
1F
100
AcDbEntity
  8
Hewi
  6
CUSTOM
 62
    18
420
        0
370
     9
100
AcDbLine
 10
551.4672237818667
 20
1195.806107701959
 30
0.0
 11
551.267210778682
 21
1195.988985468864
 31
0.0
  0
LWPOLYLINE
  5
D2B
330
1F
100
AcDbEntity
  8
Hewi
  6
CUSTOM
 62
    18
420
        0
370
     9
100
AcDbPolyline
 90
        3
 70
     0
 43
0.0
 10
548.3273691838039
 20
1202.309739194203
 10
548.3972106775472
 20
1201.712985450178
 10
548.4233876479739
 20
1201.613007367594
  0
LINE
  5
D2C
330
1F
100
AcDbEntity
  8
Hewi
  6
CUSTOM
 62
    18
420
        0
370
     9
100
AcDbLine
 10
548.4779410139599
 20
1207.128800784105
 30
0.0
 11
548.7232106890332
 21
1208.063985429444
 31
0.0
  0
LINE
  5
D2D
330
1F
100
AcDbEntity
  8
Hewi
  6
CUSTOM
 62
    18
420
        0
370
     9
100
AcDbLine
 10
549.2572107078522
 20
1209.446985424931
 30
0.0
 11
549.2974993381285
 21
1209.514151650215
 31
0.0
  0
LINE
  5
D2E
330
1F
100
AcDbEntity
  8
Hewi
  6
CUSTOM
 62
    18
420
        0
370
     9
100
AcDbLine
 10
550.7082107589813
 20
1211.865985417033
 30
0.0
 11
550.8663778115733
 21
1212.030214051927
 31
0.0
  0
LINE
  5
D2F
330
1F
100
AcDbEntity
  8
Hewi
  6
CUSTOM
 62
    18
420
        0
370
     9
100
AcDbLine
 10
552.1882598792908
 20
1213.402755829231
 30
0.0
 11
552.6652108279413
 21
1213.8979854104
 31
0.0
  0
LWPOLYLINE
  5
D30
330
1F
100
AcDbEntity
  8
Hewi
  6
CUSTOM
 62
    18
420
        0
370
     9
100
AcDbPolyline
 90
        4
 70
     0
 43
0.0
 10
558.4502110317953
 20
1216.574985401661
 10
558.3090417750354
 20
1216.547673762548
 10
558.3530510313758
 20
1216.557062927719
 10
558.3601446652937
 20
1216.557560492083
  0
LINE
  5
D31
330
1F
100
AcDbEntity
  8
Hewi
  6
CUSTOM
 62
    18
420
        0
370
     9
100
AcDbLine
 10
558.3579626920545
 20
1216.552284339592
 30
0.0
 11
558.4502110317953
 21
1216.574985401661
 31
0.0
  0
LINE
  5
D32
330
1F
100
AcDbEntity
  8
Hewi
  6
CUSTOM
 62
    18
420
        0
370
     9
100
AcDbLine
 10
558.0522110177735
 20
1192.035985481769
 30
0.0
 11
557.6538701975514
 21
1192.140969380303
 31
0.0
  0
LWPOLYLINE
  5
D33
330
1F
100
AcDbEntity
  8
Hewi
  6
CUSTOM
 62
    18
420
        0
370
     9
100
AcDbPolyline
 90
        3
 70
     0
 43
0.0
 10
548.1382106684177
 20
1204.078374321516
 10
548.1382106684177
 20
1203.925985442953
 10
548.1449629884773
 20
1203.823661827551
  0
LINE
  5
D34
330
1F
100
AcDbEntity
  8
Hewi
  6
CUSTOM
 62
    18
420
        0
370
     9
100
AcDbLine
 10
550.4812276987322
 20
1211.487576043078
 30
0.0
 11
550.7082107589813
 21
1211.865985417033
 31
0.0
  0
LWPOLYLINE
  5
D35
330
1F
100
AcDbEntity
  8
Hewi
  6
CUSTOM
 62
    18
420
        0
370
     9
100
AcDbPolyline
 90
        4
 70
     0
 43
0.0
 10
446.3051280121107
 20
1032.174379119729
 10
445.9627625118409
 20
1032.435643386956
 10
443.3693103703044
 20
1035.031490805218
 10
440.9826564129689
 20
1037.844039776375
  0
LINE
  5
D36
330
1F
100
AcDbEntity
  8
Hewi
  6
CUSTOM
 62
    18
420
        0
370
     9
100
AcDbLine
 10
553.2282108477848
 20
1194.195985474716
 30
0.0
 11
552.8678541686677
 21
1194.525470176797
 31
0.0
  0
LINE
  5
D37
330
1F
100
AcDbEntity
  8
Hewi
  6
CUSTOM
 62
    18
420
        0
370
     9
100
AcDbLine
 10
554.6222108969049
 20
1215.22798540606
 30
0.0
 11
554.8769006386828
 21
1215.336893520942
 31
0.0
  0
LINE
  5
D38
330
1F
100
AcDbEntity
  8
Hewi
  6
CUSTOM
 62
    18
420
        0
370
     9
100
AcDbLine
 10
548.1382106684177
 20
1204.607985440729
 30
0.0
 11
548.1382106684177
 21
1204.318994172559
 31
0.0
  0
LWPOLYLINE
  5
D39
330
1F
100
AcDbEntity
  8
Hewi
  6
CUSTOM
 62
    18
420
        0
370
     9
100
AcDbPolyline
 90
        4
 70
     0
 43
0.0
 10
457.7008281780654
 20
1043.1873619294
 10
461.998880571391
 20
1040.31682773652
 10
464.3192510387052
 20
1039.044463750944
 10
466.8954972134015
 20
1037.607991028275
  0
LWPOLYLINE
  5
D3A
330
1F
100
AcDbEntity
  8
Hewi
  6
CUSTOM
 62
    18
420
        0
370
     9
100
AcDbPolyline
 90
       17
 70
     0
 43
0.0
 10
604.6610805658602
 20
973.6395415145343
 10
602.9837028834081
 20
971.9020100776088
 10
600.8647541873033
 20
970.7443918612662
 10
599.3254282637353
 20
970.3525790825569
 10
598.4966120633653
 20
970.2720239123518
 10
596.0954278917488
 20
970.527316262811
 10
595.2277218824311
 20
970.8096490301395
 10
594.9826714661976
 20
970.9051442430482
 10
594.2521789706661
 20
971.189814383435
 10
593.500256210591
 20
971.482835816203
 10
591.3795917720235
 20
972.3092506625253
 10
588.485574308841
 20
973.4370382340021
 10
584.8871533678248
 20
974.8393291551328
 10
580.6728452590141
 20
976.4816289573809
 10
577.1703946330999
 20
977.846520612622
 10
573.4284840947439
 20
979.3047288827583
 10
570.8261045793988
 20
980.3188662578795
  0
LWPOLYLINE
  5
D3B
330
1F
100
AcDbEntity
  8
Hewi
  6
CUSTOM
 62
    18
420
        0
370
     9
100
AcDbPolyline
 90
       14
 70
     0
 43
0.0
 10
466.3341279308697
 20
1038.210977696004
 10
576.6356995048226
 20
995.2268757968431
 10
580.5089868822979
 20
993.7174704733989
 10
584.1772891207219
 20
992.2879470771022
 10
586.482440184438
 20
991.3896384963463
 10
590.6967482932486
 20
989.7473386940964
 10
594.2951692342648
 20
988.3450477729676
 10
597.1891866974474
 20
987.2172602014908
 10
599.3098511360149
 20
986.3908453551685
 10
600.3590023477154
 20
985.9819951280352
 10
600.9283019839058
 20
985.760141230361
 10
601.0373168078586
 20
985.717658569105
 10
603.121009074759
 20
984.5182086910044
 10
604.7544048255586
 20
982.7526224800767
  0
LWPOLYLINE
  5
D3C
330
1F
100
AcDbEntity
  8
Hewi
  6
CUSTOM
 62
    18
420
        0
370
     9
100
AcDbPolyline
 90
       36
 70
     0
 43
0.0
 10
573.6332115668265
 20
1217.266985399403
 10
56.13319333089385
 20
1217.266985399403
 10
54.29619326616012
 20
1217.266985399403
 10
52.71619321048274
 20
1217.266985399403
 10
51.36119316273471
 20
1217.266985399403
 10
49.06919308197029
 20
1217.266985399403
 10
45.88219296966417
 20
1217.266985399403
 10
43.09019287128103
 20
1217.266985399403
 10
42.14419283794268
 20
1217.266985399403
 10
40.71419278755274
 20
1217.266985399403
 10
39.13419273187538
 20
1217.266985399403
 10
38.2771927016729
 20
1217.266985399403
 10
38.13319269660133
 20
1217.266985399403
 10
37.05519265861585
 20
1217.466985398749
 10
36.21619262904642
 20
1217.958985397143
 10
35.5781926065647
 20
1218.693985394744
 10
35.24719259490303
 20
1219.449985392277
 10
35.1331925908853
 20
1220.266985389609
 10
35.1331925908853
 20
1224.266985376551
 10
35.24719259490303
 20
1225.083985373883
 10
35.5781926065647
 20
1225.839985371416
 10
36.21619262904642
 20
1226.574985369016
 10
37.05519265861585
 20
1227.06698536741
 10
38.13319269660133
 20
1227.266985366757
 10
38.47619270868745
 20
1227.266985366757
 10
39.49119274445548
 20
1227.266985366757
 10
40.1321927670433
 20
1227.266985366757
 10
41.52019281595494
 20
1227.266985366757
 10
42.76619285986089
 20
1227.266985366757
 10
44.93619293632582
 20
1227.266985366757
 10
47.43219302428406
 20
1227.266985366757
 10
49.4881930967349
 20
1227.266985366757
 10
52.74519321150364
 20
1227.266985366757
 10
56.13319333089385
 20
1227.266985366757
 10
570.6332114611105
 20
1227.266985366757
 10
571.4502114898968
 20
1227.152985367129
  0
LWPOLYLINE
  5
D3D
330
1F
100
AcDbEntity
  8
Hewi
  6
CUSTOM
 62
    18
420
        0
370
     9
100
AcDbPolyline
 90
        3
 70
     0
 43
0.0
 10
604.6610805658602
 20
973.6395415145343
 10
605.742684344983
 20
975.7981356219389
 10
605.9585415748552
 20
976.602667185447
  0
LWPOLYLINE
  5
D3E
330
1F
100
AcDbEntity
  8
Hewi
  6
CUSTOM
 62
    18
420
        0
370
     9
100
AcDbPolyline
 90
        3
 70
     0
 43
0.0
 10
605.9585415748552
 20
976.602667185447
 10
606.1316552279204
 20
978.1815696635639
 10
605.9905301303697
 20
979.7637991281499
  0
LWPOLYLINE
  5
D3F
330
1F
100
AcDbEntity
  8
Hewi
  6
CUSTOM
 62
    18
420
        0
370
     9
100
AcDbPolyline
 90
        6
 70
     0
 43
0.0
 10
573.6332115668265
 20
1217.266985399403
 10
573.5192115628088
 20
1217.38098539903
 10
573.1882115511434
 20
1217.711985397951
 10
572.5502115286617
 20
1218.349985395867
 10
571.7112114990995
 20
1219.188985393128
 10
570.6332114611105
 20
1220.266985389609
  0
LINE
  5
D40
330
1F
100
AcDbEntity
  8
Hewi
  6
CUSTOM
 62
    18
420
        0
370
     9
100
AcDbLine
 10
449.8033146863162
 20
1029.504860206927
 30
0.0
 11
452.6824458375922
 21
1027.307751882936
 31
0.0
  0
LWPOLYLINE
  5
D41
330
1F
100
AcDbEntity
  8
Hewi
  6
CUSTOM
 62
    18
420
        0
370
     9
100
AcDbPolyline
 90
        3
 70
     0
 43
0.0
 10
572.7318998033078
 20
1226.365673650014
 10
572.5502115286617
 20
1226.574985369016
 10
572.206211516539
 20
1226.821985368211
  0
LWPOLYLINE
  5
D42
330
1F
100
AcDbEntity
  8
Hewi
  6
CUSTOM
 62
    18
420
        0
370
     9
100
AcDbPolyline
 90
        4
 70
     0
 43
0.0
 10
341.4390406896491
 20
1191.266984814449
 10
453.5913587156174
 20
1047.693018732991
 10
457.2359843217164
 20
1043.732341272556
 10
458.229113118039
 20
1042.834537013947
  0
LINE
  5
D43
330
1F
100
AcDbEntity
  8
Hewi
  6
CUSTOM
 62
    18
420
        0
370
     9
100
AcDbLine
 10
460.1996868281712
 20
1023.537957638769
 30
0.0
 11
570.8261045793988
 21
980.3188662578795
 31
0.0
  0
LWPOLYLINE
  5
D44
330
1F
100
AcDbEntity
  8
Hewi
  6
CUSTOM
 62
    18
420
        0
370
     9
100
AcDbPolyline
 90
        5
 70
     0
 43
0.0
 10
572.9412115424383
 20
1226.183985370293
 10
573.433211559779
 20
1225.344985373032
 10
573.5202115628417
 20
1225.083985373883
 10
573.6332115668265
 20
1224.266985376551
 10
573.6332115668265
 20
1217.266985399403
  0
LINE
  5
D45
330
1F
100
AcDbEntity
  8
Hewi
  6
CUSTOM
 62
    18
420
        0
370
     9
100
AcDbLine
 10
459.7684553979597
 20
1041.806458657165
 30
0.0
 11
456.8676010337148
 21
1044.132669735025
 31
0.0
  0
LINE
  5
D46
330
1F
100
AcDbEntity
  8
Hewi
  6
CUSTOM
 62
    18
420
        0
370
     9
100
AcDbLine
 10
440.9826564129689
 20
1037.844039776375
 30
0.0
 11
321.1358370871713
 21
1191.266983558678
 31
0.0
  0
LWPOLYLINE
  5
D47
330
1F
100
AcDbEntity
  8
Hewi
  6
CUSTOM
 62
    18
420
        0
370
     9
100
AcDbPolyline
 90
        3
 70
     0
 43
0.0
 10
605.9905301303697
 20
979.7637991281499
 10
605.7924242122571
 20
980.5718829258676
 10
604.7544048255586
 20
982.7526224800767
  0
LINE
  5
D48
330
1F
100
AcDbEntity
  8
Hewi
  6
CUSTOM
 62
    18
420
        0
370
     9
100
AcDbLine
 10
466.3341279308697
 20
1038.210977696004
 30
0.0
 11
465.2223795663449
 21
1038.540894063118
 31
0.0
  0
LINE
  5
D49
330
1F
100
AcDbEntity
  8
Hewi
  6
CUSTOM
 62
    18
420
        0
370
     9
100
AcDbLine
 10
604.6610805658602
 20
973.6395415145343
 30
0.0
 11
605.9585415748552
 21
976.602667185447
 31
0.0
  0
LINE
  5
D4A
330
1F
100
AcDbEntity
  8
Hewi
  6
CUSTOM
 62
    18
420
        0
370
     9
100
AcDbLine
 10
605.9905301303697
 20
979.7637991281499
 30
0.0
 11
604.7544048255586
 21
982.7526224800767
 31
0.0
  0
LINE
  5
D4B
330
1F
100
AcDbEntity
  8
Hewi
  6
CUSTOM
 62
    18
420
        0
370
     9
100
AcDbLine
 10
453.2038176109526
 20
1027.046291020799
 30
0.0
 11
452.6824458375922
 21
1027.307751882936
 31
0.0
  0
LINE
  5
D4C
330
1F
100
AcDbEntity
  8
Hewi
  6
CUSTOM
 62
    18
420
        0
370
     9
100
AcDbLine
 10
466.3341279308697
 20
1038.210977696004
 30
0.0
 11
461.8963082190093
 21
1040.38533259372
 31
0.0
  0
LWPOLYLINE
  5
D4D
330
1F
100
AcDbEntity
  8
Hewi
  6
CUSTOM
 62
    18
420
        0
370
     9
100
AcDbPolyline
 90
       14
 70
     0
 43
0.0
 10
41.13319280231372
 20
1217.266985399403
 10
41.13319280231372
 20
1191.266985484278
 10
41.2531928065473
 20
1191.266985484278
 10
41.82719282676771
 20
1191.266985484278
 10
42.84919286278454
 20
1191.266985484278
 10
43.76519289506177
 20
1191.266985484278
 10
45.26419294788502
 20
1191.266985484278
 10
47.23619301737563
 20
1191.266985484278
 10
49.45919309571036
 20
1191.266985484278
 10
51.05319315188172
 20
1191.266985484278
 10
53.28519323053114
 20
1191.266985484278
 10
54.60219327694358
 20
1191.266985484278
 10
56.13319333089385
 20
1191.266985484278
 10
560.6332111087286
 20
1191.266985484278
  0
LWPOLYLINE
  5
D4E
330
1F
100
AcDbEntity
  8
Hewi
  6
CUSTOM
 62
    18
420
        0
370
     9
100
AcDbPolyline
 90
        3
 70
     0
 43
0.0
 10
573.3232274022703
 20
1225.532539649959
 10
573.1882115511434
 20
1225.839985371416
 10
572.9412115424383
 20
1226.183985370293
  0
LWPOLYLINE
  5
D4F
330
1F
100
AcDbEntity
  8
Hewi
  6
CUSTOM
 62
    18
420
        0
370
     9
100
AcDbPolyline
 90
        3
 70
     0
 43
0.0
 10
571.4502114898968
 20
1227.152985367129
 10
571.7112114990995
 20
1227.06698536741
 10
571.9015028273788
 20
1226.955396178007
  0
LINE
  5
D50
330
1F
100
AcDbEntity
  8
Hewi
  6
CUSTOM
 62
    18
420
        0
370
     9
100
AcDbLine
 10
563.6382112146166
 20
1191.61898548313
 30
0.0
 11
560.6332111087286
 21
1191.266985484278
 31
0.0
  0
LWPOLYLINE
  5
D51
330
1F
100
AcDbEntity
  8
Hewi
  6
CUSTOM
 62
    18
420
        0
370
     9
100
AcDbPolyline
 90
        3
 70
     0
 43
0.0
 10
560.6332111087286
 20
1191.266985484278
 10
562.0122111573182
 20
1191.339985484041
 10
563.6382112146166
 20
1191.61898548313
  0
LWPOLYLINE
  5
D52
330
1F
100
AcDbEntity
  8
Hewi
  6
CUSTOM
 62
    18
420
        0
370
     9
100
AcDbPolyline
 90
        3
 70
     0
 43
0.0
 10
562.233615217854
 20
1191.37797547415
 10
562.4212111717278
 20
1191.390985483873
 10
562.906760713271
 20
1191.493478300286
  0
LINE
  5
D53
330
1F
100
AcDbEntity
  8
Hewi
  6
CUSTOM
 62
    18
420
        0
370
     9
100
AcDbLine
 10
564.2000775018932
 20
1191.766985482649
 30
0.0
 11
564.0393382301881
 21
1191.744453201723
 31
0.0
  0
LINE
  5
D54
330
1F
100
AcDbEntity
  8
Hewi
  6
CUSTOM
 62
    18
420
        0
370
     9
100
AcDbLine
 10
564.2024738340515
 20
1191.766985482665
 30
0.0
 11
563.9222960757433
 21
1191.707843819273
 31
0.0
  0
LINE
  5
D55
330
1F
100
AcDbEntity
  8
Hewi
  6
CUSTOM
 62
    18
420
        0
370
     9
100
AcDbLine
 10
572.206211516539
 20
1226.821985368211
 30
0.0
 11
571.4502114898968
 21
1227.152985367129
 31
0.0
  0
LINE
  5
D56
330
1F
100
AcDbEntity
  8
Hewi
  6
CUSTOM
 62
    18
420
        0
370
     9
100
AcDbLine
 10
572.9412115424383
 20
1226.183985370293
 30
0.0
 11
572.206211516539
 21
1226.821985368211
 31
0.0
  0
LWPOLYLINE
  5
D57
330
1F
100
AcDbEntity
  8
Hewi
  6
CUSTOM
 62
    18
420
        0
370
     9
100
AcDbPolyline
 90
        3
 70
     0
 43
0.0
 10
555.8736611058812
 20
1215.825715758963
 10
555.6421139168451
 20
1215.727030857429
 10
555.5569828540464
 20
1215.682014922591
  0
LINE
  5
D58
330
1F
100
AcDbEntity
  8
Hewi
  6
CUSTOM
 62
    18
420
        0
370
     9
100
AcDbLine
 10
554.2705106135108
 20
1193.508131054963
 30
0.0
 11
554.3543067142272
 21
1193.470631220432
 31
0.0
  0
LWPOLYLINE
  5
D59
330
1F
100
AcDbEntity
  8
Hewi
  6
CUSTOM
 62
    18
420
        0
370
     9
100
AcDbPolyline
 90
        4
 70
     0
 43
0.0
 10
549.2455921454056
 20
1209.416894654691
 10
549.2375819541593
 20
1209.40425099407
 10
549.1324172554523
 20
1209.164688179851
 10
549.0774663574593
 20
1208.981467771289
  0
LWPOLYLINE
  5
D5A
330
1F
100
AcDbEntity
  8
Hewi
  6
CUSTOM
 62
    18
420
        0
370
     9
100
AcDbPolyline
 90
        4
 70
     0
 43
0.0
 10
549.7108111402594
 20
1198.192277883796
 10
549.70203469053
 20
1198.203880420633
 10
549.5773969511319
 20
1198.433913874883
 10
549.5398758426127
 20
1198.529440479839
  0
LWPOLYLINE
  5
D5B
330
1F
100
AcDbEntity
  8
Hewi
  6
CUSTOM
 62
    18
420
        0
370
     9
100
AcDbPolyline
 90
        3
 70
     0
 43
0.0
 10
554.9546442014143
 20
1193.138982934046
 10
554.8688002025955
 20
1193.175634007048
 10
554.7475257236983
 20
1193.24303181399
  0
LWPOLYLINE
  5
D5C
330
1F
100
AcDbEntity
  8
Hewi
  6
CUSTOM
 62
    18
420
        0
370
     9
100
AcDbPolyline
 90
        3
 70
     0
 43
0.0
 10
557.4636623318074
 20
1216.34287166013
 10
557.6833955127767
 20
1216.414195113188
 10
557.9505282852696
 20
1216.471186617529
  0
LINE
  5
D5D
330
1F
100
AcDbEntity
  8
Hewi
  6
CUSTOM
 62
    18
420
        0
370
     9
100
AcDbLine
 10
554.1729259571984
 20
1193.581933042131
 30
0.0
 11
554.2705106135108
 21
1193.508131054963
 31
0.0
  0
LWPOLYLINE
  5
D5E
330
1F
100
AcDbEntity
  8
Hewi
  6
CUSTOM
 62
    18
420
        0
370
     9
100
AcDbPolyline
 90
        3
 70
     0
 43
0.0
 10
548.5988737748739
 20
1200.9251781415
 10
548.5647053344473
 20
1201.012169044467
 10
548.5109696901818
 20
1201.238256810315
  0
LWPOLYLINE
  5
D5F
330
1F
100
AcDbEntity
  8
Hewi
  6
CUSTOM
 62
    18
420
        0
370
     9
100
AcDbPolyline
 90
        4
 70
     0
 43
0.0
 10
548.3548015869637
 20
1206.571917803258
 10
548.336663598413
 20
1206.511441090513
 10
548.2242803834524
 20
1205.770148540932
 10
548.221954492743
 20
1205.711631893642
  0
LWPOLYLINE
  5
D60
330
1F
100
AcDbEntity
  8
Hewi
  6
CUSTOM
 62
    18
420
        0
370
     9
100
AcDbPolyline
 90
        4
 70
     0
 43
0.0
 10
553.381625079608
 20
1214.44422691104
 10
553.4015986788944
 20
1214.462116038559
 10
553.9703058189298
 20
1214.843005662316
 10
554.1361105362266
 20
1214.930680526277
  0
LWPOLYLINE
  5
D61
330
1F
100
AcDbEntity
  8
Hewi
  6
CUSTOM
 62
    18
420
        0
370
     9
100
AcDbPolyline
 90
        4
 70
     0
 43
0.0
 10
559.8448835241615
 20
1191.836320747983
 10
559.378410203506
 20
1191.830321540441
 10
558.6992253245735
 20
1191.917256155155
 10
558.5645420409928
 20
1191.948929805698
  0
LINE
  5
D62
330
1F
100
AcDbEntity
  8
Hewi
  6
CUSTOM
 62
    18
420
        0
370
     9
100
AcDbLine
 10
573.6332115668265
 20
1217.266985399403
 30
0.0
 11
573.6332115668265
 21
1216.766985382408
 31
0.0
  0
LWPOLYLINE
  5
D63
330
1F
100
AcDbEntity
  8
Hewi
  6
CUSTOM
 62
    18
420
        0
370
     9
100
AcDbPolyline
 90
        3
 70
     0
 43
0.0
 10
551.2689593321956
 20
1212.5465841687
 10
551.2901385604854
 20
1212.571010746731
 10
551.3133200422344
 20
1212.591772977767
  0
LWPOLYLINE
  5
D64
330
1F
100
AcDbEntity
  8
Hewi
  6
CUSTOM
 62
    18
420
        0
370
     9
100
AcDbPolyline
 90
        3
 70
     0
 43
0.0
 10
555.8557564011244
 20
1192.754253314388
 10
556.608059598886
 20
1192.433057659471
 10
556.857701469682
 20
1192.350329818742
  0
LWPOLYLINE
  5
D65
330
1F
100
AcDbEntity
  8
Hewi
  6
CUSTOM
 62
    18
420
        0
370
     9
100
AcDbPolyline
 90
        3
 70
     0
 43
0.0
 10
551.9869271711796
 20
1195.240200288248
 10
551.8219706632298
 20
1195.401308085782
 10
551.8130436598767
 20
1195.413109655708
  0
LINE
  5
D66
330
1F
100
AcDbEntity
  8
Hewi
  6
CUSTOM
 62
    18
420
        0
370
     9
100
AcDbLine
 10
564.1011100709984
 20
1191.766985482944
 30
0.0
 11
563.6382112146166
 21
1191.61898548313
 31
0.0
  0
LWPOLYLINE
  5
D67
330
1F
100
AcDbEntity
  8
Hewi
  6
CUSTOM
 62
    18
420
        0
370
     9
100
AcDbPolyline
 90
        3
 70
     0
 43
0.0
 10
548.3008913671729
 20
1202.475532212233
 10
548.3913342133418
 20
1201.741612042084
 10
548.3963109965371
 20
1201.720672685906
  0
LINE
  5
D68
330
1F
100
AcDbEntity
  8
Hewi
  6
CUSTOM
 62
    18
420
        0
370
     9
100
AcDbLine
 10
563.6382112146166
 20
1191.61898548313
 30
0.0
 11
564.1113751333359
 21
1191.766985481961
 31
0.0
  0
LWPOLYLINE
  5
D69
330
1F
100
AcDbEntity
  8
Hewi
  6
CUSTOM
 62
    18
420
        0
370
     9
100
AcDbPolyline
 90
        3
 70
     0
 43
0.0
 10
555.8867867844346
 20
1215.831031761461
 10
555.8840494353753
 20
1215.830143242094
 10
555.8756275159685
 20
1215.826553838609
  0
LWPOLYLINE
  5
D6A
330
1F
100
AcDbEntity
  8
Hewi
  6
CUSTOM
 62
    18
420
        0
370
     9
100
AcDbPolyline
 90
        3
 70
     0
 43
0.0
 10
548.1457429482834
 20
1203.794239967808
 10
548.1439481686211
 20
1203.749085443531
 10
548.1477599632962
 20
1203.718153721307
  0
LINE
  5
D6B
330
1F
100
AcDbEntity
  8
Hewi
  6
CUSTOM
 62
    18
420
        0
370
     9
100
AcDbLine
 10
556.3580638804269
 20
1215.984004151363
 30
0.0
 11
556.4915242628485
 21
1216.027324214716
 31
0.0
  0
LINE
  5
D6C
330
1F
100
AcDbEntity
  8
Hewi
  6
CUSTOM
 62
    18
420
        0
370
     9
100
AcDbLine
 10
556.8551346676685
 20
1192.351478495708
 30
0.0
 11
556.857701469682
 21
1192.350329818742
 31
0.0
  0
LINE
  5
D6D
330
1F
100
AcDbEntity
  8
Hewi
  6
CUSTOM
 62
    18
420
        0
370
     9
100
AcDbLine
 10
556.857701469682
 20
1192.350329818742
 30
0.0
 11
556.8743382735956
 21
1192.346417318993
 31
0.0
  0
LINE
  5
D6E
330
1F
100
AcDbEntity
  8
Hewi
  6
CUSTOM
 62
    18
420
        0
370
     9
100
AcDbLine
 10
554.5109738580213
 20
1193.374494567903
 30
0.0
 11
554.2705106135108
 21
1193.508131054963
 31
0.0
  0
LWPOLYLINE
  5
D6F
330
1F
100
AcDbEntity
  8
Hewi
  6
CUSTOM
 62
    18
420
        0
370
     9
100
AcDbPolyline
 90
        3
 70
     0
 43
0.0
 10
551.2603981392203
 20
1212.53671031281
 10
551.1182066864312
 20
1212.372717056378
 10
551.1151365447112
 20
1212.367871001052
  0
LWPOLYLINE
  5
D70
330
1F
100
AcDbEntity
  8
Hewi
  6
CUSTOM
 62
    18
420
        0
370
     9
100
AcDbPolyline
 90
        3
 70
     0
 43
0.0
 10
552.0005077495588
 20
1195.226936567405
 10
552.0097295618434
 20
1195.217929915381
 10
552.0392457207527
 20
1195.195607234098
  0
LINE
  5
D71
330
1F
100
AcDbEntity
  8
Hewi
  6
CUSTOM
 62
    18
420
        0
370
     9
100
AcDbLine
 10
548.4072647327702
 20
1201.674585851257
 30
0.0
 11
548.4254399825004
 21
1201.598115164792
 31
0.0
  0
LWPOLYLINE
  5
E3A
330
1F
100
AcDbEntity
  8
Hewi
  6
CUSTOM
 62
    18
420
        0
370
     9
100
AcDbPolyline
 90
       25
 70
     0
 43
0.0
 10
2083.506923159916
 20
1191.266985534828
 10
2083.698923158478
 20
1191.266985534828
 10
2084.643923151409
 20
1191.266985534828
 10
2086.334923138762
 20
1191.266985534828
 10
2087.852923127412
 20
1191.266985534828
 10
2088.854923119918
 20
1191.266985534828
 10
2090.11592311049
 20
1191.266985534828
 10
2093.342923086359
 20
1191.266985534828
 10
2096.984923059117
 20
1191.266985534828
 10
2099.596923039586
 20
1191.266985534828
 10
2101.143923028019
 20
1191.266985534828
 10
2102.950923014509
 20
1191.266985534828
 10
2105.057922998753
 20
1191.266985534828
 10
2107.506922980436
 20
1191.266985534828
 10
2248.506921926001
 20
1191.266985534828
 10
2251.32992190489
 20
1191.266985534828
 10
2254.04492188459
 20
1191.266985534828
 10
2255.75792187178
 20
1191.266985534828
 10
2258.471921851484
 20
1191.266985534828
 10
2260.684921834934
 20
1191.266985534828
 10
2261.84092182629
 20
1191.266985534828
 10
2262.375921822288
 20
1191.266985534828
 10
2263.22092181597
 20
1191.266985534828
 10
2263.506921813831
 20
1191.266985534828
 10
2263.506921813831
 20
1217.266985413444
  0
LINE
  5
E3B
330
1F
100
AcDbEntity
  8
Hewi
  6
CUSTOM
 62
    18
420
        0
370
     9
100
AcDbLine
 10
1731.006925795995
 20
1216.766985058149
 30
0.0
 11
1731.006925795995
 21
1217.266985413444
 31
0.0
  0
LINE
  5
E3C
330
1F
100
AcDbEntity
  8
Hewi
  6
CUSTOM
 62
    18
420
        0
370
     9
100
AcDbLine
 10
1742.40652167434
 20
1191.377975525794
 30
0.0
 11
1742.627925709086
 21
1191.339985534487
 31
0.0
  0
LINE
  5
E3D
330
1F
100
AcDbEntity
  8
Hewi
  6
CUSTOM
 62
    18
420
        0
370
     9
100
AcDbLine
 10
1742.218925712142
 20
1191.390985534248
 30
0.0
 11
1740.691499000088
 21
1191.766985515802
 31
0.0
  0
LINE
  5
E3E
330
1F
100
AcDbEntity
  8
Hewi
  6
CUSTOM
 62
    18
420
        0
370
     9
100
AcDbLine
 10
2083.506923159916
 20
1217.266985413444
 30
0.0
 11
2083.506923159916
 21
1191.266985534828
 31
0.0
  0
LWPOLYLINE
  5
E3F
330
1F
100
AcDbEntity
  8
Hewi
  6
CUSTOM
 62
    18
420
        0
370
     9
100
AcDbPolyline
 90
        3
 70
     0
 43
0.0
 10
1741.733376231645
 20
1191.493478341934
 10
1741.001925721244
 20
1191.618985533183
 10
1740.717840876037
 20
1191.707843869233
  0
LINE
  5
E40
330
1F
100
AcDbEntity
  8
Hewi
  6
CUSTOM
 62
    18
420
        0
370
     9
100
AcDbLine
 10
1740.437663125915
 20
1191.766985532511
 30
0.0
 11
1742.218925712142
 21
1191.390985534248
 31
0.0
  0
LINE
  5
E41
330
1F
100
AcDbEntity
  8
Hewi
  6
CUSTOM
 62
    18
420
        0
370
     9
100
AcDbLine
 10
1742.627925709086
 20
1191.339985534487
 30
0.0
 11
1742.498688763411
 21
1191.371583621829
 31
0.0
  0
LWPOLYLINE
  5
E42
330
1F
100
AcDbEntity
  8
Hewi
  6
CUSTOM
 62
    18
420
        0
370
     9
100
AcDbPolyline
 90
       11
 70
     0
 43
0.0
 10
1733.526925777143
 20
1197.452985505946
 10
1734.307925771307
 20
1196.380985510952
 10
1735.331925763647
 20
1195.266985516151
 10
1735.733925760644
 20
1194.89698551788
 10
1736.659925753716
 20
1194.153985521348
 10
1737.58292574681
 20
1193.543985524196
 10
1739.226925734521
 20
1192.716985528059
 10
1739.27492573416
 20
1192.696985528149
 10
1741.595925716803
 20
1192.001985531397
 10
1742.045925713439
 20
1191.921985531767
 10
1744.006925698774
 20
1191.766985532493
  0
LINE
  5
E43
330
1F
100
AcDbEntity
  8
Hewi
  6
CUSTOM
 62
    18
420
        0
370
     9
100
AcDbLine
 10
1732.022925788395
 20
1200.712985490727
 30
0.0
 11
1733.526925777143
 21
1197.452985505946
 31
0.0
  0
LWPOLYLINE
  5
E44
330
1F
100
AcDbEntity
  8
Hewi
  6
CUSTOM
 62
    18
420
        0
370
     9
100
AcDbPolyline
 90
        7
 70
     0
 43
0.0
 10
1751.240311478421
 20
1214.438732133611
 10
1751.040925646172
 20
1214.599985425895
 10
1750.02892565374
 20
1215.220985422995
 10
1749.99692565398
 20
1215.237985422915
 10
1747.104925675605
 20
1216.376985417599
 10
1747.097925675658
 20
1216.378985417588
 10
1744.006925698774
 20
1216.766985415776
  0
LINE
  5
E45
330
1F
100
AcDbEntity
  8
Hewi
  6
CUSTOM
 62
    18
420
        0
370
     9
100
AcDbLine
 10
1751.747925640888
 20
1211.360985441017
 30
0.0
 11
1753.099925630773
 21
1209.516985449623
 31
0.0
  0
LINE
  5
E46
330
1F
100
AcDbEntity
  8
Hewi
  6
CUSTOM
 62
    18
420
        0
370
     9
100
AcDbLine
 10
1746.43292568063
 20
1192.004985531381
 30
0.0
 11
1748.765925663185
 21
1192.707985528099
 31
0.0
  0
LWPOLYLINE
  5
E47
330
1F
100
AcDbEntity
  8
Hewi
  6
CUSTOM
 62
    18
420
        0
370
     9
100
AcDbPolyline
 90
        3
 70
     0
 43
0.0
 10
1733.526925777143
 20
1197.452985505946
 10
1732.678925783486
 20
1198.981985498807
 10
1732.022925788395
 20
1200.712985490727
  0
LWPOLYLINE
  5
E48
330
1F
100
AcDbEntity
  8
Hewi
  6
CUSTOM
 62
    18
420
        0
370
     9
100
AcDbPolyline
 90
        3
 70
     0
 43
0.0
 10
1754.466925620552
 20
1205.181985469864
 10
1754.506925620251
 20
1204.267985474129
 10
1754.316925621671
 20
1202.278985483417
  0
LWPOLYLINE
  5
E49
330
1F
100
AcDbEntity
  8
Hewi
  6
CUSTOM
 62
    18
420
        0
370
     9
100
AcDbPolyline
 90
        6
 70
     0
 43
0.0
 10
1748.765925663185
 20
1192.707985528099
 10
1750.22592565227
 20
1193.423985524758
 10
1751.320925644079
 20
1194.12998552146
 10
1753.177925630192
 20
1195.773985513784
 10
1753.570925627253
 20
1196.217985511714
 10
1753.773758577547
 20
1196.503756873219
  0
LWPOLYLINE
  5
E4A
330
1F
100
AcDbEntity
  8
Hewi
  6
CUSTOM
 62
    18
420
        0
370
     9
100
AcDbPolyline
 90
        7
 70
     0
 43
0.0
 10
1756.506925605296
 20
1204.266985474134
 10
1756.277925607006
 20
1201.884985485256
 10
1756.199925607591
 20
1201.514985486983
 10
1755.316925614195
 20
1198.94498549898
 10
1755.294925614358
 20
1198.896985499206
 10
1754.761925618346
 20
1197.895985503877
 10
1754.158908654663
 20
1197.046394850731
  0
LWPOLYLINE
  5
E4B
330
1F
100
AcDbEntity
  8
Hewi
  6
CUSTOM
 62
    18
420
        0
370
     9
100
AcDbPolyline
 90
        3
 70
     0
 43
0.0
 10
1746.43292568063
 20
1192.004985531381
 10
1746.34892568126
 20
1191.987985531461
 10
1744.006925698774
 20
1191.766985532493
  0
LWPOLYLINE
  5
E4C
330
1F
100
AcDbEntity
  8
Hewi
  6
CUSTOM
 62
    18
420
        0
370
     9
100
AcDbPolyline
 90
        4
 70
     0
 43
0.0
 10
1756.32867318728
 20
1206.108813519131
 10
1756.207925607534
 20
1206.984985461448
 10
1756.17092560781
 20
1207.146985460689
 10
1755.894925609871
 20
1208.1299854561
  0
LWPOLYLINE
  5
E4D
330
1F
100
AcDbEntity
  8
Hewi
  6
CUSTOM
 62
    18
420
        0
370
     9
100
AcDbPolyline
 90
        7
 70
     0
 43
0.0
 10
1734.502925769844
 20
1212.386985436225
 10
1734.135925772589
 20
1211.935985438331
 10
1733.452925777699
 20
1210.964985442864
 10
1733.386925778192
 20
1210.858985443359
 10
1732.130925787583
 20
1208.168985455917
 10
1731.985925788667
 20
1207.694985458131
 10
1731.506925792251
 20
1204.266985474134
  0
LWPOLYLINE
  5
E4E
330
1F
100
AcDbEntity
  8
Hewi
  6
CUSTOM
 62
    18
420
        0
370
     9
100
AcDbPolyline
 90
        7
 70
     0
 43
0.0
 10
1734.502925769844
 20
1212.386985436225
 10
1736.576925754336
 20
1214.318985427206
 10
1738.020925743538
 20
1215.239985422906
 10
1739.03292573597
 20
1215.734985420595
 10
1740.897925722023
 20
1216.373985417613
 10
1741.46692571777
 20
1216.505985416996
 10
1744.006925698774
 20
1216.766985415776
  0
LWPOLYLINE
  5
E4F
330
1F
100
AcDbEntity
  8
Hewi
  6
CUSTOM
 62
    18
420
        0
370
     9
100
AcDbPolyline
 90
        4
 70
     0
 43
0.0
 10
1732.022925788395
 20
1200.712985490727
 10
1731.727925790598
 20
1201.924985485067
 10
1731.56192579184
 20
1203.099985479584
 10
1731.506925792251
 20
1204.266985474134
  0
LINE
  5
E50
330
1F
100
AcDbEntity
  8
Hewi
  6
CUSTOM
 62
    18
420
        0
370
     9
100
AcDbLine
 10
1747.597925671918
 20
1194.399985520202
 30
0.0
 11
1745.377925688521
 21
1193.856985522736
 31
0.0
  0
LWPOLYLINE
  5
E51
330
1F
100
AcDbEntity
  8
Hewi
  6
CUSTOM
 62
    18
420
        0
370
     9
100
AcDbPolyline
 90
        3
 70
     0
 43
0.0
 10
1748.765925663185
 20
1192.707985528099
 10
1748.608925664357
 20
1192.644985528393
 10
1748.181643528489
 20
1192.520771208015
  0
LWPOLYLINE
  5
E52
330
1F
100
AcDbEntity
  8
Hewi
  6
CUSTOM
 62
    18
420
        0
370
     9
100
AcDbPolyline
 90
        3
 70
     0
 43
0.0
 10
1752.997925631538
 20
1212.950985433592
 10
1754.582925619685
 20
1210.929985443028
 10
1754.706836585629
 20
1210.665541307644
  0
LINE
  5
E53
330
1F
100
AcDbEntity
  8
Hewi
  6
CUSTOM
 62
    18
420
        0
370
     9
100
AcDbLine
 10
1744.006925698774
 20
1191.766985532493
 30
0.0
 11
1746.43292568063
 21
1192.004985531381
 31
0.0
  0
LWPOLYLINE
  5
E54
330
1F
100
AcDbEntity
  8
Hewi
  6
CUSTOM
 62
    18
420
        0
370
     9
100
AcDbPolyline
 90
        3
 70
     0
 43
0.0
 10
1756.506925605296
 20
1204.266985474134
 10
1756.488925605427
 20
1204.945985470964
 10
1756.451589947024
 20
1205.216901512609
  0
LWPOLYLINE
  5
E55
330
1F
100
AcDbEntity
  8
Hewi
  6
CUSTOM
 62
    18
420
        0
370
     9
100
AcDbPolyline
 90
        3
 70
     0
 43
0.0
 10
1752.997925631538
 20
1212.950985433592
 10
1755.179925615219
 20
1209.871985447966
 10
1755.894925609871
 20
1208.1299854561
  0
LWPOLYLINE
  5
E56
330
1F
100
AcDbEntity
  8
Hewi
  6
CUSTOM
 62
    18
420
        0
370
     9
100
AcDbPolyline
 90
        4
 70
     0
 43
0.0
 10
1734.305925771321
 20
1200.248985492893
 10
1733.666925776098
 20
1202.443985482645
 10
1733.506925777296
 20
1204.266985474134
 10
1733.755925775433
 20
1206.539985463523
  0
LINE
  5
E57
330
1F
100
AcDbEntity
  8
Hewi
  6
CUSTOM
 62
    18
420
        0
370
     9
100
AcDbLine
 10
1741.288925719102
 20
1214.408985426788
 30
0.0
 11
1743.548925702202
 21
1214.756985425163
 31
0.0
  0
LWPOLYLINE
  5
E58
330
1F
100
AcDbEntity
  8
Hewi
  6
CUSTOM
 62
    18
420
        0
370
     9
100
AcDbPolyline
 90
        3
 70
     0
 43
0.0
 10
1731.858439164429
 20
1206.782617700421
 10
1731.538925792014
 20
1205.156985469979
 10
1731.506925792251
 20
1204.266985474134
  0
LWPOLYLINE
  5
E59
330
1F
100
AcDbEntity
  8
Hewi
  6
CUSTOM
 62
    18
420
        0
370
     9
100
AcDbPolyline
 90
        3
 70
     0
 43
0.0
 10
1752.997925631538
 20
1212.950985433592
 10
1752.640925634205
 20
1213.305985431936
 10
1751.772282356858
 20
1214.008500684464
  0
LWPOLYLINE
  5
E5A
330
1F
100
AcDbEntity
  8
Hewi
  6
CUSTOM
 62
    18
420
        0
370
     9
100
AcDbPolyline
 90
        3
 70
     0
 43
0.0
 10
1736.038286527993
 20
1213.817225067281
 10
1735.527925762184
 20
1213.450985431258
 10
1734.502925769844
 20
1212.386985436225
  0
LINE
  5
E5B
330
1F
100
AcDbEntity
  8
Hewi
  6
CUSTOM
 62
    18
420
        0
370
     9
100
AcDbLine
 10
1751.431925643246
 20
1196.841985508799
 30
0.0
 11
1749.64892565658
 21
1195.410985515478
 31
0.0
  0
LWPOLYLINE
  5
E5C
330
1F
100
AcDbEntity
  8
Hewi
  6
CUSTOM
 62
    18
420
        0
370
     9
100
AcDbPolyline
 90
       23
 70
     0
 43
0.0
 10
1688.75492611196
 20
971.6689865600455
 10
1688.506926113816
 20
973.7669865502503
 10
1688.506926113816
 20
1123.766985849957
 10
1688.506926113816
 20
1127.358985833189
 10
1688.506926113816
 20
1130.156985820125
 10
1688.506926113816
 20
1132.281985810205
 10
1688.506926113816
 20
1133.388985805039
 10
1688.506926113816
 20
1133.766985803271
 10
1692.506926083904
 20
1133.766985803271
 10
1692.506926083904
 20
1133.559985804237
 10
1692.506926083904
 20
1133.143985806182
 10
1692.506926083904
 20
1132.122985810947
 10
1692.506926083904
 20
1130.657985817788
 10
1692.506926083904
 20
1129.164985824756
 10
1692.506926083904
 20
1127.913985830597
 10
1692.506926083904
 20
1125.887985840056
 10
1692.506926083904
 20
1123.766985849957
 10
1692.506926083904
 20
973.7669865502503
 10
1692.867926081206
 20
971.8989865589719
 10
1693.717926074849
 20
970.5039865654853
 10
1694.958926065567
 20
969.4649865703359
 10
1696.446926054439
 20
968.8809865730618
 10
1697.50692604651
 20
968.7669865735934
  0
LINE
  5
E5D
330
1F
100
AcDbEntity
  8
Hewi
  6
CUSTOM
 62
    18
420
        0
370
     9
100
AcDbLine
 10
1756.451589947024
 20
1205.216901512609
 30
0.0
 11
1756.32867318728
 21
1206.108813519131
 31
0.0
  0
LINE
  5
E5E
330
1F
100
AcDbEntity
  8
Hewi
  6
CUSTOM
 62
    18
420
        0
370
     9
100
AcDbLine
 10
1692.959116585549
 20
971.7493268502167
 30
0.0
 11
1692.858963712067
 21
971.9453625139795
 31
0.0
  0
LWPOLYLINE
  5
E5F
330
1F
100
AcDbEntity
  8
Hewi
  6
CUSTOM
 62
    18
420
        0
370
     9
100
AcDbPolyline
 90
       17
 70
     0
 43
0.0
 10
1726.506925829642
 20
994.6432987086463
 10
1726.506925829642
 20
1123.766985849957
 10
1726.506925829642
 20
1125.887985840056
 10
1726.506925829642
 20
1127.913985830597
 10
1726.506925829642
 20
1129.164985824756
 10
1726.506925829642
 20
1130.657985817788
 10
1726.506925829642
 20
1132.122985810947
 10
1726.506925829642
 20
1133.143985806182
 10
1726.506925829642
 20
1133.559985804237
 10
1726.506925829642
 20
1133.766985803271
 10
1722.506925859554
 20
1133.766985803271
 10
1722.506925859554
 20
1133.388985805039
 10
1722.506925859554
 20
1132.281985810205
 10
1722.506925859554
 20
1130.156985820125
 10
1722.506925859554
 20
1127.358985833189
 10
1722.506925859554
 20
1123.766985849957
 10
1722.506925859554
 20
993.0845173007
  0
LINE
  5
E60
330
1F
100
AcDbEntity
  8
Hewi
  6
CUSTOM
 62
    18
420
        0
370
     9
100
AcDbLine
 10
1753.773758577547
 20
1196.503756873219
 30
0.0
 11
1754.158908654663
 21
1197.046394850731
 31
0.0
  0
LWPOLYLINE
  5
E61
330
1F
100
AcDbEntity
  8
Hewi
  6
CUSTOM
 62
    18
420
        0
370
     9
100
AcDbPolyline
 90
        8
 70
     0
 43
0.0
 10
1698.506926039033
 20
968.7669865735934
 10
1698.506926039033
 20
1123.766985849957
 10
1698.506926039033
 20
1125.810985840417
 10
1698.506926039033
 20
1127.698985831603
 10
1698.506926039033
 20
1129.535985823026
 10
1698.506926039033
 20
1130.765985817283
 10
1698.506926039033
 20
1131.266985814942
 10
1692.506926083904
 20
1131.266985814942
  0
LINE
  5
E62
330
1F
100
AcDbEntity
  8
Hewi
  6
CUSTOM
 62
    18
420
        0
370
     9
100
AcDbLine
 10
1751.772282356858
 20
1214.008500684464
 30
0.0
 11
1751.240311478421
 21
1214.438732133611
 31
0.0
  0
LINE
  5
E63
330
1F
100
AcDbEntity
  8
Hewi
  6
CUSTOM
 62
    18
420
        0
370
     9
100
AcDbLine
 10
1695.40508827052
 20
969.2898798958268
 30
0.0
 11
1694.531663642501
 21
969.8227026433706
 31
0.0
  0
LINE
  5
E64
330
1F
100
AcDbEntity
  8
Hewi
  6
CUSTOM
 62
    18
420
        0
370
     9
100
AcDbLine
 10
1747.131505024092
 20
1192.215487579993
 30
0.0
 11
1748.181643528489
 21
1192.520771208015
 31
0.0
  0
LINE
  5
E65
330
1F
100
AcDbEntity
  8
Hewi
  6
CUSTOM
 62
    18
420
        0
370
     9
100
AcDbLine
 10
1697.506926046513
 20
968.7669865735934
 30
0.0
 11
1696.055290963202
 21
969.0346928200906
 31
0.0
  0
LINE
  5
E66
330
1F
100
AcDbEntity
  8
Hewi
  6
CUSTOM
 62
    18
420
        0
370
     9
100
AcDbLine
 10
1693.911214576452
 20
970.3421600131951
 30
0.0
 11
1693.590266450985
 21
970.7134985458761
 31
0.0
  0
LINE
  5
E67
330
1F
100
AcDbEntity
  8
Hewi
  6
CUSTOM
 62
    18
420
        0
370
     9
100
AcDbLine
 10
1754.881075323337
 20
1210.293690341972
 30
0.0
 11
1754.706836585629
 21
1210.665541307644
 31
0.0
  0
LWPOLYLINE
  5
E68
330
1F
100
AcDbEntity
  8
Hewi
  6
CUSTOM
 62
    18
420
        0
370
     9
100
AcDbPolyline
 90
        8
 70
     0
 43
0.0
 10
1697.50692604651
 20
968.7669865735934
 10
1717.506925896949
 20
968.7669865735934
 10
1719.3319258833
 20
969.1119865719828
 10
1720.905925871528
 20
970.0999865673729
 10
1721.778925864997
 20
971.1689865623812
 10
1722.367925860595
 20
972.5939865557265
 10
1722.506925859554
 20
973.7669865502503
 10
1722.506925859554
 20
975.9125299553343
  0
LINE
  5
E69
330
1F
100
AcDbEntity
  8
Hewi
  6
CUSTOM
 62
    18
420
        0
370
     9
100
AcDbLine
 10
1695.471926061731
 20
964.9999865911814
 30
0.0
 11
1693.542926076156
 21
965.6869865879725
 31
0.0
  0
LWPOLYLINE
  5
E6A
330
1F
100
AcDbEntity
  8
Hewi
  6
CUSTOM
 62
    18
420
        0
370
     9
100
AcDbPolyline
 90
       10
 70
     0
 43
0.0
 10
1722.506925859554
 20
1131.266985814942
 10
1716.506925904425
 20
1131.266985814942
 10
1716.506925904425
 20
1131.146985815505
 10
1716.506925904425
 20
1130.578985818156
 10
1716.506925904425
 20
1129.57998582282
 10
1716.506925904425
 20
1128.692985826961
 10
1716.506925904425
 20
1127.013985834801
 10
1716.506925904425
 20
1125.102985843721
 10
1716.506925904425
 20
1123.766985849957
 10
1716.506925904425
 20
990.746335428521
  0
LWPOLYLINE
  5
E6B
330
1F
100
AcDbEntity
  8
Hewi
  6
CUSTOM
 62
    18
420
        0
370
     9
100
AcDbPolyline
 90
        3
 70
     0
 43
0.0
 10
1695.471926061731
 20
964.9999865911814
 10
1694.273926070687
 20
965.3679865894629
 10
1694.018925610777
 20
965.5174626338975
  0
LWPOLYLINE
  5
E6C
330
1F
100
AcDbEntity
  8
Hewi
  6
CUSTOM
 62
    18
420
        0
370
     9
100
AcDbPolyline
 90
        3
 70
     0
 43
0.0
 10
1724.326925845944
 20
967.8939865776701
 10
1724.429925845176
 20
968.0159865770983
 10
1725.448925837558
 20
969.5339865700134
  0
LINE
  5
E6D
330
1F
100
AcDbEntity
  8
Hewi
  6
CUSTOM
 62
    18
420
        0
370
     9
100
AcDbLine
 10
1724.326925845944
 20
967.8939865776701
 30
0.0
 11
1722.400925860351
 21
966.2139865855133
 31
0.0
  0
LINE
  5
E6E
330
1F
100
AcDbEntity
  8
Hewi
  6
CUSTOM
 62
    18
420
        0
370
     9
100
AcDbLine
 10
1722.400925860351
 20
966.2139865855133
 30
0.0
 11
1720.112925877456
 21
965.1529865904667
 31
0.0
  0
LWPOLYLINE
  5
E6F
330
1F
100
AcDbEntity
  8
Hewi
  6
CUSTOM
 62
    18
420
        0
370
     9
100
AcDbPolyline
 90
        3
 70
     0
 43
0.0
 10
1721.023223806409
 20
965.5751133842951
 10
1722.225925861658
 20
966.102986586031
 10
1722.400925860351
 20
966.2139865855133
  0
LINE
  5
E70
330
1F
100
AcDbEntity
  8
Hewi
  6
CUSTOM
 62
    18
420
        0
370
     9
100
AcDbLine
 10
1691.695926089967
 20
966.8939865823377
 30
0.0
 11
1690.192926101205
 21
968.5219865747367
 31
0.0
  0
LINE
  5
E71
330
1F
100
AcDbEntity
  8
Hewi
  6
CUSTOM
 62
    18
420
        0
370
     9
100
AcDbLine
 10
1690.192926101205
 20
968.5219865747367
 30
0.0
 11
1689.411926107048
 21
969.8329865686174
 31
0.0
  0
LWPOLYLINE
  5
E72
330
1F
100
AcDbEntity
  8
Hewi
  6
CUSTOM
 62
    18
420
        0
370
     9
100
AcDbPolyline
 90
        4
 70
     0
 43
0.0
 10
1718.467925889759
 20
964.8179865920319
 10
1717.506925896949
 20
964.766986592269
 10
1697.50692604651
 20
964.766986592269
 10
1695.471926061731
 20
964.9999865911814
  0
LWPOLYLINE
  5
E73
330
1F
100
AcDbEntity
  8
Hewi
  6
CUSTOM
 62
    18
420
        0
370
     9
100
AcDbPolyline
 90
        3
 70
     0
 43
0.0
 10
1689.411926107048
 20
969.8329865686174
 10
1689.842926103825
 20
969.0479865722846
 10
1690.192926101205
 20
968.5219865747367
  0
LINE
  5
E74
330
1F
100
AcDbEntity
  8
Hewi
  6
CUSTOM
 62
    18
420
        0
370
     9
100
AcDbLine
 10
1689.411926107048
 20
969.8329865686174
 30
0.0
 11
1688.75492611196
 21
971.6689865600455
 31
0.0
  0
LWPOLYLINE
  5
E75
330
1F
100
AcDbEntity
  8
Hewi
  6
CUSTOM
 62
    18
420
        0
370
     9
100
AcDbPolyline
 90
        3
 70
     0
 43
0.0
 10
1726.506925829642
 20
977.4713138778515
 10
1726.506925829642
 20
973.7669865502503
 10
1726.207925831881
 20
971.4659865609938
  0
LWPOLYLINE
  5
E76
330
1F
100
AcDbEntity
  8
Hewi
  6
CUSTOM
 62
    18
420
        0
370
     9
100
AcDbPolyline
 90
        3
 70
     0
 43
0.0
 10
1688.75492611196
 20
971.6689865600455
 10
1688.84792611127
 20
971.3149865616978
 10
1689.411926107048
 20
969.8329865686174
  0
LWPOLYLINE
  5
E77
330
1F
100
AcDbEntity
  8
Hewi
  6
CUSTOM
 62
    18
420
        0
370
     9
100
AcDbPolyline
 90
        3
 70
     0
 43
0.0
 10
1725.711436021072
 20
970.2021943223408
 10
1725.905925834136
 20
970.533986565344
 10
1726.207925831881
 20
971.4659865609938
  0
LWPOLYLINE
  5
E78
330
1F
100
AcDbEntity
  8
Hewi
  6
CUSTOM
 62
    18
420
        0
370
     9
100
AcDbPolyline
 90
        3
 70
     0
 43
0.0
 10
1718.467925889759
 20
964.8179865920319
 10
1719.958925878611
 20
965.1079865906758
 10
1720.112925877456
 20
965.1529865904667
  0
LINE
  5
E79
330
1F
100
AcDbEntity
  8
Hewi
  6
CUSTOM
 62
    18
420
        0
370
     9
100
AcDbLine
 10
1720.112925877456
 20
965.1529865904667
 30
0.0
 11
1718.467925889759
 21
964.8179865920319
 31
0.0
  0
LINE
  5
E7A
330
1F
100
AcDbEntity
  8
Hewi
  6
CUSTOM
 62
    18
420
        0
370
     9
100
AcDbLine
 10
1725.448925837558
 20
969.5339865700134
 30
0.0
 11
1724.326925845944
 21
967.8939865776701
 31
0.0
  0
LINE
  5
E7B
330
1F
100
AcDbEntity
  8
Hewi
  6
CUSTOM
 62
    18
420
        0
370
     9
100
AcDbLine
 10
1693.542926076156
 20
965.6869865879725
 30
0.0
 11
1691.695926089967
 21
966.8939865823377
 31
0.0
  0
LINE
  5
E7C
330
1F
100
AcDbEntity
  8
Hewi
  6
CUSTOM
 62
    18
420
        0
370
     9
100
AcDbLine
 10
1721.796445239477
 20
971.2168028587347
 30
0.0
 11
1721.771431582212
 21
971.159809715442
 31
0.0
  0
LINE
  5
E7D
330
1F
100
AcDbEntity
  8
Hewi
  6
CUSTOM
 62
    18
420
        0
370
     9
100
AcDbLine
 10
1722.352878334171
 20
972.656866284824
 30
0.0
 11
1722.332137752393
 21
972.5074024093938
 31
0.0
  0
LINE
  5
E7E
330
1F
100
AcDbEntity
  8
Hewi
  6
CUSTOM
 62
    18
420
        0
370
     9
100
AcDbLine
 10
1692.879459524331
 20
971.9052447454615
 30
0.0
 11
1692.86044849666
 21
971.937679413495
 31
0.0
  0
LINE
  5
E7F
330
1F
100
AcDbEntity
  8
Hewi
  6
CUSTOM
 62
    18
420
        0
370
     9
100
AcDbLine
 10
1726.207925831881
 20
971.4659865609938
 30
0.0
 11
1725.448925837558
 21
969.5339865700134
 31
0.0
  0
LWPOLYLINE
  5
E80
330
1F
100
AcDbEntity
  8
Hewi
  6
CUSTOM
 62
    18
420
        0
370
     9
100
AcDbPolyline
 90
        3
 70
     0
 43
0.0
 10
1691.695926089967
 20
966.8939865823377
 10
1691.755926089518
 20
966.843986582573
 10
1693.542926076156
 20
965.6869865879725
  0
LINE
  5
E81
330
1F
100
AcDbEntity
  8
Hewi
  6
CUSTOM
 62
    18
420
        0
370
     9
100
AcDbLine
 10
1756.501925605331
 20
1203.925985475727
 30
0.0
 11
1756.506925605296
 21
1204.266985474134
 31
0.0
  0
LINE
  5
E82
330
1F
100
AcDbEntity
  8
Hewi
  6
CUSTOM
 62
    18
420
        0
370
     9
100
AcDbLine
 10
1755.921925609669
 20
1208.046985456487
 30
0.0
 11
1755.894925609871
 21
1208.1299854561
 31
0.0
  0
LWPOLYLINE
  5
E83
330
1F
100
AcDbEntity
  8
Hewi
  6
CUSTOM
 62
    18
420
        0
370
     9
100
AcDbPolyline
 90
       11
 70
     0
 43
0.0
 10
1744.006925698774
 20
1216.766985415776
 10
1698.506926039033
 20
1216.766985415776
 10
1697.242926048486
 20
1216.766985415776
 10
1694.940926065701
 20
1216.766985415776
 10
1692.848926081344
 20
1216.766985415776
 10
1691.615926090566
 20
1216.766985415776
 10
1690.15092610152
 20
1216.766985415776
 10
1689.129926109155
 20
1216.766985415776
 10
1688.713926112268
 20
1216.766985415776
 10
1688.506926113816
 20
1216.766985415776
 10
1688.506926113816
 20
1186.766985555836
  0
LWPOLYLINE
  5
E84
330
1F
100
AcDbEntity
  8
Hewi
  6
CUSTOM
 62
    18
420
        0
370
     9
100
AcDbPolyline
 90
       12
 70
     0
 43
0.0
 10
1688.506926113816
 20
1186.766985555836
 10
1688.507926113809
 20
1187.914985550476
 10
1688.540926113561
 20
1189.519985542983
 10
1688.722926112201
 20
1190.811985536951
 10
1689.044926109793
 20
1191.434985534042
 10
1689.579926105791
 20
1191.739985532618
 10
1689.846926103793
 20
1191.766985532493
 10
1690.64992609779
 20
1191.766985532493
 10
1692.149926086575
 20
1191.766985532493
 10
1693.942926073167
 20
1191.766985532493
 10
1696.158926056592
 20
1191.766985532493
 10
1698.506926039033
 20
1191.766985532493
  0
LWPOLYLINE
  5
E85
330
1F
100
AcDbEntity
  8
Hewi
  6
CUSTOM
 62
    18
420
        0
370
     9
100
AcDbPolyline
 90
       21
 70
     0
 43
0.0
 10
1688.506926113816
 20
1186.766985555836
 10
1688.506926113816
 20
1161.766985672551
 10
1688.506926113816
 20
1160.40498567891
 10
1688.506926113816
 20
1159.144985684792
 10
1688.506926113816
 20
1157.920985690507
 10
1688.506926113816
 20
1157.100985694334
 10
1688.506926113816
 20
1156.766985695894
 10
1693.506926076425
 20
1156.766985695894
 10
1693.506926076425
 20
1157.002985694793
 10
1693.506926076425
 20
1157.688985691591
 10
1693.506926076425
 20
1158.954985685679
 10
1693.506926076425
 20
1160.582985678078
 10
1693.506926076425
 20
1161.766985672551
 10
1693.506926076425
 20
1186.766985555836
 10
1693.51692607635
 20
1188.525985547623
 10
1693.660926075274
 20
1190.046985540522
 10
1693.959926073036
 20
1190.823985536894
 10
1694.620926068095
 20
1191.408985534164
 10
1695.63392606052
 20
1191.682985532887
 10
1697.027926050093
 20
1191.763985532507
 10
1698.506926039033
 20
1191.766985532493
  0
LINE
  5
E86
330
1F
100
AcDbEntity
  8
Hewi
  6
CUSTOM
 62
    18
420
        0
370
     9
100
AcDbLine
 10
1722.403342351838
 20
972.8928609835584
 30
0.0
 11
1722.149323476708
 21
972.0651098191719
 31
0.0
  0
LWPOLYLINE
  5
E87
330
1F
100
AcDbEntity
  8
Hewi
  6
CUSTOM
 62
    18
420
        0
370
     9
100
AcDbPolyline
 90
        3
 70
     0
 43
0.0
 10
1749.17192566015
 20
1215.652985420978
 10
1749.681925656336
 20
1215.404985422134
 10
1749.877820401172
 20
1215.284894444849
  0
LINE
  5
E88
330
1F
100
AcDbEntity
  8
Hewi
  6
CUSTOM
 62
    18
420
        0
370
     9
100
AcDbLine
 10
1693.663385400039
 20
1190.053376494879
 30
0.0
 11
1693.559400117676
 21
1188.974617610169
 31
0.0
  0
LINE
  5
E89
330
1F
100
AcDbEntity
  8
Hewi
  6
CUSTOM
 62
    18
420
        0
370
     9
100
AcDbLine
 10
1721.80442895638
 20
971.2306875909161
 30
0.0
 11
1721.745215709885
 21
971.1277080314994
 31
0.0
  0
LINE
  5
E8A
330
1F
100
AcDbEntity
  8
Hewi
  6
CUSTOM
 62
    18
420
        0
370
     9
100
AcDbLine
 10
1719.616566273831
 20
969.2906553804423
 30
0.0
 11
1718.994010692506
 21
969.048106716411
 31
0.0
  0
LINE
  5
E8B
330
1F
100
AcDbEntity
  8
Hewi
  6
CUSTOM
 62
    18
420
        0
370
     9
100
AcDbLine
 10
1698.506926039033
 20
1191.766985532493
 30
0.0
 11
1696.943930718837
 21
1191.759104883796
 31
0.0
  0
LINE
  5
E8C
330
1F
100
AcDbEntity
  8
Hewi
  6
CUSTOM
 62
    18
420
        0
370
     9
100
AcDbLine
 10
1721.851863598833
 20
971.345448826185
 30
0.0
 11
1721.550390838609
 21
970.8891424152898
 31
0.0
  0
LINE
  5
E8D
330
1F
100
AcDbEntity
  8
Hewi
  6
CUSTOM
 62
    18
420
        0
370
     9
100
AcDbLine
 10
1694.986290372082
 20
1191.507810626943
 30
0.0
 11
1694.376936154131
 21
1191.193048918692
 31
0.0
  0
LINE
  5
E8E
330
1F
100
AcDbEntity
  8
Hewi
  6
CUSTOM
 62
    18
420
        0
370
     9
100
AcDbLine
 10
1696.459559451552
 20
1191.730959926102
 30
0.0
 11
1695.412571881003
 21
1191.623112837598
 31
0.0
  0
LWPOLYLINE
  5
E8F
330
1F
100
AcDbEntity
  8
Hewi
  6
CUSTOM
 62
    18
420
        0
370
     9
100
AcDbPolyline
 90
        3
 70
     0
 43
0.0
 10
1751.974925639184
 20
1194.635985519098
 10
1751.353925643831
 20
1194.153985521348
 10
1751.33311347348
 20
1194.14077540121
  0
LINE
  5
E90
330
1F
100
AcDbEntity
  8
Hewi
  6
CUSTOM
 62
    18
420
        0
370
     9
100
AcDbLine
 10
1755.916925609712
 20
1200.469985491862
 30
0.0
 11
1755.382925613699
 21
1199.086985498317
 31
0.0
  0
LINE
  5
E91
330
1F
100
AcDbEntity
  8
Hewi
  6
CUSTOM
 62
    18
420
        0
370
     9
100
AcDbLine
 10
1746.189925682451
 20
1191.958985531595
 30
0.0
 11
1744.006925698774
 21
1191.766985532493
 31
0.0
  0
LWPOLYLINE
  5
E92
330
1F
100
AcDbEntity
  8
Hewi
  6
CUSTOM
 62
    18
420
        0
370
     9
100
AcDbPolyline
 90
        3
 70
     0
 43
0.0
 10
1753.931925624554
 20
1196.667985509612
 10
1754.119925623145
 20
1196.919985508437
 10
1754.352888719812
 20
1197.319693372165
  0
LWPOLYLINE
  5
E93
330
1F
100
AcDbEntity
  8
Hewi
  6
CUSTOM
 62
    18
420
        0
370
     9
100
AcDbPolyline
 90
        3
 70
     0
 43
0.0
 10
1753.372925628733
 20
1212.544985435488
 10
1754.119925623145
 20
1211.613985439835
 10
1754.256079922103
 20
1211.346739479894
  0
LINE
  5
E94
330
1F
100
AcDbEntity
  8
Hewi
  6
CUSTOM
 62
    18
420
        0
370
     9
100
AcDbLine
 10
1716.506925904425
 20
973.574354472028
 30
0.0
 11
1716.506925904425
 21
968.7669865735934
 31
0.0
  0
LWPOLYLINE
  5
E95
330
1F
100
AcDbEntity
  8
Hewi
  6
CUSTOM
 62
    18
420
        0
370
     9
100
AcDbPolyline
 90
        3
 70
     0
 43
0.0
 10
1746.189925682451
 20
1191.958985531595
 10
1745.96192568415
 20
1191.920985531773
 10
1744.006925698774
 20
1191.766985532493
  0
LWPOLYLINE
  5
E96
330
1F
100
AcDbEntity
  8
Hewi
  6
CUSTOM
 62
    18
420
        0
370
     9
100
AcDbPolyline
 90
        3
 70
     0
 43
0.0
 10
1755.916925609712
 20
1200.469985491862
 10
1755.894925609871
 20
1200.40398549217
 10
1755.382925613699
 20
1199.086985498317
  0
LWPOLYLINE
  5
E97
330
1F
100
AcDbEntity
  8
Hewi
  6
CUSTOM
 62
    18
420
        0
370
     9
100
AcDbPolyline
 90
        3
 70
     0
 43
0.0
 10
1751.411925643398
 20
1214.337985427119
 10
1751.353925643831
 20
1214.379985426922
 10
1751.184601349458
 20
1214.483787700976
  0
LWPOLYLINE
  5
E98
330
1F
100
AcDbEntity
  8
Hewi
  6
CUSTOM
 62
    18
420
        0
370
     9
100
AcDbPolyline
 90
        3
 70
     0
 43
0.0
 10
1746.587925679469
 20
1216.497985417034
 10
1746.924925676951
 20
1216.42198541739
 10
1747.012387199531
 20
1216.38972267937
  0
LINE
  5
E99
330
1F
100
AcDbEntity
  8
Hewi
  6
CUSTOM
 62
    18
420
        0
370
     9
100
AcDbLine
 10
1722.395018578783
 20
972.822617913671
 30
0.0
 11
1722.287299433428
 21
972.3989226074099
 31
0.0
  0
LINE
  5
E9A
330
1F
100
AcDbEntity
  8
Hewi
  6
CUSTOM
 62
    18
420
        0
370
     9
100
AcDbLine
 10
1744.006925698774
 20
1191.766985532493
 30
0.0
 11
1698.506926039033
 21
1191.766985532493
 31
0.0
  0
LINE
  5
E9B
330
1F
100
AcDbEntity
  8
Hewi
  6
CUSTOM
 62
    18
420
        0
370
     9
100
AcDbLine
 10
1721.107045415872
 20
970.3462600993262
 30
0.0
 11
1720.528192332629
 21
969.8628831806454
 31
0.0
  0
LINE
  5
E9C
330
1F
100
AcDbEntity
  8
Hewi
  6
CUSTOM
 62
    18
420
        0
370
     9
100
AcDbLine
 10
1694.094165372404
 20
1190.94279036421
 30
0.0
 11
1693.671647721501
 21
1190.074847476484
 31
0.0
  0
LWPOLYLINE
  5
E9D
330
1F
100
AcDbEntity
  8
Hewi
  6
CUSTOM
 62
    18
420
        0
370
     9
100
AcDbPolyline
 90
        3
 70
     0
 43
0.0
 10
1748.784876365291
 20
1192.717279151384
 10
1748.790925662997
 20
1192.718985528048
 10
1750.017925653821
 20
1193.305985525307
  0
LINE
  5
E9E
330
1F
100
AcDbEntity
  8
Hewi
  6
CUSTOM
 62
    18
420
        0
370
     9
100
AcDbLine
 10
1755.921925609669
 20
1208.046985456487
 30
0.0
 11
1755.932863326903
 21
1207.994866702769
 31
0.0
  0
LINE
  5
E9F
330
1F
100
AcDbEntity
  8
Hewi
  6
CUSTOM
 62
    18
420
        0
370
     9
100
AcDbLine
 10
1756.501925605331
 20
1203.925985475727
 30
0.0
 11
1756.346331873839
 21
1202.596530152336
 31
0.0
  0
LINE
  5
EA0
330
1F
100
AcDbEntity
  8
Hewi
  6
CUSTOM
 62
    18
420
        0
370
     9
100
AcDbLine
 10
1755.382925613699
 20
1199.086985498317
 30
0.0
 11
1755.340997148229
 21
1199.015046476199
 31
0.0
  0
LINE
  5
EA1
330
1F
100
AcDbEntity
  8
Hewi
  6
CUSTOM
 62
    18
420
        0
370
     9
100
AcDbLine
 10
1756.328673183819
 20
1206.108813515195
 30
0.0
 11
1756.43692560582
 21
1205.592985467945
 31
0.0
  0
LINE
  5
EA2
330
1F
100
AcDbEntity
  8
Hewi
  6
CUSTOM
 62
    18
420
        0
370
     9
100
AcDbLine
 10
1750.017925653821
 20
1193.305985525307
 30
0.0
 11
1749.763235922921
 21
1193.197077410579
 31
0.0
  0
LWPOLYLINE
  5
EA3
330
1F
100
AcDbEntity
  8
Hewi
  6
CUSTOM
 62
    18
420
        0
370
     9
100
AcDbPolyline
 90
        3
 70
     0
 43
0.0
 10
1756.244497463998
 20
1201.726416061128
 10
1756.242925607268
 20
1201.712985486057
 10
1756.236506440375
 20
1201.688509950858
  0
LINE
  5
EA4
330
1F
100
AcDbEntity
  8
Hewi
  6
CUSTOM
 62
    18
420
        0
370
     9
100
AcDbLine
 10
1756.43692560582
 20
1205.592985467945
 30
0.0
 11
1756.460001219322
 21
1205.155867416608
 31
0.0
  0
LINE
  5
EA5
330
1F
100
AcDbEntity
  8
Hewi
  6
CUSTOM
 62
    18
420
        0
370
     9
100
AcDbLine
 10
1754.70683655392
 20
1210.665541363314
 30
0.0
 11
1754.91092561723
 21
1210.377985445604
 31
0.0
  0
LINE
  5
EA6
330
1F
100
AcDbEntity
  8
Hewi
  6
CUSTOM
 62
    18
420
        0
370
     9
100
AcDbLine
 10
1755.055656093955
 20
1210.047341022233
 30
0.0
 11
1754.91092561723
 21
1210.377985445604
 31
0.0
  0
LINE
  5
EA7
330
1F
100
AcDbEntity
  8
Hewi
  6
CUSTOM
 62
    18
420
        0
370
     9
100
AcDbLine
 10
1755.382925613699
 20
1199.086985498317
 30
0.0
 11
1755.342636985144
 21
1199.019819273128
 31
0.0
  0
LINE
  5
EA8
330
1F
100
AcDbEntity
  8
Hewi
  6
CUSTOM
 62
    18
420
        0
370
     9
100
AcDbLine
 10
1754.91092561723
 20
1210.377985445604
 30
0.0
 11
1755.052244687471
 21
1210.052154828745
 31
0.0
  0
LINE
  5
EA9
330
1F
100
AcDbEntity
  8
Hewi
  6
CUSTOM
 62
    18
420
        0
370
     9
100
AcDbLine
 10
1751.411925643398
 20
1214.337985427119
 30
0.0
 11
1751.772282307116
 21
1214.0085007255
 31
0.0
  0
LINE
  5
EAA
330
1F
100
AcDbEntity
  8
Hewi
  6
CUSTOM
 62
    18
420
        0
370
     9
100
AcDbLine
 10
1751.24031143646
 20
1214.438732160492
 30
0.0
 11
1751.411925643398
 21
1214.337985427119
 31
0.0
  0
LINE
  5
EAB
330
1F
100
AcDbEntity
  8
Hewi
  6
CUSTOM
 62
    18
420
        0
370
     9
100
AcDbLine
 10
1751.974925639184
 20
1194.635985519098
 30
0.0
 11
1751.6200885322
 21
1194.394834086488
 31
0.0
  0
LINE
  5
EAC
330
1F
100
AcDbEntity
  8
Hewi
  6
CUSTOM
 62
    18
420
        0
370
     9
100
AcDbLine
 10
1752.451876567469
 20
1195.131215099572
 30
0.0
 11
1751.974925639184
 21
1194.635985519098
 31
0.0
  0
LINE
  5
EAD
330
1F
100
AcDbEntity
  8
Hewi
  6
CUSTOM
 62
    18
420
        0
370
     9
100
AcDbLine
 10
1753.931925624554
 20
1196.667985509612
 30
0.0
 11
1753.773758578722
 21
1196.503756874948
 31
0.0
  0
LINE
  5
EAE
330
1F
100
AcDbEntity
  8
Hewi
  6
CUSTOM
 62
    18
420
        0
370
     9
100
AcDbLine
 10
1744.012727470352
 20
1216.766380736755
 30
0.0
 11
1746.587925679469
 21
1216.497985417034
 31
0.0
  0
LINE
  5
EAF
330
1F
100
AcDbEntity
  8
Hewi
  6
CUSTOM
 62
    18
420
        0
370
     9
100
AcDbLine
 10
1750.102462952105
 20
1193.363438058284
 30
0.0
 11
1750.017925653821
 21
1193.305985525307
 31
0.0
  0
LINE
  5
EB0
330
1F
100
AcDbEntity
  8
Hewi
  6
CUSTOM
 62
    18
420
        0
370
     9
100
AcDbLine
 10
1753.17291263409
 20
1212.727863202137
 30
0.0
 11
1753.372925628733
 21
1212.544985435488
 31
0.0
  0
LINE
  5
EB1
330
1F
100
AcDbEntity
  8
Hewi
  6
CUSTOM
 62
    18
420
        0
370
     9
100
AcDbLine
 10
1754.158908675108
 20
1197.046394883036
 30
0.0
 11
1753.931925624554
 21
1196.667985509612
 31
0.0
  0
LWPOLYLINE
  5
EB2
330
1F
100
AcDbEntity
  8
Hewi
  6
CUSTOM
 62
    18
420
        0
370
     9
100
AcDbPolyline
 90
        4
 70
     0
 43
0.0
 10
1756.419620029934
 20
1205.675447377984
 10
1756.415855893978
 20
1205.770148571118
 10
1756.30347268382
 20
1206.511441119657
 10
1756.247437826754
 20
1206.698275733914
  0
LINE
  5
EB3
330
1F
100
AcDbEntity
  8
Hewi
  6
CUSTOM
 62
    18
420
        0
370
     9
100
AcDbLine
 10
1756.43692560582
 20
1205.592985467945
 30
0.0
 11
1756.451589946922
 21
1205.216901518943
 31
0.0
  0
LINE
  5
EB4
330
1F
100
AcDbEntity
  8
Hewi
  6
CUSTOM
 62
    18
420
        0
370
     9
100
AcDbLine
 10
1747.824115485033
 20
1216.093736040628
 30
0.0
 11
1749.17192566015
 21
1215.652985420978
 31
0.0
  0
LINE
  5
EB5
330
1F
100
AcDbEntity
  8
Hewi
  6
CUSTOM
 62
    18
420
        0
370
     9
100
AcDbLine
 10
1749.17192566015
 20
1215.652985420978
 30
0.0
 11
1749.638146407469
 21
1215.379288865419
 31
0.0
  0
LWPOLYLINE
  5
EB6
330
1F
100
AcDbEntity
  8
Hewi
  6
CUSTOM
 62
    18
420
        0
370
     9
100
AcDbPolyline
 90
        4
 70
     0
 43
0.0
 10
1755.315517760904
 20
1209.541633675191
 10
1755.402554366552
 20
1209.404251019152
 10
1755.507719060766
 20
1209.164688205268
 10
1755.60943135215
 20
1208.825553286027
  0
LWPOLYLINE
  5
EB7
330
1F
100
AcDbEntity
  8
Hewi
  6
CUSTOM
 62
    18
420
        0
370
     9
100
AcDbPolyline
 90
        3
 70
     0
 43
0.0
 10
1748.756087169258
 20
1215.83014325815
 10
1748.998022677449
 20
1215.727030873633
 10
1749.083153736606
 20
1215.682014938857
  0
LWPOLYLINE
  5
EB8
330
1F
100
AcDbEntity
  8
Hewi
  6
CUSTOM
 62
    18
420
        0
370
     9
100
AcDbPolyline
 90
        4
 70
     0
 43
0.0
 10
1744.87422942957
 20
1191.835305102955
 10
1745.26172655039
 20
1191.830321590198
 10
1745.94091140031
 20
1191.917256204791
 10
1745.954172242393
 20
1191.920374775145
  0
LWPOLYLINE
  5
EB9
330
1F
100
AcDbEntity
  8
Hewi
  6
CUSTOM
 62
    18
420
        0
370
     9
100
AcDbPolyline
 90
        3
 70
     0
 43
0.0
 10
1748.181643621712
 20
1192.520771243122
 10
1747.786925670505
 20
1192.351985529762
 10
1746.682715915176
 20
1192.080254512188
  0
LINE
  5
EBA
330
1F
100
AcDbEntity
  8
Hewi
  6
CUSTOM
 62
    18
420
        0
370
     9
100
AcDbLine
 10
1746.282174018251
 20
1191.981686593633
 30
0.0
 11
1746.189925682451
 21
1191.958985531595
 31
0.0
  0
LWPOLYLINE
  5
EBB
330
1F
100
AcDbEntity
  8
Hewi
  6
CUSTOM
 62
    18
420
        0
370
     9
100
AcDbPolyline
 90
        4
 70
     0
 43
0.0
 10
1748.356744868655
 20
1192.57167456066
 10
1748.03207703667
 20
1192.433057708382
 10
1747.782435176537
 20
1192.35032986777
 10
1747.731989907184
 20
1192.338466584839
  0
LINE
  5
EBC
330
1F
100
AcDbEntity
  8
Hewi
  6
CUSTOM
 62
    18
420
        0
370
     9
100
AcDbLine
 10
1756.493908737156
 20
1204.131587310852
 30
0.0
 11
1756.501925605331
 21
1203.925985475727
 31
0.0
  0
LWPOLYLINE
  5
EBD
330
1F
100
AcDbEntity
  8
Hewi
  6
CUSTOM
 62
    18
420
        0
370
     9
100
AcDbPolyline
 90
        4
 70
     0
 43
0.0
 10
1752.942235480837
 20
1195.565329291523
 10
1752.818165767883
 20
1195.401308130525
 10
1752.630406877284
 20
1195.217929960381
 10
1752.280603871397
 20
1194.953378554524
  0
LINE
  5
EBE
330
1F
100
AcDbEntity
  8
Hewi
  6
CUSTOM
 62
    18
420
        0
370
     9
100
AcDbLine
 10
1750.017925653821
 20
1193.305985525307
 30
0.0
 11
1750.128752750348
 21
1193.37633086821
 31
0.0
  0
LWPOLYLINE
  5
EBF
330
1F
100
AcDbEntity
  8
Hewi
  6
CUSTOM
 62
    18
420
        0
370
     9
100
AcDbPolyline
 90
        4
 70
     0
 43
0.0
 10
1754.896787756468
 20
1198.149263161005
 10
1754.93810165003
 20
1198.203880461442
 10
1755.062739384095
 20
1198.433913915367
 10
1755.103186673688
 20
1198.536890414902
  0
LINE
  5
EC0
330
1F
100
AcDbEntity
  8
Hewi
  6
CUSTOM
 62
    18
420
        0
370
     9
100
AcDbLine
 10
1755.911445139092
 20
1208.071149627594
 30
0.0
 11
1755.921925609669
 21
1208.046985456487
 31
0.0
  0
LINE
  5
EC1
330
1F
100
AcDbEntity
  8
Hewi
  6
CUSTOM
 62
    18
420
        0
370
     9
100
AcDbLine
 10
1753.372925628733
 20
1212.544985435488
 30
0.0
 11
1753.911819558059
 21
1211.785698603154
 31
0.0
  0
LINE
  5
EC2
330
1F
100
AcDbEntity
  8
Hewi
  6
CUSTOM
 62
    18
420
        0
370
     9
100
AcDbLine
 10
1746.587925679469
 20
1216.497985417034
 30
0.0
 11
1746.860806683969
 21
1216.408749948979
 31
0.0
  0
LWPOLYLINE
  5
EC3
330
1F
100
AcDbEntity
  8
Hewi
  6
CUSTOM
 62
    18
420
        0
370
     9
100
AcDbPolyline
 90
        3
 70
     0
 43
0.0
 10
1753.562390591516
 20
1212.3088517336
 10
1753.521929714618
 20
1212.372717077294
 10
1753.37741959254
 20
1212.539384524738
  0
LWPOLYLINE
  5
EC4
330
1F
100
AcDbEntity
  8
Hewi
  6
CUSTOM
 62
    18
420
        0
370
     9
100
AcDbPolyline
 90
        3
 70
     0
 43
0.0
 10
1753.168295487892
 20
1212.733750430674
 10
1753.349997847905
 20
1212.571010767366
 10
1753.371177075296
 20
1212.546584189369
  0
LWPOLYLINE
  5
EC5
330
1F
100
AcDbEntity
  8
Hewi
  6
CUSTOM
 62
    18
420
        0
370
     9
100
AcDbPolyline
 90
        3
 70
     0
 43
0.0
 10
1750.489483533798
 20
1214.938370362502
 10
1750.669830703948
 20
1214.843005679761
 10
1750.942560254301
 20
1214.660346006969
  0
LINE
  5
EC6
330
1F
100
AcDbEntity
  8
Hewi
  6
CUSTOM
 62
    18
420
        0
370
     9
100
AcDbLine
 10
1751.080631849185
 20
1214.567873033982
 30
0.0
 11
1751.238537819692
 21
1214.462116056538
 31
0.0
  0
LINE
  5
EC7
330
1F
100
AcDbEntity
  8
Hewi
  6
CUSTOM
 62
    18
420
        0
370
     9
100
AcDbLine
 10
1756.162195274308
 20
1201.405170135889
 30
0.0
 11
1755.916925609712
 21
1200.469985491862
 31
0.0
  0
LWPOLYLINE
  5
EC8
330
1F
100
AcDbEntity
  8
Hewi
  6
CUSTOM
 62
    18
420
        0
370
     9
100
AcDbPolyline
 90
        3
 70
     0
 43
0.0
 10
1756.318571105086
 20
1202.307769662377
 10
1756.496188105378
 20
1203.749085476553
 10
1756.492393912562
 20
1203.844542864553
  0
LWPOLYLINE
  5
EC9
330
1F
100
AcDbEntity
  8
Hewi
  6
CUSTOM
 62
    18
420
        0
370
     9
100
AcDbPolyline
 90
       41
 70
     0
 43
0.0
 10
1843.787884254616
 20
1023.246093490812
 10
1733.814032663508
 20
980.3188666046299
 10
1729.940745451488
 20
978.8094612833029
 10
1726.272443369758
 20
977.3799378890126
 10
1723.967292404512
 20
976.4816293095192
 10
1719.752984475723
 20
974.8393295095775
 10
1716.154563688422
 20
973.437038590413
 10
1713.260546348861
 20
972.3092510205205
 10
1711.13988200088
 20
971.4828361753607
 10
1710.090730833995
 20
971.0739859488002
 10
1709.521431222125
 20
970.8521320514373
 10
1709.412416402829
 20
970.8096493902413
 10
1708.544710430586
 20
970.527316623311
 10
1706.143526361531
 20
970.2720242732102
 10
1705.314710196569
 20
970.3525794432989
 10
1703.775384338758
 20
970.7443922214588
 10
1701.656435733163
 20
971.9020104361788
 10
1699.979058122368
 20
973.6395418706633
 10
1698.897454389447
 20
975.7981359750374
 10
1698.681597168794
 20
976.602667537416
 10
1698.508483523121
 20
978.1815700133156
 10
1698.649608614647
 20
979.7637994756806
 10
1698.847714524298
 20
980.5718832722615
 10
1699.885733866653
 20
982.7526228234091
 10
1701.519129547679
 20
984.5182090318594
 10
1703.602821725573
 20
985.7176589082737
 10
1703.84787213134
 20
985.8131541210514
 10
1704.578364595669
 20
986.0978242610345
 10
1705.330287323624
 20
986.3908456933932
 10
1707.450951671606
 20
987.2172605385548
 10
1710.344969011159
 20
988.3450481084473
 10
1713.943389798467
 20
989.74733902761
 10
1718.157697727252
 20
991.3896388275516
 10
1721.660148203558
 20
992.7545304808736
 10
1725.402058582069
 20
994.2127387489636
 10
1728.004437986248
 20
995.2268761226623
 10
1838.30600484848
 20
1038.210977961464
 10
1843.658121782242
 20
1040.833302189225
 10
1847.774493689627
 20
1044.134243610195
 10
1849.529626218169
 20
1045.890388000634
 10
1851.048773519403
 20
1047.693018985137
  0
LWPOLYLINE
  5
ECA
330
1F
100
AcDbEntity
  8
Hewi
  6
CUSTOM
 62
    18
420
        0
370
     9
100
AcDbPolyline
 90
        3
 70
     0
 43
0.0
 10
1756.250351483355
 20
1201.754185154832
 10
1756.248802071223
 20
1201.741612077925
 10
1756.243825288238
 20
1201.720672721776
  0
LINE
  5
ECB
330
1F
100
AcDbEntity
  8
Hewi
  6
CUSTOM
 62
    18
420
        0
370
     9
100
AcDbLine
 10
1748.756087169258
 20
1215.83014325815
 30
0.0
 11
1747.262168417506
 21
1216.315056132456
 31
0.0
  0
LWPOLYLINE
  5
ECC
330
1F
100
AcDbEntity
  8
Hewi
  6
CUSTOM
 62
    18
420
        0
370
     9
100
AcDbPolyline
 90
        3
 70
     0
 43
0.0
 10
1745.473635397495
 20
1216.614120283528
 10
1746.287085678723
 20
1216.557062942758
 10
1746.541140847555
 20
1216.502861480612
  0
LWPOLYLINE
  5
ECD
330
1F
100
AcDbEntity
  8
Hewi
  6
CUSTOM
 62
    18
420
        0
370
     9
100
AcDbPolyline
 90
        3
 70
     0
 43
0.0
 10
1749.530679024839
 20
1193.072885464491
 10
1749.771336358662
 20
1193.175634054916
 10
1749.931434116883
 20
1193.264607747849
  0
LWPOLYLINE
  5
ECE
330
1F
100
AcDbEntity
  8
Hewi
  6
CUSTOM
 62
    18
420
        0
370
     9
100
AcDbPolyline
 90
        3
 70
     0
 43
0.0
 10
1747.04458881346
 20
1216.385680556353
 10
1746.956741168716
 20
1216.414195128425
 10
1746.931371889779
 20
1216.419607543445
  0
LWPOLYLINE
  5
ECF
330
1F
100
AcDbEntity
  8
Hewi
  6
CUSTOM
 62
    18
420
        0
370
     9
100
AcDbPolyline
 90
        7
 70
     0
 43
0.0
 10
1843.787884254616
 20
1023.246093490812
 10
1851.578278012777
 20
1027.05579300359
 10
1851.9576863586
 20
1027.307752163708
 10
1858.677369397308
 20
1032.435643660528
 10
1861.270821428061
 20
1035.031491075144
 10
1863.657475283449
 20
1037.844040042349
 10
1983.504289489781
 20
1191.266983609228
  0
LWPOLYLINE
  5
ED0
330
1F
100
AcDbEntity
  8
Hewi
  6
CUSTOM
 62
    18
420
        0
370
     9
100
AcDbPolyline
 90
        3
 70
     0
 43
0.0
 10
1750.445878089173
 20
1193.565799611882
 10
1750.369625922191
 20
1193.508131102364
 10
1750.27406707529
 20
1193.455024652929
  0
LINE
  5
ED1
330
1F
100
AcDbEntity
  8
Hewi
  6
CUSTOM
 62
    18
420
        0
370
     9
100
AcDbLine
 10
1748.939842527197
 20
1215.728879481543
 30
0.0
 11
1748.756087169258
 21
1215.83014325815
 31
0.0
  0
LINE
  5
ED2
330
1F
100
AcDbEntity
  8
Hewi
  6
CUSTOM
 62
    18
420
        0
370
     9
100
AcDbLine
 10
1751.278854394604
 20
1214.426006972284
 30
0.0
 11
1751.238537819692
 21
1214.462116056538
 31
0.0
  0
LWPOLYLINE
  5
ED3
330
1F
100
AcDbEntity
  8
Hewi
  6
CUSTOM
 62
    18
420
        0
370
     9
100
AcDbPolyline
 90
        3
 70
     0
 43
0.0
 10
1756.026353019741
 20
1200.887219442231
 10
1756.075430957524
 20
1201.012169081328
 10
1756.18374566449
 20
1201.467893237097
  0
LWPOLYLINE
  5
ED4
330
1F
100
AcDbEntity
  8
Hewi
  6
CUSTOM
 62
    18
420
        0
370
     9
100
AcDbPolyline
 90
        5
 70
     0
 43
0.0
 10
1851.180212005212
 20
1026.86112864095
 10
1850.9671788663
 20
1026.707105323144
 10
1847.765960785233
 20
1024.990592909118
 10
1847.115262851905
 20
1024.699454674435
 10
1844.440445689135
 20
1023.537957924833
  0
LINE
  5
ED5
330
1F
100
AcDbEntity
  8
Hewi
  6
CUSTOM
 62
    18
420
        0
370
     9
100
AcDbLine
 10
1750.102620113081
 20
1193.359743684979
 30
0.0
 11
1750.160344880358
 21
1193.391823995003
 31
0.0
  0
LINE
  5
ED6
330
1F
100
AcDbEntity
  8
Hewi
  6
CUSTOM
 62
    18
420
        0
370
     9
100
AcDbLine
 10
1751.238537819692
 20
1214.462116056538
 30
0.0
 11
1751.153353604597
 21
1214.509059315362
 31
0.0
  0
LINE
  5
ED7
330
1F
100
AcDbEntity
  8
Hewi
  6
CUSTOM
 62
    18
420
        0
370
     9
100
AcDbLine
 10
1844.440445689135
 20
1023.537957924833
 30
0.0
 11
1843.787884254616
 21
1023.246093490812
 31
0.0
  0
LINE
  5
ED8
330
1F
100
AcDbEntity
  8
Hewi
  6
CUSTOM
 62
    18
420
        0
370
     9
100
AcDbLine
 10
2088.079923125711
 20
1217.711985411364
 30
0.0
 11
2088.423923123144
 21
1217.958985410212
 31
0.0
  0
LINE
  5
ED9
330
1F
100
AcDbEntity
  8
Hewi
  6
CUSTOM
 62
    18
420
        0
370
     9
100
AcDbLine
 10
2088.814923120219
 20
1226.183985371812
 30
0.0
 11
2088.079923125711
 21
1226.821985368835
 31
0.0
  0
LWPOLYLINE
  5
EDA
330
1F
100
AcDbEntity
  8
Hewi
  6
CUSTOM
 62
    18
420
        0
370
     9
100
AcDbPolyline
 90
       53
 70
     0
 43
0.0
 10
2086.506923137477
 20
1217.266985413444
 10
2086.622923136612
 20
1217.266985413444
 10
2087.225923132104
 20
1217.266985413444
 10
2088.333923123817
 20
1217.266985413444
 10
2090.551923107229
 20
1217.266985413444
 10
2093.53592308491
 20
1217.266985413444
 10
2097.172923057715
 20
1217.266985413444
 10
2101.32292302668
 20
1217.266985413444
 10
2103.539923010099
 20
1217.266985413444
 10
2106.984922984342
 20
1217.266985413444
 10
2110.506922958
 20
1217.266985413444
 10
2248.506921926001
 20
1217.266985413444
 10
2251.894921900668
 20
1217.266985413444
 10
2255.15192187631
 20
1217.266985413444
 10
2257.207921860933
 20
1217.266985413444
 10
2259.703921842273
 20
1217.266985413444
 10
2261.873921826042
 20
1217.266985413444
 10
2263.119921816727
 20
1217.266985413444
 10
2264.507921806344
 20
1217.266985413444
 10
2265.148921801548
 20
1217.266985413444
 10
2266.163921793963
 20
1217.266985413444
 10
2266.506921791395
 20
1217.266985413444
 10
2267.584921783335
 20
1217.466985412509
 10
2268.423921777059
 20
1217.958985410212
 10
2269.061921772289
 20
1218.69398540678
 10
2269.392921769814
 20
1219.449985403253
 10
2269.50692176896
 20
1220.266985399437
 10
2269.50692176896
 20
1224.266985380764
 10
2269.392921769814
 20
1225.083985376947
 10
2269.061921772289
 20
1225.839985373419
 10
2268.423921777059
 20
1226.574985369985
 10
2267.584921783335
 20
1227.066985367692
 10
2266.506921791395
 20
1227.266985366757
 10
2266.362921792472
 20
1227.266985366757
 10
2265.505921798882
 20
1227.266985366757
 10
2263.9259218107
 20
1227.266985366757
 10
2262.495921821388
 20
1227.266985366757
 10
2261.549921828464
 20
1227.266985366757
 10
2258.757921849345
 20
1227.266985366757
 10
2255.570921873179
 20
1227.266985366757
 10
2253.278921890316
 20
1227.266985366757
 10
2251.923921900448
 20
1227.266985366757
 10
2250.343921912263
 20
1227.266985366757
 10
2248.506921926001
 20
1227.266985366757
 10
2110.506922958
 20
1227.266985366757
 10
2106.240922989902
 20
1227.266985366757
 10
2102.838923015344
 20
1227.266985366757
 10
2098.168923050267
 20
1227.266985366757
 10
2093.53592308491
 20
1227.266985366757
 10
2089.921923111939
 20
1227.266985366757
 10
2087.76492312807
 20
1227.266985366757
 10
2086.888923134622
 20
1227.266985366757
 10
2086.506923137477
 20
1227.266985366757
  0
LWPOLYLINE
  5
EDB
330
1F
100
AcDbEntity
  8
Hewi
  6
CUSTOM
 62
    18
420
        0
370
     9
100
AcDbPolyline
 90
       10
 70
     0
 43
0.0
 10
1731.006925795995
 20
1217.266985413444
 10
2068.506923272085
 20
1217.266985413444
 10
2071.706923248155
 20
1217.266985413444
 10
2074.257923229081
 20
1217.266985413444
 10
2077.760923202884
 20
1217.266985413444
 10
2081.234923176904
 20
1217.266985413444
 10
2083.945923156633
 20
1217.266985413444
 10
2085.563923144528
 20
1217.266985413444
 10
2086.219923139626
 20
1217.266985413444
 10
2086.506923137477
 20
1217.266985413444
  0
LWPOLYLINE
  5
EDC
330
1F
100
AcDbEntity
  8
Hewi
  6
CUSTOM
 62
    18
420
        0
370
     9
100
AcDbPolyline
 90
        3
 70
     0
 43
0.0
 10
1854.836817386174
 20
1029.504860482668
 10
1857.806494010467
 20
1031.651941677737
 10
1858.335003900171
 20
1032.174379383878
  0
LINE
  5
EDD
330
1F
100
AcDbEntity
  8
Hewi
  6
CUSTOM
 62
    18
420
        0
370
     9
100
AcDbLine
 10
1851.048773519403
 20
1047.693018985137
 30
0.0
 11
1847.772531387174
 21
1044.132670047682
 31
0.0
  0
LINE
  5
EDE
330
1F
100
AcDbEntity
  8
Hewi
  6
CUSTOM
 62
    18
420
        0
370
     9
100
AcDbLine
 10
2087.584923129416
 20
1227.066985367692
 30
0.0
 11
2087.323923131367
 21
1227.152985367291
 31
0.0
  0
LINE
  5
EDF
330
1F
100
AcDbEntity
  8
Hewi
  6
CUSTOM
 62
    18
420
        0
370
     9
100
AcDbLine
 10
1963.201086754587
 20
1191.266984864997
 30
0.0
 11
1851.048773519403
 21
1047.693018985137
 31
0.0
  0
LWPOLYLINE
  5
EE0
330
1F
100
AcDbEntity
  8
Hewi
  6
CUSTOM
 62
    18
420
        0
370
     9
100
AcDbPolyline
 90
        3
 70
     0
 43
0.0
 10
1732.089925787892
 20
1226.574985369985
 10
1732.433925785317
 20
1226.821985368835
 10
1732.738634471065
 20
1226.955396182677
  0
LWPOLYLINE
  5
EE1
330
1F
100
AcDbEntity
  8
Hewi
  6
CUSTOM
 62
    18
420
        0
370
     9
100
AcDbPolyline
 90
        6
 70
     0
 43
0.0
 10
2089.392923115894
 20
1219.449985403251
 10
2089.506923115045
 20
1220.266985399437
 10
2089.506923115045
 20
1224.266985380764
 10
2089.392923115894
 20
1225.083985376947
 10
2089.306923116539
 20
1225.34498537573
 10
2088.814923120219
 20
1226.183985371812
  0
LINE
  5
EE2
330
1F
100
AcDbEntity
  8
Hewi
  6
CUSTOM
 62
    18
420
        0
370
     9
100
AcDbLine
 10
2089.06192311837
 20
1218.69398540678
 30
0.0
 11
2089.392923115894
 21
1219.449985403251
 31
0.0
  0
LWPOLYLINE
  5
EE3
330
1F
100
AcDbEntity
  8
Hewi
  6
CUSTOM
 62
    18
420
        0
370
     9
100
AcDbPolyline
 90
        4
 70
     0
 43
0.0
 10
2086.506923137477
 20
1217.266985413444
 10
2087.323923131367
 20
1217.38098541291
 10
2087.584923129416
 20
1217.466985412509
 10
2088.423923123144
 20
1217.958985410212
  0
LINE
  5
EE4
330
1F
100
AcDbEntity
  8
Hewi
  6
CUSTOM
 62
    18
420
        0
370
     9
100
AcDbLine
 10
1842.743824395773
 20
1040.385332868016
 30
0.0
 11
1844.871676967396
 21
1041.806458824059
 31
0.0
  0
LINE
  5
EE5
330
1F
100
AcDbEntity
  8
Hewi
  6
CUSTOM
 62
    18
420
        0
370
     9
100
AcDbLine
 10
2088.079923125711
 20
1226.821985368835
 30
0.0
 11
2087.323923131367
 21
1227.152985367291
 31
0.0
  0
LINE
  5
EE6
330
1F
100
AcDbEntity
  8
Hewi
  6
CUSTOM
 62
    18
420
        0
370
     9
100
AcDbLine
 10
2088.814923120219
 20
1218.349985408387
 30
0.0
 11
2089.06192311837
 21
1218.69398540678
 31
0.0
  0
LINE
  5
EE7
330
1F
100
AcDbEntity
  8
Hewi
  6
CUSTOM
 62
    18
420
        0
370
     9
100
AcDbLine
 10
2088.423923123144
 20
1217.958985410212
 30
0.0
 11
2089.06192311837
 21
1218.69398540678
 31
0.0
  0
LINE
  5
EE8
330
1F
100
AcDbEntity
  8
Hewi
  6
CUSTOM
 62
    18
420
        0
370
     9
100
AcDbLine
 10
2087.323923131367
 20
1227.152985367291
 30
0.0
 11
2086.506923137477
 21
1227.266985366757
 31
0.0
  0
LINE
  5
EE9
330
1F
100
AcDbEntity
  8
Hewi
  6
CUSTOM
 62
    18
420
        0
370
     9
100
AcDbLine
 10
2088.814923120219
 20
1226.183985371812
 30
0.0
 11
2089.06192311837
 21
1225.839985373419
 31
0.0
  0
LINE
  5
EEA
330
1F
100
AcDbEntity
  8
Hewi
  6
CUSTOM
 62
    18
420
        0
370
     9
100
AcDbLine
 10
2088.079923125711
 20
1226.821985368835
 30
0.0
 11
2088.423923123144
 21
1226.574985369985
 31
0.0
  0
LINE
  5
EEB
330
1F
100
AcDbEntity
  8
Hewi
  6
CUSTOM
 62
    18
420
        0
370
     9
100
AcDbLine
 10
2089.306923116539
 20
1219.188985404471
 30
0.0
 11
2089.392923115894
 21
1219.449985403251
 31
0.0
  0
LINE
  5
EEC
330
1F
100
AcDbEntity
  8
Hewi
  6
CUSTOM
 62
    18
420
        0
370
     9
100
AcDbLine
 10
1844.440445689135
 20
1023.537957924833
 30
0.0
 11
1846.627611283468
 21
1024.634791805713
 31
0.0
  0
LWPOLYLINE
  5
EED
330
1F
100
AcDbEntity
  8
Hewi
  6
CUSTOM
 62
    18
420
        0
370
     9
100
AcDbPolyline
 90
       13
 70
     0
 43
0.0
 10
1732.089925787892
 20
1226.574985369985
 10
1732.928925781616
 20
1227.066985367692
 10
1733.189925779668
 20
1227.152985367291
 10
1734.006925773556
 20
1227.266985366757
 10
2068.506923272085
 20
1227.266985366757
 10
2072.018923245821
 20
1227.266985366757
 10
2075.394923220574
 20
1227.266985366757
 10
2078.506923197303
 20
1227.266985366757
 10
2081.234923176904
 20
1227.266985366757
 10
2083.472923160167
 20
1227.266985366757
 10
2085.136923147722
 20
1227.266985366757
 10
2086.160923140065
 20
1227.266985366757
 10
2086.506923137477
 20
1227.266985366757
  0
LINE
  5
EEE
330
1F
100
AcDbEntity
  8
Hewi
  6
CUSTOM
 62
    18
420
        0
370
     9
100
AcDbLine
 10
1732.089925787892
 20
1226.574985369985
 30
0.0
 11
1731.451925792662
 21
1225.839985373419
 31
0.0
  0
LWPOLYLINE
  5
EEF
330
1F
100
AcDbEntity
  8
Hewi
  6
CUSTOM
 62
    18
420
        0
370
     9
100
AcDbPolyline
 90
        3
 70
     0
 43
0.0
 10
1731.006925795995
 20
1217.266985413444
 10
1731.006925795995
 20
1224.266985380764
 10
1731.119925795145
 20
1225.083985376947
  0
LWPOLYLINE
  5
EF0
330
1F
100
AcDbEntity
  8
Hewi
  6
CUSTOM
 62
    18
420
        0
370
     9
100
AcDbPolyline
 90
        3
 70
     0
 43
0.0
 10
1731.451925792662
 20
1225.839985373419
 10
1731.698925790817
 20
1226.183985371812
 10
1731.908237508935
 20
1226.365673639208
  0
LWPOLYLINE
  5
EF1
330
1F
100
AcDbEntity
  8
Hewi
  6
CUSTOM
 62
    18
420
        0
370
     9
100
AcDbPolyline
 90
        6
 70
     0
 43
0.0
 10
1734.006925773556
 20
1220.266985399437
 10
1732.928925781616
 20
1219.188985404471
 10
1732.089925787892
 20
1218.349985408387
 10
1731.451925792662
 20
1217.711985411364
 10
1731.128925795081
 20
1217.387985412879
 10
1731.006925795995
 20
1217.266985413444
  0
LWPOLYLINE
  5
EF2
330
1F
100
AcDbEntity
  8
Hewi
  6
CUSTOM
 62
    18
420
        0
370
     9
100
AcDbPolyline
 90
        3
 70
     0
 43
0.0
 10
1731.119925795145
 20
1225.083985376947
 10
1731.206925794497
 20
1225.34498537573
 10
1731.316909940986
 20
1225.532539642319
  0
LINE
  5
EF3
330
1F
100
AcDbEntity
  8
Hewi
  6
CUSTOM
 62
    18
420
        0
370
     9
100
AcDbLine
 10
1731.451925792662
 20
1225.839985373419
 30
0.0
 11
1731.119925795145
 21
1225.083985376947
 31
0.0
  0
LWPOLYLINE
  5
EF4
330
1F
100
AcDbEntity
  8
Hewi
  6
CUSTOM
 62
    18
420
        0
370
     9
100
AcDbPolyline
 90
       11
 70
     0
 43
0.0
 10
1744.006925698774
 20
1191.266985534828
 10
2068.506923272085
 20
1191.266985534828
 10
2071.329923250974
 20
1191.266985534828
 10
2074.044923230675
 20
1191.266985534828
 10
2075.757923217865
 20
1191.266985534828
 10
2078.471923197565
 20
1191.266985534828
 10
2080.684923181016
 20
1191.266985534828
 10
2081.840923172368
 20
1191.266985534828
 10
2082.375923168373
 20
1191.266985534828
 10
2083.220923162051
 20
1191.266985534828
 10
2083.506923159916
 20
1191.266985534828
  0
LINE
  5
EF5
330
1F
100
AcDbEntity
  8
Hewi
  6
CUSTOM
 62
    18
420
        0
370
     9
100
AcDbLine
 10
1744.006925698774
 20
1191.266985534828
 30
0.0
 11
1742.218925712142
 21
1191.390985534248
 31
0.0
  0
LINE
  5
EF6
330
1F
100
AcDbEntity
  8
Hewi
  6
CUSTOM
 62
    18
420
        0
370
     9
100
AcDbLine
 10
1744.006925698774
 20
1191.266985534828
 30
0.0
 11
1742.627925709086
 21
1191.339985534487
 31
0.0
  0
LWPOLYLINE
  5
F5F
330
1F
100
AcDbEntity
  8
Hewi
  6
CUSTOM
 62
    18
420
        0
370
     9
100
AcDbPolyline
 90
       14
 70
     0
 43
0.0
 10
1501.850063888662
 20
644.5958050533845
 10
1471.850065316343
 20
644.5958050533845
 10
1470.48806538116
 20
644.5958050533845
 10
1469.228065441119
 20
644.5958050533845
 10
1468.004065499371
 20
644.5958050533845
 10
1467.184065538393
 20
644.5958050533845
 10
1466.850065554288
 20
644.5958050533845
 10
1466.850065554288
 20
639.5958052913283
 10
1466.984065547913
 20
639.5958052913283
 10
1467.453065525591
 20
639.5958052913283
 10
1468.227065488758
 20
639.5958052913283
 10
1469.879065410139
 20
639.5958052913283
 10
1471.850065316343
 20
639.5958052913283
 10
1501.850063888662
 20
639.5958052913283
  0
LWPOLYLINE
  5
F60
330
1F
100
AcDbEntity
  8
Hewi
  6
CUSTOM
 62
    18
420
        0
370
     9
100
AcDbPolyline
 90
        4
 70
     0
 43
0.0
 10
1511.850063412774
 20
634.5958055292758
 10
1511.850063412774
 20
589.0958076945844
 10
1511.850063412774
 20
586.9128077984714
 10
1511.850063412774
 20
585.3158078744727
  0
LWPOLYLINE
  5
F61
330
1F
100
AcDbEntity
  8
Hewi
  6
CUSTOM
 62
    18
420
        0
370
     9
100
AcDbPolyline
 90
       14
 70
     0
 43
0.0
 10
1511.850063412774
 20
577.7198082359591
 10
1511.850063412774
 20
577.1858082613725
 10
1511.850063412774
 20
576.8598082768858
 10
1511.850063412774
 20
576.6008082892112
 10
1506.850063650723
 20
576.6008082892112
 10
1506.850063650723
 20
576.6658082861194
 10
1506.850063650723
 20
577.1808082616098
 10
1506.850063650723
 20
578.1918082134998
 10
1506.850063650723
 20
579.7298081403059
 10
1506.850063650723
 20
581.6908080469838
 10
1506.850063650723
 20
583.9308079403836
 10
1506.850063650723
 20
586.5148078174115
 10
1506.850063650723
 20
589.0958076945844
 10
1506.850063650723
 20
634.5958055292758
  0
LWPOLYLINE
  5
F62
330
1F
100
AcDbEntity
  8
Hewi
  6
CUSTOM
 62
    18
420
        0
370
     9
100
AcDbPolyline
 90
        3
 70
     0
 43
0.0
 10
1508.926504172326
 20
641.6184113428407
 10
1508.743063560632
 20
641.8398051845379
 10
1507.463063621548
 20
642.8718051354262
  0
LINE
  5
F63
330
1F
100
AcDbEntity
  8
Hewi
  6
CUSTOM
 62
    18
420
        0
370
     9
100
AcDbLine
 10
1503.821063794865
 20
639.1908053106035
 30
0.0
 11
1501.850063888662
 21
639.5958052913283
 31
0.0
  0
LWPOLYLINE
  5
F64
330
1F
100
AcDbEntity
  8
Hewi
  6
CUSTOM
 62
    18
420
        0
370
     9
100
AcDbPolyline
 90
        4
 70
     0
 43
0.0
 10
1506.850063650723
 20
634.5958055292758
 10
1506.810063652621
 20
635.2278054991984
 10
1506.366063673755
 20
636.7418054271492
 10
1505.47306371625
 20
638.0418053652829
  0
LINE
  5
F65
330
1F
100
AcDbEntity
  8
Hewi
  6
CUSTOM
 62
    18
420
        0
370
     9
100
AcDbLine
 10
1505.47306371625
 20
638.0418053652829
 30
0.0
 11
1503.821063794865
 21
639.1908053106035
 31
0.0
  0
LINE
  5
F66
330
1F
100
AcDbEntity
  8
Hewi
  6
CUSTOM
 62
    18
420
        0
370
     9
100
AcDbLine
 10
1510.099063496105
 20
640.248805260253
 30
0.0
 11
1511.063063450227
 21
638.4848053442019
 31
0.0
  0
LWPOLYLINE
  5
F67
330
1F
100
AcDbEntity
  8
Hewi
  6
CUSTOM
 62
    18
420
        0
370
     9
100
AcDbPolyline
 90
        3
 70
     0
 43
0.0
 10
1511.451063431763
 20
637.3928053961699
 10
1511.215063442993
 20
638.1028053623794
 10
1511.063063450227
 20
638.4848053442019
  0
LINE
  5
F68
330
1F
100
AcDbEntity
  8
Hewi
  6
CUSTOM
 62
    18
420
        0
370
     9
100
AcDbLine
 10
1501.850063888662
 20
644.5958050533845
 30
0.0
 11
1505.461063716819
 21
643.9208050855068
 31
0.0
  0
LWPOLYLINE
  5
F69
330
1F
100
AcDbEntity
  8
Hewi
  6
CUSTOM
 62
    18
420
        0
370
     9
100
AcDbPolyline
 90
       16
 70
     0
 43
0.0
 10
1137.850081211138
 20
640.5958052437399
 10
1137.850081211138
 20
634.5958055292758
 10
1138.134081197626
 20
634.5958055292758
 10
1138.964081158126
 20
634.5958055292758
 10
1140.558081082272
 20
634.5958055292758
 10
1142.656080982429
 20
634.5958055292758
 10
1145.350080854223
 20
634.5958055292758
 10
1200.350078236813
 20
634.5958055292758
 10
1201.68407817333
 20
634.5958055292758
 10
1203.488078087481
 20
634.5958055292758
 10
1205.090078011242
 20
634.5958055292758
 10
1206.005077967696
 20
634.5958055292758
 10
1207.111077915062
 20
634.5958055292758
 10
1207.730077885608
 20
634.5958055292758
 10
1207.850077879899
 20
634.5958055292758
 10
1207.850077879899
 20
640.5958052437399
  0
LWPOLYLINE
  5
F6A
330
1F
100
AcDbEntity
  8
Hewi
  6
CUSTOM
 62
    18
420
        0
370
     9
100
AcDbPolyline
 90
        4
 70
     0
 43
0.0
 10
1507.463063621548
 20
642.8718051354262
 10
1506.850063650723
 20
643.2558051171526
 10
1505.627063708918
 20
643.8548050886474
 10
1505.461063716819
 20
643.9208050855068
  0
LWPOLYLINE
  5
F6B
330
1F
100
AcDbEntity
  8
Hewi
  6
CUSTOM
 62
    18
420
        0
370
     9
100
AcDbPolyline
 90
        3
 70
     0
 43
0.0
 10
1507.463063621548
 20
642.8718051354262
 10
1509.163063540644
 20
641.4158052047187
 10
1510.099063496105
 20
640.248805260253
  0
LWPOLYLINE
  5
F6C
330
1F
100
AcDbEntity
  8
Hewi
  6
CUSTOM
 62
    18
420
        0
370
     9
100
AcDbPolyline
 90
        3
 70
     0
 43
0.0
 10
1511.736063418197
 20
636.1028054575581
 10
1511.747063417671
 20
636.0238054613183
 10
1511.850063412774
 20
634.5958055292758
  0
LINE
  5
F6D
330
1F
100
AcDbEntity
  8
Hewi
  6
CUSTOM
 62
    18
420
        0
370
     9
100
AcDbLine
 10
1501.850063888662
 20
639.5958052913283
 30
0.0
 11
1504.079762974004
 21
639.0057233111674
 31
0.0
  0
LWPOLYLINE
  5
F6E
330
1F
100
AcDbEntity
  8
Hewi
  6
CUSTOM
 62
    18
420
        0
370
     9
100
AcDbPolyline
 90
        5
 70
     0
 43
0.0
 10
1505.391748471149
 20
643.9337621023114
 10
1504.417063766505
 20
644.2608050693252
 10
1503.363063816665
 20
644.4808050588562
 10
1502.256063869343
 20
644.587805053763
 10
1501.850063888662
 20
644.5958050533845
  0
LWPOLYLINE
  5
F6F
330
1F
100
AcDbEntity
  8
Hewi
  6
CUSTOM
 62
    18
420
        0
370
     9
100
AcDbPolyline
 90
       16
 70
     0
 43
0.0
 10
1207.850077879899
 20
610.5958066714156
 10
1207.850077879899
 20
616.5958063858815
 10
1207.56607789341
 20
616.5958063858815
 10
1206.73607793291
 20
616.5958063858815
 10
1205.142078008772
 20
616.5958063858815
 10
1203.044078108607
 20
616.5958063858815
 10
1200.350078236813
 20
616.5958063858815
 10
1145.350080854223
 20
616.5958063858815
 10
1144.016080917707
 20
616.5958063858815
 10
1142.212081003556
 20
616.5958063858815
 10
1140.610081079794
 20
616.5958063858815
 10
1139.69508112334
 20
616.5958063858815
 10
1138.589081175974
 20
616.5958063858815
 10
1137.970081205429
 20
616.5958063858815
 10
1137.850081211138
 20
616.5958063858815
 10
1137.850081211138
 20
610.5958066714156
  0
LWPOLYLINE
  5
F70
330
1F
100
AcDbEntity
  8
Hewi
  6
CUSTOM
 62
    18
420
        0
370
     9
100
AcDbPolyline
 90
        3
 70
     0
 43
0.0
 10
1510.099063496105
 20
640.248805260253
 10
1510.251063488867
 20
640.0198052711512
 10
1511.063063450227
 20
638.4848053442019
  0
LINE
  5
F71
330
1F
100
AcDbEntity
  8
Hewi
  6
CUSTOM
 62
    18
420
        0
370
     9
100
AcDbLine
 10
1506.429262407648
 20
636.5263034316795
 30
0.0
 11
1505.47306371625
 21
638.0418053652829
 31
0.0
  0
LINE
  5
F72
330
1F
100
AcDbEntity
  8
Hewi
  6
CUSTOM
 62
    18
420
        0
370
     9
100
AcDbLine
 10
1511.063063450227
 20
638.4848053442019
 30
0.0
 11
1511.451063431763
 21
637.3928053961699
 31
0.0
  0
LINE
  5
F73
330
1F
100
AcDbEntity
  8
Hewi
  6
CUSTOM
 62
    18
420
        0
370
     9
100
AcDbLine
 10
1505.461063716819
 20
643.9208050855068
 30
0.0
 11
1507.463063621548
 21
642.8718051354262
 31
0.0
  0
LINE
  5
F74
330
1F
100
AcDbEntity
  8
Hewi
  6
CUSTOM
 62
    18
420
        0
370
     9
100
AcDbLine
 10
1511.451063431763
 20
637.3928053961699
 30
0.0
 11
1511.736063418197
 21
636.1028054575581
 31
0.0
  0
LINE
  5
F75
330
1F
100
AcDbEntity
  8
Hewi
  6
CUSTOM
 62
    18
420
        0
370
     9
100
AcDbLine
 10
1505.510896886197
 20
637.9818426801448
 30
0.0
 11
1503.821063794865
 21
639.1908053106035
 31
0.0
  0
LINE
  5
F76
330
1F
100
AcDbEntity
  8
Hewi
  6
CUSTOM
 62
    18
420
        0
370
     9
100
AcDbLine
 10
1506.850063650723
 20
634.5958055292758
 30
0.0
 11
1506.604182441068
 21
635.9298418795206
 31
0.0
  0
LINE
  5
F77
330
1F
100
AcDbEntity
  8
Hewi
  6
CUSTOM
 62
    18
420
        0
370
     9
100
AcDbLine
 10
1511.736063418197
 20
636.1028054575581
 30
0.0
 11
1511.850063412774
 21
634.5958055292758
 31
0.0
  0
LWPOLYLINE
  5
F78
330
1F
100
AcDbEntity
  8
Hewi
  6
CUSTOM
 62
    18
420
        0
370
     9
100
AcDbPolyline
 90
       19
 70
     0
 43
0.0
 10
1135.350081330114
 20
610.5958066714156
 10
1135.350081330114
 20
606.5958068617747
 10
1135.578081319261
 20
606.5958068617747
 10
1136.251081287235
 20
606.5958068617747
 10
1136.932081254832
 20
606.5958068617747
 10
1138.104081199053
 20
606.5958068617747
 10
1139.856081115675
 20
606.5958068617747
 10
1141.875081019592
 20
606.5958068617747
 10
1143.32808095045
 20
606.5958068617747
 10
1145.350080854223
 20
606.5958068617747
 10
1200.350078236813
 20
606.5958068617747
 10
1203.121078104945
 20
606.5958068617747
 10
1205.655077984356
 20
606.5958068617747
 10
1207.138077913783
 20
606.5958068617747
 10
1207.891077877943
 20
606.5958068617747
 10
1209.364077807844
 20
606.5958068617747
 10
1210.190077768537
 20
606.5958068617747
 10
1210.350077760922
 20
606.5958068617747
 10
1210.350077760922
 20
610.5958066714156
  0
LWPOLYLINE
  5
F79
330
1F
100
AcDbEntity
  8
Hewi
  6
CUSTOM
 62
    18
420
        0
370
     9
100
AcDbPolyline
 90
        7
 70
     0
 43
0.0
 10
1210.350077760922
 20
634.5942484176102
 10
1210.350077760922
 20
635.5958054816856
 10
1210.350077760922
 20
636.9578054168687
 10
1210.350077760922
 20
638.2178053569077
 10
1210.350077760922
 20
639.4418052986602
 10
1210.350077760922
 20
640.2618052596353
 10
1210.350077760922
 20
640.5958052437399
  0
LWPOLYLINE
  5
F7A
330
1F
100
AcDbEntity
  8
Hewi
  6
CUSTOM
 62
    18
420
        0
370
     9
100
AcDbPolyline
 90
        7
 70
     0
 43
0.0
 10
1135.350081330114
 20
640.5958052437399
 10
1135.350081330114
 20
640.2348052609213
 10
1135.350081330114
 20
639.3848053013698
 10
1135.350081330114
 20
638.1438053604288
 10
1135.350081330114
 20
636.6558054312426
 10
1135.350081330114
 20
635.5958054816856
 10
1135.350081330114
 20
634.5942480450812
  0
LWPOLYLINE
  5
F7B
330
1F
100
AcDbEntity
  8
Hewi
  6
CUSTOM
 62
    18
420
        0
370
     9
100
AcDbPolyline
 90
        7
 70
     0
 43
0.0
 10
1135.350081330114
 20
618.6539715997477
 10
1135.350081330114
 20
615.5958064334718
 10
1135.350081330114
 20
613.7708065203224
 10
1135.350081330114
 20
612.1968065952278
 10
1135.350081330114
 20
611.3238066367721
 10
1135.350081330114
 20
610.7348066648028
 10
1135.350081330114
 20
610.5958066714156
  0
LWPOLYLINE
  5
F7C
330
1F
100
AcDbEntity
  8
Hewi
  6
CUSTOM
 62
    18
420
        0
370
     9
100
AcDbPolyline
 90
        7
 70
     0
 43
0.0
 10
1210.350077760922
 20
610.5958066714156
 10
1210.350077760922
 20
610.784806662421
 10
1210.350077760922
 20
611.3378066361056
 10
1210.350077760922
 20
612.4008065855178
 10
1210.350077760922
 20
613.7998065189422
 10
1210.350077760922
 20
615.5958064334718
 10
1210.350077760922
 20
618.6539713017245
  0
LWPOLYLINE
  5
F7D
330
1F
100
AcDbEntity
  8
Hewi
  6
CUSTOM
 62
    18
420
        0
370
     9
100
AcDbPolyline
 90
       17
 70
     0
 43
0.0
 10
1210.350077760922
 20
640.5958052437399
 10
1210.350077760922
 20
644.5958050533845
 10
1210.122077771775
 20
644.5958050533845
 10
1209.449077803802
 20
644.5958050533845
 10
1208.768077836212
 20
644.5958050533845
 10
1207.596077891983
 20
644.5958050533845
 10
1205.844077975362
 20
644.5958050533845
 10
1203.825078071444
 20
644.5958050533845
 10
1202.372078140593
 20
644.5958050533845
 10
1200.350078236813
 20
644.5958050533845
 10
1145.350080854223
 20
644.5958050533845
 10
1142.625080983904
 20
644.5958050533845
 10
1140.107081103731
 20
644.5958050533845
 10
1137.658081220277
 20
644.5958050533845
 10
1136.018081298323
 20
644.5958050533845
 10
1135.350081330114
 20
644.5958050533845
 10
1135.350081330114
 20
640.5958052437399
  0
LWPOLYLINE
  5
F7E
330
1F
100
AcDbEntity
  8
Hewi
  6
CUSTOM
 62
    18
420
        0
370
     9
100
AcDbPolyline
 90
       15
 70
     0
 43
0.0
 10
1210.350077760922
 20
610.5958066714156
 10
1210.122077771775
 20
610.5958066714156
 10
1209.449077803802
 20
610.5958066714156
 10
1208.768077836212
 20
610.5958066714156
 10
1207.596077891983
 20
610.5958066714156
 10
1205.844077975362
 20
610.5958066714156
 10
1203.825078071444
 20
610.5958066714156
 10
1202.372078140593
 20
610.5958066714156
 10
1200.350078236813
 20
610.5958066714156
 10
1145.350080854223
 20
610.5958066714156
 10
1142.625080983904
 20
610.5958066714156
 10
1140.107081103731
 20
610.5958066714156
 10
1137.658081220277
 20
610.5958066714156
 10
1136.018081298323
 20
610.5958066714156
 10
1135.350081330114
 20
610.5958066714156
  0
LWPOLYLINE
  5
F7F
330
1F
100
AcDbEntity
  8
Hewi
  6
CUSTOM
 62
    18
420
        0
370
     9
100
AcDbPolyline
 90
       17
 70
     0
 43
0.0
 10
1135.350081330114
 20
640.5958052437399
 10
1135.578081319261
 20
640.5958052437399
 10
1136.251081287235
 20
640.5958052437399
 10
1136.932081254832
 20
640.5958052437399
 10
1138.104081199053
 20
640.5958052437399
 10
1139.856081115675
 20
640.5958052437399
 10
1141.875081019592
 20
640.5958052437399
 10
1143.32808095045
 20
640.5958052437399
 10
1145.350080854223
 20
640.5958052437399
 10
1200.350078236813
 20
640.5958052437399
 10
1203.121078104945
 20
640.5958052437399
 10
1205.655077984356
 20
640.5958052437399
 10
1207.138077913783
 20
640.5958052437399
 10
1207.891077877943
 20
640.5958052437399
 10
1209.364077807844
 20
640.5958052437399
 10
1210.190077768537
 20
640.5958052437399
 10
1210.350077760922
 20
640.5958052437399
  0
LWPOLYLINE
  5
F80
330
1F
100
AcDbEntity
  8
Hewi
  6
CUSTOM
 62
    18
420
        0
370
     9
100
AcDbPolyline
 90
       20
 70
     0
 43
0.0
 10
1511.850063412774
 20
601.5638071012435
 10
1516.850063174828
 20
601.5958070997203
 10
1518.850063079648
 20
599.5958071948989
 10
1518.850063079648
 20
599.4358072025134
 10
1518.850063079648
 20
598.7968072329204
 10
1518.850063079648
 20
597.6968072852705
 10
1518.850063079648
 20
596.1898073569864
 10
1518.850063079648
 20
594.3458074447407
 10
1518.850063079648
 20
592.2528075443442
 10
1518.850063079648
 20
590.0108076510405
 10
1518.850063079648
 20
587.7248077598306
 10
1518.850063079648
 20
585.5048078654781
 10
1518.850063079648
 20
583.4538079630838
 10
1518.850063079648
 20
581.6708080479347
 10
1518.850063079648
 20
580.3718081097522
 10
1518.850063079648
 20
579.3388081589127
 10
1518.850063079648
 20
578.7858081852282
 10
1518.850063079648
 20
578.5958081942717
 10
1516.850063174828
 20
576.5958082894521
 10
1511.850063412774
 20
576.6138082885936
  0
LWPOLYLINE
  5
F81
330
1F
100
AcDbEntity
  8
Hewi
  6
CUSTOM
 62
    18
420
        0
370
     9
100
AcDbPolyline
 90
        3
 70
     0
 43
0.0
 10
838.8500954403207
 20
601.085499124003
 10
839.3500954165247
 20
601.5850696002307
 10
844.1855419017665
 20
601.5850696002307
  0
LINE
  5
F82
330
1F
100
AcDbEntity
  8
Hewi
  6
CUSTOM
 62
    18
420
        0
370
     9
100
AcDbLine
 10
1516.850063174828
 20
601.0798071242752
 30
0.0
 11
1516.850063174828
 21
599.5758071958498
 31
0.0
  0
LWPOLYLINE
  5
F83
330
1F
100
AcDbEntity
  8
Hewi
  6
CUSTOM
 62
    18
420
        0
370
     9
100
AcDbPolyline
 90
        3
 70
     0
 43
0.0
 10
842.8500953095682
 20
576.6065457889399
 10
839.3500954165247
 20
576.6065457889399
 10
838.8500954403207
 20
577.1060748331674
  0
LINE
  5
F84
330
1F
100
AcDbEntity
  8
Hewi
  6
CUSTOM
 62
    18
420
        0
370
     9
100
AcDbLine
 10
1516.850063174828
 20
589.0958076945844
 30
0.0
 11
1516.850063174828
 21
586.6698078100362
 31
0.0
  0
LWPOLYLINE
  5
F85
330
1F
100
AcDbEntity
  8
Hewi
  6
CUSTOM
 62
    18
420
        0
370
     9
100
AcDbPolyline
 90
       29
 70
     0
 43
0.0
 10
833.8500956782663
 20
601.5638071012435
 10
828.8500959162083
 20
601.5958070997203
 10
826.8500960113888
 20
599.5958071948989
 10
826.8500960113888
 20
599.346807206748
 10
826.8500960113888
 20
598.6118072417248
 10
826.8500960113888
 20
597.4258072981665
 10
826.8500960113888
 20
595.8448073734053
 10
826.8500960113888
 20
593.9438074638728
 10
826.8500960113888
 20
591.8138075652368
 10
826.8500960113888
 20
589.5538076727898
 10
826.8500960113888
 20
587.2728077813389
 10
826.8500960113888
 20
585.0778078857984
 10
826.8500960113888
 20
583.0728079812143
 10
826.8500960113888
 20
581.3548080629716
 10
826.8500960113888
 20
580.0028081273139
 10
826.8500960113888
 20
579.0818081711422
 10
826.8500960113888
 20
578.6358081923699
 10
826.8500960113888
 20
578.5958081942717
 10
828.8500959162083
 20
576.5958082894521
 10
833.8500956782663
 20
576.6138082878187
 10
833.8500956782663
 20
576.6008082892112
 10
838.8500954403207
 20
576.5958082894521
 10
838.8500954403207
 20
577.2078082603257
 10
838.8500954403207
 20
578.9828081758551
 10
838.8500954403207
 20
581.7488080442217
 10
838.8500954403207
 20
583.4208079646542
 10
838.8500954403207
 20
586.1778078334482
 10
838.8500954403207
 20
589.0958076945844
 10
838.8500954403207
 20
634.5958055292758
  0
LWPOLYLINE
  5
F86
330
1F
100
AcDbEntity
  8
Hewi
  6
CUSTOM
 62
    18
420
        0
370
     9
100
AcDbPolyline
 90
        3
 70
     0
 43
0.0
 10
1511.850063412774
 20
579.531808149728
 10
1511.850063412774
 20
578.3408082064069
 10
1511.850063412774
 20
577.7858082328184
  0
LWPOLYLINE
  5
F87
330
1F
100
AcDbEntity
  8
Hewi
  6
CUSTOM
 62
    18
420
        0
370
     9
100
AcDbPolyline
 90
        3
 70
     0
 43
0.0
 10
839.3500954165247
 20
596.8658020018174
 10
839.3500954165247
 20
599.4335648786182
 10
839.3500954165247
 20
600.663500162087
  0
LWPOLYLINE
  5
F88
330
1F
100
AcDbEntity
  8
Hewi
  6
CUSTOM
 62
    18
420
        0
370
     9
100
AcDbPolyline
 90
        3
 70
     0
 43
0.0
 10
839.3500954165247
 20
581.8641958637327
 10
839.3500954165247
 20
584.3466464145931
 10
839.3500954165247
 20
586.1459923429666
  0
LINE
  5
F89
330
1F
100
AcDbEntity
  8
Hewi
  6
CUSTOM
 62
    18
420
        0
370
     9
100
AcDbLine
 10
839.3500954165247
 20
589.9056688620439
 30
0.0
 11
839.3500954165247
 21
593.5903926386909
 31
0.0
  0
LINE
  5
F8A
330
1F
100
AcDbEntity
  8
Hewi
  6
CUSTOM
 62
    18
420
        0
370
     9
100
AcDbLine
 10
1516.850063174828
 20
584.3368079210613
 30
0.0
 11
1516.850063174828
 21
582.8768079905422
 31
0.0
  0
LINE
  5
F8B
330
1F
100
AcDbEntity
  8
Hewi
  6
CUSTOM
 62
    18
420
        0
370
     9
100
AcDbLine
 10
836.6040955472053
 20
641.4868052013371
 30
0.0
 11
838.3560954638269
 21
642.9518051316208
 31
0.0
  0
LWPOLYLINE
  5
F8C
330
1F
100
AcDbEntity
  8
Hewi
  6
CUSTOM
 62
    18
420
        0
370
     9
100
AcDbPolyline
 90
        3
 70
     0
 43
0.0
 10
835.6050955947466
 20
640.2538052600156
 10
836.1310955697117
 20
640.9528052267505
 10
836.6040955472053
 20
641.4868052013371
  0
LINE
  5
F8D
330
1F
100
AcDbEntity
  8
Hewi
  6
CUSTOM
 62
    18
420
        0
370
     9
100
AcDbLine
 10
833.8500956782663
 20
576.894808275223
 30
0.0
 11
833.8500956782663
 21
577.2078082603257
 31
0.0
  0
LWPOLYLINE
  5
F8E
330
1F
100
AcDbEntity
  8
Hewi
  6
CUSTOM
 62
    18
420
        0
370
     9
100
AcDbPolyline
 90
       14
 70
     0
 43
0.0
 10
843.8500952023751
 20
639.5958052913283
 10
873.8500937746939
 20
639.5958052913283
 10
875.3680937024546
 20
639.5958052913283
 10
876.7430936370184
 20
639.5958052913283
 10
877.9850935779105
 20
639.5958052913283
 10
878.7080935435078
 20
639.5958052913283
 10
878.8500935367483
 20
639.5958052913283
 10
878.8500935367483
 20
644.5958050533845
 10
878.661093545743
 20
644.5958050533845
 10
878.1080935720602
 20
644.5958050533845
 10
877.0450936226479
 20
644.5958050533845
 10
875.6460936892253
 20
644.5958050533845
 10
873.8500937746939
 20
644.5958050533845
 10
843.8500952023751
 20
644.5958050533845
  0
LINE
  5
F8F
330
1F
100
AcDbEntity
  8
Hewi
  6
CUSTOM
 62
    18
420
        0
370
     9
100
AcDbLine
 10
828.8500959162083
 20
596.5258073409986
 30
0.0
 11
828.8500959162083
 21
598.5998072422971
 31
0.0
  0
LINE
  5
F90
330
1F
100
AcDbEntity
  8
Hewi
  6
CUSTOM
 62
    18
420
        0
370
     9
100
AcDbLine
 10
833.8500956782663
 20
578.1918082134998
 30
0.0
 11
833.8500956782663
 21
577.1808082616098
 31
0.0
  0
LWPOLYLINE
  5
F91
330
1F
100
AcDbEntity
  8
Hewi
  6
CUSTOM
 62
    18
420
        0
370
     9
100
AcDbPolyline
 90
        3
 70
     0
 43
0.0
 10
833.8500956782663
 20
580.4618081054704
 10
833.8500956782663
 20
582.0618080293279
 10
833.8500956782663
 20
583.0738079811653
  0
LINE
  5
F92
330
1F
100
AcDbEntity
  8
Hewi
  6
CUSTOM
 62
    18
420
        0
370
     9
100
AcDbLine
 10
828.8500959162083
 20
577.9228082262998
 30
0.0
 11
828.8500959162083
 21
580.1048081224599
 31
0.0
  0
LWPOLYLINE
  5
F93
330
1F
100
AcDbEntity
  8
Hewi
  6
CUSTOM
 62
    18
420
        0
370
     9
100
AcDbPolyline
 90
        5
 70
     0
 43
0.0
 10
843.8500952023751
 20
639.5958052913283
 10
842.0450952882712
 20
639.2588053073686
 10
840.3970953666975
 20
638.2118053571921
 10
839.2760954200458
 20
636.6158054331463
 10
838.9070954376075
 20
635.3498054933934
  0
LINE
  5
F94
330
1F
100
AcDbEntity
  8
Hewi
  6
CUSTOM
 62
    18
420
        0
370
     9
100
AcDbLine
 10
828.8500959162083
 20
589.0958076945844
 30
0.0
 11
828.8500959162083
 21
591.635807573708
 31
0.0
  0
LWPOLYLINE
  5
F95
330
1F
100
AcDbEntity
  8
Hewi
  6
CUSTOM
 62
    18
420
        0
370
     9
100
AcDbPolyline
 90
        5
 70
     0
 43
0.0
 10
833.930095674459
 20
635.8598054691229
 10
833.8500956782663
 20
634.5958055292758
 10
833.8500956782663
 20
589.0958076945844
 10
833.8500956782663
 20
586.5148078174115
 10
833.8500956782663
 20
583.9308079403836
  0
LINE
  5
F96
330
1F
100
AcDbEntity
  8
Hewi
  6
CUSTOM
 62
    18
420
        0
370
     9
100
AcDbLine
 10
841.828095298595
 20
644.388805063234
 30
0.0
 11
843.8500952023751
 21
644.5958050533845
 31
0.0
  0
LINE
  5
F97
330
1F
100
AcDbEntity
  8
Hewi
  6
CUSTOM
 62
    18
420
        0
370
     9
100
AcDbLine
 10
841.828095298595
 20
644.388805063234
 30
0.0
 11
840.6150953563228
 21
644.0578050789863
 31
0.0
  0
LINE
  5
F98
330
1F
100
AcDbEntity
  8
Hewi
  6
CUSTOM
 62
    18
420
        0
370
     9
100
AcDbLine
 10
840.3750953677445
 20
643.9728050830308
 30
0.0
 11
841.828095298595
 21
644.388805063234
 31
0.0
  0
LINE
  5
F99
330
1F
100
AcDbEntity
  8
Hewi
  6
CUSTOM
 62
    18
420
        0
370
     9
100
AcDbLine
 10
838.9070954376075
 20
635.3498054933934
 30
0.0
 11
838.8500954403207
 21
634.5958055292758
 31
0.0
  0
LWPOLYLINE
  5
F9A
330
1F
100
AcDbEntity
  8
Hewi
  6
CUSTOM
 62
    18
420
        0
370
     9
100
AcDbPolyline
 90
        4
 70
     0
 43
0.0
 10
840.3750953677445
 20
643.9728050830308
 10
839.3430954168579
 20
643.5228051044468
 10
838.8500954403207
 20
643.2558051171526
 10
838.3560954638269
 20
642.9518051316208
  0
LINE
  5
F9B
330
1F
100
AcDbEntity
  8
Hewi
  6
CUSTOM
 62
    18
420
        0
370
     9
100
AcDbLine
 10
838.3560954638269
 20
642.9518051316208
 30
0.0
 11
840.3750953677445
 21
643.9728050830308
 31
0.0
  0
LINE
  5
F9C
330
1F
100
AcDbEntity
  8
Hewi
  6
CUSTOM
 62
    18
420
        0
370
     9
100
AcDbLine
 10
835.6050955947466
 20
640.2538052600156
 30
0.0
 11
836.6040955472053
 21
641.4868052013371
 31
0.0
  0
LWPOLYLINE
  5
F9D
330
1F
100
AcDbEntity
  8
Hewi
  6
CUSTOM
 62
    18
420
        0
370
     9
100
AcDbPolyline
 90
        3
 70
     0
 43
0.0
 10
838.3560954638269
 20
642.9518051316208
 10
837.6640954967587
 20
642.452805155368
 10
836.6040955472053
 20
641.4868052013371
  0
LWPOLYLINE
  5
F9E
330
1F
100
AcDbEntity
  8
Hewi
  6
CUSTOM
 62
    18
420
        0
370
     9
100
AcDbPolyline
 90
       14
 70
     0
 43
0.0
 10
1248.067011409537
 20
604.2318635077099
 10
1245.468076089688
 20
607.8894190600022
 10
1241.677076270098
 20
611.5744925045764
 10
1237.241076481201
 20
614.5719340396444
 10
1232.303076716198
 20
616.7839098569438
 10
1227.020076967608
 20
618.1405386648566
 10
1221.563077227307
 20
618.6539714103801
 10
1124.137081863729
 20
618.6539714103801
 10
1118.680082123428
 20
618.1405386648566
 10
1113.397082374838
 20
616.7839098569438
 10
1108.459082609835
 20
614.5719340396444
 10
1104.023082820946
 20
611.5744925045764
 10
1100.232083001349
 20
607.8894190600022
 10
1097.633147726574
 20
604.2318635711454
  0
LWPOLYLINE
  5
F9F
330
1F
100
AcDbEntity
  8
Hewi
  6
CUSTOM
 62
    18
420
        0
370
     9
100
AcDbPolyline
 90
       20
 70
     0
 43
0.0
 10
1079.567851971711
 20
602.0958071287223
 10
1080.416083944383
 20
604.5098294225663
 10
1083.665083789765
 20
611.559454120832
 10
1084.201083764255
 20
612.4016262475816
 10
1088.687083550772
 20
618.7142362569302
 10
1094.310083283177
 20
624.1798850118903
 10
1100.888082970137
 20
628.6243351586945
 10
1108.211082621638
 20
631.9040971118938
 10
1116.044082248871
 20
633.9157465598928
 10
1124.137081863729
 20
634.5942480452485
 10
1221.563077227307
 20
634.5942480452485
 10
1229.656076842166
 20
633.9157465598928
 10
1237.489076469399
 20
631.9040971118938
 10
1244.812076120899
 20
628.6243351586945
 10
1251.39007580786
 20
624.1798850118903
 10
1257.013075540264
 20
618.7142362569302
 10
1261.499075326781
 20
612.4016262475816
 10
1262.035075301272
 20
611.559454120832
 10
1265.284075146657
 20
604.5098294225663
 10
1266.132307407646
 20
602.0958063081907
  0
LWPOLYLINE
  5
FA0
330
1F
100
AcDbEntity
  8
Hewi
  6
CUSTOM
 62
    18
420
        0
370
     9
100
AcDbPolyline
 90
        3
 70
     0
 43
0.0
 10
841.8079377010581
 20
644.3833045127485
 10
841.7840953006889
 20
644.3798050636615
 10
840.6150953563228
 20
644.0578050789863
  0
LINE
  5
FA1
330
1F
100
AcDbEntity
  8
Hewi
  6
CUSTOM
 62
    18
420
        0
370
     9
100
AcDbLine
 10
843.8500952023751
 20
639.5958052913283
 30
0.0
 11
840.9717978849293
 21
638.5769227963719
 31
0.0
  0
LWPOLYLINE
  5
FA2
330
1F
100
AcDbEntity
  8
Hewi
  6
CUSTOM
 62
    18
420
        0
370
     9
100
AcDbPolyline
 90
       12
 70
     0
 43
0.0
 10
863.8500942505853
 20
243.5958241366606
 10
858.1280945228936
 20
244.3908240988276
 10
856.3060946096012
 20
244.9978240699402
 10
853.2280947560794
 20
246.4798239994143
 10
852.8390947745938
 20
246.7138239882788
 10
850.43209488914
 20
248.4418239060451
 10
850.0860949056042
 20
248.7358238920533
 10
847.9900950053524
 20
250.8318237923049
 10
847.6960950193461
 20
251.177823775839
 10
845.9680951015798
 20
253.5848236612928
 10
845.7340951127152
 20
253.9738236427802
 10
844.2520951832412
 20
257.0518234963001
  0
LWPOLYLINE
  5
FA3
330
1F
100
AcDbEntity
  8
Hewi
  6
CUSTOM
 62
    18
420
        0
370
     9
100
AcDbPolyline
 90
        3
 70
     0
 43
0.0
 10
844.2520951832412
 20
257.0518234963001
 10
843.6450952121267
 20
258.8738234095927
 10
843.5813481906262
 20
259.3326415945448
  0
LINE
  5
FA4
330
1F
100
AcDbEntity
  8
Hewi
  6
CUSTOM
 62
    18
420
        0
370
     9
100
AcDbLine
 10
833.930095674459
 20
635.8598054691229
 30
0.0
 11
834.5070956470008
 21
638.1618053595721
 31
0.0
  0
LWPOLYLINE
  5
FA5
330
1F
100
AcDbEntity
  8
Hewi
  6
CUSTOM
 62
    18
420
        0
370
     9
100
AcDbPolyline
 90
        3
 70
     0
 43
0.0
 10
833.930095674459
 20
635.8598054691229
 10
834.1290956649899
 20
636.943805417537
 10
834.5070956470008
 20
638.1618053595721
  0
LINE
  5
FA6
330
1F
100
AcDbEntity
  8
Hewi
  6
CUSTOM
 62
    18
420
        0
370
     9
100
AcDbLine
 10
838.998920842172
 20
635.5784518209747
 30
0.0
 11
838.8500954403207
 21
634.5958055292758
 31
0.0
  0
LINE
  5
FA7
330
1F
100
AcDbEntity
  8
Hewi
  6
CUSTOM
 62
    18
420
        0
370
     9
100
AcDbLine
 10
1249.026332109577
 20
602.0958071283621
 30
0.0
 11
1247.958075971186
 21
604.4744229014813
 31
0.0
  0
LWPOLYLINE
  5
FA8
330
1F
100
AcDbEntity
  8
Hewi
  6
CUSTOM
 62
    18
420
        0
370
     9
100
AcDbPolyline
 90
        4
 70
     0
 43
0.0
 10
843.8500952023751
 20
644.5958050533845
 10
843.7140952088411
 20
644.5948050534298
 10
843.0240952416788
 20
644.5618050550002
 10
841.8853456797224
 20
644.3946660063921
  0
LINE
  5
FA9
330
1F
100
AcDbEntity
  8
Hewi
  6
CUSTOM
 62
    18
420
        0
370
     9
100
AcDbLine
 10
840.6150953563228
 20
644.0578050789863
 30
0.0
 11
840.4938160887649
 21
644.0067953241559
 31
0.0
  0
LINE
  5
FAA
330
1F
100
AcDbEntity
  8
Hewi
  6
CUSTOM
 62
    18
420
        0
370
     9
100
AcDbLine
 10
1097.74208311985
 20
604.4744229014813
 30
0.0
 11
1096.673826981459
 21
602.0958071283621
 31
0.0
  0
LWPOLYLINE
  5
FAB
330
1F
100
AcDbEntity
  8
Hewi
  6
CUSTOM
 62
    18
420
        0
370
     9
100
AcDbPolyline
 90
        3
 70
     0
 43
0.0
 10
835.6050955947466
 20
640.2538052600156
 10
834.9520956258201
 20
639.1598053120778
 10
834.7613827408167
 20
638.6462940688543
  0
LINE
  5
FAC
330
1F
100
AcDbEntity
  8
Hewi
  6
CUSTOM
 62
    18
420
        0
370
     9
100
AcDbLine
 10
838.9070954376075
 20
635.3498054933934
 30
0.0
 11
839.6016991194338
 21
637.0793768233489
 31
0.0
  0
LINE
  5
FAD
330
1F
100
AcDbEntity
  8
Hewi
  6
CUSTOM
 62
    18
420
        0
370
     9
100
AcDbLine
 10
840.5299708658931
 20
638.2962232231148
 30
0.0
 11
840.2321613044987
 21
637.9769839789896
 31
0.0
  0
LWPOLYLINE
  5
FAE
330
1F
100
AcDbEntity
  8
Hewi
  6
CUSTOM
 62
    18
420
        0
370
     9
100
AcDbPolyline
 90
       15
 70
     0
 43
0.0
 10
1498.004064071691
 20
71.17783234189847
 10
1499.732063989457
 20
73.58483222735049
 10
1499.966063978321
 20
73.97383220883966
 10
1501.448063907795
 20
77.05183206235961
 10
1502.05506387891
 20
78.87383197565213
 10
1502.41206386192
 20
80.32983190636333
 10
1502.832063841932
 20
83.71983174503474
 10
1502.850063841077
 20
84.59583170334553
 10
1502.850063841077
 20
599.0958072186931
 10
1502.650063850597
 20
600.1738071673917
 10
1502.158063874005
 20
601.012807127463
 10
1501.423063908987
 20
601.650807097103
 10
1500.667063944965
 20
601.9828070813036
 10
1499.850063983846
 20
602.0958070759261
 10
845.850095107191
 20
602.0958070759261
  0
LINE
  5
FAF
330
1F
100
AcDbEntity
  8
Hewi
  6
CUSTOM
 62
    18
420
        0
370
     9
100
AcDbLine
 10
834.5070956470008
 20
638.1618053595721
 30
0.0
 11
835.6050955947466
 21
640.2538052600156
 31
0.0
  0
LWPOLYLINE
  5
FB0
330
1F
100
AcDbEntity
  8
Hewi
  6
CUSTOM
 62
    18
420
        0
370
     9
100
AcDbPolyline
 90
        4
 70
     0
 43
0.0
 10
858.5869126589678
 20
244.3270770902
 10
859.584094453603
 20
244.0338241158151
 10
862.9740942922763
 20
243.6138241358039
 10
863.8500942505853
 20
243.5958241366606
  0
LWPOLYLINE
  5
FB1
330
1F
100
AcDbEntity
  8
Hewi
  6
CUSTOM
 62
    18
420
        0
370
     9
100
AcDbPolyline
 90
        7
 70
     0
 43
0.0
 10
843.2950952287864
 20
600.6688071438348
 10
842.9640952445369
 20
599.9128071798131
 10
842.8500952499634
 20
599.0958072186931
 10
842.8500952499634
 20
264.5958231372861
 10
842.8680952491049
 20
263.7198231789753
 10
843.2880952291162
 20
260.3298233403038
 10
844.2520951832412
 20
257.0518234963001
  0
LWPOLYLINE
  5
FB2
330
1F
100
AcDbEntity
  8
Hewi
  6
CUSTOM
 62
    18
420
        0
370
     9
100
AcDbPolyline
 90
        6
 70
     0
 43
0.0
 10
843.2950952287864
 20
600.6688071438348
 10
843.5420952170316
 20
601.012807127463
 10
843.933095198423
 20
601.4038071088561
 10
844.2770951820493
 20
601.650807097103
 10
844.772095158496
 20
601.8958070854441
 10
845.850095107191
 20
602.0958070759261
  0
LWPOLYLINE
  5
FB3
330
1F
100
AcDbEntity
  8
Hewi
  6
CUSTOM
 62
    18
420
        0
370
     9
100
AcDbPolyline
 90
       22
 70
     0
 43
0.0
 10
1498.004064071691
 20
71.17783234189847
 10
1495.614064185432
 20
68.73583245811096
 10
1495.2680642019
 20
68.44183247210276
 10
1492.861064316443
 20
66.7138325543383
 10
1492.472064334957
 20
66.47983256547195
 10
1489.394064481439
 20
64.99783263599965
 10
1487.572064568143
 20
64.39083266488523
 10
1486.116064637434
 20
64.03383268187645
 10
1482.72606479876
 20
63.61383270186343
 10
1481.850064840451
 20
63.59583270272015
 10
1193.850078546147
 20
63.59583270272015
 10
1188.128078818448
 20
64.39083266488523
 10
1182.839079070149
 20
66.7138325543383
 10
1180.086079201162
 20
68.73583245811096
 10
1177.696079314901
 20
71.17783234189847
 10
1175.73407940827
 20
73.97383220883966
 10
1174.252079478796
 20
77.05183206235961
 10
1173.288079524674
 20
80.32983190636333
 10
1172.868079544663
 20
83.71983174503474
 10
1172.850079545518
 20
84.59583170334553
 10
1172.850079545518
 20
222.5958251360335
 10
1171.589823066282
 20
229.3771196291546
  0
LWPOLYLINE
  5
FB4
330
1F
100
AcDbEntity
  8
Hewi
  6
CUSTOM
 62
    18
420
        0
370
     9
100
AcDbPolyline
 90
        5
 70
     0
 43
0.0
 10
1162.472080039399
 20
240.7118242739088
 10
1165.268079906338
 20
238.749824367278
 10
1167.710079790126
 20
236.3598244810182
 10
1169.732079693902
 20
233.6068246120303
 10
1172.055079583351
 20
228.3178248637287
  0
LWPOLYLINE
  5
FB5
330
1F
100
AcDbEntity
  8
Hewi
  6
CUSTOM
 62
    18
420
        0
370
     9
100
AcDbPolyline
 90
        3
 70
     0
 43
0.0
 10
844.8704003987405
 20
601.914045538022
 10
845.0050951474077
 20
601.9738070817311
 10
845.850095107191
 20
602.0958070759261
  0
LINE
  5
FB6
330
1F
100
AcDbEntity
  8
Hewi
  6
CUSTOM
 62
    18
420
        0
370
     9
100
AcDbLine
 10
1151.850080544893
 20
243.5958241366606
 30
0.0
 11
1152.726080503202
 21
243.5778241375174
 31
0.0
  0
LINE
  5
FB7
330
1F
100
AcDbEntity
  8
Hewi
  6
CUSTOM
 62
    18
420
        0
370
     9
100
AcDbLine
 10
863.8500942505853
 20
243.5958241366606
 30
0.0
 11
1151.850080544893
 21
243.5958241366606
 31
0.0
  0
LINE
  5
FB8
330
1F
100
AcDbEntity
  8
Hewi
  6
CUSTOM
 62
    18
420
        0
370
     9
100
AcDbLine
 10
1159.394080185877
 20
242.1938242033812
 30
0.0
 11
1151.850080544893
 21
243.5958241366606
 31
0.0
  0
LWPOLYLINE
  5
FB9
330
1F
100
AcDbEntity
  8
Hewi
  6
CUSTOM
 62
    18
420
        0
370
     9
100
AcDbPolyline
 90
        3
 70
     0
 43
0.0
 10
843.0293042591838
 20
600.0617437784185
 10
843.0500952404472
 20
600.1738071673917
 10
843.2950952287864
 20
600.6688071438348
  0
LINE
  5
FBA
330
1F
100
AcDbEntity
  8
Hewi
  6
CUSTOM
 62
    18
420
        0
370
     9
100
AcDbLine
 10
1165.431336390011
 20
238.59004427111
 30
0.0
 11
1164.050764317861
 21
239.6040350919884
 31
0.0
  0
LWPOLYLINE
  5
FBB
330
1F
100
AcDbEntity
  8
Hewi
  6
CUSTOM
 62
    18
420
        0
370
     9
100
AcDbPolyline
 90
        3
 70
     0
 43
0.0
 10
1496.650786003898
 20
69.79511056660522
 10
1497.710064085684
 20
70.83183235836258
 10
1498.004064071691
 20
71.17783234189847
  0
LINE
  5
FBC
330
1F
100
AcDbEntity
  8
Hewi
  6
CUSTOM
 62
    18
420
        0
370
     9
100
AcDbLine
 10
1169.797279594244
 20
233.4583776618947
 30
0.0
 11
1168.858290465439
 21
234.7965089585941
 31
0.0
  0
LINE
  5
FBD
330
1F
100
AcDbEntity
  8
Hewi
  6
CUSTOM
 62
    18
420
        0
370
     9
100
AcDbLine
 10
1167.844299685093
 20
236.1770809754434
 30
0.0
 11
1166.650801681633
 21
237.3965462994783
 31
0.0
  0
LWPOLYLINE
  5
FBE
330
1F
100
AcDbEntity
  8
Hewi
  6
CUSTOM
 62
    18
420
        0
370
     9
100
AcDbPolyline
 90
        3
 70
     0
 43
0.0
 10
1501.498795911931
 20
601.5850696002307
 10
1506.350063674512
 20
601.5850696002307
 10
1506.850063650723
 20
601.085499124003
  0
LWPOLYLINE
  5
FBF
330
1F
100
AcDbEntity
  8
Hewi
  6
CUSTOM
 62
    18
420
        0
370
     9
100
AcDbPolyline
 90
        3
 70
     0
 43
0.0
 10
1506.850063650723
 20
577.1061576971624
 10
1506.350063674512
 20
576.6065457889399
 10
1502.850063781469
 20
576.6065457889399
  0
LINE
  5
FC0
330
1F
100
AcDbEntity
  8
Hewi
  6
CUSTOM
 62
    18
420
        0
370
     9
100
AcDbLine
 10
1506.350063674512
 20
577.5950147938983
 30
0.0
 11
1506.350063674512
 21
576.7992612027683
 31
0.0
  0
LINE
  5
FC1
330
1F
100
AcDbEntity
  8
Hewi
  6
CUSTOM
 62
    18
420
        0
370
     9
100
AcDbLine
 10
1162.712633072747
 20
240.5430241830436
 30
0.0
 11
1158.631375069726
 21
242.3355676394694
 31
0.0
  0
LINE
  5
FC2
330
1F
100
AcDbEntity
  8
Hewi
  6
CUSTOM
 62
    18
420
        0
370
     9
100
AcDbLine
 10
1506.350063674512
 20
584.1047109161063
 30
0.0
 11
1506.350063674512
 21
582.4329029566688
 31
0.0
  0
LWPOLYLINE
  5
105A
330
1F
100
AcDbEntity
  8
Hewi
  6
CUSTOM
 62
    18
420
        0
370
     9
100
AcDbPolyline
 90
        3
 70
     0
 43
0.0
 10
1466.99208762902
 20
1160.582984236116
 10
1466.850087625116
 20
1161.76698425619
 10
1466.850087625116
 20
1191.266983445066
  0
LWPOLYLINE
  5
105B
330
1F
100
AcDbEntity
  8
Hewi
  6
CUSTOM
 62
    18
420
        0
370
     9
100
AcDbPolyline
 90
        3
 70
     0
 43
0.0
 10
1496.850088449566
 20
1156.766984171412
 10
1471.850087762526
 20
1156.766984171412
 10
1470.332087720806
 20
1157.002984175415
  0
LINE
  5
105C
330
1F
100
AcDbEntity
  8
Hewi
  6
CUSTOM
 62
    18
420
        0
370
     9
100
AcDbLine
 10
1470.332087720806
 20
1157.002984175415
 30
0.0
 11
1468.957087683018
 21
1157.688984187047
 31
0.0
  0
LWPOLYLINE
  5
105D
330
1F
100
AcDbEntity
  8
Hewi
  6
CUSTOM
 62
    18
420
        0
370
     9
100
AcDbPolyline
 90
        4
 70
     0
 43
0.0
 10
1466.99208762902
 20
1160.582984236116
 10
1467.03908763031
 20
1160.404984233097
 10
1467.592087645505
 20
1159.144984211734
 10
1467.715087648888
 20
1158.954984208512
  0
LWPOLYLINE
  5
105E
330
1F
100
AcDbEntity
  8
Hewi
  6
CUSTOM
 62
    18
420
        0
370
     9
100
AcDbPolyline
 90
        3
 70
     0
 43
0.0
 10
1469.587509821034
 20
1157.374460851501
 10
1470.054087713168
 20
1157.100984177077
 10
1470.332087720806
 20
1157.002984175415
  0
LINE
  5
105F
330
1F
100
AcDbEntity
  8
Hewi
  6
CUSTOM
 62
    18
420
        0
370
     9
100
AcDbLine
 10
1467.715087648888
 20
1158.954984208512
 30
0.0
 11
1466.99208762902
 21
1160.582984236116
 31
0.0
  0
LINE
  5
1060
330
1F
100
AcDbEntity
  8
Hewi
  6
CUSTOM
 62
    18
420
        0
370
     9
100
AcDbLine
 10
1500.473088549133
 20
1158.320984197762
 30
0.0
 11
1498.821088503733
 21
1157.171984178279
 31
0.0
  0
LWPOLYLINE
  5
1061
330
1F
100
AcDbEntity
  8
Hewi
  6
CUSTOM
 62
    18
420
        0
370
     9
100
AcDbPolyline
 90
        3
 70
     0
 43
0.0
 10
1468.08115906424
 20
1158.581838952817
 10
1468.65508767472
 20
1157.92098419098
 10
1468.957087683018
 20
1157.688984187047
  0
LINE
  5
1062
330
1F
100
AcDbEntity
  8
Hewi
  6
CUSTOM
 62
    18
420
        0
370
     9
100
AcDbLine
 10
1468.957087683018
 20
1157.688984187047
 30
0.0
 11
1467.715087648888
 21
1158.954984208512
 31
0.0
  0
LWPOLYLINE
  5
1063
330
1F
100
AcDbEntity
  8
Hewi
  6
CUSTOM
 62
    18
420
        0
370
     9
100
AcDbPolyline
 90
        3
 70
     0
 43
0.0
 10
1498.821088503733
 20
1157.171984178279
 10
1498.212088486998
 20
1156.955984174619
 10
1496.850088449566
 20
1156.766984171412
  0
LWPOLYLINE
  5
1064
330
1F
100
AcDbEntity
  8
Hewi
  6
CUSTOM
 62
    18
420
        0
370
     9
100
AcDbPolyline
 90
        3
 70
     0
 43
0.0
 10
1498.821088503733
 20
1157.171984178279
 10
1499.472088521623
 20
1157.508984183994
 10
1500.473088549133
 20
1158.320984197762
  0
LINE
  5
1065
330
1F
100
AcDbEntity
  8
Hewi
  6
CUSTOM
 62
    18
420
        0
370
     9
100
AcDbLine
 10
1498.821088503733
 20
1157.171984178279
 30
0.0
 11
1496.850088449566
 21
1156.766984171412
 31
0.0
  0
LWPOLYLINE
  5
1066
330
1F
100
AcDbEntity
  8
Hewi
  6
CUSTOM
 62
    18
420
        0
370
     9
100
AcDbPolyline
 90
        3
 70
     0
 43
0.0
 10
1500.473088549133
 20
1158.320984197762
 10
1500.696088555258
 20
1158.571984202017
 10
1501.247088570402
 20
1159.38598421582
  0
LWPOLYLINE
  5
1067
330
1F
100
AcDbEntity
  8
Hewi
  6
CUSTOM
 62
    18
420
        0
370
     9
100
AcDbPolyline
 90
        4
 70
     0
 43
0.0
 10
1502.238341762575
 20
1188.642266624261
 10
1501.850088586972
 20
1186.766984680071
 10
1501.850088586972
 20
1161.76698425619
 10
1501.716088583292
 20
1160.615984236674
  0
LINE
  5
1068
330
1F
100
AcDbEntity
  8
Hewi
  6
CUSTOM
 62
    18
420
        0
370
     9
100
AcDbLine
 10
1501.247088570402
 20
1159.38598421582
 30
0.0
 11
1500.473088549133
 21
1158.320984197762
 31
0.0
  0
LWPOLYLINE
  5
1069
330
1F
100
AcDbEntity
  8
Hewi
  6
CUSTOM
 62
    18
420
        0
370
     9
100
AcDbPolyline
 90
        3
 70
     0
 43
0.0
 10
1501.384632736692
 20
1159.746707738222
 10
1501.516088577795
 20
1159.970984225738
 10
1501.716088583292
 20
1160.615984236674
  0
LINE
  5
106A
330
1F
100
AcDbEntity
  8
Hewi
  6
CUSTOM
 62
    18
420
        0
370
     9
100
AcDbLine
 10
1501.716088583292
 20
1160.615984236674
 30
0.0
 11
1501.247088570402
 21
1159.38598421582
 31
0.0
  0
LINE
  5
106B
330
1F
100
AcDbEntity
  8
Hewi
  6
CUSTOM
 62
    18
420
        0
370
     9
100
AcDbLine
 10
1504.32508865499
 20
1191.081984753233
 30
0.0
 11
1503.092088621106
 21
1190.058984735888
 31
0.0
  0
LINE
  5
106C
330
1F
100
AcDbEntity
  8
Hewi
  6
CUSTOM
 62
    18
420
        0
370
     9
100
AcDbLine
 10
1503.092088621106
 20
1190.058984735888
 30
0.0
 11
1502.173088595849
 21
1188.533984710031
 31
0.0
  0
LWPOLYLINE
  5
106D
330
1F
100
AcDbEntity
  8
Hewi
  6
CUSTOM
 62
    18
420
        0
370
     9
100
AcDbPolyline
 90
        7
 70
     0
 43
0.0
 10
1506.850088724379
 20
1216.766985188729
 10
1506.810088723279
 20
1216.766985188729
 10
1506.366088711082
 20
1216.766985188729
 10
1505.47308868654
 20
1216.766985188729
 10
1503.82108864114
 20
1216.766985188729
 10
1501.850088586972
 20
1216.766985188729
 10
1496.85008785352
 20
1216.766985188729
  0
LINE
  5
106E
330
1F
100
AcDbEntity
  8
Hewi
  6
CUSTOM
 62
    18
420
        0
370
     9
100
AcDbLine
 10
1506.850088724379
 20
1191.766984764846
 30
0.0
 11
1504.32508865499
 21
1191.081984753233
 31
0.0
  0
LWPOLYLINE
  5
106F
330
1F
100
AcDbEntity
  8
Hewi
  6
CUSTOM
 62
    18
420
        0
370
     9
100
AcDbPolyline
 90
        4
 70
     0
 43
0.0
 10
1506.850088724379
 20
1191.766984764846
 10
1506.521088715337
 20
1191.757984764695
 10
1505.564088689043
 20
1191.596984761963
 10
1504.32508865499
 20
1191.081984753233
  0
LWPOLYLINE
  5
1070
330
1F
100
AcDbEntity
  8
Hewi
  6
CUSTOM
 62
    18
420
        0
370
     9
100
AcDbPolyline
 90
        3
 70
     0
 43
0.0
 10
1511.850088861793
 20
1191.766984764846
 10
1511.850088861793
 20
1192.035984769409
 10
1511.850088861793
 20
1192.880984783734
  0
LWPOLYLINE
  5
1071
330
1F
100
AcDbEntity
  8
Hewi
  6
CUSTOM
 62
    18
420
        0
370
     9
100
AcDbPolyline
 90
       18
 70
     0
 43
0.0
 10
1506.850088724379
 20
1216.766985188729
 10
1506.850088724379
 20
1216.497985184167
 10
1506.850088724379
 20
1215.652985169839
 10
1506.850088724379
 20
1214.337985147544
 10
1506.850088724379
 20
1212.544985117143
 10
1506.850088724379
 20
1210.377985080402
 10
1506.850088724379
 20
1208.046985040877
 10
1506.850088724379
 20
1205.592984999271
 10
1506.850088724379
 20
1203.925984971007
 10
1506.850088724379
 20
1201.712984933483
 10
1506.850088724379
 20
1200.469984912408
 10
1506.850088724379
 20
1199.08698488896
 10
1506.850088724379
 20
1196.667984847945
 10
1506.850088724379
 20
1194.635984813492
 10
1506.850088724379
 20
1193.305984790941
 10
1506.850088724379
 20
1192.351984774767
 10
1506.850088724379
 20
1191.958984768102
 10
1506.850088724379
 20
1191.766984764846
  0
LINE
  5
1072
330
1F
100
AcDbEntity
  8
Hewi
  6
CUSTOM
 62
    18
420
        0
370
     9
100
AcDbLine
 10
1511.850088861793
 20
1198.155984873174
 30
0.0
 11
1511.850088861793
 21
1200.486984912697
 31
0.0
  0
LWPOLYLINE
  5
1073
330
1F
100
AcDbEntity
  8
Hewi
  6
CUSTOM
 62
    18
420
        0
370
     9
100
AcDbPolyline
 90
        4
 70
     0
 43
0.0
 10
1511.850088861793
 20
1204.607984982569
 10
1511.850088861793
 20
1206.820985020091
 10
1511.850088861793
 20
1208.063985041168
 10
1511.850088861793
 20
1209.446985064615
  0
LWPOLYLINE
  5
1074
330
1F
100
AcDbEntity
  8
Hewi
  6
CUSTOM
 62
    18
420
        0
370
     9
100
AcDbPolyline
 90
        3
 70
     0
 43
0.0
 10
1511.850088861793
 20
1216.181985178809
 10
1511.850088861793
 20
1216.574985185472
 10
1511.850088861793
 20
1216.766985188729
  0
LINE
  5
1075
330
1F
100
AcDbEntity
  8
Hewi
  6
CUSTOM
 62
    18
420
        0
370
     9
100
AcDbLine
 10
1511.850088861793
 20
1216.766985188729
 30
0.0
 11
1506.850088724379
 21
1216.766985188729
 31
0.0
  0
LINE
  5
1076
330
1F
100
AcDbEntity
  8
Hewi
  6
CUSTOM
 62
    18
420
        0
370
     9
100
AcDbLine
 10
1506.850088724379
 20
1191.766984764846
 30
0.0
 11
1511.850088861793
 21
1191.766984764846
 31
0.0
  0
LINE
  5
1077
330
1F
100
AcDbEntity
  8
Hewi
  6
CUSTOM
 62
    18
420
        0
370
     9
100
AcDbLine
 10
1503.092088621106
 20
1190.058984735888
 30
0.0
 11
1504.381429975146
 21
1191.097269422891
 31
0.0
  0
LINE
  5
1078
330
1F
100
AcDbEntity
  8
Hewi
  6
CUSTOM
 62
    18
420
        0
370
     9
100
AcDbLine
 10
833.850070229244
 20
1191.766984764846
 30
0.0
 11
828.8500700918374
 21
1191.766984764846
 31
0.0
  0
LWPOLYLINE
  5
1079
330
1F
100
AcDbEntity
  8
Hewi
  6
CUSTOM
 62
    18
420
        0
370
     9
100
AcDbPolyline
 90
        3
 70
     0
 43
0.0
 10
833.850070229244
 20
1196.217984840314
 10
833.850070229244
 20
1197.895984868764
 10
833.850070229244
 20
1198.944984886551
  0
LWPOLYLINE
  5
107A
330
1F
100
AcDbEntity
  8
Hewi
  6
CUSTOM
 62
    18
420
        0
370
     9
100
AcDbPolyline
 90
       20
 70
     0
 43
0.0
 10
828.8500700918374
 20
1191.766984764846
 10
826.8500700368749
 20
1193.806984799434
 10
826.8500700368749
 20
1193.856984800284
 10
826.8500700368749
 20
1194.39998480949
 10
826.8500700368749
 20
1195.41098482663
 10
826.8500700368749
 20
1196.841984850893
 10
826.8500700368749
 20
1198.424984877736
 10
826.8500700368749
 20
1200.386984911001
 10
826.8500700368749
 20
1202.278984943079
 10
826.8500700368749
 20
1204.267984976804
 10
826.8500700368749
 20
1205.181984992301
 10
826.8500700368749
 20
1207.423985030313
 10
826.8500700368749
 20
1209.516985065802
 10
826.8500700368749
 20
1211.360985097068
 10
826.8500700368749
 20
1212.867985122619
 10
826.8500700368749
 20
1213.967985141271
 10
826.8500700368749
 20
1214.606985152104
 10
826.8500700368749
 20
1214.756985154647
 10
828.8500700918374
 20
1216.766985188729
 10
833.850070229244
 20
1216.766985188729
  0
LINE
  5
107B
330
1F
100
AcDbEntity
  8
Hewi
  6
CUSTOM
 62
    18
420
        0
370
     9
100
AcDbLine
 10
1503.251460821382
 20
1190.187324461589
 30
0.0
 11
1502.54720263202
 21
1189.154794173151
 31
0.0
  0
LINE
  5
107C
330
1F
100
AcDbEntity
  8
Hewi
  6
CUSTOM
 62
    18
420
        0
370
     9
100
AcDbLine
 10
833.850070229244
 20
1206.984985022871
 30
0.0
 11
833.850070229244
 21
1208.129985042285
 31
0.0
  0
LWPOLYLINE
  5
107D
330
1F
100
AcDbEntity
  8
Hewi
  6
CUSTOM
 62
    18
420
        0
370
     9
100
AcDbPolyline
 90
        3
 70
     0
 43
0.0
 10
833.850070229244
 20
1213.305985130046
 10
833.850070229244
 20
1214.599985151984
 10
833.850070229244
 20
1215.220985162514
  0
LINE
  5
107E
330
1F
100
AcDbEntity
  8
Hewi
  6
CUSTOM
 62
    18
420
        0
370
     9
100
AcDbLine
 10
828.8500700918374
 20
1191.766984764846
 30
0.0
 11
828.8500700918374
 21
1192.004984768882
 31
0.0
  0
LINE
  5
107F
330
1F
100
AcDbEntity
  8
Hewi
  6
CUSTOM
 62
    18
420
        0
370
     9
100
AcDbLine
 10
828.8500700918374
 20
1192.707984780802
 30
0.0
 11
828.8500700918374
 21
1193.423984792942
 31
0.0
  0
LWPOLYLINE
  5
1080
330
1F
100
AcDbEntity
  8
Hewi
  6
CUSTOM
 62
    18
420
        0
370
     9
100
AcDbPolyline
 90
        3
 70
     0
 43
0.0
 10
1135.578078521226
 20
1125.887983647853
 10
1136.018078533314
 20
1127.358983672795
 10
1136.251078539717
 20
1127.913983682207
  0
LWPOLYLINE
  5
1081
330
1F
100
AcDbEntity
  8
Hewi
  6
CUSTOM
 62
    18
420
        0
370
     9
100
AcDbPolyline
 90
        3
 70
     0
 43
0.0
 10
1141.875078694273
 20
1133.14398377088
 10
1142.625078714885
 20
1133.388983775035
 10
1143.328078734208
 20
1133.559983777933
  0
LWPOLYLINE
  5
1082
330
1F
100
AcDbEntity
  8
Hewi
  6
CUSTOM
 62
    18
420
        0
370
     9
100
AcDbPolyline
 90
        3
 70
     0
 43
0.0
 10
1207.891080508503
 20
1130.334983723253
 10
1208.768080532602
 20
1129.164983703415
 10
1209.364080548985
 20
1128.096983685307
  0
LWPOLYLINE
  5
1083
330
1F
100
AcDbEntity
  8
Hewi
  6
CUSTOM
 62
    18
420
        0
370
     9
100
AcDbPolyline
 90
        4
 70
     0
 43
0.0
 10
1210.190080571683
 20
1125.547983642089
 10
1210.12208056981
 20
1125.887983647853
 10
1209.449080551316
 20
1127.913983682207
 10
1209.364080548985
 20
1128.096983685307
  0
LWPOLYLINE
  5
1084
330
1F
100
AcDbEntity
  8
Hewi
  6
CUSTOM
 62
    18
420
        0
370
     9
100
AcDbPolyline
 90
        3
 70
     0
 43
0.0
 10
1139.85607863879
 20
1132.12298375357
 10
1140.107078645687
 20
1132.281983756265
 10
1140.5925421184
 20
1132.495410308544
  0
LINE
  5
1085
330
1F
100
AcDbEntity
  8
Hewi
  6
CUSTOM
 62
    18
420
        0
370
     9
100
AcDbLine
 10
1207.891080508503
 20
1130.334983723253
 30
0.0
 11
1209.364080548985
 21
1128.096983685307
 31
0.0
  0
LINE
  5
1086
330
1F
100
AcDbEntity
  8
Hewi
  6
CUSTOM
 62
    18
420
        0
370
     9
100
AcDbLine
 10
828.8500700918374
 20
1209.871985071822
 30
0.0
 11
828.8500700918374
 21
1212.950985124025
 31
0.0
  0
LINE
  5
1087
330
1F
100
AcDbEntity
  8
Hewi
  6
CUSTOM
 62
    18
420
        0
370
     9
100
AcDbLine
 10
1209.364080548985
 20
1128.096983685307
 30
0.0
 11
1210.190080571683
 21
1125.547983642089
 31
0.0
  0
LINE
  5
1088
330
1F
100
AcDbEntity
  8
Hewi
  6
CUSTOM
 62
    18
420
        0
370
     9
100
AcDbLine
 10
1136.932078558435
 20
1129.164983703415
 30
0.0
 11
1138.10407859064
 21
1130.657983728728
 31
0.0
  0
LINE
  5
1089
330
1F
100
AcDbEntity
  8
Hewi
  6
CUSTOM
 62
    18
420
        0
370
     9
100
AcDbLine
 10
1205.655080447053
 20
1132.243983755619
 30
0.0
 11
1207.138080487806
 21
1131.110983736413
 31
0.0
  0
LWPOLYLINE
  5
108A
330
1F
100
AcDbEntity
  8
Hewi
  6
CUSTOM
 62
    18
420
        0
370
     9
100
AcDbPolyline
 90
       18
 70
     0
 43
0.0
 10
1210.190080571683
 20
1125.547983642089
 10
1210.350080576081
 20
1123.766983611893
 10
1210.350080576081
 20
973.7669810686057
 10
1210.350080576081
 20
970.5339810137921
 10
1210.350080576081
 20
968.0159809710968
 10
1210.350080576081
 20
966.1029809386636
 10
1210.350080576081
 20
965.1079809217936
 10
1210.350080576081
 20
964.7669809160106
 10
1135.350078514955
 20
964.7669809160106
 10
1135.350078514955
 20
964.8179809168759
 10
1135.350078514955
 20
965.1529809225557
 10
1135.350078514955
 20
966.2139809405452
 10
1135.350078514955
 20
967.8939809690291
 10
1135.350078514955
 20
969.5339809968372
 10
1135.350078514955
 20
971.4659810295943
 10
1135.350078514955
 20
973.7669810686057
 10
1135.350078514955
 20
1123.766983611893
 10
1135.578078521226
 20
1125.887983647853
  0
LINE
  5
108B
330
1F
100
AcDbEntity
  8
Hewi
  6
CUSTOM
 62
    18
420
        0
370
     9
100
AcDbLine
 10
1141.875078694273
 20
1133.14398377088
 30
0.0
 11
1143.328078734208
 21
1133.559983777933
 31
0.0
  0
LINE
  5
108C
330
1F
100
AcDbEntity
  8
Hewi
  6
CUSTOM
 62
    18
420
        0
370
     9
100
AcDbLine
 10
1138.10407859064
 20
1130.657983728728
 30
0.0
 11
1139.85607863879
 21
1132.12298375357
 31
0.0
  0
LWPOLYLINE
  5
108D
330
1F
100
AcDbEntity
  8
Hewi
  6
CUSTOM
 62
    18
420
        0
370
     9
100
AcDbPolyline
 90
        3
 70
     0
 43
0.0
 10
1143.328078734208
 20
1133.559983777933
 10
1145.350078789772
 20
1133.766983781443
 10
1200.350080301265
 20
1133.766983781443
  0
LINE
  5
108E
330
1F
100
AcDbEntity
  8
Hewi
  6
CUSTOM
 62
    18
420
        0
370
     9
100
AcDbLine
 10
1135.578078521226
 20
1125.887983647853
 30
0.0
 11
1136.251078539717
 21
1127.913983682207
 31
0.0
  0
LINE
  5
108F
330
1F
100
AcDbEntity
  8
Hewi
  6
CUSTOM
 62
    18
420
        0
370
     9
100
AcDbLine
 10
1207.596080500396
 20
1130.657983728728
 30
0.0
 11
1207.138080487806
 21
1131.110983736413
 31
0.0
  0
LINE
  5
1090
330
1F
100
AcDbEntity
  8
Hewi
  6
CUSTOM
 62
    18
420
        0
370
     9
100
AcDbLine
 10
1139.85607863879
 20
1132.12298375357
 30
0.0
 11
1141.875078694273
 21
1133.14398377088
 31
0.0
  0
LWPOLYLINE
  5
1091
330
1F
100
AcDbEntity
  8
Hewi
  6
CUSTOM
 62
    18
420
        0
370
     9
100
AcDbPolyline
 90
        3
 70
     0
 43
0.0
 10
1138.10407859064
 20
1130.657983728728
 10
1137.658078578381
 20
1130.156983720235
 10
1136.932078558435
 20
1129.164983703415
  0
LINE
  5
1092
330
1F
100
AcDbEntity
  8
Hewi
  6
CUSTOM
 62
    18
420
        0
370
     9
100
AcDbLine
 10
1136.251078539717
 20
1127.913983682207
 30
0.0
 11
1136.932078558435
 21
1129.164983703415
 31
0.0
  0
LWPOLYLINE
  5
1093
330
1F
100
AcDbEntity
  8
Hewi
  6
CUSTOM
 62
    18
420
        0
370
     9
100
AcDbPolyline
 90
        3
 70
     0
 43
0.0
 10
1205.655080447053
 20
1132.243983755619
 10
1205.844080452247
 20
1132.12298375357
 10
1207.138080487806
 20
1131.110983736413
  0
LINE
  5
1094
330
1F
100
AcDbEntity
  8
Hewi
  6
CUSTOM
 62
    18
420
        0
370
     9
100
AcDbLine
 10
1203.121080377412
 20
1133.375983774815
 30
0.0
 11
1205.655080447053
 21
1132.243983755619
 31
0.0
  0
LINE
  5
1095
330
1F
100
AcDbEntity
  8
Hewi
  6
CUSTOM
 62
    18
420
        0
370
     9
100
AcDbLine
 10
1207.891080508503
 20
1130.334983723253
 30
0.0
 11
1207.596080500396
 21
1130.657983728728
 31
0.0
  0
LINE
  5
1096
330
1F
100
AcDbEntity
  8
Hewi
  6
CUSTOM
 62
    18
420
        0
370
     9
100
AcDbLine
 10
1207.138080487806
 20
1131.110983736413
 30
0.0
 11
1207.891080508503
 21
1130.334983723253
 31
0.0
  0
LWPOLYLINE
  5
1097
330
1F
100
AcDbEntity
  8
Hewi
  6
CUSTOM
 62
    18
420
        0
370
     9
100
AcDbPolyline
 90
        4
 70
     0
 43
0.0
 10
843.9920705079639
 20
1160.582984236116
 10
844.0390705092577
 20
1160.404984233097
 10
844.5920705244533
 20
1159.144984211734
 10
844.7150705278364
 20
1158.954984208512
  0
LWPOLYLINE
  5
1098
330
1F
100
AcDbEntity
  8
Hewi
  6
CUSTOM
 62
    18
420
        0
370
     9
100
AcDbPolyline
 90
        7
 70
     0
 43
0.0
 10
848.8500707904822
 20
1216.766985188729
 10
843.8500705040642
 20
1216.766985188729
 10
842.0450704544601
 20
1216.766985188729
 10
840.3970704091662
 20
1216.766985188729
 10
839.2760703783642
 20
1216.766985188729
 10
838.9070703682227
 20
1216.766985188729
 10
838.8500703666577
 20
1216.766985188729
  0
LWPOLYLINE
  5
1099
330
1F
100
AcDbEntity
  8
Hewi
  6
CUSTOM
 62
    18
420
        0
370
     9
100
AcDbPolyline
 90
        3
 70
     0
 43
0.0
 10
1200.350080301265
 20
1133.766983781443
 10
1202.372080356828
 20
1133.559983777933
 10
1203.121080377412
 20
1133.375983774815
  0
LWPOLYLINE
  5
109A
330
1F
100
AcDbEntity
  8
Hewi
  6
CUSTOM
 62
    18
420
        0
370
     9
100
AcDbPolyline
 90
        3
 70
     0
 43
0.0
 10
1203.121080377412
 20
1133.375983774815
 10
1203.825080396764
 20
1133.14398377088
 10
1205.223964669574
 20
1132.436573752304
  0
LWPOLYLINE
  5
109B
330
1F
100
AcDbEntity
  8
Hewi
  6
CUSTOM
 62
    18
420
        0
370
     9
100
AcDbPolyline
 90
        5
 70
     0
 43
0.0
 10
843.9920705079639
 20
1160.582984236116
 10
843.8500705040642
 20
1161.76698425619
 10
843.8500705040642
 20
1186.766984680071
 10
843.5300704952679
 20
1188.525984709895
 10
842.6190704702312
 20
1190.046984735683
  0
LWPOLYLINE
  5
109C
330
1F
100
AcDbEntity
  8
Hewi
  6
CUSTOM
 62
    18
420
        0
370
     9
100
AcDbPolyline
 90
        3
 70
     0
 43
0.0
 10
873.8500713285102
 20
1156.766984171412
 10
848.8500706414706
 20
1156.766984171412
 10
847.3320705997538
 20
1157.002984175415
  0
LINE
  5
109D
330
1F
100
AcDbEntity
  8
Hewi
  6
CUSTOM
 62
    18
420
        0
370
     9
100
AcDbLine
 10
844.7150705278364
 20
1158.954984208512
 30
0.0
 11
843.9920705079639
 21
1160.582984236116
 31
0.0
  0
LINE
  5
109E
330
1F
100
AcDbEntity
  8
Hewi
  6
CUSTOM
 62
    18
420
        0
370
     9
100
AcDbLine
 10
1207.596080500396
 20
1130.657983728728
 30
0.0
 11
1207.498377047057
 21
1130.739682106374
 31
0.0
  0
LINE
  5
109F
330
1F
100
AcDbEntity
  8
Hewi
  6
CUSTOM
 62
    18
420
        0
370
     9
100
AcDbLine
 10
1200.350080301265
 20
1133.766983781443
 30
0.0
 11
1203.121080377412
 21
1133.375983774815
 31
0.0
  0
LINE
  5
10A0
330
1F
100
AcDbEntity
  8
Hewi
  6
CUSTOM
 62
    18
420
        0
370
     9
100
AcDbLine
 10
847.3320705997538
 20
1157.002984175415
 30
0.0
 11
845.9570705619663
 21
1157.688984187047
 31
0.0
  0
LWPOLYLINE
  5
10A1
330
1F
100
AcDbEntity
  8
Hewi
  6
CUSTOM
 62
    18
420
        0
370
     9
100
AcDbPolyline
 90
        3
 70
     0
 43
0.0
 10
846.5874926999822
 20
1157.374460851501
 10
847.0540705921157
 20
1157.100984177077
 10
847.3320705997538
 20
1157.002984175415
  0
LWPOLYLINE
  5
10A2
330
1F
100
AcDbEntity
  8
Hewi
  6
CUSTOM
 62
    18
420
        0
370
     9
100
AcDbPolyline
 90
        3
 70
     0
 43
0.0
 10
845.0811419431847
 20
1158.581838952817
 10
845.6550705536647
 20
1157.92098419098
 10
845.9570705619663
 20
1157.688984187047
  0
LWPOLYLINE
  5
10A3
330
1F
100
AcDbEntity
  8
Hewi
  6
CUSTOM
 62
    18
420
        0
370
     9
100
AcDbPolyline
 90
       13
 70
     0
 43
0.0
 10
838.8500703666577
 20
1191.766984764846
 10
838.8500703666577
 20
1191.920984767457
 10
838.8500703666577
 20
1192.718984780988
 10
838.8500703666577
 20
1194.153984805318
 10
838.8500703666577
 20
1196.919984852218
 10
838.8500703666577
 20
1200.40398491129
 10
838.8500703666577
 20
1204.266984976786
 10
838.8500703666577
 20
1208.129985042285
 10
838.8500703666577
 20
1211.613985101357
 10
838.8500703666577
 20
1214.379985148254
 10
838.8500703666577
 20
1215.404985165634
 10
838.8500703666577
 20
1216.421985182878
 10
838.8500703666577
 20
1216.766985188729
  0
LINE
  5
10A4
330
1F
100
AcDbEntity
  8
Hewi
  6
CUSTOM
 62
    18
420
        0
370
     9
100
AcDbLine
 10
878.2470714493502
 20
1159.38598421582
 30
0.0
 11
877.4730714280813
 21
1158.320984197762
 31
0.0
  0
LWPOLYLINE
  5
10A5
330
1F
100
AcDbEntity
  8
Hewi
  6
CUSTOM
 62
    18
420
        0
370
     9
100
AcDbPolyline
 90
        3
 70
     0
 43
0.0
 10
878.8500714659203
 20
1191.266984935182
 10
878.8500714659203
 20
1161.76698425619
 10
878.7160714622368
 20
1160.615984236674
  0
LINE
  5
10A6
330
1F
100
AcDbEntity
  8
Hewi
  6
CUSTOM
 62
    18
420
        0
370
     9
100
AcDbLine
 10
875.8210713826775
 20
1157.171984178279
 30
0.0
 11
873.8500713285102
 21
1156.766984171412
 31
0.0
  0
LWPOLYLINE
  5
10A7
330
1F
100
AcDbEntity
  8
Hewi
  6
CUSTOM
 62
    18
420
        0
370
     9
100
AcDbPolyline
 90
        5
 70
     0
 43
0.0
 10
841.7690704468768
 20
1190.823984748858
 10
840.7030704175777
 20
1191.408984758778
 10
839.7580703916064
 20
1191.682984763422
 10
839.0740703728114
 20
1191.763984764795
 10
838.8500703666577
 20
1191.766984764846
  0
LINE
  5
10A8
330
1F
100
AcDbEntity
  8
Hewi
  6
CUSTOM
 62
    18
420
        0
370
     9
100
AcDbLine
 10
878.7160714622368
 20
1160.615984236674
 30
0.0
 11
878.2470714493502
 21
1159.38598421582
 31
0.0
  0
LWPOLYLINE
  5
10A9
330
1F
100
AcDbEntity
  8
Hewi
  6
CUSTOM
 62
    18
420
        0
370
     9
100
AcDbPolyline
 90
        4
 70
     0
 43
0.0
 10
833.850070229244
 20
1203.925984971007
 10
833.850070229244
 20
1201.712984933483
 10
833.850070229244
 20
1200.469984912408
 10
833.850070229244
 20
1199.08698488896
  0
LWPOLYLINE
  5
10AA
330
1F
100
AcDbEntity
  8
Hewi
  6
CUSTOM
 62
    18
420
        0
370
     9
100
AcDbPolyline
 90
        3
 70
     0
 43
0.0
 10
875.8210713826775
 20
1157.171984178279
 10
875.2120713659387
 20
1156.955984174619
 10
873.8500713285102
 20
1156.766984171412
  0
LWPOLYLINE
  5
10AB
330
1F
100
AcDbEntity
  8
Hewi
  6
CUSTOM
 62
    18
420
        0
370
     9
100
AcDbPolyline
 90
        3
 70
     0
 43
0.0
 10
877.4730714280813
 20
1158.320984197762
 10
877.6960714342058
 20
1158.571984202017
 10
878.2470714493502
 20
1159.38598421582
  0
LINE
  5
10AC
330
1F
100
AcDbEntity
  8
Hewi
  6
CUSTOM
 62
    18
420
        0
370
     9
100
AcDbLine
 10
845.9570705619663
 20
1157.688984187047
 30
0.0
 11
844.7150705278364
 21
1158.954984208512
 31
0.0
  0
LWPOLYLINE
  5
10AD
330
1F
100
AcDbEntity
  8
Hewi
  6
CUSTOM
 62
    18
420
        0
370
     9
100
AcDbPolyline
 90
        3
 70
     0
 43
0.0
 10
875.8210713826775
 20
1157.171984178279
 10
876.4720714005671
 20
1157.508984183994
 10
877.4730714280813
 20
1158.320984197762
  0
LINE
  5
10AE
330
1F
100
AcDbEntity
  8
Hewi
  6
CUSTOM
 62
    18
420
        0
370
     9
100
AcDbLine
 10
877.4730714280813
 20
1158.320984197762
 30
0.0
 11
875.8210713826775
 21
1157.171984178279
 31
0.0
  0
LWPOLYLINE
  5
10AF
330
1F
100
AcDbEntity
  8
Hewi
  6
CUSTOM
 62
    18
420
        0
370
     9
100
AcDbPolyline
 90
        3
 70
     0
 43
0.0
 10
878.3846156156396
 20
1159.746707738222
 10
878.5160714567428
 20
1159.970984225738
 10
878.7160714622368
 20
1160.615984236674
  0
LINE
  5
10B0
330
1F
100
AcDbEntity
  8
Hewi
  6
CUSTOM
 62
    18
420
        0
370
     9
100
AcDbLine
 10
842.6190704702312
 20
1190.046984735683
 30
0.0
 11
841.7690704468768
 21
1190.823984748858
 31
0.0
  0
LINE
  5
10B1
330
1F
100
AcDbEntity
  8
Hewi
  6
CUSTOM
 62
    18
420
        0
370
     9
100
AcDbLine
 10
838.8500703666577
 20
1191.766984764846
 30
0.0
 11
841.7690704468768
 21
1190.823984748858
 31
0.0
  0
LWPOLYLINE
  5
10B2
330
1F
100
AcDbEntity
  8
Hewi
  6
CUSTOM
 62
    18
420
        0
370
     9
100
AcDbPolyline
 90
        3
 70
     0
 43
0.0
 10
848.35007062773
 20
1193.508130372367
 10
848.35007062773
 20
1192.350329112738
 10
848.35007062773
 20
1191.917255440394
  0
LWPOLYLINE
  5
10B3
330
1F
100
AcDbEntity
  8
Hewi
  6
CUSTOM
 62
    18
420
        0
370
     9
100
AcDbPolyline
 90
       20
 70
     0
 43
0.0
 10
1516.850088999199
 20
1216.766985188729
 10
1518.850089054162
 20
1214.726985154138
 10
1518.850089054162
 20
1214.676985153292
 10
1518.850089054162
 20
1214.133985144086
 10
1518.850089054162
 20
1213.122985126942
 10
1518.850089054162
 20
1211.691985102679
 10
1518.850089054162
 20
1210.10898507584
 10
1518.850089054162
 20
1208.146985042575
 10
1518.850089054162
 20
1206.254985010493
 10
1518.850089054162
 20
1204.265984976771
 10
1518.850089054162
 20
1203.351984961273
 10
1518.850089054162
 20
1201.10998492326
 10
1518.850089054162
 20
1199.01698488777
 10
1518.850089054162
 20
1197.172984856506
 10
1518.850089054162
 20
1195.665984830955
 10
1518.850089054162
 20
1194.565984812305
 10
1518.850089054162
 20
1193.92698480147
 10
1518.850089054162
 20
1193.776984798925
 10
1516.850088999199
 20
1191.766984764846
 10
1511.850088861793
 20
1191.766984764846
  0
LINE
  5
10B4
330
1F
100
AcDbEntity
  8
Hewi
  6
CUSTOM
 62
    18
420
        0
370
     9
100
AcDbLine
 10
839.3500703803947
 20
1198.433913291885
 30
0.0
 11
839.3500703803947
 21
1201.0121685136
 31
0.0
  0
LINE
  5
10B5
330
1F
100
AcDbEntity
  8
Hewi
  6
CUSTOM
 62
    18
420
        0
370
     9
100
AcDbLine
 10
1516.850088999199
 20
1216.766985188729
 30
0.0
 11
1516.850088999199
 21
1216.528985184694
 31
0.0
  0
LINE
  5
10B6
330
1F
100
AcDbEntity
  8
Hewi
  6
CUSTOM
 62
    18
420
        0
370
     9
100
AcDbLine
 10
1516.850088999199
 20
1215.825985172774
 30
0.0
 11
1516.850088999199
 21
1215.109985160634
 31
0.0
  0
LWPOLYLINE
  5
10B7
330
1F
100
AcDbEntity
  8
Hewi
  6
CUSTOM
 62
    18
420
        0
370
     9
100
AcDbPolyline
 90
        4
 70
     0
 43
0.0
 10
848.8500706414706
 20
1192.309952261053
 10
848.35007062773
 20
1191.902600969148
 10
839.3500703803947
 20
1191.830320823921
 10
838.8500703666577
 20
1192.315321785145
  0
LWPOLYLINE
  5
10B8
330
1F
100
AcDbEntity
  8
Hewi
  6
CUSTOM
 62
    18
420
        0
370
     9
100
AcDbPolyline
 90
        3
 70
     0
 43
0.0
 10
839.3500703803947
 20
1214.462115779646
 10
839.3500703803947
 20
1215.830143010844
 10
839.3500703803947
 20
1216.414194893747
  0
LWPOLYLINE
  5
10B9
330
1F
100
AcDbEntity
  8
Hewi
  6
CUSTOM
 62
    18
420
        0
370
     9
100
AcDbPolyline
 90
        4
 70
     0
 43
0.0
 10
848.8500706414706
 20
1216.254054566032
 10
848.35007062773
 20
1216.755369991531
 10
839.3500703803947
 20
1216.74124665029
 10
838.8500703666577
 20
1216.267355565255
  0
LINE
  5
10BA
330
1F
100
AcDbEntity
  8
Hewi
  6
CUSTOM
 62
    18
420
        0
370
     9
100
AcDbLine
 10
838.8500703666577
 20
1216.766985188729
 30
0.0
 11
833.850070229244
 21
1216.766985188729
 31
0.0
  0
LINE
  5
10BB
330
1F
100
AcDbEntity
  8
Hewi
  6
CUSTOM
 62
    18
420
        0
370
     9
100
AcDbLine
 10
839.3500703803947
 20
1192.43305695514
 30
0.0
 11
839.3500703803947
 21
1193.175633317731
 31
0.0
  0
LINE
  5
10BC
330
1F
100
AcDbEntity
  8
Hewi
  6
CUSTOM
 62
    18
420
        0
370
     9
100
AcDbLine
 10
833.850070229244
 20
1191.766984764846
 30
0.0
 11
838.8500703666577
 21
1191.766984764846
 31
0.0
  0
LWPOLYLINE
  5
10BD
330
1F
100
AcDbEntity
  8
Hewi
  6
CUSTOM
 62
    18
420
        0
370
     9
100
AcDbPolyline
 90
        3
 70
     0
 43
0.0
 10
833.850070229244
 20
1216.766985188729
 10
833.850070229244
 20
1216.497985184167
 10
833.850070229244
 20
1215.652985169839
  0
LINE
  5
10BE
330
1F
100
AcDbEntity
  8
Hewi
  6
CUSTOM
 62
    18
420
        0
370
     9
100
AcDbLine
 10
842.6190704702312
 20
1190.046984735683
 30
0.0
 11
843.6012697187761
 21
1188.134611424402
 31
0.0
  0
LINE
  5
10BF
330
1F
100
AcDbEntity
  8
Hewi
  6
CUSTOM
 62
    18
420
        0
370
     9
100
AcDbLine
 10
841.7795797894214
 20
1190.814377973478
 30
0.0
 11
841.7499832507418
 21
1190.830150978956
 31
0.0
  0
LINE
  5
10C0
330
1F
100
AcDbEntity
  8
Hewi
  6
CUSTOM
 62
    18
420
        0
370
     9
100
AcDbLine
 10
848.35007062773
 20
1209.164687813829
 30
0.0
 11
848.35007062773
 21
1206.511440670842
 31
0.0
  0
LWPOLYLINE
  5
10C1
330
1F
100
AcDbEntity
  8
Hewi
  6
CUSTOM
 62
    18
420
        0
370
     9
100
AcDbPolyline
 90
        3
 70
     0
 43
0.0
 10
1511.850088861793
 20
1195.22798482353
 10
1511.850088861793
 20
1193.933984801588
 10
1511.850088861793
 20
1193.31298479106
  0
LINE
  5
10C2
330
1F
100
AcDbEntity
  8
Hewi
  6
CUSTOM
 62
    18
420
        0
370
     9
100
AcDbLine
 10
842.7350980217342
 20
1189.821075383126
 30
0.0
 11
841.797462674349
 21
1190.798030912214
 31
0.0
  0
LWPOLYLINE
  5
10C3
330
1F
100
AcDbEntity
  8
Hewi
  6
CUSTOM
 62
    18
420
        0
370
     9
100
AcDbPolyline
 90
        3
 70
     0
 43
0.0
 10
833.850070229244
 20
1192.351984774767
 10
833.850070229244
 20
1191.958984768102
 10
833.850070229244
 20
1191.766984764846
  0
LINE
  5
10C4
330
1F
100
AcDbEntity
  8
Hewi
  6
CUSTOM
 62
    18
420
        0
370
     9
100
AcDbLine
 10
848.35007062773
 20
1215.727030624095
 30
0.0
 11
848.35007062773
 21
1214.843005411105
 31
0.0
  0
LWPOLYLINE
  5
10C5
330
1F
100
AcDbEntity
  8
Hewi
  6
CUSTOM
 62
    18
420
        0
370
     9
100
AcDbPolyline
 90
        3
 70
     0
 43
0.0
 10
1511.850088861793
 20
1212.315985113258
 10
1511.850088861793
 20
1210.63798508481
 10
1511.850088861793
 20
1209.588985067023
  0
LINE
  5
10C6
330
1F
100
AcDbEntity
  8
Hewi
  6
CUSTOM
 62
    18
420
        0
370
     9
100
AcDbLine
 10
1511.850088861793
 20
1216.766985188729
 30
0.0
 11
1516.850088999199
 21
1216.766985188729
 31
0.0
  0
LINE
  5
10C7
330
1F
100
AcDbEntity
  8
Hewi
  6
CUSTOM
 62
    18
420
        0
370
     9
100
AcDbLine
 10
833.850070229244
 20
1210.377985080402
 30
0.0
 11
833.850070229244
 21
1208.046985040877
 31
0.0
  0
LINE
  5
10C8
330
1F
100
AcDbEntity
  8
Hewi
  6
CUSTOM
 62
    18
420
        0
370
     9
100
AcDbLine
 10
1511.850088861793
 20
1201.548984930703
 30
0.0
 11
1511.850088861793
 21
1200.40398491129
 31
0.0
  0
LINE
  5
10C9
330
1F
100
AcDbEntity
  8
Hewi
  6
CUSTOM
 62
    18
420
        0
370
     9
100
AcDbLine
 10
1516.850088999199
 20
1198.661984881753
 30
0.0
 11
1516.850088999199
 21
1195.582984829547
 31
0.0
  0
LWPOLYLINE
  5
10CA
330
1F
100
AcDbEntity
  8
Hewi
  6
CUSTOM
 62
    18
420
        0
370
     9
100
AcDbPolyline
 90
        3
 70
     0
 43
0.0
 10
1037.829075834918
 20
1034.330737615399
 10
1037.352075821814
 20
1035.267228199245
 10
1036.978628749413
 20
1036.341926857669
  0
LWPOLYLINE
  5
10CB
330
1F
100
AcDbEntity
  8
Hewi
  6
CUSTOM
 62
    18
420
        0
370
     9
100
AcDbPolyline
 90
       13
 70
     0
 43
0.0
 10
1303.979083149155
 20
1027.446242427002
 10
1302.882083119009
 20
1026.102256680322
 10
1264.172082055196
 20
983.1203325100959
 10
1262.695082014605
 20
981.573834517134
 10
1259.973081939803
 20
979.2562049501102
 10
1255.658081821217
 20
976.8902474599872
 10
1253.63108176551
 20
975.863176468656
 10
1248.545081625736
 20
973.9365695867345
 10
1242.595081462226
 20
972.3697944839313
 10
1235.97008128016
 20
971.2133220152319
 10
1228.884081085423
 20
970.5041883476132
 10
1221.563080884229
 20
970.3525738878234
 10
1210.350080746979
 20
970.3433025934264
  0
LWPOLYLINE
  5
10CC
330
1F
100
AcDbEntity
  8
Hewi
  6
CUSTOM
 62
    18
420
        0
370
     9
100
AcDbPolyline
 90
        6
 70
     0
 43
0.0
 10
1303.979083149155
 20
1027.446242427002
 10
1305.069083179114
 20
1029.034538846217
 10
1307.540083247018
 20
1033.607715107819
 10
1309.11908329041
 20
1037.052445228221
 10
1310.388083325288
 20
1040.511769488272
 10
1364.14429008379
 20
1191.266980799974
  0
LWPOLYLINE
  5
10CD
330
1F
100
AcDbEntity
  8
Hewi
  6
CUSTOM
 62
    18
420
        0
370
     9
100
AcDbPolyline
 90
       14
 70
     0
 43
0.0
 10
1135.350076166414
 20
970.2812900085882
 10
1124.137078206808
 20
970.2720187159902
 10
1116.816078005613
 20
970.5041883476132
 10
1109.730077810876
 20
971.2133220152319
 10
1103.10507762881
 20
972.3697944839313
 10
1097.1550774653
 20
973.9365695867345
 10
1092.069077325526
 20
975.863176468656
 10
1090.04207726982
 20
976.8902474599872
 10
1085.727077151234
 20
979.2562049501102
 10
1083.626077093497
 20
981.1671235337254
 10
1081.52807703584
 20
983.1203325100959
 10
1042.818075972027
 20
1026.102256680322
 10
1040.285075902415
 20
1029.590709067741
 10
1037.829075834918
 20
1034.330737615399
  0
LWPOLYLINE
  5
10CE
330
1F
100
AcDbEntity
  8
Hewi
  6
CUSTOM
 62
    18
420
        0
370
     9
100
AcDbPolyline
 90
        7
 70
     0
 43
0.0
 10
1135.350078344057
 20
986.2459551274897
 10
1124.137078206808
 20
986.2459551274897
 10
1117.908078035623
 20
986.4650014880226
 10
1111.878077869907
 20
987.0684731498659
 10
1106.242077715022
 20
988.052473272368
 10
1101.178077575852
 20
989.3854121837012
 10
1097.349207615229
 20
990.8360778278602
  0
LWPOLYLINE
  5
10CF
330
1F
100
AcDbEntity
  8
Hewi
  6
CUSTOM
 62
    18
420
        0
370
     9
100
AcDbPolyline
 90
        5
 70
     0
 43
0.0
 10
981.5375805550685
 20
1191.266984992351
 10
1035.312075765749
 20
1040.511769488272
 10
1035.835075780124
 20
1039.324694625164
 10
1036.815075807055
 20
1036.728706849219
 10
1037.829075834918
 20
1034.330737615399
  0
LWPOLYLINE
  5
10D0
330
1F
100
AcDbEntity
  8
Hewi
  6
CUSTOM
 62
    18
420
        0
370
     9
100
AcDbPolyline
 90
        3
 70
     0
 43
0.0
 10
1300.783083061324
 20
1024.148684604277
 10
1302.545083109748
 20
1025.953058543728
 10
1303.979083149155
 20
1027.446242427002
  0
LWPOLYLINE
  5
10D1
330
1F
100
AcDbEntity
  8
Hewi
  6
CUSTOM
 62
    18
420
        0
370
     9
100
AcDbPolyline
 90
        4
 70
     0
 43
0.0
 10
1291.011082792774
 20
1036.360766033998
 10
1293.33508285664
 20
1040.87065090621
 10
1295.280082910092
 20
1045.651587811581
 10
1347.220177958152
 20
1191.266984581816
  0
LWPOLYLINE
  5
10D2
330
1F
100
AcDbEntity
  8
Hewi
  6
CUSTOM
 62
    18
420
        0
370
     9
100
AcDbPolyline
 90
        5
 70
     0
 43
0.0
 10
1052.365076234397
 20
1040.54756734733
 10
1051.515076211035
 20
1042.382158549018
 10
1051.152076201058
 20
1043.666565048463
 10
1050.352076179071
 20
1045.795017090211
 10
998.4778138955444
 20
1191.266981992803
  0
LWPOLYLINE
  5
10D3
330
1F
100
AcDbEntity
  8
Hewi
  6
CUSTOM
 62
    18
420
        0
370
     9
100
AcDbPolyline
 90
        3
 70
     0
 43
0.0
 10
1098.87807751265
 20
989.9977362304143
 10
1095.681077424786
 20
991.7507814671099
 10
1093.962562945784
 20
993.1272645941644
  0
LWPOLYLINE
  5
10D4
330
1F
100
AcDbEntity
  8
Hewi
  6
CUSTOM
 62
    18
420
        0
370
     9
100
AcDbPolyline
 90
        7
 70
     0
 43
0.0
 10
1248.350951604763
 20
990.8360778767182
 10
1244.522081515184
 20
989.3854121837012
 10
1239.458081376015
 20
988.052473272368
 10
1233.822081221129
 20
987.0684731498659
 10
1227.792081055413
 20
986.4650014880226
 10
1221.563080884229
 20
986.2459551274897
 10
1210.350082924622
 20
986.2459551274897
  0
LWPOLYLINE
  5
10D5
330
1F
100
AcDbEntity
  8
Hewi
  6
CUSTOM
 62
    18
420
        0
370
     9
100
AcDbPolyline
 90
        3
 70
     0
 43
0.0
 10
1251.966050207196
 20
993.3809346035722
 10
1250.019081666251
 20
991.7507814671099
 10
1246.822081578386
 20
989.9977362304143
  0
LWPOLYLINE
  5
10D6
330
1F
100
AcDbEntity
  8
Hewi
  6
CUSTOM
 62
    18
420
        0
370
     9
100
AcDbPolyline
 90
        4
 70
     0
 43
0.0
 10
1251.670081711621
 20
993.0522981618942
 10
1290.379082775406
 20
1036.033859232446
 10
1291.261082799647
 20
1037.113768125582
 10
1291.812581113685
 20
1037.916129657826
  0
LWPOLYLINE
  5
10D7
330
1F
100
AcDbEntity
  8
Hewi
  6
CUSTOM
 62
    18
420
        0
370
     9
100
AcDbPolyline
 90
        3
 70
     0
 43
0.0
 10
1094.030077379415
 20
993.0522981618942
 10
1055.321076315631
 20
1036.033859232446
 10
1053.805518977111
 20
1038.119825304895
  0
LINE
  5
10D8
330
1F
100
AcDbEntity
  8
Hewi
  6
CUSTOM
 62
    18
420
        0
370
     9
100
AcDbLine
 10
1054.148076283396
 20
1037.498269853367
 30
0.0
 11
1051.824549981094
 21
1041.714208147697
 31
0.0
  0
LWPOLYLINE
  5
10D9
330
1F
100
AcDbEntity
  8
Hewi
  6
CUSTOM
 62
    18
420
        0
370
     9
100
AcDbPolyline
 90
        3
 70
     0
 43
0.0
 10
844.8672354847694
 20
1217.449329369674
 10
845.0050705358007
 20
1217.387985199257
 10
845.8500705590267
 20
1217.266985197204
  0
LWPOLYLINE
  5
10DA
330
1F
100
AcDbEntity
  8
Hewi
  6
CUSTOM
 62
    18
420
        0
370
     9
100
AcDbPolyline
 90
       31
 70
     0
 43
0.0
 10
845.8500705590267
 20
1217.266985197204
 10
844.7720705294013
 20
1217.466985200597
 10
844.2770705158
 20
1217.711985204751
 10
843.9330705063438
 20
1217.958985208937
 10
843.5420704955976
 20
1218.349985215569
 10
843.2950704888098
 20
1218.6939852214
 10
842.964070479713
 20
1219.449985234219
 10
842.8500704765829
 20
1220.266985248072
 10
842.8500704765829
 20
1224.266985315891
 10
843.0500704820769
 20
1225.34498533417
 10
843.5420704955976
 20
1226.183985348396
 10
844.2770705158
 20
1226.821985359213
 10
845.033070536574
 20
1227.152985364824
 10
845.8500705590267
 20
1227.266985366757
 10
846.1960705685342
 20
1227.266985366757
 10
847.2200705966752
 20
1227.266985366757
 10
848.8840706424053
 20
1227.266985366757
 10
851.12207070391
 20
1227.266985366757
 10
853.8500707788807
 20
1227.266985366757
 10
856.9620708643997
 20
1227.266985366757
 10
860.3380709571792
 20
1227.266985366757
 10
863.8500710536973
 20
1227.266985366757
 10
1151.850078968404
 20
1227.266985366757
 10
1156.116079085641
 20
1227.266985366757
 10
1159.518079179131
 20
1227.266985366757
 10
1164.188079307474
 20
1227.266985366757
 10
1168.821079434798
 20
1227.266985366757
 10
1172.435079534116
 20
1227.266985366757
 10
1174.592079593389
 20
1227.266985366757
 10
1175.468079617465
 20
1227.266985366757
 10
1175.850079627962
 20
1227.266985366757
  0
LWPOLYLINE
  5
10DB
330
1F
100
AcDbEntity
  8
Hewi
  6
CUSTOM
 62
    18
420
        0
370
     9
100
AcDbPolyline
 90
       36
 70
     0
 43
0.0
 10
1499.85008853201
 20
1217.266985197204
 10
1500.928088561635
 20
1217.466985200597
 10
1501.423088575237
 20
1217.711985204751
 10
1501.767088584693
 20
1217.958985208937
 10
1502.158088595439
 20
1218.349985215569
 10
1502.405088602227
 20
1218.6939852214
 10
1502.736088611324
 20
1219.449985234219
 10
1502.850088614454
 20
1220.266985248072
 10
1502.850088614454
 20
1224.266985315891
 10
1502.736088611324
 20
1225.083985329745
 10
1502.405088602227
 20
1225.839985342563
 10
1501.767088584693
 20
1226.574985355022
 10
1500.928088561635
 20
1227.066985363366
 10
1499.85008853201
 20
1227.266985366757
 10
1499.528088523162
 20
1227.266985366757
 10
1498.578088497055
 20
1227.266985366757
 10
1497.607088470373
 20
1227.266985366757
 10
1495.944088424665
 20
1227.266985366757
 10
1493.905088368632
 20
1227.266985366757
 10
1492.360088326171
 20
1227.266985366757
 10
1490.09508826393
 20
1227.266985366757
 10
1488.708088225812
 20
1227.266985366757
 10
1485.345088133388
 20
1227.266985366757
 10
1481.850088037339
 20
1227.266985366757
 10
1193.850080122633
 20
1227.266985366757
 10
1191.575080060109
 20
1227.266985366757
 10
1187.932079959995
 20
1227.266985366757
 10
1184.56307986741
 20
1227.266985366757
 10
1182.522079811318
 20
1227.266985366757
 10
1181.445079781722
 20
1227.266985366757
 10
1179.054079716014
 20
1227.266985366757
 10
1177.294079667648
 20
1227.266985366757
 10
1176.494079645661
 20
1227.266985366757
 10
1176.177079636949
 20
1227.266985366757
 10
1175.94407963055
 20
1227.266985366757
 10
1175.850079627962
 20
1227.266985366757
  0
LWPOLYLINE
  5
10DC
330
1F
100
AcDbEntity
  8
Hewi
  6
CUSTOM
 62
    18
420
        0
370
     9
100
AcDbPolyline
 90
       20
 70
     0
 43
0.0
 10
845.8500705590267
 20
1217.266985197204
 10
846.1370705669141
 20
1217.266985197204
 10
846.7930705849394
 20
1217.266985197204
 10
848.4110706294085
 20
1217.266985197204
 10
851.12207070391
 20
1217.266985197204
 10
854.5960707993799
 20
1217.266985197204
 10
858.0990708956488
 20
1217.266985197204
 10
860.650070965752
 20
1217.266985197204
 10
863.8500710536973
 20
1217.266985197204
 10
1151.850078968404
 20
1217.266985197204
 10
1154.202079033042
 20
1217.266985197204
 10
1157.682079128673
 20
1217.266985197204
 10
1161.034079220793
 20
1217.266985197204
 10
1165.184079334845
 20
1217.266985197204
 10
1168.821079434798
 20
1217.266985197204
 10
1171.805079516802
 20
1217.266985197204
 10
1174.023079577753
 20
1217.266985197204
 10
1174.817079599575
 20
1217.266985197204
 10
1175.590079620819
 20
1217.266985197204
 10
1175.850079627962
 20
1217.266985197204
  0
LWPOLYLINE
  5
10DD
330
1F
100
AcDbEntity
  8
Hewi
  6
CUSTOM
 62
    18
420
        0
370
     9
100
AcDbPolyline
 90
       23
 70
     0
 43
0.0
 10
1175.850079627962
 20
1217.266985197204
 10
1176.17207963681
 20
1217.266985197204
 10
1177.12207966292
 20
1217.266985197204
 10
1178.093079689606
 20
1217.266985197204
 10
1179.756079735307
 20
1217.266985197204
 10
1181.79507979134
 20
1217.266985197204
 10
1183.3400798338
 20
1217.266985197204
 10
1185.605079896042
 20
1217.266985197204
 10
1186.992079934163
 20
1217.266985197204
 10
1190.355080026584
 20
1217.266985197204
 10
1193.850080122633
 20
1217.266985197204
 10
1481.850088037339
 20
1217.266985197204
 10
1484.125088099863
 20
1217.266985197204
 10
1487.768088199977
 20
1217.266985197204
 10
1491.137088292562
 20
1217.266985197204
 10
1493.178088348653
 20
1217.266985197204
 10
1494.254088378224
 20
1217.266985197204
 10
1496.646088443958
 20
1217.266985197204
 10
1498.406088492327
 20
1217.266985197204
 10
1499.206088514315
 20
1217.266985197204
 10
1499.523088523023
 20
1217.266985197204
 10
1499.756088529429
 20
1217.266985197204
 10
1499.85008853201
 20
1217.266985197204
  0
LWPOLYLINE
  5
10DE
330
1F
100
AcDbEntity
  8
Hewi
  6
CUSTOM
 62
    18
420
        0
370
     9
100
AcDbPolyline
 90
        3
 70
     0
 43
0.0
 10
1499.85008853201
 20
1217.266985197204
 10
1500.668088554488
 20
1217.380985199139
 10
1500.817417283633
 20
1217.446452495596
  0
LWPOLYLINE
  5
10DF
330
1F
100
AcDbEntity
  8
Hewi
  6
CUSTOM
 62
    18
420
        0
370
     9
100
AcDbPolyline
 90
       12
 70
     0
 43
0.0
 10
1175.850079627962
 20
1227.266985366757
 10
1174.772079598337
 20
1227.066985363366
 10
1173.933079575279
 20
1226.574985355022
 10
1173.295079557745
 20
1225.839985342563
 10
1172.963079548626
 20
1225.083985329745
 10
1172.850079545518
 20
1224.266985315891
 10
1172.850079545518
 20
1220.266985248072
 10
1173.050079551016
 20
1219.188985229793
 10
1173.542079564533
 20
1218.349985215569
 10
1174.277079584735
 20
1217.711985204751
 10
1175.033079605509
 20
1217.380985199139
 10
1175.850079627962
 20
1217.266985197204
  0
LWPOLYLINE
  5
10E0
330
1F
100
AcDbEntity
  8
Hewi
  6
CUSTOM
 62
    18
420
        0
370
     9
100
AcDbPolyline
 90
        3
 70
     0
 43
0.0
 10
843.0292794992601
 20
1219.301048626001
 10
843.0500704820769
 20
1219.188985229793
 10
843.1616596749082
 20
1218.998693904992
  0
LWPOLYLINE
  5
10E1
330
1F
100
AcDbEntity
  8
Hewi
  6
CUSTOM
 62
    18
420
        0
370
     9
100
AcDbPolyline
 90
       25
 70
     0
 43
0.0
 10
848.8500706414706
 20
1217.266985197204
 10
848.8500706414706
 20
1191.266984756368
 10
849.1180706488375
 20
1191.266984756368
 10
849.9100706706013
 20
1191.266984756368
 10
850.7190706928341
 20
1191.266984756368
 10
852.6390707455975
 20
1191.266984756368
 10
855.0920708130107
 20
1191.266984756368
 10
856.9790708648652
 20
1191.266984756368
 10
858.1350708966347
 20
1191.266984756368
 10
860.9370709736394
 20
1191.266984756368
 10
863.8500710536936
 20
1191.266984756368
 10
1154.850079050848
 20
1191.266984756368
 10
1157.883079134204
 20
1191.266984756368
 10
1162.150079251463
 20
1191.266984756368
 10
1166.152079361443
 20
1191.266984756368
 10
1168.62407942938
 20
1191.266984756368
 10
1169.954079465933
 20
1191.266984756368
 10
1171.389079505366
 20
1191.266984756368
 10
1174.225079583306
 20
1191.266984756368
 10
1176.420079643627
 20
1191.266984756368
 10
1177.509079673553
 20
1191.266984756368
 10
1177.991079686802
 20
1191.266984756368
 10
1178.414079698428
 20
1191.266984756368
 10
1178.725079706972
 20
1191.266984756368
 10
1178.85007971041
 20
1191.266984756368
  0
LWPOLYLINE
  5
10E2
330
1F
100
AcDbEntity
  8
Hewi
  6
CUSTOM
 62
    18
420
        0
370
     9
100
AcDbPolyline
 90
       23
 70
     0
 43
0.0
 10
1178.85007971041
 20
1191.266984756368
 10
1179.118079717773
 20
1191.266984756368
 10
1179.910079739536
 20
1191.266984756368
 10
1180.719079761769
 20
1191.266984756368
 10
1182.639079814533
 20
1191.266984756368
 10
1185.092079881946
 20
1191.266984756368
 10
1186.979079933808
 20
1191.266984756368
 10
1188.135079965577
 20
1191.266984756368
 10
1190.937080042582
 20
1191.266984756368
 10
1193.850080122633
 20
1191.266984756368
 10
1481.850088037339
 20
1191.266984756368
 10
1483.746088089447
 20
1191.266984756368
 10
1486.36008816128
 20
1191.266984756368
 10
1488.816088228777
 20
1191.266984756368
 10
1490.337088270578
 20
1191.266984756368
 10
1492.187088321421
 20
1191.266984756368
 10
1493.927088369237
 20
1191.266984756368
 10
1495.28408840653
 20
1191.266984756368
 10
1495.964088425215
 20
1191.266984756368
 10
1496.577088442063
 20
1191.266984756368
 10
1496.772088447422
 20
1191.266984756368
 10
1496.850088449562
 20
1191.266984756368
 10
1496.850088449562
 20
1217.266985197204
  0
LINE
  5
10E3
330
1F
100
AcDbEntity
  8
Hewi
  6
CUSTOM
 62
    18
420
        0
370
     9
100
AcDbLine
 10
1178.85007971041
 20
1191.266984756368
 30
0.0
 11
1178.85007971041
 21
1217.266985197204
 31
0.0
  0
LWPOLYLINE
  5
10E4
330
1F
100
AcDbEntity
  8
Hewi
  6
CUSTOM
 62
    18
420
        0
370
     9
100
AcDbPolyline
 90
        4
 70
     0
 43
0.0
 10
1496.850088449562
 20
1192.315321785145
 10
1497.350088463307
 20
1191.830320823921
 10
1506.350088710642
 20
1191.902600969148
 10
1506.850088724379
 20
1192.309952261053
  0
LWPOLYLINE
  5
10E5
330
1F
100
AcDbEntity
  8
Hewi
  6
CUSTOM
 62
    18
420
        0
370
     9
100
AcDbPolyline
 90
        3
 70
     0
 43
0.0
 10
1497.350088463307
 20
1214.462115779646
 10
1497.350088463307
 20
1215.830143010844
 10
1497.350088463307
 20
1216.414194893747
  0
LWPOLYLINE
  5
10E6
330
1F
100
AcDbEntity
  8
Hewi
  6
CUSTOM
 62
    18
420
        0
370
     9
100
AcDbPolyline
 90
        4
 70
     0
 43
0.0
 10
1496.850088449562
 20
1216.267355565255
 10
1497.350088463307
 20
1216.74124665029
 10
1506.350088710642
 20
1216.755369991531
 10
1506.850088724379
 20
1216.254054566032
  0
LINE
  5
10E7
330
1F
100
AcDbEntity
  8
Hewi
  6
CUSTOM
 62
    18
420
        0
370
     9
100
AcDbLine
 10
1506.350088710642
 20
1215.727030624095
 30
0.0
 11
1506.350088710642
 21
1214.843005411105
 31
0.0
  0
LINE
  5
10E8
330
1F
100
AcDbEntity
  8
Hewi
  6
CUSTOM
 62
    18
420
        0
370
     9
100
AcDbLine
 10
1506.350088710642
 20
1209.164687813829
 30
0.0
 11
1506.350088710642
 21
1206.511440670842
 31
0.0
  0
LWPOLYLINE
  5
10E9
330
1F
100
AcDbEntity
  8
Hewi
  6
CUSTOM
 62
    18
420
        0
370
     9
100
AcDbPolyline
 90
        3
 70
     0
 43
0.0
 10
1506.350088710642
 20
1193.508130372367
 10
1506.350088710642
 20
1192.350329112738
 10
1506.350088710642
 20
1191.917255440394
  0
LINE
  5
10EA
330
1F
100
AcDbEntity
  8
Hewi
  6
CUSTOM
 62
    18
420
        0
370
     9
100
AcDbLine
 10
1497.350088463307
 20
1198.433913291885
 30
0.0
 11
1497.350088463307
 21
1201.0121685136
 31
0.0
  0
LINE
  5
10EB
330
1F
100
AcDbEntity
  8
Hewi
  6
CUSTOM
 62
    18
420
        0
370
     9
100
AcDbLine
 10
1497.350088463307
 20
1192.43305695514
 30
0.0
 11
1497.350088463307
 21
1193.175633317731
 31
0.0
  0
LWPOLYLINE
  5
10EC
330
1F
100
AcDbEntity
  8
Hewi
  6
CUSTOM
 62
    18
420
        0
370
     9
100
AcDbPolyline
 90
        3
 70
     0
 43
0.0
 10
1502.670879591776
 20
1219.301048626001
 10
1502.65008860896
 20
1219.188985229793
 10
1502.538499416121
 20
1218.998693904992
  0
ENDSEC
  0
SECTION
  2
OBJECTS
  0
DICTIONARY
  5
C
330
0
100
AcDbDictionary
281
     1
  3
ACAD_CIP_PREVIOUS_PRODUCT_INFO
350
175
  3
ACAD_COLOR
350
16F
  3
ACAD_DETAILVIEWSTYLE
350
16A
  3
ACAD_GROUP
350
D
  3
ACAD_IMAGE_DICT
350
6E
  3
ACAD_LAYOUT
350
1A
  3
ACAD_MATERIAL
350
43
  3
ACAD_MLEADERSTYLE
350
6B
  3
ACAD_MLINESTYLE
350
17
  3
ACAD_PLOTSETTINGS
350
19
  3
ACAD_PLOTSTYLENAME
350
E
  3
ACAD_SCALELIST
350
47
  3
ACAD_SECTIONVIEWSTYLE
350
16B
  3
ACAD_TABLESTYLE
350
69
  3
ACAD_VISUALSTYLE
350
2A
  3
ACDB_RECOMPOSE_DATA
350
10F2
  3
AcDbVariableDictionary
350
166
  0
SUN
  5
6D
330
29
100
AcDbSun
 90
        1
290
     0
 63
     7
421
 16777215
 40
1.0
291
     1
 91
  2455826
 92
 54000000
292
     0
 70
     0
 71
   256
280
     1
1001
ACAD
1000
AcDbSavedByObjectVersion
1070
     0
  0
DICTIONARY
  5
374
330
2
100
AcDbDictionary
280
     1
281
     1
  3
ACAD_LAYERSTATES
360
375
  0
DICTIONARY
  5
372
330
371
100
AcDbDictionary
280
     1
281
     1
  0
DICTIONARY
  5
5EE
330
1F
100
AcDbDictionary
280
     1
281
     1
  3
ACAD_SORTENTS
360
5EF
  0
XRECORD
  5
175
102
{ACAD_REACTORS
330
C
102
}
330
C
100
AcDbXrecord
280
     1
300
ACDLT
300
2021
300
ACDLT_F_S
  0
DICTIONARY
  5
16F
102
{ACAD_REACTORS
330
C
102
}
330
C
100
AcDbDictionary
281
     1
  0
DICTIONARY
  5
16A
102
{ACAD_REACTORS
330
C
102
}
330
C
100
AcDbDictionary
281
     1
  3
Metric50
350
171
  0
DICTIONARY
  5
D
102
{ACAD_REACTORS
330
C
102
}
330
C
100
AcDbDictionary
281
     1
  0
DICTIONARY
  5
6E
102
{ACAD_REACTORS
330
C
102
}
330
C
100
AcDbDictionary
281
     1
  0
DICTIONARY
  5
1A
102
{ACAD_REACTORS
330
C
102
}
330
C
100
AcDbDictionary
281
     1
  3
Layout1
350
1E
  3
Layout2
350
26
  3
Model
350
22
  0
DICTIONARY
  5
43
102
{ACAD_REACTORS
330
C
102
}
330
C
100
AcDbDictionary
281
     1
  3
ByBlock
350
45
  3
ByLayer
350
44
  3
Global
350
46
  0
DICTIONARY
  5
6B
102
{ACAD_REACTORS
330
C
102
}
330
C
100
AcDbDictionary
281
     1
  3
Standard
350
6C
  0
DICTIONARY
  5
17
102
{ACAD_REACTORS
330
C
102
}
330
C
100
AcDbDictionary
281
     1
  3
Standard
350
18
  0
DICTIONARY
  5
19
102
{ACAD_REACTORS
330
C
102
}
330
C
100
AcDbDictionary
281
     1
  0
ACDBDICTIONARYWDFLT
  5
E
102
{ACAD_REACTORS
330
C
102
}
330
C
100
AcDbDictionary
281
     1
  3
Normal
350
F
100
AcDbDictionaryWithDefault
340
F
  0
DICTIONARY
  5
47
102
{ACAD_REACTORS
330
C
102
}
330
C
100
AcDbDictionary
281
     1
  3
A0
350
48
  3
A1
350
49
  3
A2
350
4A
  3
A3
350
4B
  3
A4
350
4C
  3
A5
350
4D
  3
A6
350
4E
  3
A7
350
4F
  3
A8
350
50
  3
A9
350
51
  3
B0
350
52
  3
B1
350
53
  3
B2
350
54
  3
B3
350
55
  3
B4
350
56
  3
B5
350
57
  3
B6
350
58
  3
B7
350
59
  3
B8
350
5A
  3
B9
350
5B
  3
C0
350
5C
  3
C1
350
5D
  3
C2
350
5E
  3
C3
350
5F
  3
C4
350
60
  3
C5
350
61
  3
C6
350
62
  3
C7
350
63
  3
C8
350
64
  3
C9
350
65
  3
D0
350
66
  3
D1
350
67
  3
D2
350
68
  0
DICTIONARY
  5
16B
102
{ACAD_REACTORS
330
C
102
}
330
C
100
AcDbDictionary
281
     1
  3
Metric50
350
170
  0
DICTIONARY
  5
69
102
{ACAD_REACTORS
330
C
102
}
330
C
100
AcDbDictionary
281
     1
  3
Standard
350
6A
  0
DICTIONARY
  5
2A
102
{ACAD_REACTORS
330
C
102
}
330
C
100
AcDbDictionary
281
     1
  3
2dWireframe
350
2F
  3
Basic
350
32
  3
Brighten
350
36
  3
ColorChange
350
3A
  3
Conceptual
350
34
  3
Dim
350
35
  3
EdgeColorOff
350
3D
  3
Facepattern
350
39
  3
Flat
350
2B
  3
FlatWithEdges
350
2C
  3
Gouraud
350
2D
  3
GouraudWithEdges
350
2E
  3
Hidden
350
31
  3
JitterOff
350
3B
  3
Linepattern
350
38
  3
OverhangOff
350
3C
  3
Realistic
350
33
  3
Shaded
350
42
  3
Shaded with edges
350
41
  3
Shades of Gray
350
3E
  3
Sketchy
350
3F
  3
Thicken
350
37
  3
Wireframe
350
30
  3
X-Ray
350
40
  0
XRECORD
  5
10F2
102
{ACAD_REACTORS
330
C
102
}
330
C
100
AcDbXrecord
280
     1
 90
        1
330
6A
  0
DICTIONARY
  5
166
102
{ACAD_REACTORS
330
C
102
}
330
C
100
AcDbDictionary
281
     1
  3
CANNOSCALE
350
167
  3
CENTEREXE
350
16C
  3
CENTERLTYPEFILE
350
16D
  3
CMLEADERSTYLE
350
169
  3
CTABLESTYLE
350
168
  3
CVIEWDETAILSTYLE
350
667
  3
CVIEWSECTIONSTYLE
350
668
  0
DICTIONARY
  5
375
102
{ACAD_REACTORS
330
374
102
}
330
374
100
AcDbDictionary
281
     1
  0
SORTENTSTABLE
  5
5EF
102
{ACAD_REACTORS
330
5EE
102
}
330
5EE
100
AcDbSortentsTable
330
1F
  0
ACDBDETAILVIEWSTYLE
  5
171
102
{ACAD_XDICTIONARY
360
10F5
102
}
102
{ACAD_REACTORS
330
16A
102
}
330
16A
100
AcDbModelDocViewStyle
 70
     0
  3
Metric50
290
     0
100
AcDbDetailViewStyle
 70
     0
 71
     0
 90
        3
 71
     1
340
11
 62
   256
 40
5.0
340
0
 62
   256
 40
5.0
300

 40
0.0
280
     1
 71
     2
340
16
 90
       25
 62
   256
 71
     3
340
11
 62
   256
 40
5.0
 90
        0
 40
15.0
 90
        1
300
%<\AcVar ViewDetailId>% (%<\AcVar ViewScale \f "%sn">%)
 71
     4
340
16
 90
       25
 62
   256
340
16
 90
       25
 62
   256
280
     0
  0
LAYOUT
  5
1E
102
{ACAD_REACTORS
330
1A
102
}
330
1A
100
AcDbPlotSettings
  1

  2
none_device
  4

  6

 40
0.0
 41
0.0
 42
0.0
 43
0.0
 44
0.0
 45
0.0
 46
0.0
 47
0.0
 48
0.0
 49
0.0
140
0.0
141
0.0
142
1.0
143
1.0
 70
   688
 72
     1
 73
     0
 74
     5
  7

 75
    16
147
1.0
 76
     0
 77
     2
 78
   300
148
0.0
149
0.0
100
AcDbLayout
  1
Layout1
 70
     1
 71
     1
 10
0.0
 20
0.0
 11
420.0
 21
297.0
 12
0.0
 22
0.0
 32
0.0
 14
1.000000000000000E+20
 24
1.000000000000000E+20
 34
1.000000000000000E+20
 15
-1.000000000000000E+20
 25
-1.000000000000000E+20
 35
-1.000000000000000E+20
146
0.0
 13
0.0
 23
0.0
 33
0.0
 16
1.0
 26
0.0
 36
0.0
 17
0.0
 27
1.0
 37
0.0
 76
     0
330
1B
  0
LAYOUT
  5
26
102
{ACAD_REACTORS
330
1A
102
}
330
1A
100
AcDbPlotSettings
  1

  2
none_device
  4

  6

 40
0.0
 41
0.0
 42
0.0
 43
0.0
 44
0.0
 45
0.0
 46
0.0
 47
0.0
 48
0.0
 49
0.0
140
0.0
141
0.0
142
1.0
143
1.0
 70
   688
 72
     1
 73
     0
 74
     5
  7

 75
    16
147
1.0
 76
     0
 77
     2
 78
   300
148
0.0
149
0.0
100
AcDbLayout
  1
Layout2
 70
     1
 71
     2
 10
0.0
 20
0.0
 11
0.0
 21
0.0
 12
0.0
 22
0.0
 32
0.0
 14
0.0
 24
0.0
 34
0.0
 15
0.0
 25
0.0
 35
0.0
146
0.0
 13
0.0
 23
0.0
 33
0.0
 16
1.0
 26
0.0
 36
0.0
 17
0.0
 27
1.0
 37
0.0
 76
     0
330
23
  0
LAYOUT
  5
22
102
{ACAD_REACTORS
330
1A
102
}
330
1A
100
AcDbPlotSettings
  1

  2
none_device
  4
Letter_(8.50_x_11.00_Inches)
  6

 40
6.349999999999999
 41
6.349999999999999
 42
6.350005079999999
 43
6.350005079999999
 44
215.9
 45
279.4
 46
0.0
 47
0.0
 48
0.0
 49
0.0
140
0.0
141
0.0
142
1.0
143
1.0
 70
  1712
 72
     1
 73
     0
 74
     0
  7

 75
     0
147
1.0
 76
     0
 77
     2
 78
   300
148
0.0
149
0.0
100
AcDbLayout
  1
Model
 70
     1
 71
     0
 10
0.0
 20
0.0
 11
420.0
 21
297.0
 12
0.0
 22
0.0
 32
0.0
 14
-207.8283572922613
 24
-149.9999957938967
 34
0.0
 15
-155.2924570130382
 25
-104.8671957971767
 35
0.0
146
0.0
 13
0.0
 23
0.0
 33
0.0
 16
1.0
 26
0.0
 36
0.0
 17
0.0
 27
1.0
 37
0.0
 76
     0
330
1F
331
29
  0
MATERIAL
  5
45
102
{ACAD_REACTORS
330
43
102
}
330
43
100
AcDbMaterial
  1
ByBlock
 73
     1
 78
     1
172
     1
176
     1
270
     1
274
     1
  0
MATERIAL
  5
44
102
{ACAD_REACTORS
330
43
102
}
330
43
100
AcDbMaterial
  1
ByLayer
 73
     1
 78
     1
172
     1
176
     1
270
     1
274
     1
  0
MATERIAL
  5
46
102
{ACAD_REACTORS
330
43
102
}
330
43
100
AcDbMaterial
  1
Global
 73
     1
 78
     1
172
     1
176
     1
270
     1
274
     1
  0
MLEADERSTYLE
  5
6C
102
{ACAD_REACTORS
330
6B
102
}
330
6B
100
AcDbMLeaderStyle
179
     2
170
     2
171
     1
172
     0
 90
        2
 40
0.0
 41
0.0
173
     1
 91
-1056964608
340
14
 92
       -2
290
     1
 42
2.0
291
     1
 43
8.0
  3
Standard
 44
4.0
300

342
11
174
     1
178
     6
175
     1
176
     0
 93
-1056964608
 45
4.0
292
     0
297
     0
 46
4.0
 94
-1056964608
 47
1.0
 49
1.0
140
1.0
293
     1
141
0.0
294
     1
177
     0
142
1.0
295
     0
296
     0
143
3.75
271
     0
272
     9
273
     9
298
     0
  0
MLINESTYLE
  5
18
102
{ACAD_REACTORS
330
17
102
}
330
17
100
AcDbMlineStyle
  2
STANDARD
 70
     0
  3

 62
   256
 51
90.0
 52
90.0
 71
     2
 49
0.5
 62
   256
  6
BYLAYER
 49
-0.5
 62
   256
  6
BYLAYER
  0
ACDBPLACEHOLDER
  5
F
102
{ACAD_REACTORS
330
E
102
}
330
E
  0
SCALE
  5
48
102
{ACAD_REACTORS
330
47
102
}
330
47
100
AcDbScale
 70
     0
300
1:1
140
1.0
141
1.0
290
     1
  0
SCALE
  5
49
102
{ACAD_REACTORS
330
47
102
}
330
47
100
AcDbScale
 70
     0
300
1:2
140
1.0
141
2.0
290
     0
  0
SCALE
  5
4A
102
{ACAD_REACTORS
330
47
102
}
330
47
100
AcDbScale
 70
     0
300
1:4
140
1.0
141
4.0
290
     0
  0
SCALE
  5
4B
102
{ACAD_REACTORS
330
47
102
}
330
47
100
AcDbScale
 70
     0
300
1:5
140
1.0
141
5.0
290
     0
  0
SCALE
  5
4C
102
{ACAD_REACTORS
330
47
102
}
330
47
100
AcDbScale
 70
     0
300
1:8
140
1.0
141
8.0
290
     0
  0
SCALE
  5
4D
102
{ACAD_REACTORS
330
47
102
}
330
47
100
AcDbScale
 70
     0
300
1:10
140
1.0
141
10.0
290
     0
  0
SCALE
  5
4E
102
{ACAD_REACTORS
330
47
102
}
330
47
100
AcDbScale
 70
     0
300
1:16
140
1.0
141
16.0
290
     0
  0
SCALE
  5
4F
102
{ACAD_REACTORS
330
47
102
}
330
47
100
AcDbScale
 70
     0
300
1:20
140
1.0
141
20.0
290
     0
  0
SCALE
  5
50
102
{ACAD_REACTORS
330
47
102
}
330
47
100
AcDbScale
 70
     0
300
1:30
140
1.0
141
30.0
290
     0
  0
SCALE
  5
51
102
{ACAD_REACTORS
330
47
102
}
330
47
100
AcDbScale
 70
     0
300
1:40
140
1.0
141
40.0
290
     0
  0
SCALE
  5
52
102
{ACAD_REACTORS
330
47
102
}
330
47
100
AcDbScale
 70
     0
300
1:50
140
1.0
141
50.0
290
     0
  0
SCALE
  5
53
102
{ACAD_REACTORS
330
47
102
}
330
47
100
AcDbScale
 70
     0
300
1:100
140
1.0
141
100.0
290
     0
  0
SCALE
  5
54
102
{ACAD_REACTORS
330
47
102
}
330
47
100
AcDbScale
 70
     0
300
2:1
140
2.0
141
1.0
290
     0
  0
SCALE
  5
55
102
{ACAD_REACTORS
330
47
102
}
330
47
100
AcDbScale
 70
     0
300
4:1
140
4.0
141
1.0
290
     0
  0
SCALE
  5
56
102
{ACAD_REACTORS
330
47
102
}
330
47
100
AcDbScale
 70
     0
300
8:1
140
8.0
141
1.0
290
     0
  0
SCALE
  5
57
102
{ACAD_REACTORS
330
47
102
}
330
47
100
AcDbScale
 70
     0
300
10:1
140
10.0
141
1.0
290
     0
  0
SCALE
  5
58
102
{ACAD_REACTORS
330
47
102
}
330
47
100
AcDbScale
 70
     0
300
100:1
140
100.0
141
1.0
290
     0
  0
SCALE
  5
59
102
{ACAD_REACTORS
330
47
102
}
330
47
100
AcDbScale
 70
     0
300
1/128" = 1'-0"
140
0.0078125
141
12.0
290
     0
  0
SCALE
  5
5A
102
{ACAD_REACTORS
330
47
102
}
330
47
100
AcDbScale
 70
     0
300
1/64" = 1'-0"
140
0.015625
141
12.0
290
     0
  0
SCALE
  5
5B
102
{ACAD_REACTORS
330
47
102
}
330
47
100
AcDbScale
 70
     0
300
1/32" = 1'-0"
140
0.03125
141
12.0
290
     0
  0
SCALE
  5
5C
102
{ACAD_REACTORS
330
47
102
}
330
47
100
AcDbScale
 70
     0
300
1/16" = 1'-0"
140
0.0625
141
12.0
290
     0
  0
SCALE
  5
5D
102
{ACAD_REACTORS
330
47
102
}
330
47
100
AcDbScale
 70
     0
300
3/32" = 1'-0"
140
0.09375
141
12.0
290
     0
  0
SCALE
  5
5E
102
{ACAD_REACTORS
330
47
102
}
330
47
100
AcDbScale
 70
     0
300
1/8" = 1'-0"
140
0.125
141
12.0
290
     0
  0
SCALE
  5
5F
102
{ACAD_REACTORS
330
47
102
}
330
47
100
AcDbScale
 70
     0
300
3/16" = 1'-0"
140
0.1875
141
12.0
290
     0
  0
SCALE
  5
60
102
{ACAD_REACTORS
330
47
102
}
330
47
100
AcDbScale
 70
     0
300
1/4" = 1'-0"
140
0.25
141
12.0
290
     0
  0
SCALE
  5
61
102
{ACAD_REACTORS
330
47
102
}
330
47
100
AcDbScale
 70
     0
300
3/8" = 1'-0"
140
0.375
141
12.0
290
     0
  0
SCALE
  5
62
102
{ACAD_REACTORS
330
47
102
}
330
47
100
AcDbScale
 70
     0
300
1/2" = 1'-0"
140
0.5
141
12.0
290
     0
  0
SCALE
  5
63
102
{ACAD_REACTORS
330
47
102
}
330
47
100
AcDbScale
 70
     0
300
3/4" = 1'-0"
140
0.75
141
12.0
290
     0
  0
SCALE
  5
64
102
{ACAD_REACTORS
330
47
102
}
330
47
100
AcDbScale
 70
     0
300
1" = 1'-0"
140
1.0
141
12.0
290
     0
  0
SCALE
  5
65
102
{ACAD_REACTORS
330
47
102
}
330
47
100
AcDbScale
 70
     0
300
1-1/2" = 1'-0"
140
1.5
141
12.0
290
     0
  0
SCALE
  5
66
102
{ACAD_REACTORS
330
47
102
}
330
47
100
AcDbScale
 70
     0
300
3" = 1'-0"
140
3.0
141
12.0
290
     0
  0
SCALE
  5
67
102
{ACAD_REACTORS
330
47
102
}
330
47
100
AcDbScale
 70
     0
300
6" = 1'-0"
140
6.0
141
12.0
290
     0
  0
SCALE
  5
68
102
{ACAD_REACTORS
330
47
102
}
330
47
100
AcDbScale
 70
     0
300
1'-0" = 1'-0"
140
12.0
141
12.0
290
     0
  0
ACDBSECTIONVIEWSTYLE
  5
170
102
{ACAD_XDICTIONARY
360
10F3
102
}
102
{ACAD_REACTORS
330
16B
102
}
330
16B
100
AcDbModelDocViewStyle
 70
     0
  3
Metric50
290
     0
100
AcDbSectionViewStyle
 70
     0
 71
     0
 90
      102
 71
     1
340
11
 62
   256
 40
5.0
340
0
340
0
 62
   256
 40
5.0
300
I, O, Q, S, X, Z
 40
10.0
 90
        0
 40
2.5
 90
        0
 71
     2
340
16
 90
       25
 62
   256
340
16
 90
       50
 62
   256
 40
5.0
 40
2.5
 40
5.0
 71
     3
340
11
 62
   256
 40
5.0
 90
        0
 40
15.0
 90
        1
300
%<\AcVar ViewSectionStartId>%-%<\AcVar ViewSectionEndId>% (%<\AcVar ViewScale \f "%sn">%)
 71
     4
 62
   256
 62
   257
300
ANSI31
 40
1.0
 90
        0
290
     0
290
     0
 90
        6
 40
0.0
 40
1.570796326794896
 40
0.2617993877991494
 40
1.308996938995747
 40
-0.2617993877991494
 40
1.832595714594046
  0
TABLESTYLE
  5
6A
102
{ACAD_XDICTIONARY
360
10F0
102
}
102
{ACAD_REACTORS
330
69
102
}
330
69
100
AcDbTableStyle
280
     0
  3
Standard
 70
     0
 71
     0
 40
1.5
 41
1.5
280
     0
281
     0
  7
Standard
140
4.5
170
     2
 62
     0
 63
     7
283
     0
 90
        4
 91
        0
  1

274
    -2
284
     1
 64
     0
275
    -2
285
     1
 65
     0
276
    -2
286
     1
 66
     0
277
    -2
287
     1
 67
     0
278
    -2
288
     1
 68
     0
279
    -2
289
     1
 69
     0
  7
Standard
140
6.0
170
     5
 62
     0
 63
     7
283
     0
 90
        4
 91
        0
  1

274
    -2
284
     1
 64
     0
275
    -2
285
     1
 65
     0
276
    -2
286
     1
 66
     0
277
    -2
287
     1
 67
     0
278
    -2
288
     1
 68
     0
279
    -2
289
     1
 69
     0
  7
Standard
140
4.5
170
     5
 62
     0
 63
     7
283
     0
 90
        4
 91
        0
  1

274
    -2
284
     1
 64
     0
275
    -2
285
     1
 65
     0
276
    -2
286
     1
 66
     0
277
    -2
287
     1
 67
     0
278
    -2
288
     1
 68
     0
279
    -2
289
     1
 69
     0
  0
VISUALSTYLE
  5
2F
102
{ACAD_REACTORS
330
2A
102
}
330
2A
100
AcDbVisualStyle
  2
2dWireframe
 70
     4
177
     3
291
     0
 70
    58
 90
        0
176
     1
 90
        2
176
     1
 90
        0
176
     1
 90
        0
176
     1
 40
0.6
176
     1
 40
30.0
176
     1
 62
     7
420
 16777215
176
     1
 90
        1
176
     1
 90
        4
176
     1
 62
     7
176
     1
 62
   257
176
     1
 90
        1
176
     1
 90
        1
176
     1
 40
1.0
176
     1
 90
        0
176
     1
 62
   257
176
     1
 40
1.0
176
     1
 90
        1
176
     1
 90
        6
176
     1
 90
        2
176
     1
 62
     7
176
     1
 90
        5
176
     1
 90
        0
176
     1
 90
        0
176
     1
290
     0
176
     1
 90
        1
176
     1
 40
0.0
176
     1
 90
        0
176
     1
290
     1
176
     1
290
     1
176
     1
290
     0
176
     1
290
     0
176
     1
290
     0
176
     1
290
     0
176
     1
290
     0
176
     1
290
     0
176
     1
290
     0
176
     1
 90
       50
176
     1
 40
0.0
176
     1
 40
1.0
176
     1
 90
        0
176
     1
 62
    18
420
        0
176
     1
 90
       50
176
     1
 90
        3
176
     1
 62
     5
420
      255
176
     1
290
     0
176
     1
 90
       50
176
     1
 90
       50
176
     1
 90
       50
176
     1
290
     0
176
     1
 90
       50
176
     1
 62
   256
176
     0
 40
1.0
176
     0
 90
        2
176
     1
  1
strokes_ogs.tif
176
     1
290
     0
176
     1
 40
1.0
176
     1
 40
1.0
176
     1
1001
ACAD
1000
AcDbSavedByObjectVersion
1070
     0
  0
VISUALSTYLE
  5
32
102
{ACAD_REACTORS
330
2A
102
}
330
2A
100
AcDbVisualStyle
  2
Basic
 70
     7
177
     3
291
     1
 70
    58
 90
        1
176
     1
 90
        0
176
     1
 90
        1
176
     1
 90
        0
176
     1
 40
0.6
176
     1
 40
30.0
176
     1
 62
     7
420
 16777215
176
     1
 90
        0
176
     1
 90
        4
176
     1
 62
     7
176
     1
 62
   257
176
     1
 90
        1
176
     1
 90
        1
176
     1
 40
1.0
176
     1
 90
        8
176
     1
 62
     7
176
     1
 40
1.0
176
     1
 90
        1
176
     1
 90
        6
176
     1
 90
        2
176
     1
 62
     7
176
     1
 90
        5
176
     1
 90
        0
176
     1
 90
        0
176
     1
290
     0
176
     1
 90
        1
176
     1
 40
0.0
176
     1
 90
        0
176
     1
290
     0
176
     1
290
     1
176
     1
290
     1
176
     1
290
     0
176
     1
290
     0
176
     1
290
     0
176
     1
290
     0
176
     1
290
     0
176
     1
290
     0
176
     1
 90
       50
176
     1
 40
0.0
176
     1
 40
1.0
176
     1
 90
        0
176
     1
 62
    18
420
        0
176
     1
 90
       50
176
     1
 90
        3
176
     1
 62
     5
420
      255
176
     1
290
     0
176
     1
 90
       50
176
     1
 90
       50
176
     1
 90
       50
176
     1
290
     0
176
     1
 90
       50
176
     1
 62
   256
176
     0
 40
1.0
176
     0
 90
        2
176
     1
  1
strokes_ogs.tif
176
     1
290
     0
176
     1
 40
1.0
176
     1
 40
1.0
176
     1
1001
ACAD
1000
AcDbSavedByObjectVersion
1070
     0
  0
VISUALSTYLE
  5
36
102
{ACAD_REACTORS
330
2A
102
}
330
2A
100
AcDbVisualStyle
  2
Brighten
 70
    12
177
     3
291
     1
 70
    58
 90
        2
176
     1
 90
        2
176
     1
 90
        0
176
     1
 90
        0
176
     1
 40
0.6
176
     1
 40
30.0
176
     1
 62
     7
420
 16777215
176
     1
 90
        1
176
     1
 90
        4
176
     1
 62
     7
176
     1
 62
   257
176
     1
 90
        1
176
     1
 90
        1
176
     1
 40
1.0
176
     1
 90
        8
176
     1
 62
     7
176
     1
 40
1.0
176
     1
 90
        1
176
     1
 90
        6
176
     1
 90
        2
176
     1
 62
     7
176
     1
 90
        5
176
     1
 90
        0
176
     1
 90
        0
176
     1
290
     0
176
     1
 90
        1
176
     1
 40
50.0
176
     1
 90
        0
176
     1
290
     0
176
     1
290
     1
176
     1
290
     1
176
     1
290
     0
176
     1
290
     0
176
     1
290
     0
176
     1
290
     0
176
     1
290
     0
176
     1
290
     0
176
     1
 90
       50
176
     1
 40
0.0
176
     1
 40
1.0
176
     1
 90
        0
176
     1
 62
    18
420
        0
176
     1
 90
       50
176
     1
 90
        3
176
     1
 62
     5
420
      255
176
     1
290
     0
176
     1
 90
       50
176
     1
 90
       50
176
     1
 90
       50
176
     1
290
     0
176
     1
 90
       50
176
     1
 62
   256
176
     0
 40
1.0
176
     0
 90
        2
176
     1
  1
strokes_ogs.tif
176
     1
290
     0
176
     1
 40
1.0
176
     1
 40
1.0
176
     1
1001
ACAD
1000
AcDbSavedByObjectVersion
1070
     0
  0
VISUALSTYLE
  5
3A
102
{ACAD_REACTORS
330
2A
102
}
330
2A
100
AcDbVisualStyle
  2
ColorChange
 70
    16
177
     3
291
     1
 70
    58
 90
        2
176
     1
 90
        2
176
     1
 90
        3
176
     1
 90
        0
176
     1
 40
0.6
176
     1
 40
30.0
176
     1
 62
     8
420
  8421504
176
     1
 90
        1
176
     1
 90
        4
176
     1
 62
     7
176
     1
 62
   257
176
     1
 90
        1
176
     1
 90
        1
176
     1
 40
1.0
176
     1
 90
        8
176
     1
 62
     8
420
  8421504
176
     1
 40
1.0
176
     1
 90
        1
176
     1
 90
        6
176
     1
 90
        2
176
     1
 62
     7
176
     1
 90
        5
176
     1
 90
        0
176
     1
 90
        0
176
     1
290
     0
176
     1
 90
        1
176
     1
 40
0.0
176
     1
 90
        0
176
     1
290
     0
176
     1
290
     1
176
     1
290
     1
176
     1
290
     0
176
     1
290
     0
176
     1
290
     0
176
     1
290
     0
176
     1
290
     0
176
     1
290
     0
176
     1
 90
       50
176
     1
 40
0.0
176
     1
 40
1.0
176
     1
 90
        0
176
     1
 62
    18
420
        0
176
     1
 90
       50
176
     1
 90
        3
176
     1
 62
     5
420
      255
176
     1
290
     0
176
     1
 90
       50
176
     1
 90
       50
176
     1
 90
       50
176
     1
290
     0
176
     1
 90
       50
176
     1
 62
   256
176
     0
 40
1.0
176
     0
 90
        2
176
     1
  1
strokes_ogs.tif
176
     1
290
     0
176
     1
 40
1.0
176
     1
 40
1.0
176
     1
1001
ACAD
1000
AcDbSavedByObjectVersion
1070
     0
  0
VISUALSTYLE
  5
34
102
{ACAD_REACTORS
330
2A
102
}
330
2A
100
AcDbVisualStyle
  2
Conceptual
 70
     9
177
     3
291
     0
 70
    58
 90
        3
176
     1
 90
        2
176
     1
 90
        0
176
     1
 90
        0
176
     1
 40
0.6
176
     1
 40
30.0
176
     1
 62
     7
420
 16777215
176
     1
 90
        2
176
     1
 90
        2
176
     1
 62
     7
176
     1
 62
   257
176
     1
 90
        1
176
     1
 90
        1
176
     1
 40
179.0
176
     1
 90
        8
176
     1
 62
     7
176
     1
 40
1.0
176
     1
 90
        1
176
     1
 90
        6
176
     1
 90
        2
176
     1
 62
     7
176
     1
 90
        3
176
     1
 90
        0
176
     1
 90
        0
176
     1
290
     0
176
     1
 90
        1
176
     1
 40
0.0
176
     1
 90
        0
176
     1
290
     0
176
     1
290
     1
176
     1
290
     1
176
     1
290
     0
176
     1
290
     0
176
     1
290
     0
176
     1
290
     0
176
     1
290
     0
176
     1
290
     0
176
     1
 90
       50
176
     1
 40
0.0
176
     1
 40
1.0
176
     1
 90
        0
176
     1
 62
    18
420
        0
176
     1
 90
       50
176
     1
 90
        3
176
     1
 62
     5
420
      255
176
     1
290
     0
176
     1
 90
       50
176
     1
 90
       50
176
     1
 90
       50
176
     1
290
     0
176
     1
 90
       50
176
     1
 62
   256
176
     0
 40
1.0
176
     0
 90
        2
176
     1
  1
strokes_ogs.tif
176
     1
290
     0
176
     1
 40
1.0
176
     1
 40
1.0
176
     1
1001
ACAD
1000
AcDbSavedByObjectVersion
1070
     0
  0
VISUALSTYLE
  5
35
102
{ACAD_REACTORS
330
2A
102
}
330
2A
100
AcDbVisualStyle
  2
Dim
 70
    11
177
     3
291
     1
 70
    58
 90
        2
176
     1
 90
        2
176
     1
 90
        0
176
     1
 90
        0
176
     1
 40
0.6
176
     1
 40
30.0
176
     1
 62
     7
420
 16777215
176
     1
 90
        1
176
     1
 90
        4
176
     1
 62
     7
176
     1
 62
   257
176
     1
 90
        1
176
     1
 90
        1
176
     1
 40
1.0
176
     1
 90
        8
176
     1
 62
     7
176
     1
 40
1.0
176
     1
 90
        1
176
     1
 90
        6
176
     1
 90
        2
176
     1
 62
     7
176
     1
 90
        5
176
     1
 90
        0
176
     1
 90
        0
176
     1
290
     0
176
     1
 90
        1
176
     1
 40
-50.0
176
     1
 90
        0
176
     1
290
     0
176
     1
290
     1
176
     1
290
     1
176
     1
290
     0
176
     1
290
     0
176
     1
290
     0
176
     1
290
     0
176
     1
290
     0
176
     1
290
     0
176
     1
 90
       50
176
     1
 40
0.0
176
     1
 40
1.0
176
     1
 90
        0
176
     1
 62
    18
420
        0
176
     1
 90
       50
176
     1
 90
        3
176
     1
 62
     5
420
      255
176
     1
290
     0
176
     1
 90
       50
176
     1
 90
       50
176
     1
 90
       50
176
     1
290
     0
176
     1
 90
       50
176
     1
 62
   256
176
     0
 40
1.0
176
     0
 90
        2
176
     1
  1
strokes_ogs.tif
176
     1
290
     0
176
     1
 40
1.0
176
     1
 40
1.0
176
     1
1001
ACAD
1000
AcDbSavedByObjectVersion
1070
     0
  0
VISUALSTYLE
  5
3D
102
{ACAD_REACTORS
330
2A
102
}
330
2A
100
AcDbVisualStyle
  2
EdgeColorOff
 70
    22
177
     3
291
     1
 70
    58
 90
        2
176
     0
 90
        2
176
     0
 90
        0
176
     0
 90
        0
176
     0
 40
0.6
176
     0
 40
30.0
176
     0
 62
     7
420
 16777215
176
     0
 90
        1
176
     0
 90
        4
176
     0
 62
     7
176
     0
 62
   257
176
     0
 90
        1
176
     0
 90
        1
176
     0
 40
1.0
176
     0
 90
        8
176
     2
 62
     7
176
     0
 40
1.0
176
     0
 90
        1
176
     0
 90
        6
176
     0
 90
        2
176
     0
 62
     7
176
     0
 90
        5
176
     0
 90
        0
176
     0
 90
        0
176
     0
290
     0
176
     0
 90
        1
176
     0
 40
0.0
176
     0
 90
        0
176
     0
290
     0
176
     0
290
     1
176
     0
290
     1
176
     0
290
     0
176
     0
290
     0
176
     0
290
     0
176
     0
290
     0
176
     0
290
     0
176
     0
290
     0
176
     0
 90
       50
176
     0
 40
0.0
176
     0
 40
1.0
176
     0
 90
        0
176
     0
 62
    18
420
        0
176
     0
 90
       50
176
     0
 90
        3
176
     0
 62
     5
420
      255
176
     0
290
     0
176
     0
 90
       50
176
     0
 90
       50
176
     0
 90
       50
176
     0
290
     0
176
     0
 90
       50
176
     0
 62
   256
176
     0
 40
1.0
176
     0
 90
        2
176
     0
  1
strokes_ogs.tif
176
     0
290
     0
176
     0
 40
1.0
176
     0
 40
1.0
176
     0
1001
ACAD
1000
AcDbSavedByObjectVersion
1070
     0
  0
VISUALSTYLE
  5
39
102
{ACAD_REACTORS
330
2A
102
}
330
2A
100
AcDbVisualStyle
  2
Facepattern
 70
    15
177
     3
291
     1
 70
    58
 90
        2
176
     1
 90
        2
176
     1
 90
        0
176
     1
 90
        0
176
     1
 40
0.6
176
     1
 40
30.0
176
     1
 62
     7
420
 16777215
176
     1
 90
        1
176
     1
 90
        4
176
     1
 62
     7
176
     1
 62
   257
176
     1
 90
        1
176
     1
 90
        1
176
     1
 40
1.0
176
     1
 90
        8
176
     1
 62
     7
176
     1
 40
1.0
176
     1
 90
        1
176
     1
 90
        6
176
     1
 90
        2
176
     1
 62
     7
176
     1
 90
        5
176
     1
 90
        0
176
     1
 90
        0
176
     1
290
     0
176
     1
 90
        1
176
     1
 40
0.0
176
     1
 90
        0
176
     1
290
     0
176
     1
290
     1
176
     1
290
     1
176
     1
290
     0
176
     1
290
     0
176
     1
290
     0
176
     1
290
     0
176
     1
290
     0
176
     1
290
     0
176
     1
 90
       50
176
     1
 40
0.0
176
     1
 40
1.0
176
     1
 90
        0
176
     1
 62
    18
420
        0
176
     1
 90
       50
176
     1
 90
        3
176
     1
 62
     5
420
      255
176
     1
290
     0
176
     1
 90
       50
176
     1
 90
       50
176
     1
 90
       50
176
     1
290
     0
176
     1
 90
       50
176
     1
 62
   256
176
     0
 40
1.0
176
     0
 90
        2
176
     1
  1
strokes_ogs.tif
176
     1
290
     0
176
     1
 40
1.0
176
     1
 40
1.0
176
     1
1001
ACAD
1000
AcDbSavedByObjectVersion
1070
     0
  0
VISUALSTYLE
  5
2B
102
{ACAD_REACTORS
330
2A
102
}
330
2A
100
AcDbVisualStyle
  2
Flat
 70
     0
177
     3
291
     1
 70
    58
 90
        2
176
     1
 90
        1
176
     1
 90
        1
176
     1
 90
        2
176
     1
 40
0.6
176
     1
 40
30.0
176
     1
 62
     7
420
 16777215
176
     1
 90
        0
176
     1
 90
        0
176
     1
 62
     7
176
     1
 62
   257
176
     1
 90
        1
176
     1
 90
        1
176
     1
 40
1.0
176
     1
 90
        8
176
     1
 62
     7
176
     1
 40
1.0
176
     1
 90
        1
176
     1
 90
        6
176
     1
 90
        2
176
     1
 62
     7
176
     1
 90
        5
176
     1
 90
        0
176
     1
 90
        0
176
     1
290
     0
176
     1
 90
       13
176
     1
 40
0.0
176
     1
 90
        0
176
     1
290
     0
176
     1
290
     1
176
     1
290
     1
176
     1
290
     0
176
     1
290
     0
176
     1
290
     0
176
     1
290
     0
176
     1
290
     0
176
     1
290
     0
176
     1
 90
       50
176
     1
 40
0.0
176
     1
 40
1.0
176
     1
 90
        0
176
     1
 62
    18
420
        0
176
     1
 90
       50
176
     1
 90
        3
176
     1
 62
     5
420
      255
176
     1
290
     0
176
     1
 90
       50
176
     1
 90
       50
176
     1
 90
       50
176
     1
290
     0
176
     1
 90
       50
176
     1
 62
   256
176
     0
 40
1.0
176
     0
 90
        2
176
     1
  1
strokes_ogs.tif
176
     1
290
     0
176
     1
 40
1.0
176
     1
 40
1.0
176
     1
1001
ACAD
1000
AcDbSavedByObjectVersion
1070
     0
  0
VISUALSTYLE
  5
2C
102
{ACAD_REACTORS
330
2A
102
}
330
2A
100
AcDbVisualStyle
  2
FlatWithEdges
 70
     1
177
     3
291
     1
 70
    58
 90
        2
176
     1
 90
        1
176
     1
 90
        1
176
     1
 90
        2
176
     1
 40
0.6
176
     1
 40
30.0
176
     1
 62
     7
420
 16777215
176
     1
 90
        1
176
     1
 90
        0
176
     1
 62
     7
176
     1
 62
   257
176
     1
 90
        1
176
     1
 90
        1
176
     1
 40
1.0
176
     1
 90
        0
176
     1
 62
   257
176
     1
 40
1.0
176
     1
 90
        1
176
     1
 90
        6
176
     1
 90
        2
176
     1
 62
     7
176
     1
 90
        5
176
     1
 90
        0
176
     1
 90
        0
176
     1
290
     0
176
     1
 90
       13
176
     1
 40
0.0
176
     1
 90
        0
176
     1
290
     0
176
     1
290
     1
176
     1
290
     1
176
     1
290
     0
176
     1
290
     0
176
     1
290
     0
176
     1
290
     0
176
     1
290
     0
176
     1
290
     0
176
     1
 90
       50
176
     1
 40
0.0
176
     1
 40
1.0
176
     1
 90
        0
176
     1
 62
    18
420
        0
176
     1
 90
       50
176
     1
 90
        3
176
     1
 62
     5
420
      255
176
     1
290
     0
176
     1
 90
       50
176
     1
 90
       50
176
     1
 90
       50
176
     1
290
     0
176
     1
 90
       50
176
     1
 62
   256
176
     0
 40
1.0
176
     0
 90
        2
176
     1
  1
strokes_ogs.tif
176
     1
290
     0
176
     1
 40
1.0
176
     1
 40
1.0
176
     1
1001
ACAD
1000
AcDbSavedByObjectVersion
1070
     0
  0
VISUALSTYLE
  5
2D
102
{ACAD_REACTORS
330
2A
102
}
330
2A
100
AcDbVisualStyle
  2
Gouraud
 70
     2
177
     3
291
     1
 70
    58
 90
        2
176
     1
 90
        2
176
     1
 90
        1
176
     1
 90
        2
176
     1
 40
0.6
176
     1
 40
30.0
176
     1
 62
     7
420
 16777215
176
     1
 90
        0
176
     1
 90
        0
176
     1
 62
     7
176
     1
 62
   257
176
     1
 90
        1
176
     1
 90
        1
176
     1
 40
1.0
176
     1
 90
        0
176
     1
 62
     7
176
     1
 40
1.0
176
     1
 90
        1
176
     1
 90
        6
176
     1
 90
        2
176
     1
 62
     7
176
     1
 90
        5
176
     1
 90
        0
176
     1
 90
        0
176
     1
290
     0
176
     1
 90
       13
176
     1
 40
0.0
176
     1
 90
        0
176
     1
290
     0
176
     1
290
     1
176
     1
290
     1
176
     1
290
     0
176
     1
290
     0
176
     1
290
     0
176
     1
290
     0
176
     1
290
     0
176
     1
290
     0
176
     1
 90
       50
176
     1
 40
0.0
176
     1
 40
1.0
176
     1
 90
        0
176
     1
 62
    18
420
        0
176
     1
 90
       50
176
     1
 90
        3
176
     1
 62
     5
420
      255
176
     1
290
     0
176
     1
 90
       50
176
     1
 90
       50
176
     1
 90
       50
176
     1
290
     0
176
     1
 90
       50
176
     1
 62
   256
176
     0
 40
1.0
176
     0
 90
        2
176
     1
  1
strokes_ogs.tif
176
     1
290
     0
176
     1
 40
1.0
176
     1
 40
1.0
176
     1
1001
ACAD
1000
AcDbSavedByObjectVersion
1070
     0
  0
VISUALSTYLE
  5
2E
102
{ACAD_REACTORS
330
2A
102
}
330
2A
100
AcDbVisualStyle
  2
GouraudWithEdges
 70
     3
177
     3
291
     1
 70
    58
 90
        2
176
     1
 90
        2
176
     1
 90
        1
176
     1
 90
        2
176
     1
 40
0.6
176
     1
 40
30.0
176
     1
 62
     7
420
 16777215
176
     1
 90
        1
176
     1
 90
        0
176
     1
 62
     7
176
     1
 62
   257
176
     1
 90
        1
176
     1
 90
        1
176
     1
 40
1.0
176
     1
 90
        0
176
     1
 62
   257
176
     1
 40
1.0
176
     1
 90
        1
176
     1
 90
        6
176
     1
 90
        2
176
     1
 62
     7
176
     1
 90
        5
176
     1
 90
        0
176
     1
 90
        0
176
     1
290
     0
176
     1
 90
       13
176
     1
 40
0.0
176
     1
 90
        0
176
     1
290
     0
176
     1
290
     1
176
     1
290
     1
176
     1
290
     0
176
     1
290
     0
176
     1
290
     0
176
     1
290
     0
176
     1
290
     0
176
     1
290
     0
176
     1
 90
       50
176
     1
 40
0.0
176
     1
 40
1.0
176
     1
 90
        0
176
     1
 62
    18
420
        0
176
     1
 90
       50
176
     1
 90
        3
176
     1
 62
     5
420
      255
176
     1
290
     0
176
     1
 90
       50
176
     1
 90
       50
176
     1
 90
       50
176
     1
290
     0
176
     1
 90
       50
176
     1
 62
   256
176
     0
 40
1.0
176
     0
 90
        2
176
     1
  1
strokes_ogs.tif
176
     1
290
     0
176
     1
 40
1.0
176
     1
 40
1.0
176
     1
1001
ACAD
1000
AcDbSavedByObjectVersion
1070
     0
  0
VISUALSTYLE
  5
31
102
{ACAD_REACTORS
330
2A
102
}
330
2A
100
AcDbVisualStyle
  2
Hidden
 70
     6
177
     3
291
     0
 70
    58
 90
        1
176
     1
 90
        2
176
     1
 90
        2
176
     1
 90
        0
176
     1
 40
0.6
176
     1
 40
30.0
176
     1
 62
     7
420
 16777215
176
     1
 90
        2
176
     1
 90
        2
176
     1
 62
     7
176
     1
 62
   257
176
     1
 90
        2
176
     1
 90
        1
176
     1
 40
40.0
176
     1
 90
        0
176
     1
 62
   257
176
     1
 40
1.0
176
     1
 90
        1
176
     1
 90
        6
176
     1
 90
        2
176
     1
 62
     7
176
     1
 90
        3
176
     1
 90
        0
176
     1
 90
        0
176
     1
290
     0
176
     1
 90
        1
176
     1
 40
0.0
176
     1
 90
        0
176
     1
290
     0
176
     1
290
     1
176
     1
290
     1
176
     1
290
     0
176
     1
290
     0
176
     1
290
     0
176
     1
290
     0
176
     1
290
     0
176
     1
290
     0
176
     1
 90
       50
176
     1
 40
0.0
176
     1
 40
1.0
176
     1
 90
        0
176
     1
 62
    18
420
        0
176
     1
 90
       50
176
     1
 90
        3
176
     1
 62
     5
420
      255
176
     1
290
     0
176
     1
 90
       50
176
     1
 90
       50
176
     1
 90
       50
176
     1
290
     0
176
     1
 90
       50
176
     1
 62
   256
176
     0
 40
1.0
176
     0
 90
        2
176
     1
  1
strokes_ogs.tif
176
     1
290
     0
176
     1
 40
1.0
176
     1
 40
1.0
176
     1
1001
ACAD
1000
AcDbSavedByObjectVersion
1070
     0
  0
VISUALSTYLE
  5
3B
102
{ACAD_REACTORS
330
2A
102
}
330
2A
100
AcDbVisualStyle
  2
JitterOff
 70
    20
177
     3
291
     1
 70
    58
 90
        2
176
     0
 90
        2
176
     0
 90
        0
176
     0
 90
        0
176
     0
 40
0.6
176
     0
 40
30.0
176
     0
 62
     7
420
 16777215
176
     0
 90
        1
176
     0
 90
        4
176
     0
 62
     7
176
     0
 62
   257
176
     0
 90
        1
176
     0
 90
        1
176
     0
 40
1.0
176
     0
 90
       10
176
     2
 62
     7
176
     0
 40
1.0
176
     0
 90
        1
176
     0
 90
        6
176
     0
 90
        2
176
     0
 62
     7
176
     0
 90
        5
176
     0
 90
        0
176
     0
 90
        0
176
     0
290
     0
176
     0
 90
        1
176
     0
 40
0.0
176
     0
 90
        0
176
     0
290
     0
176
     0
290
     1
176
     0
290
     1
176
     0
290
     0
176
     0
290
     0
176
     0
290
     0
176
     0
290
     0
176
     0
290
     0
176
     0
290
     0
176
     0
 90
       50
176
     0
 40
0.0
176
     0
 40
1.0
176
     0
 90
        0
176
     0
 62
    18
420
        0
176
     0
 90
       50
176
     0
 90
        3
176
     0
 62
     5
420
      255
176
     0
290
     0
176
     0
 90
       50
176
     0
 90
       50
176
     0
 90
       50
176
     0
290
     0
176
     0
 90
       50
176
     0
 62
   256
176
     0
 40
1.0
176
     0
 90
        2
176
     0
  1
strokes_ogs.tif
176
     0
290
     0
176
     0
 40
1.0
176
     0
 40
1.0
176
     0
1001
ACAD
1000
AcDbSavedByObjectVersion
1070
     0
  0
VISUALSTYLE
  5
38
102
{ACAD_REACTORS
330
2A
102
}
330
2A
100
AcDbVisualStyle
  2
Linepattern
 70
    14
177
     3
291
     1
 70
    58
 90
        2
176
     1
 90
        2
176
     1
 90
        0
176
     1
 90
        0
176
     1
 40
0.6
176
     1
 40
30.0
176
     1
 62
     7
420
 16777215
176
     1
 90
        1
176
     1
 90
        4
176
     1
 62
     7
176
     1
 62
   257
176
     1
 90
        7
176
     1
 90
        7
176
     1
 40
1.0
176
     1
 90
        8
176
     1
 62
     7
176
     1
 40
1.0
176
     1
 90
        1
176
     1
 90
        6
176
     1
 90
        2
176
     1
 62
     7
176
     1
 90
        5
176
     1
 90
        0
176
     1
 90
        0
176
     1
290
     0
176
     1
 90
        1
176
     1
 40
0.0
176
     1
 90
        0
176
     1
290
     0
176
     1
290
     1
176
     1
290
     1
176
     1
290
     0
176
     1
290
     0
176
     1
290
     0
176
     1
290
     0
176
     1
290
     0
176
     1
290
     0
176
     1
 90
       50
176
     1
 40
0.0
176
     1
 40
1.0
176
     1
 90
        0
176
     1
 62
    18
420
        0
176
     1
 90
       50
176
     1
 90
        3
176
     1
 62
     5
420
      255
176
     1
290
     0
176
     1
 90
       50
176
     1
 90
       50
176
     1
 90
       50
176
     1
290
     0
176
     1
 90
       50
176
     1
 62
   256
176
     0
 40
1.0
176
     0
 90
        2
176
     1
  1
strokes_ogs.tif
176
     1
290
     0
176
     1
 40
1.0
176
     1
 40
1.0
176
     1
1001
ACAD
1000
AcDbSavedByObjectVersion
1070
     0
  0
VISUALSTYLE
  5
3C
102
{ACAD_REACTORS
330
2A
102
}
330
2A
100
AcDbVisualStyle
  2
OverhangOff
 70
    21
177
     3
291
     1
 70
    58
 90
        2
176
     0
 90
        2
176
     0
 90
        0
176
     0
 90
        0
176
     0
 40
0.6
176
     0
 40
30.0
176
     0
 62
     7
420
 16777215
176
     0
 90
        1
176
     0
 90
        4
176
     0
 62
     7
176
     0
 62
   257
176
     0
 90
        1
176
     0
 90
        1
176
     0
 40
1.0
176
     0
 90
        9
176
     2
 62
     7
176
     0
 40
1.0
176
     0
 90
        1
176
     0
 90
        6
176
     0
 90
        2
176
     0
 62
     7
176
     0
 90
        5
176
     0
 90
        0
176
     0
 90
        0
176
     0
290
     0
176
     0
 90
        1
176
     0
 40
0.0
176
     0
 90
        0
176
     0
290
     0
176
     0
290
     1
176
     0
290
     1
176
     0
290
     0
176
     0
290
     0
176
     0
290
     0
176
     0
290
     0
176
     0
290
     0
176
     0
290
     0
176
     0
 90
       50
176
     0
 40
0.0
176
     0
 40
1.0
176
     0
 90
        0
176
     0
 62
    18
420
        0
176
     0
 90
       50
176
     0
 90
        3
176
     0
 62
     5
420
      255
176
     0
290
     0
176
     0
 90
       50
176
     0
 90
       50
176
     0
 90
       50
176
     0
290
     0
176
     0
 90
       50
176
     0
 62
   256
176
     0
 40
1.0
176
     0
 90
        2
176
     0
  1
strokes_ogs.tif
176
     0
290
     0
176
     0
 40
1.0
176
     0
 40
1.0
176
     0
1001
ACAD
1000
AcDbSavedByObjectVersion
1070
     0
  0
VISUALSTYLE
  5
33
102
{ACAD_REACTORS
330
2A
102
}
330
2A
100
AcDbVisualStyle
  2
Realistic
 70
     8
177
     3
291
     0
 70
    58
 90
        2
176
     1
 90
        3
176
     1
 90
        0
176
     1
 90
        2
176
     1
 40
0.6
176
     1
 40
30.0
176
     1
 62
     7
420
 16777215
176
     1
 90
        0
176
     1
 90
        0
176
     1
 62
     7
176
     1
 62
   257
176
     1
 90
        1
176
     1
 90
        1
176
     1
 40
1.0
176
     1
 90
        8
176
     1
 62
   257
176
     1
 40
1.0
176
     1
 90
        1
176
     1
 90
        6
176
     1
 90
        2
176
     1
 62
     7
176
     1
 90
        3
176
     1
 90
        0
176
     1
 90
        0
176
     1
290
     0
176
     1
 90
       13
176
     1
 40
0.0
176
     1
 90
        0
176
     1
290
     0
176
     1
290
     1
176
     1
290
     1
176
     1
290
     0
176
     1
290
     0
176
     1
290
     0
176
     1
290
     0
176
     1
290
     0
176
     1
290
     0
176
     1
 90
       50
176
     1
 40
0.0
176
     1
 40
1.0
176
     1
 90
        0
176
     1
 62
    18
420
        0
176
     1
 90
       50
176
     1
 90
        3
176
     1
 62
     5
420
      255
176
     1
290
     0
176
     1
 90
       50
176
     1
 90
       50
176
     1
 90
       50
176
     1
290
     0
176
     1
 90
       50
176
     1
 62
   256
176
     0
 40
1.0
176
     0
 90
        2
176
     1
  1
strokes_ogs.tif
176
     1
290
     0
176
     1
 40
1.0
176
     1
 40
1.0
176
     1
1001
ACAD
1000
AcDbSavedByObjectVersion
1070
     0
  0
VISUALSTYLE
  5
42
102
{ACAD_REACTORS
330
2A
102
}
330
2A
100
AcDbVisualStyle
  2
Shaded
 70
    27
177
     3
291
     0
 70
    58
 90
        2
176
     1
 90
        2
176
     1
 90
        1
176
     1
 90
        2
176
     1
 40
0.6
176
     1
 40
30.0
176
     1
 62
     7
420
 16777215
176
     1
 90
        0
176
     1
 90
        4
176
     1
 62
     7
176
     1
 62
   257
176
     1
 90
        1
176
     1
 90
        1
176
     1
 40
1.0
176
     1
 90
        8
176
     1
 62
   257
176
     1
 40
1.0
176
     1
 90
        1
176
     1
 90
        6
176
     1
 90
        2
176
     1
 62
     8
420
  7895160
176
     1
 90
        3
176
     1
 90
        0
176
     1
 90
        0
176
     1
290
     0
176
     1
 90
        5
176
     1
 40
0.0
176
     1
 90
        0
176
     1
290
     0
176
     1
290
     1
176
     1
290
     1
176
     1
290
     0
176
     1
290
     0
176
     1
290
     0
176
     1
290
     0
176
     1
290
     0
176
     1
290
     0
176
     1
 90
       50
176
     1
 40
0.0
176
     1
 40
1.0
176
     1
 90
        0
176
     1
 62
    18
420
        0
176
     1
 90
       50
176
     1
 90
        3
176
     1
 62
     5
420
      255
176
     1
290
     0
176
     1
 90
       50
176
     1
 90
       50
176
     1
 90
       50
176
     1
290
     0
176
     1
 90
       50
176
     1
 62
   256
176
     0
 40
1.0
176
     0
 90
        2
176
     1
  1
strokes_ogs.tif
176
     1
290
     0
176
     1
 40
1.0
176
     1
 40
1.0
176
     1
1001
ACAD
1000
AcDbSavedByObjectVersion
1070
     0
  0
VISUALSTYLE
  5
41
102
{ACAD_REACTORS
330
2A
102
}
330
2A
100
AcDbVisualStyle
  2
Shaded with edges
 70
    26
177
     3
291
     0
 70
    58
 90
        2
176
     1
 90
        2
176
     1
 90
        1
176
     1
 90
        2
176
     1
 40
0.6
176
     1
 40
30.0
176
     1
 62
     7
420
 16777215
176
     1
 90
        1
176
     1
 90
        2
176
     1
 62
     7
176
     1
 62
   257
176
     1
 90
        2
176
     1
 90
        1
176
     1
 40
1.0
176
     1
 90
        8
176
     1
 62
   257
176
     1
 40
1.0
176
     1
 90
        1
176
     1
 90
        6
176
     1
 90
        2
176
     1
 62
     7
176
     1
 90
        3
176
     1
 90
        0
176
     1
 90
        0
176
     1
290
     0
176
     1
 90
        5
176
     1
 40
0.0
176
     1
 90
        0
176
     1
290
     0
176
     1
290
     1
176
     1
290
     1
176
     1
290
     0
176
     1
290
     0
176
     1
290
     0
176
     1
290
     0
176
     1
290
     0
176
     1
290
     0
176
     1
 90
       50
176
     1
 40
0.0
176
     1
 40
1.0
176
     1
 90
        0
176
     1
 62
    18
420
        0
176
     1
 90
       50
176
     1
 90
        3
176
     1
 62
     5
420
      255
176
     1
290
     0
176
     1
 90
       50
176
     1
 90
       50
176
     1
 90
       50
176
     1
290
     0
176
     1
 90
       50
176
     1
 62
   256
176
     0
 40
1.0
176
     0
 90
        2
176
     1
  1
strokes_ogs.tif
176
     1
290
     0
176
     1
 40
1.0
176
     1
 40
1.0
176
     1
1001
ACAD
1000
AcDbSavedByObjectVersion
1070
     0
  0
VISUALSTYLE
  5
3E
102
{ACAD_REACTORS
330
2A
102
}
330
2A
100
AcDbVisualStyle
  2
Shades of Gray
 70
    23
177
     3
291
     0
 70
    58
 90
        2
176
     1
 90
        2
176
     1
 90
        3
176
     1
 90
        0
176
     1
 40
0.6
176
     1
 40
30.0
176
     1
 62
     7
420
 16777215
176
     1
 90
        2
176
     1
 90
        2
176
     1
 62
     7
176
     1
 62
     7
176
     1
 90
        1
176
     1
 90
        1
176
     1
 40
40.0
176
     1
 90
        8
176
     1
 62
     7
176
     1
 40
1.0
176
     1
 90
        1
176
     1
 90
        6
176
     1
 90
        2
176
     1
 62
     7
176
     1
 90
        3
176
     1
 90
        0
176
     1
 90
        0
176
     1
290
     0
176
     1
 90
        1
176
     1
 40
0.0
176
     1
 90
        0
176
     1
290
     0
176
     1
290
     1
176
     1
290
     1
176
     1
290
     0
176
     1
290
     0
176
     1
290
     0
176
     1
290
     0
176
     1
290
     0
176
     1
290
     0
176
     1
 90
       50
176
     1
 40
0.0
176
     1
 40
1.0
176
     1
 90
        0
176
     1
 62
    18
420
        0
176
     1
 90
       50
176
     1
 90
        3
176
     1
 62
     5
420
      255
176
     1
290
     0
176
     1
 90
       50
176
     1
 90
       50
176
     1
 90
       50
176
     1
290
     0
176
     1
 90
       50
176
     1
 62
   256
176
     0
 40
1.0
176
     0
 90
        2
176
     1
  1
strokes_ogs.tif
176
     1
290
     0
176
     1
 40
1.0
176
     1
 40
1.0
176
     1
1001
ACAD
1000
AcDbSavedByObjectVersion
1070
     0
  0
VISUALSTYLE
  5
3F
102
{ACAD_REACTORS
330
2A
102
}
330
2A
100
AcDbVisualStyle
  2
Sketchy
 70
    24
177
     3
291
     0
 70
    58
 90
        1
176
     1
 90
        2
176
     1
 90
        2
176
     1
 90
        0
176
     1
 40
0.6
176
     1
 40
30.0
176
     1
 62
     7
420
 16777215
176
     1
 90
        2
176
     1
 90
        2
176
     1
 62
     7
176
     1
 62
     7
176
     1
 90
        1
176
     1
 90
        1
176
     1
 40
40.0
176
     1
 90
       11
176
     1
 62
     7
176
     1
 40
1.0
176
     1
 90
        1
176
     1
 90
        6
176
     1
 90
        2
176
     1
 62
     7
176
     1
 90
        6
176
     1
 90
        0
176
     1
 90
        0
176
     1
290
     0
176
     1
 90
        1
176
     1
 40
0.0
176
     1
 90
        0
176
     1
290
     0
176
     1
290
     1
176
     1
290
     1
176
     1
290
     0
176
     1
290
     0
176
     1
290
     0
176
     1
290
     0
176
     1
290
     0
176
     1
290
     0
176
     1
 90
       50
176
     1
 40
0.0
176
     1
 40
1.0
176
     1
 90
        0
176
     1
 62
    18
420
        0
176
     1
 90
       50
176
     1
 90
        3
176
     1
 62
     5
420
      255
176
     1
290
     0
176
     1
 90
       50
176
     1
 90
       50
176
     1
 90
       50
176
     1
290
     0
176
     1
 90
       50
176
     1
 62
   256
176
     0
 40
1.0
176
     0
 90
        2
176
     1
  1
strokes_ogs.tif
176
     1
290
     0
176
     1
 40
1.0
176
     1
 40
1.0
176
     1
1001
ACAD
1000
AcDbSavedByObjectVersion
1070
     0
  0
VISUALSTYLE
  5
37
102
{ACAD_REACTORS
330
2A
102
}
330
2A
100
AcDbVisualStyle
  2
Thicken
 70
    13
177
     3
291
     1
 70
    58
 90
        2
176
     1
 90
        2
176
     1
 90
        0
176
     1
 90
        0
176
     1
 40
0.6
176
     1
 40
30.0
176
     1
 62
     7
420
 16777215
176
     1
 90
        1
176
     1
 90
        4
176
     1
 62
     7
176
     1
 62
   257
176
     1
 90
        1
176
     1
 90
        1
176
     1
 40
1.0
176
     1
 90
       12
176
     1
 62
     7
176
     1
 40
1.0
176
     1
 90
        1
176
     1
 90
        6
176
     1
 90
        2
176
     1
 62
     7
176
     1
 90
        5
176
     1
 90
        0
176
     1
 90
        0
176
     1
290
     0
176
     1
 90
        1
176
     1
 40
0.0
176
     1
 90
        0
176
     1
290
     0
176
     1
290
     1
176
     1
290
     1
176
     1
290
     0
176
     1
290
     0
176
     1
290
     0
176
     1
290
     0
176
     1
290
     0
176
     1
290
     0
176
     1
 90
       50
176
     1
 40
0.0
176
     1
 40
1.0
176
     1
 90
        0
176
     1
 62
    18
420
        0
176
     1
 90
       50
176
     1
 90
        3
176
     1
 62
     5
420
      255
176
     1
290
     0
176
     1
 90
       50
176
     1
 90
       50
176
     1
 90
       50
176
     1
290
     0
176
     1
 90
       50
176
     1
 62
   256
176
     0
 40
1.0
176
     0
 90
        2
176
     1
  1
strokes_ogs.tif
176
     1
290
     0
176
     1
 40
1.0
176
     1
 40
1.0
176
     1
1001
ACAD
1000
AcDbSavedByObjectVersion
1070
     0
  0
VISUALSTYLE
  5
30
102
{ACAD_REACTORS
330
2A
102
}
330
2A
100
AcDbVisualStyle
  2
Wireframe
 70
     5
177
     3
291
     0
 70
    58
 90
        0
176
     1
 90
        2
176
     1
 90
        0
176
     1
 90
        0
176
     1
 40
0.6
176
     1
 40
30.0
176
     1
 62
     7
420
 16777215
176
     1
 90
        1
176
     1
 90
        4
176
     1
 62
     7
176
     1
 62
   257
176
     1
 90
        1
176
     1
 90
        1
176
     1
 40
1.0
176
     1
 90
        0
176
     1
 62
   257
176
     1
 40
1.0
176
     1
 90
        1
176
     1
 90
        6
176
     1
 90
        2
176
     1
 62
     7
176
     1
 90
        3
176
     1
 90
        0
176
     1
 90
        0
176
     1
290
     0
176
     1
 90
        1
176
     1
 40
0.0
176
     1
 90
        0
176
     1
290
     0
176
     1
290
     1
176
     1
290
     1
176
     1
290
     0
176
     1
290
     0
176
     1
290
     0
176
     1
290
     0
176
     1
290
     0
176
     1
290
     0
176
     1
 90
       50
176
     1
 40
0.0
176
     1
 40
1.0
176
     1
 90
        0
176
     1
 62
    18
420
        0
176
     1
 90
       50
176
     1
 90
        3
176
     1
 62
     5
420
      255
176
     1
290
     0
176
     1
 90
       50
176
     1
 90
       50
176
     1
 90
       50
176
     1
290
     0
176
     1
 90
       50
176
     1
 62
   256
176
     0
 40
1.0
176
     0
 90
        2
176
     1
  1
strokes_ogs.tif
176
     1
290
     0
176
     1
 40
1.0
176
     1
 40
1.0
176
     1
1001
ACAD
1000
AcDbSavedByObjectVersion
1070
     0
  0
VISUALSTYLE
  5
40
102
{ACAD_REACTORS
330
2A
102
}
330
2A
100
AcDbVisualStyle
  2
X-Ray
 70
    25
177
     3
291
     0
 70
    58
 90
        2
176
     1
 90
        2
176
     1
 90
        1
176
     1
 90
        1
176
     1
 40
0.5
176
     1
 40
30.0
176
     1
 62
     7
420
 16777215
176
     1
 90
        1
176
     1
 90
        0
176
     1
 62
     7
176
     1
 62
   257
176
     1
 90
        1
176
     1
 90
        1
176
     1
 40
1.0
176
     1
 90
        8
176
     1
 62
     7
176
     1
 40
1.0
176
     1
 90
        1
176
     1
 90
        6
176
     1
 90
        2
176
     1
 62
     7
176
     1
 90
        3
176
     1
 90
        0
176
     1
 90
        0
176
     1
290
     0
176
     1
 90
       13
176
     1
 40
0.0
176
     1
 90
        0
176
     1
290
     0
176
     1
290
     1
176
     1
290
     1
176
     1
290
     0
176
     1
290
     0
176
     1
290
     0
176
     1
290
     0
176
     1
290
     0
176
     1
290
     0
176
     1
 90
       50
176
     1
 40
0.0
176
     1
 40
1.0
176
     1
 90
        0
176
     1
 62
    18
420
        0
176
     1
 90
       50
176
     1
 90
        3
176
     1
 62
     5
420
      255
176
     1
290
     0
176
     1
 90
       50
176
     1
 90
       50
176
     1
 90
       50
176
     1
290
     0
176
     1
 90
       50
176
     1
 62
   256
176
     0
 40
1.0
176
     0
 90
        2
176
     1
  1
strokes_ogs.tif
176
     1
290
     0
176
     1
 40
1.0
176
     1
 40
1.0
176
     1
1001
ACAD
1000
AcDbSavedByObjectVersion
1070
     0
  0
DICTIONARYVAR
  5
167
102
{ACAD_REACTORS
330
166
102
}
330
166
100
DictionaryVariables
280
     0
  1
1:1
  0
DICTIONARYVAR
  5
16C
102
{ACAD_REACTORS
330
166
102
}
330
166
100
DictionaryVariables
280
     0
  1
3.500000
  0
DICTIONARYVAR
  5
16D
102
{ACAD_REACTORS
330
166
102
}
330
166
100
DictionaryVariables
280
     0
  1
acadiso.lin
  0
DICTIONARYVAR
  5
169
102
{ACAD_REACTORS
330
166
102
}
330
166
100
DictionaryVariables
280
     0
  1
STANDARD
  0
DICTIONARYVAR
  5
168
102
{ACAD_REACTORS
330
166
102
}
330
166
100
DictionaryVariables
280
     0
  1
STANDARD
  0
DICTIONARYVAR
  5
667
102
{ACAD_REACTORS
330
166
102
}
330
166
100
DictionaryVariables
280
     0
  1
Metric50
  0
DICTIONARYVAR
  5
668
102
{ACAD_REACTORS
330
166
102
}
330
166
100
DictionaryVariables
280
     0
  1
Metric50
  0
DICTIONARY
  5
10F5
330
171
100
AcDbDictionary
280
     1
281
     1
  3
ACAD_XREC_ROUNDTRIP
360
10F6
  0
DICTIONARY
  5
10F3
330
170
100
AcDbDictionary
280
     1
281
     1
  3
ACAD_XREC_ROUNDTRIP
360
10F4
  0
DICTIONARY
  5
10F0
330
6A
100
AcDbDictionary
280
     1
281
     1
  3
ACAD_ROUNDTRIP_2008_TABLESTYLE_CELLSTYLEMAP
360
10F1
  0
XRECORD
  5
10F6
102
{ACAD_REACTORS
330
10F5
102
}
330
10F5
100
AcDbXrecord
280
     1
102
DISPLAYNAME
  1
Metric50
102
FLAGS
 90
        0
  0
XRECORD
  5
10F4
102
{ACAD_REACTORS
330
10F3
102
}
330
10F3
100
AcDbXrecord
280
     1
102
DISPLAYNAME
  1
Metric50
102
FLAGS
 90
        0
  0
CELLSTYLEMAP
  5
10F1
102
{ACAD_REACTORS
330
10F0
102
}
330
10F0
100
AcDbCellStyleMap
 90
        3
300
CELLSTYLE
  1
TABLEFORMAT_BEGIN
 90
        5
170
     1
 91
        0
 92
    32768
 62
   257
 93
        1
300
CONTENTFORMAT
  1
CONTENTFORMAT_BEGIN
 90
        0
 91
        0
 92
        4
 93
        0
300

 40
0.0
140
1.0
 94
        5
 62
     0
340
11
144
6.0
309
CONTENTFORMAT_END
171
     1
301
MARGIN
  1
CELLMARGIN_BEGIN
 40
1.5
 40
1.5
 40
1.5
 40
1.5
 40
1.5
 40
1.5
309
CELLMARGIN_END
 94
        6
 95
        1
302
GRIDFORMAT
  1
GRIDFORMAT_BEGIN
 90
        0
 91
        1
 62
     0
 92
       -2
340
14
 93
        0
 40
0.045
309
GRIDFORMAT_END
 95
        2
302
GRIDFORMAT
  1
GRIDFORMAT_BEGIN
 90
        0
 91
        1
 62
     0
 92
       -2
340
14
 93
        0
 40
0.045
309
GRIDFORMAT_END
 95
        4
302
GRIDFORMAT
  1
GRIDFORMAT_BEGIN
 90
        0
 91
        1
 62
     0
 92
       -2
340
14
 93
        0
 40
0.045
309
GRIDFORMAT_END
 95
        8
302
GRIDFORMAT
  1
GRIDFORMAT_BEGIN
 90
        0
 91
        1
 62
     0
 92
       -2
340
14
 93
        0
 40
0.045
309
GRIDFORMAT_END
 95
       16
302
GRIDFORMAT
  1
GRIDFORMAT_BEGIN
 90
        0
 91
        1
 62
     0
 92
       -2
340
14
 93
        0
 40
0.045
309
GRIDFORMAT_END
 95
       32
302
GRIDFORMAT
  1
GRIDFORMAT_BEGIN
 90
        0
 91
        1
 62
     0
 92
       -2
340
14
 93
        0
 40
0.045
309
GRIDFORMAT_END
309
TABLEFORMAT_END
  1
CELLSTYLE_BEGIN
 90
        1
 91
        1
300
_TITLE
309
CELLSTYLE_END
300
CELLSTYLE
  1
TABLEFORMAT_BEGIN
 90
        5
170
     1
 91
        0
 92
        0
 62
   257
 93
        1
300
CONTENTFORMAT
  1
CONTENTFORMAT_BEGIN
 90
        0
 91
        0
 92
        4
 93
        0
300

 40
0.0
140
1.0
 94
        5
 62
     0
340
11
144
4.5
309
CONTENTFORMAT_END
171
     1
301
MARGIN
  1
CELLMARGIN_BEGIN
 40
1.5
 40
1.5
 40
1.5
 40
1.5
 40
1.5
 40
1.5
309
CELLMARGIN_END
 94
        6
 95
        1
302
GRIDFORMAT
  1
GRIDFORMAT_BEGIN
 90
        0
 91
        1
 62
     0
 92
       -2
340
14
 93
        0
 40
0.045
309
GRIDFORMAT_END
 95
        2
302
GRIDFORMAT
  1
GRIDFORMAT_BEGIN
 90
        0
 91
        1
 62
     0
 92
       -2
340
14
 93
        0
 40
0.045
309
GRIDFORMAT_END
 95
        4
302
GRIDFORMAT
  1
GRIDFORMAT_BEGIN
 90
        0
 91
        1
 62
     0
 92
       -2
340
14
 93
        0
 40
0.045
309
GRIDFORMAT_END
 95
        8
302
GRIDFORMAT
  1
GRIDFORMAT_BEGIN
 90
        0
 91
        1
 62
     0
 92
       -2
340
14
 93
        0
 40
0.045
309
GRIDFORMAT_END
 95
       16
302
GRIDFORMAT
  1
GRIDFORMAT_BEGIN
 90
        0
 91
        1
 62
     0
 92
       -2
340
14
 93
        0
 40
0.045
309
GRIDFORMAT_END
 95
       32
302
GRIDFORMAT
  1
GRIDFORMAT_BEGIN
 90
        0
 91
        1
 62
     0
 92
       -2
340
14
 93
        0
 40
0.045
309
GRIDFORMAT_END
309
TABLEFORMAT_END
  1
CELLSTYLE_BEGIN
 90
        2
 91
        1
300
_HEADER
309
CELLSTYLE_END
300
CELLSTYLE
  1
TABLEFORMAT_BEGIN
 90
        5
170
     1
 91
        0
 92
        0
 62
   257
 93
        1
300
CONTENTFORMAT
  1
CONTENTFORMAT_BEGIN
 90
        0
 91
        0
 92
        4
 93
        0
300

 40
0.0
140
1.0
 94
        2
 62
     0
340
11
144
4.5
309
CONTENTFORMAT_END
171
     1
301
MARGIN
  1
CELLMARGIN_BEGIN
 40
1.5
 40
1.5
 40
1.5
 40
1.5
 40
1.5
 40
1.5
309
CELLMARGIN_END
 94
        6
 95
        1
302
GRIDFORMAT
  1
GRIDFORMAT_BEGIN
 90
        0
 91
        1
 62
     0
 92
       -2
340
14
 93
        0
 40
0.045
309
GRIDFORMAT_END
 95
        2
302
GRIDFORMAT
  1
GRIDFORMAT_BEGIN
 90
        0
 91
        1
 62
     0
 92
       -2
340
14
 93
        0
 40
0.045
309
GRIDFORMAT_END
 95
        4
302
GRIDFORMAT
  1
GRIDFORMAT_BEGIN
 90
        0
 91
        1
 62
     0
 92
       -2
340
14
 93
        0
 40
0.045
309
GRIDFORMAT_END
 95
        8
302
GRIDFORMAT
  1
GRIDFORMAT_BEGIN
 90
        0
 91
        1
 62
     0
 92
       -2
340
14
 93
        0
 40
0.045
309
GRIDFORMAT_END
 95
       16
302
GRIDFORMAT
  1
GRIDFORMAT_BEGIN
 90
        0
 91
        1
 62
     0
 92
       -2
340
14
 93
        0
 40
0.045
309
GRIDFORMAT_END
 95
       32
302
GRIDFORMAT
  1
GRIDFORMAT_BEGIN
 90
        0
 91
        1
 62
     0
 92
       -2
340
14
 93
        0
 40
0.045
309
GRIDFORMAT_END
309
TABLEFORMAT_END
  1
CELLSTYLE_BEGIN
 90
        3
 91
        2
300
_DATA
309
CELLSTYLE_END
  0
ENDSEC
  0
EOF
