  0
SECTION
  2
HEADER
  9
$ACADVER
  1
AC1027
  9
$ACADMAINTVER
 70
   125
  9
$DWGCODEPAGE
  3
ANSI_1252
  9
$LASTSAVEDBY
  1
kaschu
  9
$REQUIREDVERSIONS
160
                 0
  9
$INSBASE
 10
0.0
 20
0.0
 30
0.0
  9
$EXTMIN
 10
-902.4288121952611
 20
-149.9999957938967
 30
-0.0000000000000774
  9
$EXTMAX
 10
4238.449307148308
 20
4621.970779020291
 30
0.000000000000037
  9
$LIMMIN
 10
0.0
 20
0.0
  9
$LIMMAX
 10
420.0
 20
297.0
  9
$ORTHOMODE
 70
     1
  9
$REGENMODE
 70
     1
  9
$FILLMODE
 70
     1
  9
$QTEXTMODE
 70
     0
  9
$MIRRTEXT
 70
     1
  9
$LTSCALE
 40
1.0
  9
$ATTMODE
 70
     1
  9
$TEXTSIZE
 40
2.5
  9
$TRACEWID
 40
1.0
  9
$TEXTSTYLE
  7
Standard
  9
$CLAYER
  8
0
  9
$CELTYPE
  6
ByLayer
  9
$CECOLOR
 62
   256
  9
$CELTSCALE
 40
1.0
  9
$DISPSILH
 70
     0
  9
$DIMSCALE
 40
1.0
  9
$DIMASZ
 40
2.5
  9
$DIMEXO
 40
0.625
  9
$DIMDLI
 40
3.75
  9
$DIMRND
 40
0.0
  9
$DIMDLE
 40
0.0
  9
$DIMEXE
 40
1.25
  9
$DIMTP
 40
0.0
  9
$DIMTM
 40
0.0
  9
$DIMTXT
 40
2.5
  9
$DIMCEN
 40
2.5
  9
$DIMTSZ
 40
0.0
  9
$DIMTOL
 70
     0
  9
$DIMLIM
 70
     0
  9
$DIMTIH
 70
     0
  9
$DIMTOH
 70
     0
  9
$DIMSE1
 70
     0
  9
$DIMSE2
 70
     0
  9
$DIMTAD
 70
     1
  9
$DIMZIN
 70
     8
  9
$DIMBLK
  1

  9
$DIMASO
 70
     1
  9
$DIMSHO
 70
     1
  9
$DIMPOST
  1

  9
$DIMAPOST
  1

  9
$DIMALT
 70
     0
  9
$DIMALTD
 70
     3
  9
$DIMALTF
 40
0.03937007874016
  9
$DIMLFAC
 40
1.0
  9
$DIMTOFL
 70
     1
  9
$DIMTVP
 40
0.0
  9
$DIMTIX
 70
     0
  9
$DIMSOXD
 70
     0
  9
$DIMSAH
 70
     0
  9
$DIMBLK1
  1

  9
$DIMBLK2
  1

  9
$DIMSTYLE
  2
ISO-25
  9
$DIMCLRD
 70
     0
  9
$DIMCLRE
 70
     0
  9
$DIMCLRT
 70
     0
  9
$DIMTFAC
 40
1.0
  9
$DIMGAP
 40
0.625
  9
$DIMJUST
 70
     0
  9
$DIMSD1
 70
     0
  9
$DIMSD2
 70
     0
  9
$DIMTOLJ
 70
     0
  9
$DIMTZIN
 70
     8
  9
$DIMALTZ
 70
     0
  9
$DIMALTTZ
 70
     0
  9
$DIMUPT
 70
     0
  9
$DIMDEC
 70
     2
  9
$DIMTDEC
 70
     2
  9
$DIMALTU
 70
     2
  9
$DIMALTTD
 70
     3
  9
$DIMTXSTY
  7
Standard
  9
$DIMAUNIT
 70
     0
  9
$DIMADEC
 70
     0
  9
$DIMALTRND
 40
0.0
  9
$DIMAZIN
 70
     0
  9
$DIMDSEP
 70
    44
  9
$DIMATFIT
 70
     3
  9
$DIMFRAC
 70
     0
  9
$DIMLDRBLK
  1

  9
$DIMLUNIT
 70
     2
  9
$DIMLWD
 70
    -2
  9
$DIMLWE
 70
    -2
  9
$DIMTMOVE
 70
     0
  9
$DIMFXL
 40
1.0
  9
$DIMFXLON
 70
     0
  9
$DIMJOGANG
 40
0.7853981633974483
  9
$DIMTFILL
 70
     0
  9
$DIMTFILLCLR
 70
     0
  9
$DIMARCSYM
 70
     0
  9
$DIMLTYPE
  6

  9
$DIMLTEX1
  6

  9
$DIMLTEX2
  6

  9
$DIMTXTDIRECTION
 70
     0
  9
$LUNITS
 70
     2
  9
$LUPREC
 70
     4
  9
$SKETCHINC
 40
1.0
  9
$FILLETRAD
 40
10.0
  9
$AUNITS
 70
     0
  9
$AUPREC
 70
     0
  9
$MENU
  1
.
  9
$ELEVATION
 40
0.0
  9
$PELEVATION
 40
0.0
  9
$THICKNESS
 40
0.0
  9
$LIMCHECK
 70
     0
  9
$CHAMFERA
 40
0.0
  9
$CHAMFERB
 40
0.0
  9
$CHAMFERC
 40
0.0
  9
$CHAMFERD
 40
0.0
  9
$SKPOLY
 70
     0
  9
$TDCREATE
 40
2459124.429664352
  9
$TDUCREATE
 40
2459124.346339595
  9
$TDUPDATE
 40
2459124.441967593
  9
$TDUUPDATE
 40
2459124.358634259
  9
$TDINDWG
 40
0.0118287153
  9
$TDUSRTIMER
 40
0.0118287153
  9
$USRTIMER
 70
     1
  9
$ANGBASE
 50
0.0
  9
$ANGDIR
 70
     0
  9
$PDMODE
 70
     0
  9
$PDSIZE
 40
0.0
  9
$PLINEWID
 40
0.0
  9
$SPLFRAME
 70
     0
  9
$SPLINETYPE
 70
     6
  9
$SPLINESEGS
 70
     8
  9
$HANDSEED
  5
10FE
  9
$SURFTAB1
 70
     6
  9
$SURFTAB2
 70
     6
  9
$SURFTYPE
 70
     6
  9
$SURFU
 70
     6
  9
$SURFV
 70
     6
  9
$UCSBASE
  2

  9
$UCSNAME
  2

  9
$UCSORG
 10
0.0
 20
0.0
 30
0.0
  9
$UCSXDIR
 10
1.0
 20
0.0
 30
0.0
  9
$UCSYDIR
 10
0.0
 20
1.0
 30
0.0
  9
$UCSORTHOREF
  2

  9
$UCSORTHOVIEW
 70
     0
  9
$UCSORGTOP
 10
0.0
 20
0.0
 30
0.0
  9
$UCSORGBOTTOM
 10
0.0
 20
0.0
 30
0.0
  9
$UCSORGLEFT
 10
0.0
 20
0.0
 30
0.0
  9
$UCSORGRIGHT
 10
0.0
 20
0.0
 30
0.0
  9
$UCSORGFRONT
 10
0.0
 20
0.0
 30
0.0
  9
$UCSORGBACK
 10
0.0
 20
0.0
 30
0.0
  9
$PUCSBASE
  2

  9
$PUCSNAME
  2

  9
$PUCSORG
 10
0.0
 20
0.0
 30
0.0
  9
$PUCSXDIR
 10
1.0
 20
0.0
 30
0.0
  9
$PUCSYDIR
 10
0.0
 20
1.0
 30
0.0
  9
$PUCSORTHOREF
  2

  9
$PUCSORTHOVIEW
 70
     0
  9
$PUCSORGTOP
 10
0.0
 20
0.0
 30
0.0
  9
$PUCSORGBOTTOM
 10
0.0
 20
0.0
 30
0.0
  9
$PUCSORGLEFT
 10
0.0
 20
0.0
 30
0.0
  9
$PUCSORGRIGHT
 10
0.0
 20
0.0
 30
0.0
  9
$PUCSORGFRONT
 10
0.0
 20
0.0
 30
0.0
  9
$PUCSORGBACK
 10
0.0
 20
0.0
 30
0.0
  9
$USERI1
 70
     0
  9
$USERI2
 70
     0
  9
$USERI3
 70
     0
  9
$USERI4
 70
     0
  9
$USERI5
 70
     0
  9
$USERR1
 40
0.0
  9
$USERR2
 40
0.0
  9
$USERR3
 40
0.0
  9
$USERR4
 40
0.0
  9
$USERR5
 40
0.0
  9
$WORLDVIEW
 70
     1
  9
$SHADEDGE
 70
     3
  9
$SHADEDIF
 70
    70
  9
$TILEMODE
 70
     1
  9
$MAXACTVP
 70
    64
  9
$PINSBASE
 10
0.0
 20
0.0
 30
0.0
  9
$PLIMCHECK
 70
     0
  9
$PEXTMIN
 10
1.000000000000000E+20
 20
1.000000000000000E+20
 30
1.000000000000000E+20
  9
$PEXTMAX
 10
-1.000000000000000E+20
 20
-1.000000000000000E+20
 30
-1.000000000000000E+20
  9
$PLIMMIN
 10
0.0
 20
0.0
  9
$PLIMMAX
 10
420.0
 20
297.0
  9
$UNITMODE
 70
     0
  9
$VISRETAIN
 70
     1
  9
$PLINEGEN
 70
     0
  9
$PSLTSCALE
 70
     1
  9
$TREEDEPTH
 70
  3020
  9
$CMLSTYLE
  2
Standard
  9
$CMLJUST
 70
     0
  9
$CMLSCALE
 40
20.0
  9
$PROXYGRAPHICS
 70
     1
  9
$MEASUREMENT
 70
     1
  9
$CELWEIGHT
370
    -1
  9
$ENDCAPS
280
     0
  9
$JOINSTYLE
280
     0
  9
$LWDISPLAY
290
     0
  9
$INSUNITS
 70
     5
  9
$HYPERLINKBASE
  1

  9
$STYLESHEET
  1

  9
$XEDIT
290
     1
  9
$CEPSNTYPE
380
     0
  9
$PSTYLEMODE
290
     1
  9
$FINGERPRINTGUID
  2
{d65f844e-a70c-446a-bafe-ce0d367131df}
  9
$VERSIONGUID
  2
{3A55BE75-DD66-374A-AFDA-CD4D6D4127E2}
  9
$EXTNAMES
290
     1
  9
$PSVPSCALE
 40
0.0
  9
$OLESTARTUP
290
     0
  9
$SORTENTS
280
   127
  9
$INDEXCTL
280
     0
  9
$HIDETEXT
280
     1
  9
$XCLIPFRAME
280
     2
  9
$HALOGAP
280
     0
  9
$OBSCOLOR
 70
   257
  9
$OBSLTYPE
280
     0
  9
$INTERSECTIONDISPLAY
280
     0
  9
$INTERSECTIONCOLOR
 70
   257
  9
$DIMASSOC
280
     2
  9
$PROJECTNAME
  1

  9
$CAMERADISPLAY
290
     0
  9
$LENSLENGTH
 40
50.0
  9
$CAMERAHEIGHT
 40
0.0
  9
$STEPSPERSEC
 40
2.0
  9
$STEPSIZE
 40
6.0
  9
$3DDWFPREC
 40
2.0
  9
$PSOLWIDTH
 40
5.0
  9
$PSOLHEIGHT
 40
80.0
  9
$LOFTANG1
 40
1.570796326794896
  9
$LOFTANG2
 40
1.570796326794896
  9
$LOFTMAG1
 40
0.0
  9
$LOFTMAG2
 40
0.0
  9
$LOFTPARAM
 70
     7
  9
$LOFTNORMALS
280
     1
  9
$LATITUDE
 40
37.795
  9
$LONGITUDE
 40
-122.394
  9
$NORTHDIRECTION
 40
0.0
  9
$TIMEZONE
 70
 -8000
  9
$LIGHTGLYPHDISPLAY
280
     1
  9
$TILEMODELIGHTSYNCH
280
     1
  9
$CMATERIAL
347
44
  9
$SOLIDHIST
280
     0
  9
$SHOWHIST
280
     1
  9
$DWFFRAME
280
     2
  9
$DGNFRAME
280
     2
  9
$REALWORLDSCALE
290
     1
  9
$INTERFERECOLOR
 62
   256
  9
$INTERFEREOBJVS
345
33
  9
$INTERFEREVPVS
346
30
  9
$CSHADOW
280
     0
  9
$SHADOWPLANELOCATION
 40
0.0
  0
ENDSEC
  0
SECTION
  2
CLASSES
  0
CLASS
  1
ACDBDICTIONARYWDFLT
  2
AcDbDictionaryWithDefault
  3
ObjectDBX Classes
 90
        0
 91
        1
280
     0
281
     0
  0
CLASS
  1
VISUALSTYLE
  2
AcDbVisualStyle
  3
ObjectDBX Classes
 90
     4095
 91
       24
280
     0
281
     0
  0
CLASS
  1
MATERIAL
  2
AcDbMaterial
  3
ObjectDBX Classes
 90
     1153
 91
        3
280
     0
281
     0
  0
CLASS
  1
SCALE
  2
AcDbScale
  3
ObjectDBX Classes
 90
     1153
 91
       33
280
     0
281
     0
  0
CLASS
  1
TABLESTYLE
  2
AcDbTableStyle
  3
ObjectDBX Classes
 90
     4095
 91
        1
280
     0
281
     0
  0
CLASS
  1
MLEADERSTYLE
  2
AcDbMLeaderStyle
  3
ACDB_MLEADERSTYLE_CLASS
 90
     4095
 91
        1
280
     0
281
     0
  0
CLASS
  1
SUN
  2
AcDbSun
  3
SCENEOE
 90
     1153
 91
        1
280
     0
281
     0
  0
CLASS
  1
DICTIONARYVAR
  2
AcDbDictionaryVar
  3
ObjectDBX Classes
 90
        0
 91
        7
280
     0
281
     0
  0
CLASS
  1
ACDBSECTIONVIEWSTYLE
  2
AcDbSectionViewStyle
  3
ObjectDBX Classes
 90
     1025
 91
        1
280
     0
281
     0
  0
CLASS
  1
ACDBDETAILVIEWSTYLE
  2
AcDbDetailViewStyle
  3
ObjectDBX Classes
 90
     1025
 91
        1
280
     0
281
     0
  0
CLASS
  1
SORTENTSTABLE
  2
AcDbSortentsTable
  3
ObjectDBX Classes
 90
        0
 91
        5
280
     0
281
     0
  0
CLASS
  1
DIMASSOC
  2
AcDbDimAssoc
  3
"AcDbDimAssoc|Product Desc:     AcDim ARX App For Dimension|Company:          Autodesk, Inc.|WEB Address:      www.autodesk.com"
 90
        0
 91
        4
280
     0
281
     0
  0
CLASS
  1
CELLSTYLEMAP
  2
AcDbCellStyleMap
  3
ObjectDBX Classes
 90
     1152
 91
        6
280
     0
281
     0
  0
ENDSEC
  0
SECTION
  2
TABLES
  0
TABLE
  2
VPORT
  5
8
330
0
100
AcDbSymbolTable
 70
     1
1001
ACAD
1000
DbSaveVer
1071
      224
  0
VPORT
  5
29
330
8
100
AcDbSymbolTableRecord
100
AcDbViewportTableRecord
  2
*Active
 70
     0
 10
0.0
 20
0.0
 11
1.0
 21
1.0
 12
2161.773304859959
 22
920.6095256927273
 13
0.0
 23
0.0
 14
10.0
 24
10.0
 15
10.0
 25
10.0
 16
0.0
 26
0.0
 36
1.0
 17
0.0
 27
0.0
 37
0.0
 40
5419.566893196916
 41
2.046436285097192
 42
50.0
 43
0.0
 44
0.0
 50
0.0
 51
0.0
 71
     0
 72
   100
 73
     1
 74
     3
 75
     0
 76
     0
 77
     0
 78
     0
281
     0
 65
     1
110
0.0
120
0.0
130
0.0
111
1.0
121
0.0
131
0.0
112
0.0
122
1.0
132
0.0
 79
     0
146
0.0
348
2F
 60
     3
 61
     5
292
     1
282
     1
141
0.0
142
0.0
361
6D
1001
ACAD_NAV_VCDISPLAY
1070
     3
  0
ENDTAB
  0
TABLE
  2
LTYPE
  5
5
330
0
100
AcDbSymbolTable
 70
    11
  0
LTYPE
  5
14
330
5
100
AcDbSymbolTableRecord
100
AcDbLinetypeTableRecord
  2
ByBlock
 70
     0
  3

 72
    65
 73
     0
 40
0.0
  0
LTYPE
  5
15
330
5
100
AcDbSymbolTableRecord
100
AcDbLinetypeTableRecord
  2
ByLayer
 70
     0
  3

 72
    65
 73
     0
 40
0.0
  0
LTYPE
  5
16
330
5
100
AcDbSymbolTableRecord
100
AcDbLinetypeTableRecord
  2
Continuous
 70
     0
  3
Solid line
 72
    65
 73
     0
 40
0.0
  0
LTYPE
  5
6F
330
5
100
AcDbSymbolTableRecord
100
AcDbLinetypeTableRecord
  2
CUSTOM
 70
     0
  3

 72
    65
 73
     0
 40
0.0
  0
LTYPE
  5
70
330
5
100
AcDbSymbolTableRecord
100
AcDbLinetypeTableRecord
  2
SOLID
 70
     0
  3

 72
    65
 73
     0
 40
0.0
  0
LTYPE
  5
71
330
5
100
AcDbSymbolTableRecord
100
AcDbLinetypeTableRecord
  2
DASHED
 70
     0
  3

 72
    65
 73
     2
 40
2.626795013961151
 49
1.313397506980575
 74
     0
 49
-1.313397506980575
 74
     0
  0
LTYPE
  5
72
330
5
100
AcDbSymbolTableRecord
100
AcDbLinetypeTableRecord
  2
LONG_DASH
 70
     0
  3

 72
    65
 73
     2
 40
2.626795013961151
 49
1.970096260470863
 74
     0
 49
-0.6566987534902879
 74
     0
  0
LTYPE
  5
73
330
5
100
AcDbSymbolTableRecord
100
AcDbLinetypeTableRecord
  2
SHORT_DASH
 70
     0
  3

 72
    65
 73
     4
 40
2.626795013961151
 49
0.5253590027922303
 74
     0
 49
-0.7880385041883455
 74
     0
 49
0.5253590027922303
 74
     0
 49
-0.7880385041883455
 74
     0
  0
LTYPE
  5
74
330
5
100
AcDbSymbolTableRecord
100
AcDbLinetypeTableRecord
  2
DOTTED
 70
     0
  3

 72
    65
 73
     8
 40
2.626795013961151
 49
0.1313397506980576
 74
     0
 49
-0.5253590027922303
 74
     0
 49
0.1313397506980576
 74
     0
 49
-0.5253590027922303
 74
     0
 49
0.1313397506980576
 74
     0
 49
-0.5253590027922303
 74
     0
 49
0.1313397506980576
 74
     0
 49
-0.5253590027922303
 74
     0
  0
LTYPE
  5
75
330
5
100
AcDbSymbolTableRecord
100
AcDbLinetypeTableRecord
  2
DOTDASH
 70
     0
  3

 72
    65
 73
     4
 40
2.626795013961151
 49
0.1313397506980576
 74
     0
 49
-0.6566987534902879
 74
     0
 49
1.182057756282518
 74
     0
 49
-0.6566987534902879
 74
     0
  0
LTYPE
  5
76
330
5
100
AcDbSymbolTableRecord
100
AcDbLinetypeTableRecord
  2
DOTDOTDASH
 70
     0
  3

 72
    65
 73
     6
 40
2.626795013961151
 49
0.1313397506980576
 74
     0
 49
-0.3940192520941727
 74
     0
 49
0.1313397506980576
 74
     0
 49
-0.3940192520941727
 74
     0
 49
1.182057756282518
 74
     0
 49
-0.3940192520941727
 74
     0
  0
LTYPE
  5
77
330
5
100
AcDbSymbolTableRecord
100
AcDbLinetypeTableRecord
  2
DASHDASHDOT
 70
     0
  3

 72
    65
 73
     6
 40
2.626795013961151
 49
0.1313397506980576
 74
     0
 49
-0.3940192520941727
 74
     0
 49
0.1313397506980576
 74
     0
 49
-0.3940192520941727
 74
     0
 49
1.182057756282518
 74
     0
 49
-0.3940192520941727
 74
     0
  0
ENDTAB
  0
TABLE
  2
LAYER
  5
2
102
{ACAD_XDICTIONARY
360
374
102
}
330
0
100
AcDbSymbolTable
 70
     3
  0
LAYER
  5
10
330
2
100
AcDbSymbolTableRecord
100
AcDbLayerTableRecord
  2
0
 70
     0
 62
     7
  6
Continuous
370
    -3
390
F
347
46
348
0
  0
LAYER
  5
371
102
{ACAD_XDICTIONARY
360
372
102
}
330
2
100
AcDbSymbolTableRecord
100
AcDbLayerTableRecord
  2
Hewi
 70
     0
 62
     7
  6
Continuous
370
    -3
390
F
347
46
348
0
  0
LAYER
  5
475
330
2
100
AcDbSymbolTableRecord
100
AcDbLayerTableRecord
  2
Defpoints
 70
     0
 62
     7
  6
Continuous
290
     0
370
    -3
390
F
347
46
348
0
  0
ENDTAB
  0
TABLE
  2
STYLE
  5
3
330
0
100
AcDbSymbolTable
 70
     1
  0
STYLE
  5
11
330
3
100
AcDbSymbolTableRecord
100
AcDbTextStyleTableRecord
  2
Standard
 70
     0
 40
0.0
 41
1.0
 50
0.0
 71
     0
 42
2.5
  3
txt
  4

  0
ENDTAB
  0
TABLE
  2
VIEW
  5
6
330
0
100
AcDbSymbolTable
 70
     0
  0
ENDTAB
  0
TABLE
  2
UCS
  5
7
330
0
100
AcDbSymbolTable
 70
     0
  0
ENDTAB
  0
TABLE
  2
APPID
  5
9
330
0
100
AcDbSymbolTable
 70
     4
  0
APPID
  5
12
330
9
100
AcDbSymbolTableRecord
100
AcDbRegAppTableRecord
  2
ACAD
 70
     0
  0
APPID
  5
176
330
9
100
AcDbSymbolTableRecord
100
AcDbRegAppTableRecord
  2
ACAD_NAV_VCDISPLAY
 70
     0
  0
APPID
  5
373
330
9
100
AcDbSymbolTableRecord
100
AcDbRegAppTableRecord
  2
ACAD_PSEXT
 70
     0
  0
APPID
  5
5CB
330
9
100
AcDbSymbolTableRecord
100
AcDbRegAppTableRecord
  2
ACAD_EXEMPT_FROM_CAD_STANDARDS
 70
     0
  0
ENDTAB
  0
TABLE
  2
DIMSTYLE
  5
A
330
0
100
AcDbSymbolTable
 70
     3
100
AcDbDimStyleTable
 71
     2
340
27
340
615
  0
DIMSTYLE
105
27
330
A
100
AcDbSymbolTableRecord
100
AcDbDimStyleTableRecord
  2
ISO-25
 70
     0
 41
2.5
 42
0.625
 43
3.75
 44
1.25
 73
     0
 74
     0
 77
     1
 78
     8
140
2.5
141
2.5
143
0.03937007874016
147
0.625
171
     3
172
     1
271
     2
272
     2
274
     3
278
    44
283
     0
284
     8
340
11
  0
DIMSTYLE
105
615
102
{ACAD_REACTORS
330
617
102
}
330
A
100
AcDbSymbolTableRecord
100
AcDbDimStyleTableRecord
  2
Standard
 70
     0
340
11
  0
ENDTAB
  0
TABLE
  2
BLOCK_RECORD
  5
1
330
0
100
AcDbSymbolTable
 70
    19
  0
BLOCK_RECORD
  5
1F
102
{ACAD_XDICTIONARY
360
5EE
102
}
330
1
100
AcDbSymbolTableRecord
100
AcDbBlockTableRecord
  2
*Model_Space
340
22
 70
     0
280
     1
281
     0
  0
BLOCK_RECORD
  5
1B
330
1
100
AcDbSymbolTableRecord
100
AcDbBlockTableRecord
  2
*Paper_Space
340
1E
 70
     0
280
     1
281
     0
  0
BLOCK_RECORD
  5
23
330
1
100
AcDbSymbolTableRecord
100
AcDbBlockTableRecord
  2
*Paper_Space0
340
26
 70
     0
280
     1
281
     0
  0
BLOCK_RECORD
  5
476
330
1
100
AcDbSymbolTableRecord
100
AcDbBlockTableRecord
  2
*D4
340
0
 70
     0
280
     1
281
     0
  0
BLOCK_RECORD
  5
48E
330
1
100
AcDbSymbolTableRecord
100
AcDbBlockTableRecord
  2
*D5
340
0
 70
     0
280
     1
281
     0
  0
BLOCK_RECORD
  5
5D5
330
1
100
AcDbSymbolTableRecord
100
AcDbBlockTableRecord
  2
*D8
340
0
 70
     0
280
     1
281
     0
  0
BLOCK_RECORD
  5
5F1
330
1
100
AcDbSymbolTableRecord
100
AcDbBlockTableRecord
  2
*D9
340
0
 70
     0
280
     1
281
     0
  0
BLOCK_RECORD
  5
608
330
1
100
AcDbSymbolTableRecord
100
AcDbBlockTableRecord
  2
*D10
340
0
 70
     0
280
     1
281
     0
  0
BLOCK_RECORD
  5
61E
330
1
100
AcDbSymbolTableRecord
100
AcDbBlockTableRecord
  2
*D12
340
0
 70
     0
280
     1
281
     0
  0
ENDTAB
  0
ENDSEC
  0
SECTION
  2
BLOCKS
  0
BLOCK
  5
20
330
1F
100
AcDbEntity
  8
0
100
AcDbBlockBegin
  2
*Model_Space
 70
     0
 10
0.0
 20
0.0
 30
0.0
  3
*Model_Space
  1

  0
ENDBLK
  5
21
330
1F
100
AcDbEntity
  8
0
100
AcDbBlockEnd
  0
BLOCK
  5
1C
330
1B
100
AcDbEntity
 67
     1
  8
0
100
AcDbBlockBegin
  2
*Paper_Space
 70
     0
 10
0.0
 20
0.0
 30
0.0
  3
*Paper_Space
  1

  0
ENDBLK
  5
1D
330
1B
100
AcDbEntity
 67
     1
  8
0
100
AcDbBlockEnd
  0
BLOCK
  5
24
330
23
100
AcDbEntity
 67
     1
  8
0
100
AcDbBlockBegin
  2
*Paper_Space0
 70
     0
 10
0.0
 20
0.0
 30
0.0
  3
*Paper_Space0
  1

  0
ENDBLK
  5
25
330
23
100
AcDbEntity
 67
     1
  8
0
100
AcDbBlockEnd
  0
BLOCK
  5
477
330
476
100
AcDbEntity
  8
0
100
AcDbBlockBegin
  2
*D4
 70
     1
 10
0.0
 20
0.0
 30
0.0
  3
*D4
  1

  0
LINE
  5
483
330
476
100
AcDbEntity
  8
0
 62
     0
440
 16777216
370
    -2
100
AcDbLine
 10
-800.7192584712061
 20
354.7344635462159
 30
0.0
 11
-800.7192584712061
 21
-43.13625633940501
 31
0.0
  0
LINE
  5
484
330
476
100
AcDbEntity
  8
0
 62
     0
440
 16777216
370
    -2
100
AcDbLine
 10
-349.3131849181895
 20
354.2972717940668
 30
0.0
 11
-349.3131849181895
 21
-43.13625633940501
 31
0.0
  0
LINE
  5
485
330
476
100
AcDbEntity
  8
0
 62
     0
440
 16777216
370
    -2
100
AcDbLine
 10
-798.2192584712061
 20
-41.88625633940501
 30
0.0
 11
-351.8131849181895
 21
-41.88625633940501
 31
0.0
  0
SOLID
  5
486
330
476
100
AcDbEntity
  8
0
 62
     0
440
 16777216
100
AcDbTrace
 10
-798.2192584712061
 20
-41.46958967273834
 30
0.0
 11
-798.2192584712061
 21
-42.30292300607167
 31
0.0
 12
-800.7192584712061
 22
-41.88625633940501
 32
0.0
 13
-800.7192584712061
 23
-41.88625633940501
 33
0.0
  0
SOLID
  5
487
330
476
100
AcDbEntity
  8
0
 62
     0
440
 16777216
100
AcDbTrace
 10
-351.8131849181895
 20
-41.46958967273834
 30
0.0
 11
-351.8131849181895
 21
-42.30292300607167
 31
0.0
 12
-349.3131849181895
 22
-41.88625633940501
 32
0.0
 13
-349.3131849181895
 23
-41.88625633940501
 33
0.0
  0
MTEXT
  5
488
330
476
100
AcDbEntity
  8
0
 62
     0
440
 16777216
100
AcDbMText
 10
-575.0162216946978
 20
-39.80292300607167
 30
0.0
 40
2.5
 41
0.0
 46
0.0
 71
     5
 72
     1
  1
451,41
 73
     1
 44
1.0
  0
POINT
  5
489
330
476
100
AcDbEntity
  8
Defpoints
 62
     0
440
 16777216
100
AcDbPoint
 10
-800.7192584712061
 20
355.3594635462159
 30
0.0
  0
POINT
  5
48A
330
476
100
AcDbEntity
  8
Defpoints
 62
     0
440
 16777216
100
AcDbPoint
 10
-349.3131849181895
 20
354.9222717940668
 30
0.0
  0
POINT
  5
48B
330
476
100
AcDbEntity
  8
Defpoints
 62
     0
440
 16777216
100
AcDbPoint
 10
-349.3131849181895
 20
-41.88625633940501
 30
0.0
  0
ENDBLK
  5
478
330
476
100
AcDbEntity
  8
0
100
AcDbBlockEnd
  0
BLOCK
  5
48F
330
48E
100
AcDbEntity
  8
0
100
AcDbBlockBegin
  2
*D5
 70
     1
 10
0.0
 20
0.0
 30
0.0
  3
*D5
  1

  0
LINE
  5
49B
330
48E
100
AcDbEntity
  8
0
 62
     0
440
 16777216
370
    -2
100
AcDbLine
 10
558.9797251066082
 20
268.0084426498826
 30
0.0
 11
558.9797251066082
 21
-29.98344755254766
 31
0.0
  0
LINE
  5
49C
330
48E
100
AcDbEntity
  8
0
 62
     0
440
 16777216
370
    -2
100
AcDbLine
 10
910.3485060788294
 20
268.0084424956772
 30
0.0
 11
910.3485060788294
 21
-29.98344755254766
 31
0.0
  0
LINE
  5
49D
330
48E
100
AcDbEntity
  8
0
 62
     0
440
 16777216
370
    -2
100
AcDbLine
 10
561.4797251066082
 20
-28.73344755254766
 30
0.0
 11
907.8485060788294
 21
-28.73344755254766
 31
0.0
  0
SOLID
  5
49E
330
48E
100
AcDbEntity
  8
0
 62
     0
440
 16777216
100
AcDbTrace
 10
561.4797251066082
 20
-28.31678088588099
 30
0.0
 11
561.4797251066082
 21
-29.15011421921433
 31
0.0
 12
558.9797251066082
 22
-28.73344755254766
 32
0.0
 13
558.9797251066082
 23
-28.73344755254766
 33
0.0
  0
SOLID
  5
49F
330
48E
100
AcDbEntity
  8
0
 62
     0
440
 16777216
100
AcDbTrace
 10
907.8485060788294
 20
-28.31678088588099
 30
0.0
 11
907.8485060788294
 21
-29.15011421921433
 31
0.0
 12
910.3485060788294
 22
-28.73344755254766
 32
0.0
 13
910.3485060788294
 23
-28.73344755254766
 33
0.0
  0
MTEXT
  5
4A0
330
48E
100
AcDbEntity
  8
0
 62
     0
440
 16777216
100
AcDbMText
 10
734.6641155927188
 20
-26.65011421921433
 30
0.0
 40
2.5
 41
0.0
 46
0.0
 71
     5
 72
     1
  1
351,37
 73
     1
 44
1.0
  0
POINT
  5
4A1
330
48E
100
AcDbEntity
  8
Defpoints
 62
     0
440
 16777216
100
AcDbPoint
 10
558.9797251066082
 20
268.6334426498826
 30
0.0
  0
POINT
  5
4A2
330
48E
100
AcDbEntity
  8
Defpoints
 62
     0
440
 16777216
100
AcDbPoint
 10
910.3485060788294
 20
268.6334424956772
 30
0.0
  0
POINT
  5
4A3
330
48E
100
AcDbEntity
  8
Defpoints
 62
     0
440
 16777216
100
AcDbPoint
 10
910.3485060788294
 20
-28.73344755254766
 30
0.0
  0
ENDBLK
  5
490
330
48E
100
AcDbEntity
  8
0
100
AcDbBlockEnd
  0
BLOCK
  5
5D6
330
5D5
100
AcDbEntity
  8
0
100
AcDbBlockBegin
  2
*D8
 70
     1
 10
0.0
 20
0.0
 30
0.0
  3
*D8
  1

  0
LINE
  5
5E2
330
5D5
100
AcDbEntity
  8
0
 62
     0
440
 16777216
370
    -2
100
AcDbLine
 10
253.7974772608703
 20
1375.497280960956
 30
0.0
 11
698.9585352098551
 21
1375.497280960957
 31
0.0
  0
LINE
  5
5E3
330
5D5
100
AcDbEntity
  8
0
 62
     0
440
 16777216
370
    -2
100
AcDbLine
 10
251.8719772506362
 20
931.355280993235
 30
0.0
 11
698.9585352098552
 21
931.3552809932351
 31
0.0
  0
LINE
  5
5E4
330
5D5
100
AcDbEntity
  8
0
 62
     0
440
 16777216
370
    -2
100
AcDbLine
 10
697.708535209855
 20
1372.997280960956
 30
0.0
 11
697.7085352098551
 21
933.8552809932352
 31
0.0
  0
SOLID
  5
5E5
330
5D5
100
AcDbEntity
  8
0
 62
     0
440
 16777216
100
AcDbTrace
 10
697.2918685431884
 20
1372.997280960956
 30
0.0
 11
698.1252018765217
 21
1372.997280960956
 31
0.0
 12
697.708535209855
 22
1375.497280960957
 32
0.0
 13
697.708535209855
 23
1375.497280960957
 33
0.0
  0
SOLID
  5
5E6
330
5D5
100
AcDbEntity
  8
0
 62
     0
440
 16777216
100
AcDbTrace
 10
697.2918685431885
 20
933.8552809932352
 30
0.0
 11
698.1252018765218
 21
933.8552809932352
 31
0.0
 12
697.7085352098551
 22
931.3552809932351
 32
0.0
 13
697.7085352098551
 23
931.3552809932351
 33
0.0
  0
MTEXT
  5
5E7
330
5D5
100
AcDbEntity
  8
0
 62
     0
440
 16777216
100
AcDbMText
 10
695.625201876522
 20
1153.426280977095
 30
0.0
 40
2.5
 41
0.0
 46
0.0
 71
     5
 72
     1
  1
444,14
 11
0.0000000000000001
 21
1.0
 31
0.0
 73
     1
 44
1.0
  0
POINT
  5
5E8
330
5D5
100
AcDbEntity
  8
Defpoints
 62
     0
440
 16777216
100
AcDbPoint
 10
253.1724772608703
 20
1375.497280960956
 30
0.0
  0
POINT
  5
5E9
330
5D5
100
AcDbEntity
  8
Defpoints
 62
     0
440
 16777216
100
AcDbPoint
 10
251.2469772506362
 20
931.355280993235
 30
0.0
  0
POINT
  5
5EA
330
5D5
100
AcDbEntity
  8
Defpoints
 62
     0
440
 16777216
100
AcDbPoint
 10
697.7085352098551
 20
931.3552809932351
 30
0.0
  0
ENDBLK
  5
5D7
330
5D5
100
AcDbEntity
  8
0
100
AcDbBlockEnd
  0
BLOCK
  5
5F2
330
5F1
100
AcDbEntity
  8
0
100
AcDbBlockBegin
  2
*D9
 70
     1
 10
0.0
 20
0.0
 30
0.0
  3
*D9
  1

  0
LINE
  5
B71
330
5F1
100
AcDbEntity
  8
0
 62
     0
440
 16777216
370
    -2
100
AcDbLine
 10
1303.942935917601
 20
1385.436893062689
 30
0.0
 11
1392.283879461031
 21
1385.436893062689
 31
0.0
  0
LINE
  5
B72
330
5F1
100
AcDbEntity
  8
0
 62
     0
440
 16777216
370
    -2
100
AcDbLine
 10
1303.942935917601
 20
935.4368930626886
 30
0.0
 11
1392.283879461031
 21
935.4368930626886
 31
0.0
  0
LINE
  5
B73
330
5F1
100
AcDbEntity
  8
0
 62
     0
440
 16777216
370
    -2
100
AcDbLine
 10
1392.103879461031
 20
1365.436893062688
 30
0.0
 11
1392.103879461031
 21
1252.103559729355
 31
0.0
  0
LINE
  5
B74
330
5F1
100
AcDbEntity
  8
0
 62
     0
440
 16777216
370
    -2
100
AcDbLine
 10
1392.103879461031
 20
955.4368930626885
 30
0.0
 11
1392.103879461031
 21
1068.770226396022
 31
0.0
  0
SOLID
  5
B75
330
5F1
100
AcDbEntity
  8
0
 62
     0
440
 16777216
100
AcDbTrace
 10
1388.770546127698
 20
1365.436893062688
 30
0.0
 11
1395.437212794364
 21
1365.436893062688
 31
0.0
 12
1392.103879461031
 22
1385.436893062689
 32
0.0
 13
1392.103879461031
 23
1385.436893062689
 33
0.0
  0
SOLID
  5
B76
330
5F1
100
AcDbEntity
  8
0
 62
     0
440
 16777216
100
AcDbTrace
 10
1388.770546127698
 20
955.4368930626885
 30
0.0
 11
1395.437212794364
 21
955.4368930626885
 31
0.0
 12
1392.103879461031
 22
935.4368930626886
 32
0.0
 13
1392.103879461031
 23
935.4368930626886
 33
0.0
  0
MTEXT
  5
B77
330
5F1
100
AcDbEntity
  8
0
 62
     0
440
 16777216
100
AcDbMText
 10
1392.103879461031
 20
1160.436893062688
 30
0.0
 40
20.0
 41
0.0
 46
0.0
 71
     5
 72
     1
  1
\A1;450 - 500
 11
0.0000000000000001
 21
1.0
 31
0.0
 73
     1
 44
1.0
  0
POINT
  5
B78
330
5F1
100
AcDbEntity
  8
Defpoints
 62
     0
440
 16777216
100
AcDbPoint
 10
1303.880435917601
 20
1385.436893062689
 30
0.0
  0
POINT
  5
B79
330
5F1
100
AcDbEntity
  8
Defpoints
 62
     0
440
 16777216
100
AcDbPoint
 10
1303.880435917601
 20
935.4368930626886
 30
0.0
  0
POINT
  5
B7A
330
5F1
100
AcDbEntity
  8
Defpoints
 62
     0
440
 16777216
100
AcDbPoint
 10
1392.103879461031
 20
935.4368930626886
 30
0.0
  0
ENDBLK
  5
5F3
330
5F1
100
AcDbEntity
  8
0
100
AcDbBlockEnd
  0
BLOCK
  5
609
330
608
100
AcDbEntity
  8
0
100
AcDbBlockBegin
  2
*D10
 70
     1
 10
0.0
 20
0.0
 30
0.0
  3
*D10
  1

  0
LINE
  5
60A
330
608
100
AcDbEntity
  8
0
 62
     0
440
 16777216
370
    -2
100
AcDbLine
 10
8827.271211518562
 20
3629.287160529622
 30
0.0
 11
8933.579193293446
 21
3629.287160529622
 31
0.0
  0
LINE
  5
60B
330
608
100
AcDbEntity
  8
0
 62
     0
440
 16777216
370
    -2
100
AcDbLine
 10
8827.271211518562
 20
4394.208989478697
 30
0.0
 11
8933.579193293448
 21
4394.208989478697
 31
0.0
  0
LINE
  5
60C
330
608
100
AcDbEntity
  8
0
 62
     0
440
 16777216
370
    -2
100
AcDbLine
 10
8933.399193293446
 20
3649.287160529623
 30
0.0
 11
8933.399193293446
 21
3985.081408337493
 31
0.0
  0
LINE
  5
60D
330
608
100
AcDbEntity
  8
0
 62
     0
440
 16777216
370
    -2
100
AcDbLine
 10
8933.399193293448
 20
4374.208989478697
 30
0.0
 11
8933.399193293446
 21
4038.414741670826
 31
0.0
  0
SOLID
  5
60E
330
608
100
AcDbEntity
  8
0
 62
     0
440
 16777216
100
AcDbTrace
 10
8930.065859960112
 20
3649.287160529623
 30
0.0
 11
8936.73252662678
 21
3649.287160529623
 31
0.0
 12
8933.399193293446
 22
3629.287160529622
 32
0.0
 13
8933.399193293446
 23
3629.287160529622
 33
0.0
  0
SOLID
  5
60F
330
608
100
AcDbEntity
  8
0
 62
     0
440
 16777216
100
AcDbTrace
 10
8930.065859960114
 20
4374.208989478697
 30
0.0
 11
8936.732526626782
 21
4374.208989478697
 31
0.0
 12
8933.399193293448
 22
4394.208989478697
 32
0.0
 13
8933.399193293448
 23
4394.208989478697
 33
0.0
  0
MTEXT
  5
610
330
608
100
AcDbEntity
  8
0
 62
     0
440
 16777216
100
AcDbMText
 10
8933.399193293446
 20
4011.74807500416
 30
0.0
 40
20.0
 41
0.0
 46
0.0
 71
     5
 72
     1
  1
\A1;W1
 11
0.0000000000000001
 21
1.0
 31
0.0
 73
     1
 44
1.0
  0
POINT
  5
611
330
608
100
AcDbEntity
  8
Defpoints
 62
     0
440
 16777216
100
AcDbPoint
 10
8827.208711518563
 20
3629.287160529622
 30
0.0
  0
POINT
  5
612
330
608
100
AcDbEntity
  8
Defpoints
 62
     0
440
 16777216
100
AcDbPoint
 10
8827.208711518563
 20
4394.208989478697
 30
0.0
  0
POINT
  5
613
330
608
100
AcDbEntity
  8
Defpoints
 62
     0
440
 16777216
100
AcDbPoint
 10
8933.399193293448
 20
4394.208989478697
 30
0.0
  0
ENDBLK
  5
614
330
608
100
AcDbEntity
  8
0
100
AcDbBlockEnd
  0
BLOCK
  5
61F
330
61E
100
AcDbEntity
  8
0
100
AcDbBlockBegin
  2
*D12
 70
     1
 10
0.0
 20
0.0
 30
0.0
  3
*D12
  1

  0
LINE
  5
62B
330
61E
100
AcDbEntity
  8
0
 62
     0
440
 16777216
370
    -2
100
AcDbLine
 10
1889.478745376819
 20
886.172568930961
 30
0.0
 11
1995.786727151705
 21
886.172568930961
 31
0.0
  0
LINE
  5
62C
330
61E
100
AcDbEntity
  8
0
 62
     0
440
 16777216
370
    -2
100
AcDbLine
 10
1889.478745376819
 20
1651.094397880036
 30
0.0
 11
1995.786727151705
 21
1651.094397880036
 31
0.0
  0
LINE
  5
62D
330
61E
100
AcDbEntity
  8
0
 62
     0
440
 16777216
370
    -2
100
AcDbLine
 10
1995.606727151705
 20
906.1725689309609
 30
0.0
 11
1995.606727151705
 21
1241.966816738832
 31
0.0
  0
LINE
  5
62E
330
61E
100
AcDbEntity
  8
0
 62
     0
440
 16777216
370
    -2
100
AcDbLine
 10
1995.606727151705
 20
1631.094397880036
 30
0.0
 11
1995.606727151705
 21
1295.300150072165
 31
0.0
  0
SOLID
  5
62F
330
61E
100
AcDbEntity
  8
0
 62
     0
440
 16777216
100
AcDbTrace
 10
1992.273393818372
 20
906.1725689309609
 30
0.0
 11
1998.940060485038
 21
906.1725689309609
 31
0.0
 12
1995.606727151705
 22
886.172568930961
 32
0.0
 13
1995.606727151705
 23
886.172568930961
 33
0.0
  0
SOLID
  5
630
330
61E
100
AcDbEntity
  8
0
 62
     0
440
 16777216
100
AcDbTrace
 10
1992.273393818372
 20
1631.094397880036
 30
0.0
 11
1998.940060485038
 21
1631.094397880036
 31
0.0
 12
1995.606727151705
 22
1651.094397880036
 32
0.0
 13
1995.606727151705
 23
1651.094397880036
 33
0.0
  0
MTEXT
  5
631
330
61E
100
AcDbEntity
  8
0
 62
     0
440
 16777216
100
AcDbMText
 10
1995.606727151705
 20
1268.633483405497
 30
0.0
 40
20.0
 41
0.0
 46
0.0
 71
     5
 72
     1
  1
\A1;W1
 11
0.0000000000000001
 21
1.0
 31
0.0
 73
     1
 44
1.0
  0
POINT
  5
632
330
61E
100
AcDbEntity
  8
Defpoints
 62
     0
440
 16777216
100
AcDbPoint
 10
1889.416245376819
 20
886.172568930961
 30
0.0
  0
POINT
  5
633
330
61E
100
AcDbEntity
  8
Defpoints
 62
     0
440
 16777216
100
AcDbPoint
 10
1889.416245376819
 20
1651.094397880036
 30
0.0
  0
POINT
  5
634
330
61E
100
AcDbEntity
  8
Defpoints
 62
     0
440
 16777216
100
AcDbPoint
 10
1995.606727151705
 20
1651.094397880036
 30
0.0
  0
ENDBLK
  5
620
330
61E
100
AcDbEntity
  8
0
100
AcDbBlockEnd
  0
ENDSEC
  0
SECTION
  2
ENTITIES
  0
LWPOLYLINE
  5
CA5
330
1F
100
AcDbEntity
  8
Hewi
  6
CUSTOM
 62
    18
420
        0
370
     9
100
AcDbPolyline
 90
       30
 70
     0
 43
0.0
 10
1689.309276105599
 20
973.7669861943013
 10
1689.309276105599
 20
1123.766985704631
 10
1689.309276105599
 20
1125.887985697707
 10
1689.309276105599
 20
1127.913985691093
 10
1689.309276105599
 20
1129.164985687008
 10
1689.309276105599
 20
1130.657985682135
 10
1689.309276105599
 20
1132.122985677352
 10
1689.309276105599
 20
1133.14398567402
 10
1689.309276105599
 20
1133.559985672662
 10
1689.309276105599
 20
1133.766985671986
 10
1693.309276246556
 20
1133.766985671986
 10
1693.309276246556
 20
1133.375985673261
 10
1693.309276246556
 20
1132.243985676958
 10
1693.309276246556
 20
1131.110985680656
 10
1693.309276246556
 20
1130.33498568319
 10
1693.309276246556
 20
1128.096985690496
 10
1693.309276246556
 20
1125.547985698817
 10
1693.309276246556
 20
1123.766985704631
 10
1693.309276246556
 20
973.7669861943013
 10
1693.643276258324
 20
971.9709862001636
 10
1694.46327628722
 20
970.5719862047317
 10
1695.687276330351
 20
969.5089862082005
 10
1696.947276374751
 20
968.9559862100068
 10
1698.309276422747
 20
968.7669862106249
 10
1718.309277127515
 20
968.7669862106249
 10
1720.105277190807
 20
969.1009862095325
 10
1721.504277240103
 20
969.9209862068565
 10
1722.567277277561
 20
971.1449862028603
 10
1723.12027729705
 20
972.4049861987477
 10
1723.30927730371
 20
973.7669861943013
  0
LWPOLYLINE
  5
CA6
330
1F
100
AcDbEntity
  8
Hewi
  6
CUSTOM
 62
    18
420
        0
370
     9
100
AcDbPolyline
 90
        3
 70
     0
 43
0.0
 10
1727.309277444659
 20
973.7669861943013
 10
1727.010277434125
 20
971.4659862018143
 10
1726.708277423488
 20
970.533986204855
  0
LWPOLYLINE
  5
CA7
330
1F
100
AcDbEntity
  8
Hewi
  6
CUSTOM
 62
    18
420
        0
370
     9
100
AcDbPolyline
 90
       19
 70
     0
 43
0.0
 10
1723.30927730371
 20
993.0845169718741
 10
1723.30927730371
 20
1123.766985704631
 10
1723.30927730371
 20
1125.887985697707
 10
1723.30927730371
 20
1127.913985691093
 10
1723.30927730371
 20
1129.164985687008
 10
1723.30927730371
 20
1130.657985682135
 10
1723.30927730371
 20
1132.122985677352
 10
1723.30927730371
 20
1133.14398567402
 10
1723.30927730371
 20
1133.559985672662
 10
1723.30927730371
 20
1133.766985671986
 10
1727.309277444659
 20
1133.766985671986
 10
1727.309277444659
 20
1133.375985673261
 10
1727.309277444659
 20
1132.243985676958
 10
1727.309277444659
 20
1131.110985680656
 10
1727.309277444659
 20
1130.33498568319
 10
1727.309277444659
 20
1128.096985690496
 10
1727.309277444659
 20
1125.547985698817
 10
1727.309277444659
 20
1123.766985704631
 10
1727.309277444659
 20
994.6432983820104
  0
LINE
  5
CA8
330
1F
100
AcDbEntity
  8
Hewi
  6
CUSTOM
 62
    18
420
        0
370
     9
100
AcDbLine
 10
1726.708277423488
 20
970.533986204855
 30
0.0
 11
1727.309277444659
 21
973.7669861943013
 31
0.0
  0
LINE
  5
CA9
330
1F
100
AcDbEntity
  8
Hewi
  6
CUSTOM
 62
    18
420
        0
370
     9
100
AcDbLine
 10
1698.309276422747
 20
964.7669862236817
 30
0.0
 11
1718.309277127515
 21
964.7669862236817
 31
0.0
  0
LWPOLYLINE
  5
CAA
330
1F
100
AcDbEntity
  8
Hewi
  6
CUSTOM
 62
    18
420
        0
370
     9
100
AcDbPolyline
 90
        3
 70
     0
 43
0.0
 10
1692.55827622009
 20
966.8439862169016
 10
1694.34527628306
 20
965.6869862206786
 10
1694.821275785627
 20
965.5174622986088
  0
LINE
  5
CAB
330
1F
100
AcDbEntity
  8
Hewi
  6
CUSTOM
 62
    18
420
        0
370
     9
100
AcDbLine
 10
1718.309277127515
 20
964.7669862236817
 30
0.0
 11
1720.761277213922
 21
965.1079862225687
 31
0.0
  0
LWPOLYLINE
  5
CAC
330
1F
100
AcDbEntity
  8
Hewi
  6
CUSTOM
 62
    18
420
        0
370
     9
100
AcDbPolyline
 90
        4
 70
     0
 43
0.0
 10
1725.232277371473
 20
968.0159862130748
 10
1725.129277367843
 20
967.8939862134738
 10
1723.203277299974
 20
966.2139862189578
 10
1723.028277293808
 20
966.102986219319
  0
LWPOLYLINE
  5
CAD
330
1F
100
AcDbEntity
  8
Hewi
  6
CUSTOM
 62
    18
420
        0
370
     9
100
AcDbPolyline
 90
        4
 70
     0
 43
0.0
 10
1692.55827622009
 20
966.8439862169016
 10
1692.498276217975
 20
966.8939862167372
 10
1690.995276165013
 20
968.5219862114227
 10
1690.645276152678
 20
969.0479862097054
  0
LINE
  5
CAE
330
1F
100
AcDbEntity
  8
Hewi
  6
CUSTOM
 62
    18
420
        0
370
     9
100
AcDbLine
 10
1723.028277293808
 20
966.102986219319
 30
0.0
 11
1725.232277371473
 21
968.0159862130748
 31
0.0
  0
LWPOLYLINE
  5
CAF
330
1F
100
AcDbEntity
  8
Hewi
  6
CUSTOM
 62
    18
420
        0
370
     9
100
AcDbPolyline
 90
        3
 70
     0
 43
0.0
 10
1718.309277127515
 20
964.7669862236817
 10
1719.27027716138
 20
964.8179862235174
 10
1720.761277213922
 20
965.1079862225687
  0
LINE
  5
CB0
330
1F
100
AcDbEntity
  8
Hewi
  6
CUSTOM
 62
    18
420
        0
370
     9
100
AcDbLine
 10
1689.309276105599
 20
973.7669861943013
 30
0.0
 11
1689.650276117612
 21
971.3149862023074
 31
0.0
  0
LWPOLYLINE
  5
CB1
330
1F
100
AcDbEntity
  8
Hewi
  6
CUSTOM
 62
    18
420
        0
370
     9
100
AcDbPolyline
 90
        3
 70
     0
 43
0.0
 10
1689.309276105599
 20
973.7669861943013
 10
1689.557276114338
 20
971.6689862011516
 10
1689.650276117612
 20
971.3149862023074
  0
LWPOLYLINE
  5
CB2
330
1F
100
AcDbEntity
  8
Hewi
  6
CUSTOM
 62
    18
420
        0
370
     9
100
AcDbPolyline
 90
        3
 70
     0
 43
0.0
 10
1690.645276152678
 20
969.0479862097054
 10
1690.214276137489
 20
969.8329862071441
 10
1689.650276117612
 20
971.3149862023074
  0
LINE
  5
CB3
330
1F
100
AcDbEntity
  8
Hewi
  6
CUSTOM
 62
    18
420
        0
370
     9
100
AcDbLine
 10
1690.645276152678
 20
969.0479862097054
 30
0.0
 11
1692.55827622009
 21
966.8439862169016
 31
0.0
  0
LINE
  5
CB4
330
1F
100
AcDbEntity
  8
Hewi
  6
CUSTOM
 62
    18
420
        0
370
     9
100
AcDbLine
 10
1725.232277371473
 20
968.0159862130748
 30
0.0
 11
1726.708277423488
 21
970.533986204855
 31
0.0
  0
LINE
  5
CB5
330
1F
100
AcDbEntity
  8
Hewi
  6
CUSTOM
 62
    18
420
        0
370
     9
100
AcDbLine
 10
1689.650276117612
 20
971.3149862023074
 30
0.0
 11
1690.645276152678
 21
969.0479862097054
 31
0.0
  0
LWPOLYLINE
  5
CB6
330
1F
100
AcDbEntity
  8
Hewi
  6
CUSTOM
 62
    18
420
        0
370
     9
100
AcDbPolyline
 90
        3
 70
     0
 43
0.0
 10
1698.309276422747
 20
964.7669862236817
 10
1696.274276351036
 20
964.9999862229215
 10
1695.07627630882
 20
965.3679862217195
  0
LWPOLYLINE
  5
CB7
330
1F
100
AcDbEntity
  8
Hewi
  6
CUSTOM
 62
    18
420
        0
370
     9
100
AcDbPolyline
 90
        3
 70
     0
 43
0.0
 10
1725.232277371473
 20
968.0159862130748
 10
1726.251277407384
 20
969.5339862081199
 10
1726.513787602944
 20
970.2021939529222
  0
LINE
  5
CB8
330
1F
100
AcDbEntity
  8
Hewi
  6
CUSTOM
 62
    18
420
        0
370
     9
100
AcDbLine
 10
1720.761277213922
 20
965.1079862225687
 30
0.0
 11
1723.028277293808
 21
966.102986219319
 31
0.0
  0
LINE
  5
CB9
330
1F
100
AcDbEntity
  8
Hewi
  6
CUSTOM
 62
    18
420
        0
370
     9
100
AcDbLine
 10
1692.55827622009
 20
966.8439862169016
 30
0.0
 11
1695.07627630882
 21
965.3679862217195
 31
0.0
  0
LWPOLYLINE
  5
CBA
330
1F
100
AcDbEntity
  8
Hewi
  6
CUSTOM
 62
    18
420
        0
370
     9
100
AcDbPolyline
 90
        3
 70
     0
 43
0.0
 10
1720.761277213922
 20
965.1079862225687
 10
1720.915277219348
 20
965.1529862224215
 10
1721.825575182145
 20
965.5751130149637
  0
LWPOLYLINE
  5
CBB
330
1F
100
AcDbEntity
  8
Hewi
  6
CUSTOM
 62
    18
420
        0
370
     9
100
AcDbPolyline
 90
       10
 70
     0
 43
0.0
 10
1693.309276246556
 20
1131.266985680147
 10
1699.309276457985
 20
1131.266985680147
 10
1699.309276457985
 20
1131.14698568054
 10
1699.309276457985
 20
1130.578985682392
 10
1699.309276457985
 20
1129.579985685655
 10
1699.309276457985
 20
1128.692985688549
 10
1699.309276457985
 20
1127.013985694031
 10
1699.309276457985
 20
1125.10298570027
 10
1699.309276457985
 20
1123.766985704631
 10
1699.309276457985
 20
968.7669862106249
  0
LINE
  5
CBC
330
1F
100
AcDbEntity
  8
Hewi
  6
CUSTOM
 62
    18
420
        0
370
     9
100
AcDbLine
 10
1694.444336741038
 20
970.6042989199177
 30
0.0
 11
1694.479396908875
 21
970.5579860209564
 31
0.0
  0
LINE
  5
CBD
330
1F
100
AcDbEntity
  8
Hewi
  6
CUSTOM
 62
    18
420
        0
370
     9
100
AcDbLine
 10
1695.074023996971
 20
970.0415737942986
 30
0.0
 11
1695.738984506402
 21
969.4862920516298
 31
0.0
  0
LINE
  5
CBE
330
1F
100
AcDbEntity
  8
Hewi
  6
CUSTOM
 62
    18
420
        0
370
     9
100
AcDbLine
 10
1695.60444273597
 20
969.580924207692
 30
0.0
 11
1695.726113876637
 21
969.4919408395854
 31
0.0
  0
LINE
  5
CBF
330
1F
100
AcDbEntity
  8
Hewi
  6
CUSTOM
 62
    18
420
        0
370
     9
100
AcDbLine
 10
1693.66131388284
 20
971.9453621520152
 30
0.0
 11
1693.662798682577
 21
971.9376790334591
 31
0.0
  0
LWPOLYLINE
  5
CC0
330
1F
100
AcDbEntity
  8
Hewi
  6
CUSTOM
 62
    18
420
        0
370
     9
100
AcDbPolyline
 90
        8
 70
     0
 43
0.0
 10
1717.309277092277
 20
990.7463397157716
 10
1717.309277092277
 20
1123.766985704631
 10
1717.309277092277
 20
1125.810985697959
 10
1717.309277092277
 20
1127.698985691793
 10
1717.309277092277
 20
1129.535985685799
 10
1717.309277092277
 20
1130.765985681782
 10
1717.309277092277
 20
1131.266985680147
 10
1723.30927730371
 20
1131.266985680147
  0
LINE
  5
CC1
330
1F
100
AcDbEntity
  8
Hewi
  6
CUSTOM
 62
    18
420
        0
370
     9
100
AcDbLine
 10
1723.30927730371
 20
973.7669861943013
 30
0.0
 11
1723.30927730371
 21
975.9125296023976
 31
0.0
  0
LINE
  5
CC2
330
1F
100
AcDbEntity
  8
Hewi
  6
CUSTOM
 62
    18
420
        0
370
     9
100
AcDbLine
 10
1717.309277092277
 20
968.7669862106249
 30
0.0
 11
1717.309277092277
 21
973.5743523835463
 31
0.0
  0
LINE
  5
CC3
330
1F
100
AcDbEntity
  8
Hewi
  6
CUSTOM
 62
    18
420
        0
370
     9
100
AcDbLine
 10
1723.089650879883
 20
972.3989222888794
 30
0.0
 11
1723.134489188665
 21
972.5074020640112
 31
0.0
  0
LINE
  5
CC4
330
1F
100
AcDbEntity
  8
Hewi
  6
CUSTOM
 62
    18
420
        0
370
     9
100
AcDbLine
 10
1722.598796669495
 20
971.216802534489
 30
0.0
 11
1722.538349598791
 21
971.1116771981851
 31
0.0
  0
LINE
  5
CC5
330
1F
100
AcDbEntity
  8
Hewi
  6
CUSTOM
 62
    18
420
        0
370
     9
100
AcDbLine
 10
1722.521270035613
 20
971.0920107907694
 30
0.0
 11
1722.682741611348
 21
971.4080694830427
 31
0.0
  0
LINE
  5
CC6
330
1F
100
AcDbEntity
  8
Hewi
  6
CUSTOM
 62
    18
420
        0
370
     9
100
AcDbLine
 10
1696.066990172923
 20
969.3423340281642
 30
0.0
 11
1697.120246203314
 21
968.9319837876936
 31
0.0
  0
LINE
  5
CC7
330
1F
100
AcDbEntity
  8
Hewi
  6
CUSTOM
 62
    18
420
        0
370
     9
100
AcDbLine
 10
1721.54811742008
 20
969.9714663371869
 30
0.0
 11
1721.377441138989
 21
969.8466433901502
 31
0.0
  0
LINE
  5
CC8
330
1F
100
AcDbEntity
  8
Hewi
  6
CUSTOM
 62
    18
420
        0
370
     9
100
AcDbLine
 10
1720.099805300164
 20
969.0999686084142
 30
0.0
 11
1721.57033406783
 21
969.9970478993218
 31
0.0
  0
LINE
  5
CC9
330
1F
100
AcDbEntity
  8
Hewi
  6
CUSTOM
 62
    18
420
        0
370
     9
100
AcDbLine
 10
1723.155229770491
 20
972.6568659219502
 30
0.0
 11
1723.051147257542
 21
972.2474747201212
 31
0.0
  0
LINE
  5
CCA
330
1F
100
AcDbEntity
  8
Hewi
  6
CUSTOM
 62
    18
420
        0
370
     9
100
AcDbLine
 10
1723.02185263926
 20
972.1807274940365
 30
0.0
 11
1723.30927730371
 21
973.7669861943013
 31
0.0
  0
LWPOLYLINE
  5
CCB
330
1F
100
AcDbEntity
  8
Hewi
  6
CUSTOM
 62
    18
420
        0
370
     9
100
AcDbPolyline
 90
        3
 70
     0
 43
0.0
 10
1694.309276281794
 20
1186.766985498969
 10
1694.319276282145
 20
1188.525985493228
 10
1694.361750325104
 20
1188.974617554706
  0
LINE
  5
CCC
330
1F
100
AcDbEntity
  8
Hewi
  6
CUSTOM
 62
    18
420
        0
370
     9
100
AcDbLine
 10
1694.465735612011
 20
1190.053376442409
 30
0.0
 11
1694.473997932538
 21
1190.074847421682
 31
0.0
  0
LINE
  5
CCD
330
1F
100
AcDbEntity
  8
Hewi
  6
CUSTOM
 62
    18
420
        0
370
     9
100
AcDbLine
 10
1694.368346213116
 20
970.7339461682405
 30
0.0
 11
1694.491603533217
 21
970.5473850242597
 31
0.0
  0
LINE
  5
CCE
330
1F
100
AcDbEntity
  8
Hewi
  6
CUSTOM
 62
    18
420
        0
370
     9
100
AcDbLine
 10
1697.261909762674
 20
1191.730959875536
 30
0.0
 11
1697.746281028467
 21
1191.759104833225
 31
0.0
  0
LINE
  5
CCF
330
1F
100
AcDbEntity
  8
Hewi
  6
CUSTOM
 62
    18
420
        0
370
     9
100
AcDbLine
 10
1693.681809686681
 20
971.905244414971
 30
0.0
 11
1693.640445114844
 21
971.9862099497513
 31
0.0
  0
LINE
  5
CD0
330
1F
100
AcDbEntity
  8
Hewi
  6
CUSTOM
 62
    18
420
        0
370
     9
100
AcDbLine
 10
1720.102692430973
 20
969.1005055248606
 30
0.0
 11
1720.112438020544
 21
969.1051834076715
 31
0.0
  0
LINE
  5
CD1
330
1F
100
AcDbEntity
  8
Hewi
  6
CUSTOM
 62
    18
420
        0
370
     9
100
AcDbLine
 10
1695.07627630882
 20
965.3679862217195
 30
0.0
 11
1698.309276422747
 21
964.7669862236817
 31
0.0
  0
LINE
  5
CD2
330
1F
100
AcDbEntity
  8
Hewi
  6
CUSTOM
 62
    18
420
        0
370
     9
100
AcDbLine
 10
1727.309277444659
 20
977.4713135271031
 30
0.0
 11
1727.309277444659
 21
973.7669861943013
 31
0.0
  0
LINE
  5
CD3
330
1F
100
AcDbEntity
  8
Hewi
  6
CUSTOM
 62
    18
420
        0
370
     9
100
AcDbLine
 10
1693.562547245852
 20
972.4050859025355
 30
0.0
 11
1693.753441757122
 21
971.7830331225068
 31
0.0
  0
LINE
  5
CD4
330
1F
100
AcDbEntity
  8
Hewi
  6
CUSTOM
 62
    18
420
        0
370
     9
100
AcDbLine
 10
1722.547567120546
 20
971.1277076724382
 30
0.0
 11
1722.573783009855
 21
971.1598093729971
 31
0.0
  0
LWPOLYLINE
  5
CD5
330
1F
100
AcDbEntity
  8
Hewi
  6
CUSTOM
 62
    18
420
        0
370
     9
100
AcDbPolyline
 90
        3
 70
     0
 43
0.0
 10
1749.568278229035
 20
1215.825985404106
 10
1749.411278223506
 20
1215.888985403902
 10
1748.983996069382
 20
1216.013199724453
  0
LWPOLYLINE
  5
CD6
330
1F
100
AcDbEntity
  8
Hewi
  6
CUSTOM
 62
    18
420
        0
370
     9
100
AcDbPolyline
 90
        9
 70
     0
 43
0.0
 10
1754.961261450884
 20
1211.487576075384
 10
1755.564278440328
 20
1210.637985421042
 10
1756.09727845911
 20
1209.636985424309
 10
1756.119278459882
 20
1209.588985424467
 10
1757.002278491
 20
1207.018985432856
 10
1757.080278493751
 20
1206.648985434065
 10
1757.309278501816
 20
1204.266985441842
 10
1757.291278501183
 20
1203.587985444055
 10
1757.253942841187
 20
1203.317069402033
  0
LINE
  5
CD7
330
1F
100
AcDbEntity
  8
Hewi
  6
CUSTOM
 62
    18
420
        0
370
     9
100
AcDbLine
 10
1695.788640629343
 20
1191.507810574259
 30
0.0
 11
1696.214922184823
 21
1191.623112787192
 31
0.0
  0
LWPOLYLINE
  5
CD8
330
1F
100
AcDbEntity
  8
Hewi
  6
CUSTOM
 62
    18
420
        0
370
     9
100
AcDbPolyline
 90
        3
 70
     0
 43
0.0
 10
1747.235278146829
 20
1216.52898540181
 10
1747.151278143865
 20
1216.545985401757
 10
1744.809278061333
 20
1216.766985401035
  0
LWPOLYLINE
  5
CD9
330
1F
100
AcDbEntity
  8
Hewi
  6
CUSTOM
 62
    18
420
        0
370
     9
100
AcDbPolyline
 90
        6
 70
     0
 43
0.0
 10
1749.568278229035
 20
1215.825985404106
 10
1751.02827828049
 20
1215.109985406443
 10
1752.123278319075
 20
1214.403985408749
 10
1753.980278384511
 20
1212.759985414114
 10
1754.373278398358
 20
1212.315985415565
 10
1754.576111357321
 20
1212.030214053657
  0
LWPOLYLINE
  5
CDA
330
1F
100
AcDbEntity
  8
Hewi
  6
CUSTOM
 62
    18
420
        0
370
     9
100
AcDbPolyline
 90
        6
 70
     0
 43
0.0
 10
1753.800278378166
 20
1195.582985470189
 10
1755.98227845506
 20
1198.661985460137
 10
1756.697278480253
 20
1200.403985454452
 10
1756.973278489979
 20
1201.386985451241
 10
1757.010278491281
 20
1201.548985450714
 10
1757.131026076186
 20
1202.42515739426
  0
LWPOLYLINE
  5
CDB
330
1F
100
AcDbEntity
  8
Hewi
  6
CUSTOM
 62
    18
420
        0
370
     9
100
AcDbPolyline
 90
        3
 70
     0
 43
0.0
 10
1755.269278429932
 20
1203.351985444828
 10
1755.309278431341
 20
1204.265985441843
 10
1755.119278424645
 20
1206.254985435351
  0
LINE
  5
CDC
330
1F
100
AcDbEntity
  8
Hewi
  6
CUSTOM
 62
    18
420
        0
370
     9
100
AcDbLine
 10
1694.896515599324
 20
1190.942790309316
 30
0.0
 11
1695.179286375922
 21
1191.193048853854
 31
0.0
  0
LWPOLYLINE
  5
CDD
330
1F
100
AcDbEntity
  8
Hewi
  6
CUSTOM
 62
    18
420
        0
370
     9
100
AcDbPolyline
 90
        3
 70
     0
 43
0.0
 10
1736.840638550162
 20
1194.716745835287
 10
1736.33027776255
 20
1195.082985471821
 10
1735.305277726431
 20
1196.146985468347
  0
LINE
  5
CDE
330
1F
100
AcDbEntity
  8
Hewi
  6
CUSTOM
 62
    18
420
        0
370
     9
100
AcDbLine
 10
1748.400278187877
 20
1214.133985409631
 30
0.0
 11
1746.180278109652
 21
1214.676985407857
 31
0.0
  0
LWPOLYLINE
  5
CDF
330
1F
100
AcDbEntity
  8
Hewi
  6
CUSTOM
 62
    18
420
        0
370
     9
100
AcDbPolyline
 90
        7
 70
     0
 43
0.0
 10
1744.809278061333
 20
1191.766985482647
 10
1742.269277971831
 20
1192.027985481794
 10
1741.700277951782
 20
1192.159985481363
 10
1739.835277886061
 20
1192.798985479277
 10
1738.823277850399
 20
1193.293985477661
 10
1737.379277799515
 20
1194.214985474655
 10
1735.305277726431
 20
1196.146985468347
  0
LINE
  5
CE0
330
1F
100
AcDbEntity
  8
Hewi
  6
CUSTOM
 62
    18
420
        0
370
     9
100
AcDbLine
 10
1757.253942841187
 20
1203.317069402033
 30
0.0
 11
1757.131026076186
 21
1202.42515739426
 31
0.0
  0
LWPOLYLINE
  5
CE1
330
1F
100
AcDbEntity
  8
Hewi
  6
CUSTOM
 62
    18
420
        0
370
     9
100
AcDbPolyline
 90
        5
 70
     0
 43
0.0
 10
1750.831278273545
 20
1193.3129854776
 10
1750.799278272418
 20
1193.295985477656
 10
1747.907278170507
 20
1192.156985481373
 10
1747.900278170262
 20
1192.15498548138
 10
1744.809278061333
 20
1191.766985482647
  0
LWPOLYLINE
  5
CE2
330
1F
100
AcDbEntity
  8
Hewi
  6
CUSTOM
 62
    18
420
        0
370
     9
100
AcDbPolyline
 90
        3
 70
     0
 43
0.0
 10
1753.800278378166
 20
1195.582985470189
 10
1753.443278365586
 20
1195.227985471347
 10
1752.574635051132
 20
1194.525470217833
  0
LWPOLYLINE
  5
CE3
330
1F
100
AcDbEntity
  8
Hewi
  6
CUSTOM
 62
    18
420
        0
370
     9
100
AcDbPolyline
 90
       11
 70
     0
 43
0.0
 10
1734.329277692039
 20
1211.080985419598
 10
1735.110277719559
 20
1212.152985416096
 10
1736.134277755642
 20
1213.266985412461
 10
1736.53627776981
 20
1213.636985411252
 10
1737.462277802438
 20
1214.379985408828
 10
1738.385277834964
 20
1214.989985406835
 10
1740.029277892896
 20
1215.816985404135
 10
1740.07727789459
 20
1215.836985404072
 10
1742.398277976379
 20
1216.531985401801
 10
1742.848277992234
 20
1216.61198540154
 10
1744.809278061333
 20
1216.766985401035
  0
LINE
  5
CE4
330
1F
100
AcDbEntity
  8
Hewi
  6
CUSTOM
 62
    18
420
        0
370
     9
100
AcDbLine
 10
1732.82527763904
 20
1207.820985430238
 30
0.0
 11
1734.329277692039
 21
1211.080985419598
 31
0.0
  0
LWPOLYLINE
  5
CE5
330
1F
100
AcDbEntity
  8
Hewi
  6
CUSTOM
 62
    18
420
        0
370
     9
100
AcDbPolyline
 90
        3
 70
     0
 43
0.0
 10
1753.800278378166
 20
1195.582985470189
 10
1755.38527843402
 20
1197.603985463591
 10
1755.509189405264
 20
1197.86842959935
  0
LWPOLYLINE
  5
CE6
330
1F
100
AcDbEntity
  8
Hewi
  6
CUSTOM
 62
    18
420
        0
370
     9
100
AcDbPolyline
 90
        3
 70
     0
 43
0.0
 10
1734.329277692039
 20
1211.080985419598
 10
1733.481277662155
 20
1209.551985424588
 10
1732.82527763904
 20
1207.820985430238
  0
LINE
  5
CE7
330
1F
100
AcDbEntity
  8
Hewi
  6
CUSTOM
 62
    18
420
        0
370
     9
100
AcDbLine
 10
1752.550278334122
 20
1197.172985464998
 30
0.0
 11
1753.90227838176
 21
1199.01698545898
 31
0.0
  0
LWPOLYLINE
  5
CE8
330
1F
100
AcDbEntity
  8
Hewi
  6
CUSTOM
 62
    18
420
        0
370
     9
100
AcDbPolyline
 90
        4
 70
     0
 43
0.0
 10
1732.309277620858
 20
1204.266985441842
 10
1732.364277622793
 20
1205.433985438032
 10
1732.530277628644
 20
1206.608985434197
 10
1732.82527763904
 20
1207.820985430238
  0
LINE
  5
CE9
330
1F
100
AcDbEntity
  8
Hewi
  6
CUSTOM
 62
    18
420
        0
370
     9
100
AcDbLine
 10
1742.091277965559
 20
1194.124985474949
 30
0.0
 11
1744.351278045196
 21
1193.776985476084
 31
0.0
  0
LWPOLYLINE
  5
CEA
330
1F
100
AcDbEntity
  8
Hewi
  6
CUSTOM
 62
    18
420
        0
370
     9
100
AcDbPolyline
 90
        7
 70
     0
 43
0.0
 10
1735.305277726431
 20
1196.146985468347
 10
1734.938277713496
 20
1196.597985466875
 10
1734.255277689434
 20
1197.568985463707
 10
1734.189277687106
 20
1197.67498546336
 10
1732.933277642842
 20
1200.364985454578
 10
1732.788277637733
 20
1200.838985453032
 10
1732.309277620858
 20
1204.266985441842
  0
LINE
  5
CEB
330
1F
100
AcDbEntity
  8
Hewi
  6
CUSTOM
 62
    18
420
        0
370
     9
100
AcDbLine
 10
1752.234278322979
 20
1211.691985417603
 30
0.0
 11
1750.451278260152
 21
1213.122985412929
 31
0.0
  0
LINE
  5
CEC
330
1F
100
AcDbEntity
  8
Hewi
  6
CUSTOM
 62
    18
420
        0
370
     9
100
AcDbLine
 10
1754.576111357321
 20
1212.030214053657
 30
0.0
 11
1754.961261450884
 21
1211.487576075384
 31
0.0
  0
LINE
  5
CED
330
1F
100
AcDbEntity
  8
Hewi
  6
CUSTOM
 62
    18
420
        0
370
     9
100
AcDbLine
 10
1755.683428150416
 20
1198.240280565542
 30
0.0
 11
1755.509189405264
 21
1197.86842959935
 31
0.0
  0
LWPOLYLINE
  5
CEE
330
1F
100
AcDbEntity
  8
Hewi
  6
CUSTOM
 62
    18
420
        0
370
     9
100
AcDbPolyline
 90
        3
 70
     0
 43
0.0
 10
1752.042664149972
 20
1194.095238768082
 10
1751.843278309203
 20
1193.933985475572
 10
1750.831278273545
 20
1193.3129854776
  0
LINE
  5
CEF
330
1F
100
AcDbEntity
  8
Hewi
  6
CUSTOM
 62
    18
420
        0
370
     9
100
AcDbLine
 10
1752.574635051132
 20
1194.525470217833
 30
0.0
 11
1752.042664149972
 21
1194.095238768082
 31
0.0
  0
LWPOLYLINE
  5
CF0
330
1F
100
AcDbEntity
  8
Hewi
  6
CUSTOM
 62
    18
420
        0
370
     9
100
AcDbPolyline
 90
        4
 70
     0
 43
0.0
 10
1735.108277719486
 20
1208.284985428723
 10
1734.469277696971
 20
1206.089985435889
 10
1734.309277691332
 20
1204.266985441842
 10
1734.558277700107
 20
1201.99398544926
  0
LWPOLYLINE
  5
CF1
330
1F
100
AcDbEntity
  8
Hewi
  6
CUSTOM
 62
    18
420
        0
370
     9
100
AcDbPolyline
 90
        3
 70
     0
 43
0.0
 10
1732.660791008049
 20
1201.751353212023
 10
1732.341277621981
 20
1203.376985444746
 10
1732.309277620858
 20
1204.266985441842
  0
LINE
  5
CF2
330
1F
100
AcDbEntity
  8
Hewi
  6
CUSTOM
 62
    18
420
        0
370
     9
100
AcDbLine
 10
1744.809278061333
 20
1216.766985401035
 30
0.0
 11
1747.235278146829
 21
1216.52898540181
 31
0.0
  0
LINE
  5
CF3
330
1F
100
AcDbEntity
  8
Hewi
  6
CUSTOM
 62
    18
420
        0
370
     9
100
AcDbLine
 10
1747.933857520125
 20
1216.318483352903
 30
0.0
 11
1748.983996069382
 21
1216.013199724453
 31
0.0
  0
LINE
  5
CF4
330
1F
100
AcDbEntity
  8
Hewi
  6
CUSTOM
 62
    18
420
        0
370
     9
100
AcDbLine
 10
1747.235278146829
 20
1216.52898540181
 30
0.0
 11
1749.568278229035
 21
1215.825985404106
 31
0.0
  0
LWPOLYLINE
  5
CF5
330
1F
100
AcDbEntity
  8
Hewi
  6
CUSTOM
 62
    18
420
        0
370
     9
100
AcDbPolyline
 90
       11
 70
     0
 43
0.0
 10
1699.309276457985
 20
1191.766985482647
 10
1697.881276407668
 20
1191.766985482647
 10
1695.802276334401
 20
1191.766985482647
 10
1693.88527626685
 20
1191.766985482647
 10
1692.065276202717
 20
1191.766985482647
 10
1690.649276152817
 20
1191.766985482647
 10
1690.050276131711
 20
1191.605985483173
 10
1689.6442761174
 20
1191.125985484739
 10
1689.424276109654
 20
1190.35098548727
 10
1689.317276105881
 20
1188.727985492567
 10
1689.309276105599
 20
1186.766985498969
  0
LWPOLYLINE
  5
CF6
330
1F
100
AcDbEntity
  8
Hewi
  6
CUSTOM
 62
    18
420
        0
370
     9
100
AcDbPolyline
 90
       11
 70
     0
 43
0.0
 10
1689.309276105599
 20
1186.766985498969
 10
1689.309276105599
 20
1216.766985401035
 10
1689.984276129387
 20
1216.766985401035
 10
1691.033276166348
 20
1216.766985401035
 10
1692.489276217657
 20
1216.766985401035
 10
1693.656276258782
 20
1216.766985401035
 10
1695.420276320943
 20
1216.766985401035
 10
1696.512276359422
 20
1216.766985401035
 10
1697.802276404877
 20
1216.766985401035
 10
1699.309276457985
 20
1216.766985401035
 10
1744.809278061333
 20
1216.766985401035
  0
LWPOLYLINE
  5
CF7
330
1F
100
AcDbEntity
  8
Hewi
  6
CUSTOM
 62
    18
420
        0
370
     9
100
AcDbPolyline
 90
       14
 70
     0
 43
0.0
 10
1694.309276281794
 20
1186.766985498969
 10
1694.309276281794
 20
1161.766985580581
 10
1694.309276281794
 20
1160.61598558434
 10
1694.309276281794
 20
1159.385985588355
 10
1694.309276281794
 20
1158.32098559183
 10
1694.309276281794
 20
1157.171985595581
 10
1694.309276281794
 20
1156.766985596903
 10
1689.309276105599
 20
1156.766985596903
 10
1689.309276105599
 20
1156.955985596285
 10
1689.309276105599
 20
1157.50898559448
 10
1689.309276105599
 20
1158.571985591012
 10
1689.309276105599
 20
1159.970985586444
 10
1689.309276105599
 20
1161.766985580581
 10
1689.309276105599
 20
1186.766985498969
  0
LWPOLYLINE
  5
CF8
330
1F
100
AcDbEntity
  8
Hewi
  6
CUSTOM
 62
    18
420
        0
370
     9
100
AcDbPolyline
 90
        7
 70
     0
 43
0.0
 10
1699.309276457985
 20
1191.766985482647
 10
1697.524276395084
 20
1191.757985482676
 10
1695.961276340003
 20
1191.596985483202
 10
1694.964276304872
 20
1191.081985484883
 10
1694.466276287327
 20
1190.058985488222
 10
1694.319276282145
 20
1188.533985493201
 10
1694.309276281794
 20
1186.766985498969
  0
LINE
  5
CF9
330
1F
100
AcDbEntity
  8
Hewi
  6
CUSTOM
 62
    18
420
        0
370
     9
100
AcDbLine
 10
1746.992278138266
 20
1216.574985401661
 30
0.0
 11
1744.809278061333
 21
1216.766985401035
 31
0.0
  0
LINE
  5
CFA
330
1F
100
AcDbEntity
  8
Hewi
  6
CUSTOM
 62
    18
420
        0
370
     9
100
AcDbLine
 10
1744.809278061333
 20
1191.766985482647
 30
0.0
 11
1747.390278152288
 21
1192.035985481769
 31
0.0
  0
LWPOLYLINE
  5
CFB
330
1F
100
AcDbEntity
  8
Hewi
  6
CUSTOM
 62
    18
420
        0
370
     9
100
AcDbPolyline
 90
        3
 70
     0
 43
0.0
 10
1744.809278061333
 20
1191.766985482647
 10
1746.992278138266
 20
1191.95898548202
 10
1747.390278152288
 20
1192.035985481769
  0
LWPOLYLINE
  5
CFC
330
1F
100
AcDbEntity
  8
Hewi
  6
CUSTOM
 62
    18
420
        0
370
     9
100
AcDbPolyline
 90
        3
 70
     0
 43
0.0
 10
1757.304278501644
 20
1204.607985440729
 10
1757.239278499353
 20
1205.592985437512
 10
1757.092446529088
 20
1206.522416636175
  0
LINE
  5
CFD
330
1F
100
AcDbEntity
  8
Hewi
  6
CUSTOM
 62
    18
420
        0
370
     9
100
AcDbLine
 10
1749.974278243346
 20
1192.880985479011
 30
0.0
 11
1750.440499010579
 21
1193.154682034952
 31
0.0
  0
LINE
  5
CFE
330
1F
100
AcDbEntity
  8
Hewi
  6
CUSTOM
 62
    18
420
        0
370
     9
100
AcDbLine
 10
1752.042664108008
 20
1194.095238741201
 30
0.0
 11
1752.214278322277
 21
1194.195985474716
 31
0.0
  0
LWPOLYLINE
  5
CFF
330
1F
100
AcDbEntity
  8
Hewi
  6
CUSTOM
 62
    18
420
        0
370
     9
100
AcDbPolyline
 90
        3
 70
     0
 43
0.0
 10
1752.155285800701
 20
1214.375649212537
 10
1752.214278322277
 20
1214.337985408963
 10
1752.77727834212
 20
1213.8979854104
  0
LINE
  5
D00
330
1F
100
AcDbEntity
  8
Hewi
  6
CUSTOM
 62
    18
420
        0
370
     9
100
AcDbLine
 10
1699.309276457985
 20
1191.766985482647
 30
0.0
 11
1744.809278061333
 21
1191.766985482647
 31
0.0
  0
LWPOLYLINE
  5
D01
330
1F
100
AcDbEntity
  8
Hewi
  6
CUSTOM
 62
    18
420
        0
370
     9
100
AcDbPolyline
 90
        3
 70
     0
 43
0.0
 10
1749.974278243346
 20
1192.880985479011
 10
1750.820278273157
 20
1193.305985477624
 10
1750.831064137095
 20
1193.312871717606
  0
LINE
  5
D02
330
1F
100
AcDbEntity
  8
Hewi
  6
CUSTOM
 62
    18
420
        0
370
     9
100
AcDbLine
 10
1751.990870443398
 20
1194.053350607753
 30
0.0
 11
1752.214278322277
 21
1194.195985474716
 31
0.0
  0
LWPOLYLINE
  5
D03
330
1F
100
AcDbEntity
  8
Hewi
  6
CUSTOM
 62
    18
420
        0
370
     9
100
AcDbPolyline
 90
        3
 70
     0
 43
0.0
 10
1756.706563662486
 20
1200.437055504122
 10
1756.719278481028
 20
1200.469985454236
 10
1756.7242784812
 20
1200.486985454179
  0
LINE
  5
D04
330
1F
100
AcDbEntity
  8
Hewi
  6
CUSTOM
 62
    18
420
        0
370
     9
100
AcDbLine
 10
1747.390278152288
 20
1192.035985481769
 30
0.0
 11
1747.663159168442
 21
1192.125220949949
 31
0.0
  0
LWPOLYLINE
  5
D05
330
1F
100
AcDbEntity
  8
Hewi
  6
CUSTOM
 62
    18
420
        0
370
     9
100
AcDbPolyline
 90
        3
 70
     0
 43
0.0
 10
1753.009763387697
 20
1194.877380258373
 10
1752.77727834212
 20
1194.635985473282
 10
1752.214278322277
 20
1194.195985474716
  0
LINE
  5
D06
330
1F
100
AcDbEntity
  8
Hewi
  6
CUSTOM
 62
    18
420
        0
370
     9
100
AcDbLine
 10
1748.626468010654
 20
1192.440234858741
 30
0.0
 11
1749.974278243346
 21
1192.880985479011
 31
0.0
  0
LWPOLYLINE
  5
D07
330
1F
100
AcDbEntity
  8
Hewi
  6
CUSTOM
 62
    18
420
        0
370
     9
100
AcDbPolyline
 90
        3
 70
     0
 43
0.0
 10
1749.345629478393
 20
1192.675409549325
 10
1748.589278194536
 20
1192.351985480736
 10
1748.024375636392
 20
1192.203103744707
  0
LWPOLYLINE
  5
D08
330
1F
100
AcDbEntity
  8
Hewi
  6
CUSTOM
 62
    18
420
        0
370
     9
100
AcDbPolyline
 90
        3
 70
     0
 43
0.0
 10
1755.166903442539
 20
1197.325540136742
 10
1754.734278411081
 20
1196.667985466649
 10
1754.17527839138
 20
1195.988985468864
  0
LINE
  5
D09
330
1F
100
AcDbEntity
  8
Hewi
  6
CUSTOM
 62
    18
420
        0
370
     9
100
AcDbLine
 10
1756.719278481028
 20
1208.063985429444
 30
0.0
 11
1756.18527846221
 21
1209.446985424931
 31
0.0
  0
LWPOLYLINE
  5
D0A
330
1F
100
AcDbEntity
  8
Hewi
  6
CUSTOM
 62
    18
420
        0
370
     9
100
AcDbPolyline
 90
        3
 70
     0
 43
0.0
 10
1749.814504167927
 20
1215.705233503946
 10
1749.974278243346
 20
1215.652985404671
 10
1750.820278273157
 20
1215.22798540606
  0
LWPOLYLINE
  5
D0B
330
1F
100
AcDbEntity
  8
Hewi
  6
CUSTOM
 62
    18
420
        0
370
     9
100
AcDbPolyline
 90
        3
 70
     0
 43
0.0
 10
1747.244665778093
 20
1216.526156639051
 10
1747.390278152288
 20
1216.497985401913
 10
1748.589278194536
 20
1216.181985402944
  0
LWPOLYLINE
  5
D0C
330
1F
100
AcDbEntity
  8
Hewi
  6
CUSTOM
 62
    18
420
        0
370
     9
100
AcDbPolyline
 90
        3
 70
     0
 43
0.0
 10
1756.719278481028
 20
1208.063985429444
 10
1756.7242784812
 20
1208.046985429502
 10
1756.965119467535
 20
1207.127137959478
  0
LWPOLYLINE
  5
D0D
330
1F
100
AcDbEntity
  8
Hewi
  6
CUSTOM
 62
    18
420
        0
370
     9
100
AcDbPolyline
 90
        3
 70
     0
 43
0.0
 10
1754.150653003264
 20
1212.567501130879
 10
1754.17527839138
 20
1212.544985414816
 10
1754.237769145966
 20
1212.469079832115
  0
LINE
  5
D0E
330
1F
100
AcDbEntity
  8
Hewi
  6
CUSTOM
 62
    18
420
        0
370
     9
100
AcDbLine
 10
1750.820278273157
 20
1215.22798540606
 30
0.0
 11
1750.928320496143
 21
1215.159005797197
 31
0.0
  0
LWPOLYLINE
  5
D0F
330
1F
100
AcDbEntity
  8
Hewi
  6
CUSTOM
 62
    18
420
        0
370
     9
100
AcDbPolyline
 90
        3
 70
     0
 43
0.0
 10
1852.76004333247
 20
1027.307751882936
 10
1852.380634970435
 20
1027.055792722463
 10
1851.982568927731
 20
1026.861128371294
  0
LWPOLYLINE
  5
D10
330
1F
100
AcDbEntity
  8
Hewi
  6
CUSTOM
 62
    18
420
        0
370
     9
100
AcDbPolyline
 90
        7
 70
     0
 43
0.0
 10
1864.459832757093
 20
1037.844039776375
 10
1861.377938983173
 20
1034.389214290673
 10
1858.608851234177
 20
1031.651941403066
 10
1851.769535797859
 20
1026.707105041531
 10
1848.568317580047
 20
1024.990592625094
 10
1847.917619618922
 20
1024.69945439
 10
1845.242802341891
 20
1023.537957638769
  0
LWPOLYLINE
  5
D11
330
1F
100
AcDbEntity
  8
Hewi
  6
CUSTOM
 62
    18
420
        0
370
     9
100
AcDbPolyline
 90
        3
 70
     0
 43
0.0
 10
1845.242802341891
 20
1023.537957638769
 10
1844.590240879497
 20
1023.246093204337
 10
1734.616384590663
 20
980.3188662578795
  0
LINE
  5
D12
330
1F
100
AcDbEntity
  8
Hewi
  6
CUSTOM
 62
    18
420
        0
370
     9
100
AcDbLine
 10
1756.7753533701
 20
1200.682056517658
 30
0.0
 11
1756.7242784812
 21
1200.486985454179
 31
0.0
  0
LINE
  5
D13
330
1F
100
AcDbEntity
  8
Hewi
  6
CUSTOM
 62
    18
420
        0
370
     9
100
AcDbLine
 10
1757.304278501644
 20
1204.607985440729
 30
0.0
 11
1757.148684763502
 21
1205.937440765983
 31
0.0
  0
LINE
  5
D14
330
1F
100
AcDbEntity
  8
Hewi
  6
CUSTOM
 62
    18
420
        0
370
     9
100
AcDbLine
 10
1754.17527839138
 20
1195.988985468864
 30
0.0
 11
1754.714172343727
 21
1196.748272302264
 31
0.0
  0
LINE
  5
D15
330
1F
100
AcDbEntity
  8
Hewi
  6
CUSTOM
 62
    18
420
        0
370
     9
100
AcDbLine
 10
1757.296261633124
 20
1204.402383605315
 30
0.0
 11
1757.304278501644
 21
1204.607985440729
 31
0.0
  0
LINE
  5
D16
330
1F
100
AcDbEntity
  8
Hewi
  6
CUSTOM
 62
    18
420
        0
370
     9
100
AcDbLine
 10
1754.432509266011
 20
1212.232535044244
 30
0.0
 11
1754.734278411081
 21
1211.865985417033
 31
0.0
  0
LINE
  5
D17
330
1F
100
AcDbEntity
  8
Hewi
  6
CUSTOM
 62
    18
420
        0
370
     9
100
AcDbLine
 10
1752.77727834212
 20
1213.8979854104
 30
0.0
 11
1752.422441219973
 21
1214.139136843349
 31
0.0
  0
LINE
  5
D18
330
1F
100
AcDbEntity
  8
Hewi
  6
CUSTOM
 62
    18
420
        0
370
     9
100
AcDbLine
 10
1757.046850349307
 20
1206.807554858414
 30
0.0
 11
1757.045278492515
 21
1206.820985433504
 31
0.0
  0
LINE
  5
D19
330
1F
100
AcDbEntity
  8
Hewi
  6
CUSTOM
 62
    18
420
        0
370
     9
100
AcDbLine
 10
1748.589278194536
 20
1216.181985402944
 30
0.0
 11
1747.485068392041
 21
1216.453716420898
 31
0.0
  0
LINE
  5
D1A
330
1F
100
AcDbEntity
  8
Hewi
  6
CUSTOM
 62
    18
420
        0
370
     9
100
AcDbLine
 10
1757.239278499353
 20
1202.94098544617
 30
0.0
 11
1757.253942841082
 21
1203.317069395698
 31
0.0
  0
LWPOLYLINE
  5
D1B
330
1F
100
AcDbEntity
  8
Hewi
  6
CUSTOM
 62
    18
420
        0
370
     9
100
AcDbPolyline
 90
        3
 70
     0
 43
0.0
 10
1756.63850935236
 20
1200.260802494229
 10
1756.18527846221
 20
1199.086985458751
 10
1756.035287259103
 20
1198.791134177567
  0
LWPOLYLINE
  5
D1C
330
1F
100
AcDbEntity
  8
Hewi
  6
CUSTOM
 62
    18
420
        0
370
     9
100
AcDbPolyline
 90
        3
 70
     0
 43
0.0
 10
1755.671005394022
 20
1210.437546994844
 10
1755.713278445579
 20
1210.377985421894
 10
1755.923314581261
 20
1209.963698060043
  0
LINE
  5
D1D
330
1F
100
AcDbEntity
  8
Hewi
  6
CUSTOM
 62
    18
420
        0
370
     9
100
AcDbLine
 10
1755.509189373548
 20
1197.868429543678
 30
0.0
 11
1755.713278445579
 21
1198.15598546179
 31
0.0
  0
LINE
  5
D1E
330
1F
100
AcDbEntity
  8
Hewi
  6
CUSTOM
 62
    18
420
        0
370
     9
100
AcDbLine
 10
1757.131026072726
 20
1202.425157398194
 30
0.0
 11
1757.239278499353
 21
1202.94098544617
 31
0.0
  0
LINE
  5
D1F
330
1F
100
AcDbEntity
  8
Hewi
  6
CUSTOM
 62
    18
420
        0
370
     9
100
AcDbLine
 10
1757.038814664498
 20
1206.845672825537
 30
0.0
 11
1757.045278492515
 21
1206.820985433504
 31
0.0
  0
LINE
  5
D20
330
1F
100
AcDbEntity
  8
Hewi
  6
CUSTOM
 62
    18
420
        0
370
     9
100
AcDbLine
 10
1756.131876386465
 20
1209.552318752476
 30
0.0
 11
1756.18527846221
 21
1209.446985424931
 31
0.0
  0
LINE
  5
D21
330
1F
100
AcDbEntity
  8
Hewi
  6
CUSTOM
 62
    18
420
        0
370
     9
100
AcDbLine
 10
1750.904815575053
 20
1215.170532873002
 30
0.0
 11
1750.820278273157
 21
1215.22798540606
 31
0.0
  0
LINE
  5
D22
330
1F
100
AcDbEntity
  8
Hewi
  6
CUSTOM
 62
    18
420
        0
370
     9
100
AcDbLine
 10
1748.983996162605
 20
1216.013199689347
 30
0.0
 11
1748.589278194536
 21
1216.181985402944
 31
0.0
  0
LINE
  5
D23
330
1F
100
AcDbEntity
  8
Hewi
  6
CUSTOM
 62
    18
420
        0
370
     9
100
AcDbLine
 10
1757.0490446945
 20
1206.797145764116
 30
0.0
 11
1757.045278492515
 21
1206.820985433504
 31
0.0
  0
LINE
  5
D24
330
1F
100
AcDbEntity
  8
Hewi
  6
CUSTOM
 62
    18
420
        0
370
     9
100
AcDbLine
 10
1755.472325580067
 20
1197.78975681003
 30
0.0
 11
1755.713278445579
 21
1198.15598546179
 31
0.0
  0
LINE
  5
D25
330
1F
100
AcDbEntity
  8
Hewi
  6
CUSTOM
 62
    18
420
        0
370
     9
100
AcDbLine
 10
1756.71379801018
 20
1200.462821283041
 30
0.0
 11
1756.7242784812
 21
1200.486985454179
 31
0.0
  0
LINE
  5
D26
330
1F
100
AcDbEntity
  8
Hewi
  6
CUSTOM
 62
    18
420
        0
370
     9
100
AcDbLine
 10
1755.93847269885
 20
1198.600171567143
 30
0.0
 11
1755.713278445579
 21
1198.15598546179
 31
0.0
  0
LINE
  5
D27
330
1F
100
AcDbEntity
  8
Hewi
  6
CUSTOM
 62
    18
420
        0
370
     9
100
AcDbLine
 10
1755.713278445579
 20
1198.15598546179
 30
0.0
 11
1755.854597521855
 21
1198.481816079107
 31
0.0
  0
LINE
  5
D28
330
1F
100
AcDbEntity
  8
Hewi
  6
CUSTOM
 62
    18
420
        0
370
     9
100
AcDbLine
 10
1756.7242784812
 20
1200.486985454179
 30
0.0
 11
1756.735216198904
 21
1200.539104207972
 31
0.0
  0
LINE
  5
D29
330
1F
100
AcDbEntity
  8
Hewi
  6
CUSTOM
 62
    18
420
        0
370
     9
100
AcDbLine
 10
1757.273425016879
 20
1203.45843649953
 30
0.0
 11
1757.239278499353
 21
1202.94098544617
 31
0.0
  0
LINE
  5
D2A
330
1F
100
AcDbEntity
  8
Hewi
  6
CUSTOM
 62
    18
420
        0
370
     9
100
AcDbLine
 10
1753.975265388195
 20
1195.806107701959
 30
0.0
 11
1754.17527839138
 21
1195.988985468864
 31
0.0
  0
LWPOLYLINE
  5
D2B
330
1F
100
AcDbEntity
  8
Hewi
  6
CUSTOM
 62
    18
420
        0
370
     9
100
AcDbPolyline
 90
        3
 70
     0
 43
0.0
 10
1757.115119986258
 20
1202.309739194203
 10
1757.045278492515
 20
1201.712985450178
 10
1757.019101522088
 20
1201.613007367594
  0
LINE
  5
D2C
330
1F
100
AcDbEntity
  8
Hewi
  6
CUSTOM
 62
    18
420
        0
370
     9
100
AcDbLine
 10
1756.964548156102
 20
1207.128800784105
 30
0.0
 11
1756.719278481028
 21
1208.063985429444
 31
0.0
  0
LINE
  5
D2D
330
1F
100
AcDbEntity
  8
Hewi
  6
CUSTOM
 62
    18
420
        0
370
     9
100
AcDbLine
 10
1756.18527846221
 20
1209.446985424931
 30
0.0
 11
1756.144989831933
 21
1209.514151650215
 31
0.0
  0
LINE
  5
D2E
330
1F
100
AcDbEntity
  8
Hewi
  6
CUSTOM
 62
    18
420
        0
370
     9
100
AcDbLine
 10
1754.734278411081
 20
1211.865985417033
 30
0.0
 11
1754.576111358488
 21
1212.030214051927
 31
0.0
  0
LINE
  5
D2F
330
1F
100
AcDbEntity
  8
Hewi
  6
CUSTOM
 62
    18
420
        0
370
     9
100
AcDbLine
 10
1753.254229290771
 20
1213.402755829231
 30
0.0
 11
1752.77727834212
 21
1213.8979854104
 31
0.0
  0
LWPOLYLINE
  5
D30
330
1F
100
AcDbEntity
  8
Hewi
  6
CUSTOM
 62
    18
420
        0
370
     9
100
AcDbPolyline
 90
        4
 70
     0
 43
0.0
 10
1746.992278138266
 20
1216.574985401661
 10
1747.133447395026
 20
1216.547673762548
 10
1747.089438138686
 20
1216.557062927719
 10
1747.082344504768
 20
1216.557560492083
  0
LINE
  5
D31
330
1F
100
AcDbEntity
  8
Hewi
  6
CUSTOM
 62
    18
420
        0
370
     9
100
AcDbLine
 10
1747.084526478007
 20
1216.552284339592
 30
0.0
 11
1746.992278138266
 21
1216.574985401661
 31
0.0
  0
LINE
  5
D32
330
1F
100
AcDbEntity
  8
Hewi
  6
CUSTOM
 62
    18
420
        0
370
     9
100
AcDbLine
 10
1747.390278152288
 20
1192.035985481769
 30
0.0
 11
1747.78861897251
 21
1192.140969380303
 31
0.0
  0
LWPOLYLINE
  5
D33
330
1F
100
AcDbEntity
  8
Hewi
  6
CUSTOM
 62
    18
420
        0
370
     9
100
AcDbPolyline
 90
        3
 70
     0
 43
0.0
 10
1757.304278501644
 20
1204.078374321516
 10
1757.304278501644
 20
1203.925985442953
 10
1757.297526181584
 20
1203.823661827551
  0
LINE
  5
D34
330
1F
100
AcDbEntity
  8
Hewi
  6
CUSTOM
 62
    18
420
        0
370
     9
100
AcDbLine
 10
1754.961261471329
 20
1211.487576043078
 30
0.0
 11
1754.734278411081
 21
1211.865985417033
 31
0.0
  0
LWPOLYLINE
  5
D35
330
1F
100
AcDbEntity
  8
Hewi
  6
CUSTOM
 62
    18
420
        0
370
     9
100
AcDbPolyline
 90
        4
 70
     0
 43
0.0
 10
1859.137361157951
 20
1032.174379119729
 10
1859.479726658221
 20
1032.435643386956
 10
1862.073178799757
 20
1035.031490805218
 10
1864.459832757093
 20
1037.844039776375
  0
LINE
  5
D36
330
1F
100
AcDbEntity
  8
Hewi
  6
CUSTOM
 62
    18
420
        0
370
     9
100
AcDbLine
 10
1752.214278322277
 20
1194.195985474716
 30
0.0
 11
1752.574635001394
 21
1194.525470176797
 31
0.0
  0
LINE
  5
D37
330
1F
100
AcDbEntity
  8
Hewi
  6
CUSTOM
 62
    18
420
        0
370
     9
100
AcDbLine
 10
1750.820278273157
 20
1215.22798540606
 30
0.0
 11
1750.565588531379
 21
1215.336893520942
 31
0.0
  0
LINE
  5
D38
330
1F
100
AcDbEntity
  8
Hewi
  6
CUSTOM
 62
    18
420
        0
370
     9
100
AcDbLine
 10
1757.304278501644
 20
1204.607985440729
 30
0.0
 11
1757.304278501644
 21
1204.318994172559
 31
0.0
  0
LWPOLYLINE
  5
D39
330
1F
100
AcDbEntity
  8
Hewi
  6
CUSTOM
 62
    18
420
        0
370
     9
100
AcDbPolyline
 90
        4
 70
     0
 43
0.0
 10
1847.741660991997
 20
1043.1873619294
 10
1843.44360859867
 20
1040.31682773652
 10
1841.123238131357
 20
1039.044463750944
 10
1838.54699195666
 20
1037.607991028275
  0
LWPOLYLINE
  5
D3A
330
1F
100
AcDbEntity
  8
Hewi
  6
CUSTOM
 62
    18
420
        0
370
     9
100
AcDbPolyline
 90
       17
 70
     0
 43
0.0
 10
1700.781408604202
 20
973.6395415145343
 10
1702.458786286654
 20
971.9020100776088
 10
1704.577734982758
 20
970.7443918612662
 10
1706.117060906326
 20
970.3525790825569
 10
1706.945877106696
 20
970.2720239123518
 10
1709.347061278313
 20
970.527316262811
 10
1710.214767287631
 20
970.8096490301395
 10
1710.459817703864
 20
970.9051442430482
 10
1711.190310199395
 20
971.189814383435
 10
1711.942232959471
 20
971.482835816203
 10
1714.062897398038
 20
972.3092506625253
 10
1716.956914861221
 20
973.4370382340021
 10
1720.555335802237
 20
974.8393291551328
 10
1724.769643911048
 20
976.4816289573809
 10
1728.272094536962
 20
977.846520612622
 10
1732.014005075318
 20
979.3047288827583
 10
1734.616384590663
 20
980.3188662578795
  0
LWPOLYLINE
  5
D3B
330
1F
100
AcDbEntity
  8
Hewi
  6
CUSTOM
 62
    18
420
        0
370
     9
100
AcDbPolyline
 90
       14
 70
     0
 43
0.0
 10
1839.108361239192
 20
1038.210977696004
 10
1728.806789665239
 20
995.2268757968431
 10
1724.933502287764
 20
993.7174704733989
 10
1721.26520004934
 20
992.2879470771022
 10
1718.960048985624
 20
991.3896384963463
 10
1714.745740876813
 20
989.7473386940964
 10
1711.147319935797
 20
988.3450477729676
 10
1708.253302472614
 20
987.2172602014908
 10
1706.132638034047
 20
986.3908453551685
 10
1705.083486822346
 20
985.9819951280352
 10
1704.514187186156
 20
985.760141230361
 10
1704.405172362203
 20
985.717658569105
 10
1702.321480095303
 20
984.5182086910044
 10
1700.688084344503
 20
982.7526224800767
  0
LWPOLYLINE
  5
D3C
330
1F
100
AcDbEntity
  8
Hewi
  6
CUSTOM
 62
    18
420
        0
370
     9
100
AcDbPolyline
 90
       36
 70
     0
 43
0.0
 10
1731.809277603235
 20
1217.266985399403
 10
2249.309295839168
 20
1217.266985399403
 10
2251.146295903902
 20
1217.266985399403
 10
2252.726295959579
 20
1217.266985399403
 10
2254.081296007327
 20
1217.266985399403
 10
2256.373296088092
 20
1217.266985399403
 10
2259.560296200397
 20
1217.266985399403
 10
2262.352296298781
 20
1217.266985399403
 10
2263.298296332119
 20
1217.266985399403
 10
2264.728296382509
 20
1217.266985399403
 10
2266.308296438186
 20
1217.266985399403
 10
2267.165296468389
 20
1217.266985399403
 10
2267.309296473461
 20
1217.266985399403
 10
2268.387296511446
 20
1217.466985398749
 10
2269.226296541015
 20
1217.958985397143
 10
2269.864296563497
 20
1218.693985394744
 10
2270.195296575159
 20
1219.449985392277
 10
2270.309296579176
 20
1220.266985389609
 10
2270.309296579176
 20
1224.266985376551
 10
2270.195296575159
 20
1225.083985373883
 10
2269.864296563497
 20
1225.839985371416
 10
2269.226296541015
 20
1226.574985369016
 10
2268.387296511446
 20
1227.06698536741
 10
2267.309296473461
 20
1227.266985366757
 10
2266.966296461375
 20
1227.266985366757
 10
2265.951296425606
 20
1227.266985366757
 10
2265.310296403018
 20
1227.266985366757
 10
2263.922296354107
 20
1227.266985366757
 10
2262.676296310201
 20
1227.266985366757
 10
2260.506296233736
 20
1227.266985366757
 10
2258.010296145778
 20
1227.266985366757
 10
2255.954296073327
 20
1227.266985366757
 10
2252.697295958558
 20
1227.266985366757
 10
2249.309295839168
 20
1227.266985366757
 10
1734.809277708951
 20
1227.266985366757
 10
1733.992277680165
 20
1227.152985367129
  0
LWPOLYLINE
  5
D3D
330
1F
100
AcDbEntity
  8
Hewi
  6
CUSTOM
 62
    18
420
        0
370
     9
100
AcDbPolyline
 90
        3
 70
     0
 43
0.0
 10
1700.781408604202
 20
973.6395415145343
 10
1699.699804825079
 20
975.7981356219389
 10
1699.483947595206
 20
976.602667185447
  0
LWPOLYLINE
  5
D3E
330
1F
100
AcDbEntity
  8
Hewi
  6
CUSTOM
 62
    18
420
        0
370
     9
100
AcDbPolyline
 90
        3
 70
     0
 43
0.0
 10
1699.483947595206
 20
976.602667185447
 10
1699.310833942141
 20
978.1815696635639
 10
1699.451959039692
 20
979.7637991281499
  0
LWPOLYLINE
  5
D3F
330
1F
100
AcDbEntity
  8
Hewi
  6
CUSTOM
 62
    18
420
        0
370
     9
100
AcDbPolyline
 90
        6
 70
     0
 43
0.0
 10
1731.809277603235
 20
1217.266985399403
 10
1731.923277607253
 20
1217.38098539903
 10
1732.254277618918
 20
1217.711985397951
 10
1732.8922776414
 20
1218.349985395867
 10
1733.731277670962
 20
1219.188985393128
 10
1734.809277708951
 20
1220.266985389609
  0
LINE
  5
D40
330
1F
100
AcDbEntity
  8
Hewi
  6
CUSTOM
 62
    18
420
        0
370
     9
100
AcDbLine
 10
1855.639174483745
 20
1029.504860206927
 30
0.0
 11
1852.76004333247
 21
1027.307751882936
 31
0.0
  0
LWPOLYLINE
  5
D41
330
1F
100
AcDbEntity
  8
Hewi
  6
CUSTOM
 62
    18
420
        0
370
     9
100
AcDbPolyline
 90
        3
 70
     0
 43
0.0
 10
1732.710589366754
 20
1226.365673650014
 10
1732.8922776414
 20
1226.574985369016
 10
1733.236277653523
 20
1226.821985368211
  0
LWPOLYLINE
  5
D42
330
1F
100
AcDbEntity
  8
Hewi
  6
CUSTOM
 62
    18
420
        0
370
     9
100
AcDbPolyline
 90
        4
 70
     0
 43
0.0
 10
1964.003448480413
 20
1191.266984814449
 10
1851.851130454445
 20
1047.693018732991
 10
1848.206504848345
 20
1043.732341272556
 10
1847.213376052023
 20
1042.834537013947
  0
LINE
  5
D43
330
1F
100
AcDbEntity
  8
Hewi
  6
CUSTOM
 62
    18
420
        0
370
     9
100
AcDbLine
 10
1845.242802341891
 20
1023.537957638769
 30
0.0
 11
1734.616384590663
 21
980.3188662578795
 31
0.0
  0
LWPOLYLINE
  5
D44
330
1F
100
AcDbEntity
  8
Hewi
  6
CUSTOM
 62
    18
420
        0
370
     9
100
AcDbPolyline
 90
        5
 70
     0
 43
0.0
 10
1732.501277627623
 20
1226.183985370293
 10
1732.009277610283
 20
1225.344985373032
 10
1731.92227760722
 20
1225.083985373883
 10
1731.809277603235
 20
1224.266985376551
 10
1731.809277603235
 20
1217.266985399403
  0
LINE
  5
D45
330
1F
100
AcDbEntity
  8
Hewi
  6
CUSTOM
 62
    18
420
        0
370
     9
100
AcDbLine
 10
1845.674033772102
 20
1041.806458657165
 30
0.0
 11
1848.574888136347
 21
1044.132669735025
 31
0.0
  0
LINE
  5
D46
330
1F
100
AcDbEntity
  8
Hewi
  6
CUSTOM
 62
    18
420
        0
370
     9
100
AcDbLine
 10
1864.459832757093
 20
1037.844039776375
 30
0.0
 11
1984.30665208289
 21
1191.266983558678
 31
0.0
  0
LWPOLYLINE
  5
D47
330
1F
100
AcDbEntity
  8
Hewi
  6
CUSTOM
 62
    18
420
        0
370
     9
100
AcDbPolyline
 90
        3
 70
     0
 43
0.0
 10
1699.451959039692
 20
979.7637991281499
 10
1699.650064957804
 20
980.5718829258676
 10
1700.688084344503
 20
982.7526224800767
  0
LINE
  5
D48
330
1F
100
AcDbEntity
  8
Hewi
  6
CUSTOM
 62
    18
420
        0
370
     9
100
AcDbLine
 10
1839.108361239192
 20
1038.210977696004
 30
0.0
 11
1840.220109603717
 21
1038.540894063118
 31
0.0
  0
LINE
  5
D49
330
1F
100
AcDbEntity
  8
Hewi
  6
CUSTOM
 62
    18
420
        0
370
     9
100
AcDbLine
 10
1700.781408604202
 20
973.6395415145343
 30
0.0
 11
1699.483947595206
 21
976.602667185447
 31
0.0
  0
LINE
  5
D4A
330
1F
100
AcDbEntity
  8
Hewi
  6
CUSTOM
 62
    18
420
        0
370
     9
100
AcDbLine
 10
1699.451959039692
 20
979.7637991281499
 30
0.0
 11
1700.688084344503
 21
982.7526224800767
 31
0.0
  0
LINE
  5
D4B
330
1F
100
AcDbEntity
  8
Hewi
  6
CUSTOM
 62
    18
420
        0
370
     9
100
AcDbLine
 10
1852.238671559109
 20
1027.046291020799
 30
0.0
 11
1852.76004333247
 21
1027.307751882936
 31
0.0
  0
LINE
  5
D4C
330
1F
100
AcDbEntity
  8
Hewi
  6
CUSTOM
 62
    18
420
        0
370
     9
100
AcDbLine
 10
1839.108361239192
 20
1038.210977696004
 30
0.0
 11
1843.546180951052
 21
1040.38533259372
 31
0.0
  0
LWPOLYLINE
  5
D4D
330
1F
100
AcDbEntity
  8
Hewi
  6
CUSTOM
 62
    18
420
        0
370
     9
100
AcDbPolyline
 90
       14
 70
     0
 43
0.0
 10
2264.309296367748
 20
1217.266985399403
 10
2264.309296367748
 20
1191.266985484278
 10
2264.189296363515
 20
1191.266985484278
 10
2263.615296343294
 20
1191.266985484278
 10
2262.593296307278
 20
1191.266985484278
 10
2261.677296275
 20
1191.266985484278
 10
2260.178296222177
 20
1191.266985484278
 10
2258.206296152686
 20
1191.266985484278
 10
2255.983296074352
 20
1191.266985484278
 10
2254.38929601818
 20
1191.266985484278
 10
2252.157295939531
 20
1191.266985484278
 10
2250.840295893118
 20
1191.266985484278
 10
2249.309295839168
 20
1191.266985484278
 10
1744.809278061333
 20
1191.266985484278
  0
LWPOLYLINE
  5
D4E
330
1F
100
AcDbEntity
  8
Hewi
  6
CUSTOM
 62
    18
420
        0
370
     9
100
AcDbPolyline
 90
        3
 70
     0
 43
0.0
 10
1732.119261767791
 20
1225.532539649959
 10
1732.254277618918
 20
1225.839985371416
 10
1732.501277627623
 20
1226.183985370293
  0
LWPOLYLINE
  5
D4F
330
1F
100
AcDbEntity
  8
Hewi
  6
CUSTOM
 62
    18
420
        0
370
     9
100
AcDbPolyline
 90
        3
 70
     0
 43
0.0
 10
1733.992277680165
 20
1227.152985367129
 10
1733.731277670962
 20
1227.06698536741
 10
1733.540986342683
 20
1226.955396178007
  0
LINE
  5
D50
330
1F
100
AcDbEntity
  8
Hewi
  6
CUSTOM
 62
    18
420
        0
370
     9
100
AcDbLine
 10
1741.804277955445
 20
1191.61898548313
 30
0.0
 11
1744.809278061333
 21
1191.266985484278
 31
0.0
  0
LWPOLYLINE
  5
D51
330
1F
100
AcDbEntity
  8
Hewi
  6
CUSTOM
 62
    18
420
        0
370
     9
100
AcDbPolyline
 90
        3
 70
     0
 43
0.0
 10
1744.809278061333
 20
1191.266985484278
 10
1743.430278012743
 20
1191.339985484041
 10
1741.804277955445
 20
1191.61898548313
  0
LWPOLYLINE
  5
D52
330
1F
100
AcDbEntity
  8
Hewi
  6
CUSTOM
 62
    18
420
        0
370
     9
100
AcDbPolyline
 90
        3
 70
     0
 43
0.0
 10
1743.208873952208
 20
1191.37797547415
 10
1743.021277998334
 20
1191.390985483873
 10
1742.535728456791
 20
1191.493478300286
  0
LINE
  5
D53
330
1F
100
AcDbEntity
  8
Hewi
  6
CUSTOM
 62
    18
420
        0
370
     9
100
AcDbLine
 10
1741.242411668169
 20
1191.766985482649
 30
0.0
 11
1741.403150939873
 21
1191.744453201723
 31
0.0
  0
LINE
  5
D54
330
1F
100
AcDbEntity
  8
Hewi
  6
CUSTOM
 62
    18
420
        0
370
     9
100
AcDbLine
 10
1741.24001533601
 20
1191.766985482665
 30
0.0
 11
1741.520193094318
 21
1191.707843819273
 31
0.0
  0
LINE
  5
D55
330
1F
100
AcDbEntity
  8
Hewi
  6
CUSTOM
 62
    18
420
        0
370
     9
100
AcDbLine
 10
1733.236277653523
 20
1226.821985368211
 30
0.0
 11
1733.992277680165
 21
1227.152985367129
 31
0.0
  0
LINE
  5
D56
330
1F
100
AcDbEntity
  8
Hewi
  6
CUSTOM
 62
    18
420
        0
370
     9
100
AcDbLine
 10
1732.501277627623
 20
1226.183985370293
 30
0.0
 11
1733.236277653523
 21
1226.821985368211
 31
0.0
  0
LWPOLYLINE
  5
D57
330
1F
100
AcDbEntity
  8
Hewi
  6
CUSTOM
 62
    18
420
        0
370
     9
100
AcDbPolyline
 90
        3
 70
     0
 43
0.0
 10
1749.56882806418
 20
1215.825715758963
 10
1749.800375253216
 20
1215.727030857429
 10
1749.885506316015
 20
1215.682014922591
  0
LINE
  5
D58
330
1F
100
AcDbEntity
  8
Hewi
  6
CUSTOM
 62
    18
420
        0
370
     9
100
AcDbLine
 10
1751.171978556551
 20
1193.508131054963
 30
0.0
 11
1751.088182455834
 21
1193.470631220432
 31
0.0
  0
LWPOLYLINE
  5
D59
330
1F
100
AcDbEntity
  8
Hewi
  6
CUSTOM
 62
    18
420
        0
370
     9
100
AcDbPolyline
 90
        4
 70
     0
 43
0.0
 10
1756.196897024656
 20
1209.416894654691
 10
1756.204907215902
 20
1209.40425099407
 10
1756.310071914609
 20
1209.164688179851
 10
1756.365022812602
 20
1208.981467771289
  0
LWPOLYLINE
  5
D5A
330
1F
100
AcDbEntity
  8
Hewi
  6
CUSTOM
 62
    18
420
        0
370
     9
100
AcDbPolyline
 90
        4
 70
     0
 43
0.0
 10
1755.731678029802
 20
1198.192277883796
 10
1755.740454479532
 20
1198.203880420633
 10
1755.86509221893
 20
1198.433913874883
 10
1755.902613327449
 20
1198.529440479839
  0
LWPOLYLINE
  5
D5B
330
1F
100
AcDbEntity
  8
Hewi
  6
CUSTOM
 62
    18
420
        0
370
     9
100
AcDbPolyline
 90
        3
 70
     0
 43
0.0
 10
1750.487844968647
 20
1193.138982934046
 10
1750.573688967466
 20
1193.175634007048
 10
1750.694963446363
 20
1193.24303181399
  0
LWPOLYLINE
  5
D5C
330
1F
100
AcDbEntity
  8
Hewi
  6
CUSTOM
 62
    18
420
        0
370
     9
100
AcDbPolyline
 90
        3
 70
     0
 43
0.0
 10
1747.978826838254
 20
1216.34287166013
 10
1747.759093657285
 20
1216.414195113188
 10
1747.491960884792
 20
1216.471186617529
  0
LINE
  5
D5D
330
1F
100
AcDbEntity
  8
Hewi
  6
CUSTOM
 62
    18
420
        0
370
     9
100
AcDbLine
 10
1751.269563212863
 20
1193.581933042131
 30
0.0
 11
1751.171978556551
 21
1193.508131054963
 31
0.0
  0
LWPOLYLINE
  5
D5E
330
1F
100
AcDbEntity
  8
Hewi
  6
CUSTOM
 62
    18
420
        0
370
     9
100
AcDbPolyline
 90
        3
 70
     0
 43
0.0
 10
1756.843615395188
 20
1200.9251781415
 10
1756.877783835614
 20
1201.012169044467
 10
1756.93151947988
 20
1201.238256810315
  0
LWPOLYLINE
  5
D5F
330
1F
100
AcDbEntity
  8
Hewi
  6
CUSTOM
 62
    18
420
        0
370
     9
100
AcDbPolyline
 90
        4
 70
     0
 43
0.0
 10
1757.087687583098
 20
1206.571917803258
 10
1757.105825571649
 20
1206.511441090513
 10
1757.218208786609
 20
1205.770148540932
 10
1757.220534677319
 20
1205.711631893642
  0
LWPOLYLINE
  5
D60
330
1F
100
AcDbEntity
  8
Hewi
  6
CUSTOM
 62
    18
420
        0
370
     9
100
AcDbPolyline
 90
        4
 70
     0
 43
0.0
 10
1752.060864090454
 20
1214.44422691104
 10
1752.040890491167
 20
1214.462116038559
 10
1751.472183351132
 20
1214.843005662316
 10
1751.306378633835
 20
1214.930680526277
  0
LWPOLYLINE
  5
D61
330
1F
100
AcDbEntity
  8
Hewi
  6
CUSTOM
 62
    18
420
        0
370
     9
100
AcDbPolyline
 90
        4
 70
     0
 43
0.0
 10
1745.5976056459
 20
1191.836320747983
 10
1746.064078966556
 20
1191.830321540441
 10
1746.743263845488
 20
1191.917256155155
 10
1746.877947129069
 20
1191.948929805698
  0
LINE
  5
D62
330
1F
100
AcDbEntity
  8
Hewi
  6
CUSTOM
 62
    18
420
        0
370
     9
100
AcDbLine
 10
1731.809277603235
 20
1217.266985399403
 30
0.0
 11
1731.809277603235
 21
1216.766985382408
 31
0.0
  0
LWPOLYLINE
  5
D63
330
1F
100
AcDbEntity
  8
Hewi
  6
CUSTOM
 62
    18
420
        0
370
     9
100
AcDbPolyline
 90
        3
 70
     0
 43
0.0
 10
1754.173529837866
 20
1212.5465841687
 10
1754.152350609576
 20
1212.571010746731
 10
1754.129169127827
 20
1212.591772977767
  0
LWPOLYLINE
  5
D64
330
1F
100
AcDbEntity
  8
Hewi
  6
CUSTOM
 62
    18
420
        0
370
     9
100
AcDbPolyline
 90
        3
 70
     0
 43
0.0
 10
1749.586732768937
 20
1192.754253314388
 10
1748.834429571176
 20
1192.433057659471
 10
1748.58478770038
 20
1192.350329818742
  0
LWPOLYLINE
  5
D65
330
1F
100
AcDbEntity
  8
Hewi
  6
CUSTOM
 62
    18
420
        0
370
     9
100
AcDbPolyline
 90
        3
 70
     0
 43
0.0
 10
1753.455561998882
 20
1195.240200288248
 10
1753.620518506832
 20
1195.401308085782
 10
1753.629445510185
 20
1195.413109655708
  0
LINE
  5
D66
330
1F
100
AcDbEntity
  8
Hewi
  6
CUSTOM
 62
    18
420
        0
370
     9
100
AcDbLine
 10
1741.341379099063
 20
1191.766985482944
 30
0.0
 11
1741.804277955445
 21
1191.61898548313
 31
0.0
  0
LWPOLYLINE
  5
D67
330
1F
100
AcDbEntity
  8
Hewi
  6
CUSTOM
 62
    18
420
        0
370
     9
100
AcDbPolyline
 90
        3
 70
     0
 43
0.0
 10
1757.141597802889
 20
1202.475532212233
 10
1757.05115495672
 20
1201.741612042084
 10
1757.046178173524
 20
1201.720672685906
  0
LINE
  5
D68
330
1F
100
AcDbEntity
  8
Hewi
  6
CUSTOM
 62
    18
420
        0
370
     9
100
AcDbLine
 10
1741.804277955445
 20
1191.61898548313
 30
0.0
 11
1741.331114036726
 21
1191.766985481961
 31
0.0
  0
LWPOLYLINE
  5
D69
330
1F
100
AcDbEntity
  8
Hewi
  6
CUSTOM
 62
    18
420
        0
370
     9
100
AcDbPolyline
 90
        3
 70
     0
 43
0.0
 10
1749.555702385627
 20
1215.831031761461
 10
1749.558439734687
 20
1215.830143242094
 10
1749.566861654093
 20
1215.826553838609
  0
LWPOLYLINE
  5
D6A
330
1F
100
AcDbEntity
  8
Hewi
  6
CUSTOM
 62
    18
420
        0
370
     9
100
AcDbPolyline
 90
        3
 70
     0
 43
0.0
 10
1757.296746221778
 20
1203.794239967808
 10
1757.298541001441
 20
1203.749085443531
 10
1757.294729206765
 20
1203.718153721307
  0
LINE
  5
D6B
330
1F
100
AcDbEntity
  8
Hewi
  6
CUSTOM
 62
    18
420
        0
370
     9
100
AcDbLine
 10
1749.084425289635
 20
1215.984004151363
 30
0.0
 11
1748.950964907213
 21
1216.027324214716
 31
0.0
  0
LINE
  5
D6C
330
1F
100
AcDbEntity
  8
Hewi
  6
CUSTOM
 62
    18
420
        0
370
     9
100
AcDbLine
 10
1748.587354502393
 20
1192.351478495708
 30
0.0
 11
1748.58478770038
 21
1192.350329818742
 31
0.0
  0
LINE
  5
D6D
330
1F
100
AcDbEntity
  8
Hewi
  6
CUSTOM
 62
    18
420
        0
370
     9
100
AcDbLine
 10
1748.58478770038
 20
1192.350329818742
 30
0.0
 11
1748.568150896466
 21
1192.346417318993
 31
0.0
  0
LINE
  5
D6E
330
1F
100
AcDbEntity
  8
Hewi
  6
CUSTOM
 62
    18
420
        0
370
     9
100
AcDbLine
 10
1750.931515312041
 20
1193.374494567903
 30
0.0
 11
1751.171978556551
 21
1193.508131054963
 31
0.0
  0
LWPOLYLINE
  5
D6F
330
1F
100
AcDbEntity
  8
Hewi
  6
CUSTOM
 62
    18
420
        0
370
     9
100
AcDbPolyline
 90
        3
 70
     0
 43
0.0
 10
1754.182091030841
 20
1212.53671031281
 10
1754.324282483631
 20
1212.372717056378
 10
1754.327352625351
 20
1212.367871001052
  0
LWPOLYLINE
  5
D70
330
1F
100
AcDbEntity
  8
Hewi
  6
CUSTOM
 62
    18
420
        0
370
     9
100
AcDbPolyline
 90
        3
 70
     0
 43
0.0
 10
1753.441981420503
 20
1195.226936567405
 10
1753.432759608218
 20
1195.217929915381
 10
1753.403243449309
 20
1195.195607234098
  0
LINE
  5
D71
330
1F
100
AcDbEntity
  8
Hewi
  6
CUSTOM
 62
    18
420
        0
370
     9
100
AcDbLine
 10
1757.035224437291
 20
1201.674585851257
 30
0.0
 11
1757.017049187561
 21
1201.598115164792
 31
0.0
  0
LWPOLYLINE
  5
E3A
330
1F
100
AcDbEntity
  8
Hewi
  6
CUSTOM
 62
    18
420
        0
370
     9
100
AcDbPolyline
 90
       25
 70
     0
 43
0.0
 10
221.9355660101464
 20
1191.266985534828
 10
221.7435660115843
 20
1191.266985534828
 10
220.7985660186532
 20
1191.266985534828
 10
219.1075660312999
 20
1191.266985534828
 10
217.5895660426504
 20
1191.266985534828
 10
216.5875660501442
 20
1191.266985534828
 10
215.3265660595717
 20
1191.266985534828
 10
212.0995660837034
 20
1191.266985534828
 10
208.4575661109448
 20
1191.266985534828
 10
205.8455661304761
 20
1191.266985534828
 10
204.2985661420425
 20
1191.266985534828
 10
202.4915661555533
 20
1191.266985534828
 10
200.3845661713094
 20
1191.266985534828
 10
197.9355661896261
 20
1191.266985534828
 10
56.93556724406153
 20
1191.266985534828
 10
54.1125672651724
 20
1191.266985534828
 10
51.39756728547218
 20
1191.266985534828
 10
49.68456729828176
 20
1191.266985534828
 10
46.9705673185781
 20
1191.266985534828
 10
44.75756733512753
 20
1191.266985534828
 10
43.60156734377233
 20
1191.266985534828
 10
43.06656734777425
 20
1191.266985534828
 10
42.22156735409225
 20
1191.266985534828
 10
41.93556735623133
 20
1191.266985534828
 10
41.93556735623133
 20
1217.266985413444
  0
LINE
  5
E3B
330
1F
100
AcDbEntity
  8
Hewi
  6
CUSTOM
 62
    18
420
        0
370
     9
100
AcDbLine
 10
574.435563374067
 20
1216.766985058149
 30
0.0
 11
574.435563374067
 21
1217.266985413444
 31
0.0
  0
LINE
  5
E3C
330
1F
100
AcDbEntity
  8
Hewi
  6
CUSTOM
 62
    18
420
        0
370
     9
100
AcDbLine
 10
563.0359674957217
 20
1191.377975525794
 30
0.0
 11
562.8145634609754
 21
1191.339985534487
 31
0.0
  0
LINE
  5
E3D
330
1F
100
AcDbEntity
  8
Hewi
  6
CUSTOM
 62
    18
420
        0
370
     9
100
AcDbLine
 10
563.2235634579192
 20
1191.390985534248
 30
0.0
 11
564.750990169974
 21
1191.766985515802
 31
0.0
  0
LINE
  5
E3E
330
1F
100
AcDbEntity
  8
Hewi
  6
CUSTOM
 62
    18
420
        0
370
     9
100
AcDbLine
 10
221.9355660101464
 20
1217.266985413444
 30
0.0
 11
221.9355660101464
 21
1191.266985534828
 31
0.0
  0
LWPOLYLINE
  5
E3F
330
1F
100
AcDbEntity
  8
Hewi
  6
CUSTOM
 62
    18
420
        0
370
     9
100
AcDbPolyline
 90
        3
 70
     0
 43
0.0
 10
563.709112938417
 20
1191.493478341934
 10
564.4405634488175
 20
1191.618985533183
 10
564.7246482940245
 20
1191.707843869233
  0
LINE
  5
E40
330
1F
100
AcDbEntity
  8
Hewi
  6
CUSTOM
 62
    18
420
        0
370
     9
100
AcDbLine
 10
565.0048260441471
 20
1191.766985532511
 30
0.0
 11
563.2235634579192
 21
1191.390985534248
 31
0.0
  0
LINE
  5
E41
330
1F
100
AcDbEntity
  8
Hewi
  6
CUSTOM
 62
    18
420
        0
370
     9
100
AcDbLine
 10
562.8145634609754
 20
1191.339985534487
 30
0.0
 11
562.9438004066505
 21
1191.371583621829
 31
0.0
  0
LWPOLYLINE
  5
E42
330
1F
100
AcDbEntity
  8
Hewi
  6
CUSTOM
 62
    18
420
        0
370
     9
100
AcDbPolyline
 90
       11
 70
     0
 43
0.0
 10
571.9155633929185
 20
1197.452985505946
 10
571.1345633987548
 20
1196.380985510952
 10
570.1105634064151
 20
1195.266985516151
 10
569.7085634094182
 20
1194.89698551788
 10
568.7825634163455
 20
1194.153985521348
 10
567.8595634232515
 20
1193.543985524196
 10
566.2155634355404
 20
1192.716985528059
 10
566.1675634359016
 20
1192.696985528149
 10
563.8465634532585
 20
1192.001985531397
 10
563.3965634566229
 20
1191.921985531767
 10
561.4355634712883
 20
1191.766985532493
  0
LINE
  5
E43
330
1F
100
AcDbEntity
  8
Hewi
  6
CUSTOM
 62
    18
420
        0
370
     9
100
AcDbLine
 10
573.419563381667
 20
1200.712985490727
 30
0.0
 11
571.9155633929185
 21
1197.452985505946
 31
0.0
  0
LWPOLYLINE
  5
E44
330
1F
100
AcDbEntity
  8
Hewi
  6
CUSTOM
 62
    18
420
        0
370
     9
100
AcDbPolyline
 90
        7
 70
     0
 43
0.0
 10
554.2021776916408
 20
1214.438732133611
 10
554.4015635238902
 20
1214.599985425895
 10
555.413563516322
 20
1215.220985422995
 10
555.4455635160811
 20
1215.237985422915
 10
558.3375634944568
 20
1216.376985417599
 10
558.3445634944037
 20
1216.378985417588
 10
561.4355634712883
 20
1216.766985415776
  0
LINE
  5
E45
330
1F
100
AcDbEntity
  8
Hewi
  6
CUSTOM
 62
    18
420
        0
370
     9
100
AcDbLine
 10
553.694563529174
 20
1211.360985441017
 30
0.0
 11
552.3425635392887
 21
1209.516985449623
 31
0.0
  0
LINE
  5
E46
330
1F
100
AcDbEntity
  8
Hewi
  6
CUSTOM
 62
    18
420
        0
370
     9
100
AcDbLine
 10
559.0095634894314
 20
1192.004985531381
 30
0.0
 11
556.6765635068768
 21
1192.707985528099
 31
0.0
  0
LWPOLYLINE
  5
E47
330
1F
100
AcDbEntity
  8
Hewi
  6
CUSTOM
 62
    18
420
        0
370
     9
100
AcDbPolyline
 90
        3
 70
     0
 43
0.0
 10
571.9155633929185
 20
1197.452985505946
 10
572.7635633865757
 20
1198.981985498807
 10
573.419563381667
 20
1200.712985490727
  0
LWPOLYLINE
  5
E48
330
1F
100
AcDbEntity
  8
Hewi
  6
CUSTOM
 62
    18
420
        0
370
     9
100
AcDbPolyline
 90
        3
 70
     0
 43
0.0
 10
550.9755635495094
 20
1205.181985469864
 10
550.9355635498105
 20
1204.267985474129
 10
551.1255635483903
 20
1202.278985483417
  0
LWPOLYLINE
  5
E49
330
1F
100
AcDbEntity
  8
Hewi
  6
CUSTOM
 62
    18
420
        0
370
     9
100
AcDbPolyline
 90
        6
 70
     0
 43
0.0
 10
556.6765635068768
 20
1192.707985528099
 10
555.2165635177916
 20
1193.423985524758
 10
554.1215635259832
 20
1194.12998552146
 10
552.2645635398694
 20
1195.773985513784
 10
551.8715635428089
 20
1196.217985511714
 10
551.6687305925151
 20
1196.503756873219
  0
LWPOLYLINE
  5
E4A
330
1F
100
AcDbEntity
  8
Hewi
  6
CUSTOM
 62
    18
420
        0
370
     9
100
AcDbPolyline
 90
        7
 70
     0
 43
0.0
 10
548.9355635647662
 20
1204.266985474134
 10
549.1645635630557
 20
1201.884985485256
 10
549.2425635624713
 20
1201.514985486983
 10
550.1255635558663
 20
1198.94498549898
 10
550.1475635557035
 20
1198.896985499206
 10
550.6805635517157
 20
1197.895985503877
 10
551.283580515399
 20
1197.046394850731
  0
LWPOLYLINE
  5
E4B
330
1F
100
AcDbEntity
  8
Hewi
  6
CUSTOM
 62
    18
420
        0
370
     9
100
AcDbPolyline
 90
        3
 70
     0
 43
0.0
 10
559.0095634894314
 20
1192.004985531381
 10
559.093563488801
 20
1191.987985531461
 10
561.4355634712883
 20
1191.766985532493
  0
LWPOLYLINE
  5
E4C
330
1F
100
AcDbEntity
  8
Hewi
  6
CUSTOM
 62
    18
420
        0
370
     9
100
AcDbPolyline
 90
        4
 70
     0
 43
0.0
 10
549.1138159827824
 20
1206.108813519131
 10
549.2345635625278
 20
1206.984985461448
 10
549.2715635622516
 20
1207.146985460689
 10
549.5475635601906
 20
1208.1299854561
  0
LWPOLYLINE
  5
E4D
330
1F
100
AcDbEntity
  8
Hewi
  6
CUSTOM
 62
    18
420
        0
370
     9
100
AcDbPolyline
 90
        7
 70
     0
 43
0.0
 10
570.9395634002175
 20
1212.386985436225
 10
571.3065633974728
 20
1211.935985438331
 10
571.9895633923624
 20
1210.964985442864
 10
572.0555633918702
 20
1210.858985443359
 10
573.3115633824781
 20
1208.168985455917
 10
573.4565633813945
 20
1207.694985458131
 10
573.9355633778104
 20
1204.266985474134
  0
LWPOLYLINE
  5
E4E
330
1F
100
AcDbEntity
  8
Hewi
  6
CUSTOM
 62
    18
420
        0
370
     9
100
AcDbPolyline
 90
        7
 70
     0
 43
0.0
 10
570.9395634002175
 20
1212.386985436225
 10
568.8655634157258
 20
1214.318985427206
 10
567.4215634265237
 20
1215.239985422906
 10
566.4095634340919
 20
1215.734985420595
 10
564.5445634480384
 20
1216.373985417613
 10
563.9755634522916
 20
1216.505985416996
 10
561.4355634712883
 20
1216.766985415776
  0
LWPOLYLINE
  5
E4F
330
1F
100
AcDbEntity
  8
Hewi
  6
CUSTOM
 62
    18
420
        0
370
     9
100
AcDbPolyline
 90
        4
 70
     0
 43
0.0
 10
573.419563381667
 20
1200.712985490727
 10
573.7145633794644
 20
1201.924985485067
 10
573.8805633782212
 20
1203.099985479584
 10
573.9355633778104
 20
1204.266985474134
  0
LINE
  5
E50
330
1F
100
AcDbEntity
  8
Hewi
  6
CUSTOM
 62
    18
420
        0
370
     9
100
AcDbLine
 10
557.8445634981435
 20
1194.399985520202
 30
0.0
 11
560.064563481541
 21
1193.856985522736
 31
0.0
  0
LWPOLYLINE
  5
E51
330
1F
100
AcDbEntity
  8
Hewi
  6
CUSTOM
 62
    18
420
        0
370
     9
100
AcDbPolyline
 90
        3
 70
     0
 43
0.0
 10
556.6765635068768
 20
1192.707985528099
 10
556.8335635057046
 20
1192.644985528393
 10
557.2608456415728
 20
1192.520771208015
  0
LWPOLYLINE
  5
E52
330
1F
100
AcDbEntity
  8
Hewi
  6
CUSTOM
 62
    18
420
        0
370
     9
100
AcDbPolyline
 90
        3
 70
     0
 43
0.0
 10
552.4445635385236
 20
1212.950985433592
 10
550.8595635503771
 20
1210.929985443028
 10
550.7356525844333
 20
1210.665541307644
  0
LINE
  5
E53
330
1F
100
AcDbEntity
  8
Hewi
  6
CUSTOM
 62
    18
420
        0
370
     9
100
AcDbLine
 10
561.4355634712883
 20
1191.766985532493
 30
0.0
 11
559.0095634894314
 21
1192.004985531381
 31
0.0
  0
LWPOLYLINE
  5
E54
330
1F
100
AcDbEntity
  8
Hewi
  6
CUSTOM
 62
    18
420
        0
370
     9
100
AcDbPolyline
 90
        3
 70
     0
 43
0.0
 10
548.9355635647662
 20
1204.266985474134
 10
548.9535635646352
 20
1204.945985470964
 10
548.9908992230375
 20
1205.216901512609
  0
LWPOLYLINE
  5
E55
330
1F
100
AcDbEntity
  8
Hewi
  6
CUSTOM
 62
    18
420
        0
370
     9
100
AcDbPolyline
 90
        3
 70
     0
 43
0.0
 10
552.4445635385236
 20
1212.950985433592
 10
550.2625635548429
 20
1209.871985447966
 10
549.5475635601906
 20
1208.1299854561
  0
LWPOLYLINE
  5
E56
330
1F
100
AcDbEntity
  8
Hewi
  6
CUSTOM
 62
    18
420
        0
370
     9
100
AcDbPolyline
 90
        4
 70
     0
 43
0.0
 10
571.1365633987407
 20
1200.248985492893
 10
571.7755633939632
 20
1202.443985482645
 10
571.9355633927661
 20
1204.266985474134
 10
571.686563394629
 20
1206.539985463523
  0
LINE
  5
E57
330
1F
100
AcDbEntity
  8
Hewi
  6
CUSTOM
 62
    18
420
        0
370
     9
100
AcDbLine
 10
564.15356345096
 20
1214.408985426788
 30
0.0
 11
561.89356346786
 21
1214.756985425163
 31
0.0
  0
LWPOLYLINE
  5
E58
330
1F
100
AcDbEntity
  8
Hewi
  6
CUSTOM
 62
    18
420
        0
370
     9
100
AcDbPolyline
 90
        3
 70
     0
 43
0.0
 10
573.5840500056329
 20
1206.782617700421
 10
573.9035633780477
 20
1205.156985469979
 10
573.9355633778104
 20
1204.266985474134
  0
LWPOLYLINE
  5
E59
330
1F
100
AcDbEntity
  8
Hewi
  6
CUSTOM
 62
    18
420
        0
370
     9
100
AcDbPolyline
 90
        3
 70
     0
 43
0.0
 10
552.4445635385236
 20
1212.950985433592
 10
552.801563535857
 20
1213.305985431936
 10
553.6702068132036
 20
1214.008500684464
  0
LWPOLYLINE
  5
E5A
330
1F
100
AcDbEntity
  8
Hewi
  6
CUSTOM
 62
    18
420
        0
370
     9
100
AcDbPolyline
 90
        3
 70
     0
 43
0.0
 10
569.4042026420683
 20
1213.817225067281
 10
569.9145634078777
 20
1213.450985431258
 10
570.9395634002175
 20
1212.386985436225
  0
LINE
  5
E5B
330
1F
100
AcDbEntity
  8
Hewi
  6
CUSTOM
 62
    18
420
        0
370
     9
100
AcDbLine
 10
554.0105635268155
 20
1196.841985508799
 30
0.0
 11
555.7935635134818
 21
1195.410985515478
 31
0.0
  0
LWPOLYLINE
  5
E5C
330
1F
100
AcDbEntity
  8
Hewi
  6
CUSTOM
 62
    18
420
        0
370
     9
100
AcDbPolyline
 90
       23
 70
     0
 43
0.0
 10
616.6875630581016
 20
971.6689865600455
 10
616.9355630562458
 20
973.7669865502503
 10
616.9355630562458
 20
1123.766985849957
 10
616.9355630562458
 20
1127.358985833189
 10
616.9355630562458
 20
1130.156985820125
 10
616.9355630562458
 20
1132.281985810205
 10
616.9355630562458
 20
1133.388985805039
 10
616.9355630562458
 20
1133.766985803271
 10
612.9355630861573
 20
1133.766985803271
 10
612.9355630861573
 20
1133.559985804237
 10
612.9355630861573
 20
1133.143985806182
 10
612.9355630861573
 20
1132.122985810947
 10
612.9355630861573
 20
1130.657985817788
 10
612.9355630861573
 20
1129.164985824756
 10
612.9355630861573
 20
1127.913985830597
 10
612.9355630861573
 20
1125.887985840056
 10
612.9355630861573
 20
1123.766985849957
 10
612.9355630861573
 20
973.7669865502503
 10
612.5745630888559
 20
971.8989865589719
 10
611.7245630952129
 20
970.5039865654853
 10
610.4835631044952
 20
969.4649865703359
 10
608.9955631156226
 20
968.8809865730618
 10
607.9355631235521
 20
968.7669865735934
  0
LINE
  5
E5D
330
1F
100
AcDbEntity
  8
Hewi
  6
CUSTOM
 62
    18
420
        0
370
     9
100
AcDbLine
 10
548.9908992230375
 20
1205.216901512609
 30
0.0
 11
549.1138159827824
 21
1206.108813519131
 31
0.0
  0
LINE
  5
E5E
330
1F
100
AcDbEntity
  8
Hewi
  6
CUSTOM
 62
    18
420
        0
370
     9
100
AcDbLine
 10
612.4833725845128
 20
971.7493268502167
 30
0.0
 11
612.5835254579942
 21
971.9453625139795
 31
0.0
  0
LWPOLYLINE
  5
E5F
330
1F
100
AcDbEntity
  8
Hewi
  6
CUSTOM
 62
    18
420
        0
370
     9
100
AcDbPolyline
 90
       17
 70
     0
 43
0.0
 10
578.9355633404193
 20
994.6432987086463
 10
578.9355633404193
 20
1123.766985849957
 10
578.9355633404193
 20
1125.887985840056
 10
578.9355633404193
 20
1127.913985830597
 10
578.9355633404193
 20
1129.164985824756
 10
578.9355633404193
 20
1130.657985817788
 10
578.9355633404193
 20
1132.122985810947
 10
578.9355633404193
 20
1133.143985806182
 10
578.9355633404193
 20
1133.559985804237
 10
578.9355633404193
 20
1133.766985803271
 10
582.9355633105079
 20
1133.766985803271
 10
582.9355633105079
 20
1133.388985805039
 10
582.9355633105079
 20
1132.281985810205
 10
582.9355633105079
 20
1130.156985820125
 10
582.9355633105079
 20
1127.358985833189
 10
582.9355633105079
 20
1123.766985849957
 10
582.9355633105079
 20
993.0845173007
  0
LINE
  5
E60
330
1F
100
AcDbEntity
  8
Hewi
  6
CUSTOM
 62
    18
420
        0
370
     9
100
AcDbLine
 10
551.6687305925151
 20
1196.503756873219
 30
0.0
 11
551.283580515399
 21
1197.046394850731
 31
0.0
  0
LWPOLYLINE
  5
E61
330
1F
100
AcDbEntity
  8
Hewi
  6
CUSTOM
 62
    18
420
        0
370
     9
100
AcDbPolyline
 90
        8
 70
     0
 43
0.0
 10
606.9355631310282
 20
968.7669865735934
 10
606.9355631310282
 20
1123.766985849957
 10
606.9355631310282
 20
1125.810985840417
 10
606.9355631310282
 20
1127.698985831603
 10
606.9355631310282
 20
1129.535985823026
 10
606.9355631310282
 20
1130.765985817283
 10
606.9355631310282
 20
1131.266985814942
 10
612.9355630861573
 20
1131.266985814942
  0
LINE
  5
E62
330
1F
100
AcDbEntity
  8
Hewi
  6
CUSTOM
 62
    18
420
        0
370
     9
100
AcDbLine
 10
553.6702068132036
 20
1214.008500684464
 30
0.0
 11
554.2021776916408
 21
1214.438732133611
 31
0.0
  0
LINE
  5
E63
330
1F
100
AcDbEntity
  8
Hewi
  6
CUSTOM
 62
    18
420
        0
370
     9
100
AcDbLine
 10
610.0374008995422
 20
969.2898798958268
 30
0.0
 11
610.9108255275605
 21
969.8227026433706
 31
0.0
  0
LINE
  5
E64
330
1F
100
AcDbEntity
  8
Hewi
  6
CUSTOM
 62
    18
420
        0
370
     9
100
AcDbLine
 10
558.31098414597
 20
1192.215487579993
 30
0.0
 11
557.2608456415728
 21
1192.520771208015
 31
0.0
  0
LINE
  5
E65
330
1F
100
AcDbEntity
  8
Hewi
  6
CUSTOM
 62
    18
420
        0
370
     9
100
AcDbLine
 10
607.9355631235484
 20
968.7669865735934
 30
0.0
 11
609.3871982068594
 21
969.0346928200906
 31
0.0
  0
LINE
  5
E66
330
1F
100
AcDbEntity
  8
Hewi
  6
CUSTOM
 62
    18
420
        0
370
     9
100
AcDbLine
 10
611.5312745936098
 20
970.3421600131951
 30
0.0
 11
611.8522227190769
 21
970.7134985458761
 31
0.0
  0
LINE
  5
E67
330
1F
100
AcDbEntity
  8
Hewi
  6
CUSTOM
 62
    18
420
        0
370
     9
100
AcDbLine
 10
550.5614138467244
 20
1210.293690341972
 30
0.0
 11
550.7356525844333
 21
1210.665541307644
 31
0.0
  0
LWPOLYLINE
  5
E68
330
1F
100
AcDbEntity
  8
Hewi
  6
CUSTOM
 62
    18
420
        0
370
     9
100
AcDbPolyline
 90
        8
 70
     0
 43
0.0
 10
607.9355631235521
 20
968.7669865735934
 10
587.935563273113
 20
968.7669865735934
 10
586.110563286762
 20
969.1119865719828
 10
584.536563298534
 20
970.0999865673729
 10
583.6635633050645
 20
971.1689865623812
 10
583.0745633094665
 20
972.5939865557265
 10
582.9355633105079
 20
973.7669865502503
 10
582.9355633105079
 20
975.9125299553343
  0
LINE
  5
E69
330
1F
100
AcDbEntity
  8
Hewi
  6
CUSTOM
 62
    18
420
        0
370
     9
100
AcDbLine
 10
609.9705631083306
 20
964.9999865911814
 30
0.0
 11
611.8995630939061
 21
965.6869865879725
 31
0.0
  0
LWPOLYLINE
  5
E6A
330
1F
100
AcDbEntity
  8
Hewi
  6
CUSTOM
 62
    18
420
        0
370
     9
100
AcDbPolyline
 90
       10
 70
     0
 43
0.0
 10
582.9355633105079
 20
1131.266985814942
 10
588.935563265637
 20
1131.266985814942
 10
588.935563265637
 20
1131.146985815505
 10
588.935563265637
 20
1130.578985818156
 10
588.935563265637
 20
1129.57998582282
 10
588.935563265637
 20
1128.692985826961
 10
588.935563265637
 20
1127.013985834801
 10
588.935563265637
 20
1125.102985843721
 10
588.935563265637
 20
1123.766985849957
 10
588.935563265637
 20
990.746335428521
  0
LWPOLYLINE
  5
E6B
330
1F
100
AcDbEntity
  8
Hewi
  6
CUSTOM
 62
    18
420
        0
370
     9
100
AcDbPolyline
 90
        3
 70
     0
 43
0.0
 10
609.9705631083306
 20
964.9999865911814
 10
611.1685630993743
 20
965.3679865894629
 10
611.4235635592849
 20
965.5174626338975
  0
LWPOLYLINE
  5
E6C
330
1F
100
AcDbEntity
  8
Hewi
  6
CUSTOM
 62
    18
420
        0
370
     9
100
AcDbPolyline
 90
        3
 70
     0
 43
0.0
 10
581.1155633241178
 20
967.8939865776701
 10
581.0125633248863
 20
968.0159865770983
 10
579.993563332504
 20
969.5339865700134
  0
LINE
  5
E6D
330
1F
100
AcDbEntity
  8
Hewi
  6
CUSTOM
 62
    18
420
        0
370
     9
100
AcDbLine
 10
581.1155633241178
 20
967.8939865776701
 30
0.0
 11
583.0415633097109
 21
966.2139865855133
 31
0.0
  0
LINE
  5
E6E
330
1F
100
AcDbEntity
  8
Hewi
  6
CUSTOM
 62
    18
420
        0
370
     9
100
AcDbLine
 10
583.0415633097109
 20
966.2139865855133
 30
0.0
 11
585.3295632926055
 21
965.1529865904667
 31
0.0
  0
LWPOLYLINE
  5
E6F
330
1F
100
AcDbEntity
  8
Hewi
  6
CUSTOM
 62
    18
420
        0
370
     9
100
AcDbPolyline
 90
        3
 70
     0
 43
0.0
 10
584.4192653636528
 20
965.5751133842951
 10
583.2165633084041
 20
966.102986586031
 10
583.0415633097109
 20
966.2139865855133
  0
LINE
  5
E70
330
1F
100
AcDbEntity
  8
Hewi
  6
CUSTOM
 62
    18
420
        0
370
     9
100
AcDbLine
 10
613.7465630800943
 20
966.8939865823377
 30
0.0
 11
615.2495630688572
 21
968.5219865747367
 31
0.0
  0
LINE
  5
E71
330
1F
100
AcDbEntity
  8
Hewi
  6
CUSTOM
 62
    18
420
        0
370
     9
100
AcDbLine
 10
615.2495630688572
 20
968.5219865747367
 30
0.0
 11
616.0305630630136
 21
969.8329865686174
 31
0.0
  0
LWPOLYLINE
  5
E72
330
1F
100
AcDbEntity
  8
Hewi
  6
CUSTOM
 62
    18
420
        0
370
     9
100
AcDbPolyline
 90
        4
 70
     0
 43
0.0
 10
586.9745632803024
 20
964.8179865920319
 10
587.935563273113
 20
964.766986592269
 10
607.9355631235521
 20
964.766986592269
 10
609.9705631083306
 20
964.9999865911814
  0
LWPOLYLINE
  5
E73
330
1F
100
AcDbEntity
  8
Hewi
  6
CUSTOM
 62
    18
420
        0
370
     9
100
AcDbPolyline
 90
        3
 70
     0
 43
0.0
 10
616.0305630630136
 20
969.8329865686174
 10
615.5995630662364
 20
969.0479865722846
 10
615.2495630688572
 20
968.5219865747367
  0
LINE
  5
E74
330
1F
100
AcDbEntity
  8
Hewi
  6
CUSTOM
 62
    18
420
        0
370
     9
100
AcDbLine
 10
616.0305630630136
 20
969.8329865686174
 30
0.0
 11
616.6875630581016
 21
971.6689865600455
 31
0.0
  0
LWPOLYLINE
  5
E75
330
1F
100
AcDbEntity
  8
Hewi
  6
CUSTOM
 62
    18
420
        0
370
     9
100
AcDbPolyline
 90
        3
 70
     0
 43
0.0
 10
578.9355633404193
 20
977.4713138778515
 10
578.9355633404193
 20
973.7669865502503
 10
579.234563338181
 20
971.4659865609938
  0
LWPOLYLINE
  5
E76
330
1F
100
AcDbEntity
  8
Hewi
  6
CUSTOM
 62
    18
420
        0
370
     9
100
AcDbPolyline
 90
        3
 70
     0
 43
0.0
 10
616.6875630581016
 20
971.6689865600455
 10
616.5945630587921
 20
971.3149865616978
 10
616.0305630630136
 20
969.8329865686174
  0
LWPOLYLINE
  5
E77
330
1F
100
AcDbEntity
  8
Hewi
  6
CUSTOM
 62
    18
420
        0
370
     9
100
AcDbPolyline
 90
        3
 70
     0
 43
0.0
 10
579.7310531489893
 20
970.2021943223408
 10
579.5365633359251
 20
970.533986565344
 10
579.234563338181
 20
971.4659865609938
  0
LWPOLYLINE
  5
E78
330
1F
100
AcDbEntity
  8
Hewi
  6
CUSTOM
 62
    18
420
        0
370
     9
100
AcDbPolyline
 90
        3
 70
     0
 43
0.0
 10
586.9745632803024
 20
964.8179865920319
 10
585.4835632914509
 20
965.1079865906758
 10
585.3295632926055
 20
965.1529865904667
  0
LINE
  5
E79
330
1F
100
AcDbEntity
  8
Hewi
  6
CUSTOM
 62
    18
420
        0
370
     9
100
AcDbLine
 10
585.3295632926055
 20
965.1529865904667
 30
0.0
 11
586.9745632803024
 21
964.8179865920319
 31
0.0
  0
LINE
  5
E7A
330
1F
100
AcDbEntity
  8
Hewi
  6
CUSTOM
 62
    18
420
        0
370
     9
100
AcDbLine
 10
579.993563332504
 20
969.5339865700134
 30
0.0
 11
581.1155633241178
 21
967.8939865776701
 31
0.0
  0
LINE
  5
E7B
330
1F
100
AcDbEntity
  8
Hewi
  6
CUSTOM
 62
    18
420
        0
370
     9
100
AcDbLine
 10
611.8995630939061
 20
965.6869865879725
 30
0.0
 11
613.7465630800943
 21
966.8939865823377
 31
0.0
  0
LINE
  5
E7C
330
1F
100
AcDbEntity
  8
Hewi
  6
CUSTOM
 62
    18
420
        0
370
     9
100
AcDbLine
 10
583.6460439305847
 20
971.2168028587347
 30
0.0
 11
583.6710575878496
 21
971.159809715442
 31
0.0
  0
LINE
  5
E7D
330
1F
100
AcDbEntity
  8
Hewi
  6
CUSTOM
 62
    18
420
        0
370
     9
100
AcDbLine
 10
583.0896108358902
 20
972.656866284824
 30
0.0
 11
583.1103514176684
 21
972.5074024093938
 31
0.0
  0
LINE
  5
E7E
330
1F
100
AcDbEntity
  8
Hewi
  6
CUSTOM
 62
    18
420
        0
370
     9
100
AcDbLine
 10
612.5630296457311
 20
971.9052447454615
 30
0.0
 11
612.5820406734019
 21
971.937679413495
 31
0.0
  0
LINE
  5
E7F
330
1F
100
AcDbEntity
  8
Hewi
  6
CUSTOM
 62
    18
420
        0
370
     9
100
AcDbLine
 10
579.234563338181
 20
971.4659865609938
 30
0.0
 11
579.993563332504
 21
969.5339865700134
 31
0.0
  0
LWPOLYLINE
  5
E80
330
1F
100
AcDbEntity
  8
Hewi
  6
CUSTOM
 62
    18
420
        0
370
     9
100
AcDbPolyline
 90
        3
 70
     0
 43
0.0
 10
613.7465630800943
 20
966.8939865823377
 10
613.6865630805441
 20
966.843986582573
 10
611.8995630939061
 20
965.6869865879725
  0
LINE
  5
E81
330
1F
100
AcDbEntity
  8
Hewi
  6
CUSTOM
 62
    18
420
        0
370
     9
100
AcDbLine
 10
548.9405635647308
 20
1203.925985475727
 30
0.0
 11
548.9355635647662
 21
1204.266985474134
 31
0.0
  0
LINE
  5
E82
330
1F
100
AcDbEntity
  8
Hewi
  6
CUSTOM
 62
    18
420
        0
370
     9
100
AcDbLine
 10
549.5205635603924
 20
1208.046985456487
 30
0.0
 11
549.5475635601906
 21
1208.1299854561
 31
0.0
  0
LWPOLYLINE
  5
E83
330
1F
100
AcDbEntity
  8
Hewi
  6
CUSTOM
 62
    18
420
        0
370
     9
100
AcDbPolyline
 90
       11
 70
     0
 43
0.0
 10
561.4355634712883
 20
1216.766985415776
 10
606.9355631310282
 20
1216.766985415776
 10
608.1995631215759
 20
1216.766985415776
 10
610.5015631043606
 20
1216.766985415776
 10
612.5935630887179
 20
1216.766985415776
 10
613.8265630794958
 20
1216.766985415776
 10
615.291563068542
 20
1216.766985415776
 10
616.3125630609065
 20
1216.766985415776
 10
616.7285630577935
 20
1216.766985415776
 10
616.9355630562458
 20
1216.766985415776
 10
616.9355630562458
 20
1186.766985555836
  0
LWPOLYLINE
  5
E84
330
1F
100
AcDbEntity
  8
Hewi
  6
CUSTOM
 62
    18
420
        0
370
     9
100
AcDbPolyline
 90
       12
 70
     0
 43
0.0
 10
616.9355630562458
 20
1186.766985555836
 10
616.934563056253
 20
1187.914985550476
 10
616.9015630565009
 20
1189.519985542983
 10
616.7195630578608
 20
1190.811985536951
 10
616.397563060269
 20
1191.434985534042
 10
615.8625630642709
 20
1191.739985532618
 10
615.5955630662683
 20
1191.766985532493
 10
614.7925630722711
 20
1191.766985532493
 10
613.292563083487
 20
1191.766985532493
 10
611.4995630968951
 20
1191.766985532493
 10
609.2835631134694
 20
1191.766985532493
 10
606.9355631310282
 20
1191.766985532493
  0
LWPOLYLINE
  5
E85
330
1F
100
AcDbEntity
  8
Hewi
  6
CUSTOM
 62
    18
420
        0
370
     9
100
AcDbPolyline
 90
       21
 70
     0
 43
0.0
 10
616.9355630562458
 20
1186.766985555836
 10
616.9355630562458
 20
1161.766985672551
 10
616.9355630562458
 20
1160.40498567891
 10
616.9355630562458
 20
1159.144985684792
 10
616.9355630562458
 20
1157.920985690507
 10
616.9355630562458
 20
1157.100985694334
 10
616.9355630562458
 20
1156.766985695894
 10
611.935563093637
 20
1156.766985695894
 10
611.935563093637
 20
1157.002985694793
 10
611.935563093637
 20
1157.688985691591
 10
611.935563093637
 20
1158.954985685679
 10
611.935563093637
 20
1160.582985678078
 10
611.935563093637
 20
1161.766985672551
 10
611.935563093637
 20
1186.766985555836
 10
611.9255630937113
 20
1188.525985547623
 10
611.7815630947879
 20
1190.046985540522
 10
611.4825630970263
 20
1190.823985536894
 10
610.8215631019666
 20
1191.408985534164
 10
609.8085631095418
 20
1191.682985532887
 10
608.4145631199681
 20
1191.763985532507
 10
606.9355631310282
 20
1191.766985532493
  0
LINE
  5
E86
330
1F
100
AcDbEntity
  8
Hewi
  6
CUSTOM
 62
    18
420
        0
370
     9
100
AcDbLine
 10
583.0391468182242
 20
972.8928609835584
 30
0.0
 11
583.2931656933542
 21
972.0651098191719
 31
0.0
  0
LWPOLYLINE
  5
E87
330
1F
100
AcDbEntity
  8
Hewi
  6
CUSTOM
 62
    18
420
        0
370
     9
100
AcDbPolyline
 90
        3
 70
     0
 43
0.0
 10
556.2705635099119
 20
1215.652985420978
 10
555.760563513726
 20
1215.404985422134
 10
555.5646687688895
 20
1215.284894444849
  0
LINE
  5
E88
330
1F
100
AcDbEntity
  8
Hewi
  6
CUSTOM
 62
    18
420
        0
370
     9
100
AcDbLine
 10
611.7791037700226
 20
1190.053376494879
 30
0.0
 11
611.8830890523859
 21
1188.974617610169
 31
0.0
  0
LINE
  5
E89
330
1F
100
AcDbEntity
  8
Hewi
  6
CUSTOM
 62
    18
420
        0
370
     9
100
AcDbLine
 10
583.6380602136814
 20
971.2306875909161
 30
0.0
 11
583.6972734601768
 21
971.1277080314994
 31
0.0
  0
LINE
  5
E8A
330
1F
100
AcDbEntity
  8
Hewi
  6
CUSTOM
 62
    18
420
        0
370
     9
100
AcDbLine
 10
585.8259228962306
 20
969.2906553804423
 30
0.0
 11
586.4484784775559
 21
969.048106716411
 31
0.0
  0
LINE
  5
E8B
330
1F
100
AcDbEntity
  8
Hewi
  6
CUSTOM
 62
    18
420
        0
370
     9
100
AcDbLine
 10
606.9355631310282
 20
1191.766985532493
 30
0.0
 11
608.4985584512251
 21
1191.759104883796
 31
0.0
  0
LINE
  5
E8C
330
1F
100
AcDbEntity
  8
Hewi
  6
CUSTOM
 62
    18
420
        0
370
     9
100
AcDbLine
 10
583.5906255712289
 20
971.345448826185
 30
0.0
 11
583.8920983314529
 21
970.8891424152898
 31
0.0
  0
LINE
  5
E8D
330
1F
100
AcDbEntity
  8
Hewi
  6
CUSTOM
 62
    18
420
        0
370
     9
100
AcDbLine
 10
610.4561987979796
 20
1191.507810626943
 30
0.0
 11
611.065553015931
 21
1191.193048918692
 31
0.0
  0
LINE
  5
E8E
330
1F
100
AcDbEntity
  8
Hewi
  6
CUSTOM
 62
    18
420
        0
370
     9
100
AcDbLine
 10
608.9829297185096
 20
1191.730959926102
 30
0.0
 11
610.0299172890591
 21
1191.623112837598
 31
0.0
  0
LWPOLYLINE
  5
E8F
330
1F
100
AcDbEntity
  8
Hewi
  6
CUSTOM
 62
    18
420
        0
370
     9
100
AcDbPolyline
 90
        3
 70
     0
 43
0.0
 10
553.4675635308777
 20
1194.635985519098
 10
554.0885635262311
 20
1194.153985521348
 10
554.1093756965819
 20
1194.14077540121
  0
LINE
  5
E90
330
1F
100
AcDbEntity
  8
Hewi
  6
CUSTOM
 62
    18
420
        0
370
     9
100
AcDbLine
 10
549.5255635603498
 20
1200.469985491862
 30
0.0
 11
550.0595635563622
 21
1199.086985498317
 31
0.0
  0
LINE
  5
E91
330
1F
100
AcDbEntity
  8
Hewi
  6
CUSTOM
 62
    18
420
        0
370
     9
100
AcDbLine
 10
559.252563487611
 20
1191.958985531595
 30
0.0
 11
561.4355634712883
 21
1191.766985532493
 31
0.0
  0
LWPOLYLINE
  5
E92
330
1F
100
AcDbEntity
  8
Hewi
  6
CUSTOM
 62
    18
420
        0
370
     9
100
AcDbPolyline
 90
        3
 70
     0
 43
0.0
 10
551.5105635455074
 20
1196.667985509612
 10
551.322563546917
 20
1196.919985508437
 10
551.0896004502501
 20
1197.319693372165
  0
LWPOLYLINE
  5
E93
330
1F
100
AcDbEntity
  8
Hewi
  6
CUSTOM
 62
    18
420
        0
370
     9
100
AcDbPolyline
 90
        3
 70
     0
 43
0.0
 10
552.0695635413285
 20
1212.544985435488
 10
551.322563546917
 20
1211.613985439835
 10
551.1864092479591
 20
1211.346739479894
  0
LINE
  5
E94
330
1F
100
AcDbEntity
  8
Hewi
  6
CUSTOM
 62
    18
420
        0
370
     9
100
AcDbLine
 10
588.935563265637
 20
973.574354472028
 30
0.0
 11
588.935563265637
 21
968.7669865735934
 31
0.0
  0
LWPOLYLINE
  5
E95
330
1F
100
AcDbEntity
  8
Hewi
  6
CUSTOM
 62
    18
420
        0
370
     9
100
AcDbPolyline
 90
        3
 70
     0
 43
0.0
 10
559.252563487611
 20
1191.958985531595
 10
559.4805634859112
 20
1191.920985531773
 10
561.4355634712883
 20
1191.766985532493
  0
LWPOLYLINE
  5
E96
330
1F
100
AcDbEntity
  8
Hewi
  6
CUSTOM
 62
    18
420
        0
370
     9
100
AcDbPolyline
 90
        3
 70
     0
 43
0.0
 10
549.5255635603498
 20
1200.469985491862
 10
549.5475635601906
 20
1200.40398549217
 10
550.0595635563622
 20
1199.086985498317
  0
LWPOLYLINE
  5
E97
330
1F
100
AcDbEntity
  8
Hewi
  6
CUSTOM
 62
    18
420
        0
370
     9
100
AcDbPolyline
 90
        3
 70
     0
 43
0.0
 10
554.0305635266632
 20
1214.337985427119
 10
554.0885635262311
 20
1214.379985426922
 10
554.2578878206041
 20
1214.483787700976
  0
LWPOLYLINE
  5
E98
330
1F
100
AcDbEntity
  8
Hewi
  6
CUSTOM
 62
    18
420
        0
370
     9
100
AcDbPolyline
 90
        3
 70
     0
 43
0.0
 10
558.8545634905931
 20
1216.497985417034
 10
558.517563493111
 20
1216.42198541739
 10
558.4301019705308
 20
1216.38972267937
  0
LINE
  5
E99
330
1F
100
AcDbEntity
  8
Hewi
  6
CUSTOM
 62
    18
420
        0
370
     9
100
AcDbLine
 10
583.0474705912783
 20
972.822617913671
 30
0.0
 11
583.1551897366335
 21
972.3989226074099
 31
0.0
  0
LINE
  5
E9A
330
1F
100
AcDbEntity
  8
Hewi
  6
CUSTOM
 62
    18
420
        0
370
     9
100
AcDbLine
 10
561.4355634712883
 20
1191.766985532493
 30
0.0
 11
606.9355631310282
 21
1191.766985532493
 31
0.0
  0
LINE
  5
E9B
330
1F
100
AcDbEntity
  8
Hewi
  6
CUSTOM
 62
    18
420
        0
370
     9
100
AcDbLine
 10
584.3354437541893
 20
970.3462600993262
 30
0.0
 11
584.9142968374326
 21
969.8628831806454
 31
0.0
  0
LINE
  5
E9C
330
1F
100
AcDbEntity
  8
Hewi
  6
CUSTOM
 62
    18
420
        0
370
     9
100
AcDbLine
 10
611.3483237976579
 20
1190.94279036421
 30
0.0
 11
611.7708414485605
 21
1190.074847476484
 31
0.0
  0
LWPOLYLINE
  5
E9D
330
1F
100
AcDbEntity
  8
Hewi
  6
CUSTOM
 62
    18
420
        0
370
     9
100
AcDbPolyline
 90
        3
 70
     0
 43
0.0
 10
556.6576128047708
 20
1192.717279151384
 10
556.6515635070645
 20
1192.718985528048
 10
555.4245635162406
 20
1193.305985525307
  0
LINE
  5
E9E
330
1F
100
AcDbEntity
  8
Hewi
  6
CUSTOM
 62
    18
420
        0
370
     9
100
AcDbLine
 10
549.5205635603924
 20
1208.046985456487
 30
0.0
 11
549.5096258431585
 21
1207.994866702769
 31
0.0
  0
LINE
  5
E9F
330
1F
100
AcDbEntity
  8
Hewi
  6
CUSTOM
 62
    18
420
        0
370
     9
100
AcDbLine
 10
548.9405635647308
 20
1203.925985475727
 30
0.0
 11
549.0961572962223
 21
1202.596530152336
 31
0.0
  0
LINE
  5
EA0
330
1F
100
AcDbEntity
  8
Hewi
  6
CUSTOM
 62
    18
420
        0
370
     9
100
AcDbLine
 10
550.0595635563622
 20
1199.086985498317
 30
0.0
 11
550.1014920218331
 21
1199.015046476199
 31
0.0
  0
LINE
  5
EA1
330
1F
100
AcDbEntity
  8
Hewi
  6
CUSTOM
 62
    18
420
        0
370
     9
100
AcDbLine
 10
549.1138159862421
 20
1206.108813515195
 30
0.0
 11
549.005563564242
 21
1205.592985467945
 31
0.0
  0
LINE
  5
EA2
330
1F
100
AcDbEntity
  8
Hewi
  6
CUSTOM
 62
    18
420
        0
370
     9
100
AcDbLine
 10
555.4245635162406
 20
1193.305985525307
 30
0.0
 11
555.6792532471408
 21
1193.197077410579
 31
0.0
  0
LWPOLYLINE
  5
EA3
330
1F
100
AcDbEntity
  8
Hewi
  6
CUSTOM
 62
    18
420
        0
370
     9
100
AcDbPolyline
 90
        3
 70
     0
 43
0.0
 10
549.1979917060635
 20
1201.726416061128
 10
549.1995635627936
 20
1201.712985486057
 10
549.2059827296871
 20
1201.688509950858
  0
LINE
  5
EA4
330
1F
100
AcDbEntity
  8
Hewi
  6
CUSTOM
 62
    18
420
        0
370
     9
100
AcDbLine
 10
549.005563564242
 20
1205.592985467945
 30
0.0
 11
548.9824879507396
 21
1205.155867416608
 31
0.0
  0
LINE
  5
EA5
330
1F
100
AcDbEntity
  8
Hewi
  6
CUSTOM
 62
    18
420
        0
370
     9
100
AcDbLine
 10
550.735652616142
 20
1210.665541363314
 30
0.0
 11
550.5315635528313
 21
1210.377985445604
 31
0.0
  0
LINE
  5
EA6
330
1F
100
AcDbEntity
  8
Hewi
  6
CUSTOM
 62
    18
420
        0
370
     9
100
AcDbLine
 10
550.3868330761069
 20
1210.047341022233
 30
0.0
 11
550.5315635528313
 21
1210.377985445604
 31
0.0
  0
LINE
  5
EA7
330
1F
100
AcDbEntity
  8
Hewi
  6
CUSTOM
 62
    18
420
        0
370
     9
100
AcDbLine
 10
550.0595635563622
 20
1199.086985498317
 30
0.0
 11
550.0998521849178
 21
1199.019819273128
 31
0.0
  0
LINE
  5
EA8
330
1F
100
AcDbEntity
  8
Hewi
  6
CUSTOM
 62
    18
420
        0
370
     9
100
AcDbLine
 10
550.5315635528313
 20
1210.377985445604
 30
0.0
 11
550.3902444825907
 21
1210.052154828745
 31
0.0
  0
LINE
  5
EA9
330
1F
100
AcDbEntity
  8
Hewi
  6
CUSTOM
 62
    18
420
        0
370
     9
100
AcDbLine
 10
554.0305635266632
 20
1214.337985427119
 30
0.0
 11
553.6702068629456
 21
1214.0085007255
 31
0.0
  0
LINE
  5
EAA
330
1F
100
AcDbEntity
  8
Hewi
  6
CUSTOM
 62
    18
420
        0
370
     9
100
AcDbLine
 10
554.2021777336012
 20
1214.438732160492
 30
0.0
 11
554.0305635266632
 21
1214.337985427119
 31
0.0
  0
LINE
  5
EAB
330
1F
100
AcDbEntity
  8
Hewi
  6
CUSTOM
 62
    18
420
        0
370
     9
100
AcDbLine
 10
553.4675635308777
 20
1194.635985519098
 30
0.0
 11
553.8224006378623
 21
1194.394834086488
 31
0.0
  0
LINE
  5
EAC
330
1F
100
AcDbEntity
  8
Hewi
  6
CUSTOM
 62
    18
420
        0
370
     9
100
AcDbLine
 10
552.9906126025926
 20
1195.131215099572
 30
0.0
 11
553.4675635308777
 21
1194.635985519098
 31
0.0
  0
LINE
  5
EAD
330
1F
100
AcDbEntity
  8
Hewi
  6
CUSTOM
 62
    18
420
        0
370
     9
100
AcDbLine
 10
551.5105635455074
 20
1196.667985509612
 30
0.0
 11
551.6687305913401
 21
1196.503756874948
 31
0.0
  0
LINE
  5
EAE
330
1F
100
AcDbEntity
  8
Hewi
  6
CUSTOM
 62
    18
420
        0
370
     9
100
AcDbLine
 10
561.4297616997101
 20
1216.766380736755
 30
0.0
 11
558.8545634905931
 21
1216.497985417034
 31
0.0
  0
LINE
  5
EAF
330
1F
100
AcDbEntity
  8
Hewi
  6
CUSTOM
 62
    18
420
        0
370
     9
100
AcDbLine
 10
555.3400262179565
 20
1193.363438058284
 30
0.0
 11
555.4245635162406
 21
1193.305985525307
 31
0.0
  0
LINE
  5
EB0
330
1F
100
AcDbEntity
  8
Hewi
  6
CUSTOM
 62
    18
420
        0
370
     9
100
AcDbLine
 10
552.2695765359713
 20
1212.727863202137
 30
0.0
 11
552.0695635413285
 21
1212.544985435488
 31
0.0
  0
LINE
  5
EB1
330
1F
100
AcDbEntity
  8
Hewi
  6
CUSTOM
 62
    18
420
        0
370
     9
100
AcDbLine
 10
551.2835804949536
 20
1197.046394883036
 30
0.0
 11
551.5105635455074
 21
1196.667985509612
 31
0.0
  0
LWPOLYLINE
  5
EB2
330
1F
100
AcDbEntity
  8
Hewi
  6
CUSTOM
 62
    18
420
        0
370
     9
100
AcDbPolyline
 90
        4
 70
     0
 43
0.0
 10
549.022869140128
 20
1205.675447377984
 10
549.0266332760838
 20
1205.770148571118
 10
549.1390164862423
 20
1206.511441119657
 10
549.1950513433075
 20
1206.698275733914
  0
LINE
  5
EB3
330
1F
100
AcDbEntity
  8
Hewi
  6
CUSTOM
 62
    18
420
        0
370
     9
100
AcDbLine
 10
549.005563564242
 20
1205.592985467945
 30
0.0
 11
548.9908992231394
 21
1205.216901518943
 31
0.0
  0
LINE
  5
EB4
330
1F
100
AcDbEntity
  8
Hewi
  6
CUSTOM
 62
    18
420
        0
370
     9
100
AcDbLine
 10
557.6183736850289
 20
1216.093736040628
 30
0.0
 11
556.2705635099119
 21
1215.652985420978
 31
0.0
  0
LINE
  5
EB5
330
1F
100
AcDbEntity
  8
Hewi
  6
CUSTOM
 62
    18
420
        0
370
     9
100
AcDbLine
 10
556.2705635099119
 20
1215.652985420978
 30
0.0
 11
555.8043427625925
 21
1215.379288865419
 31
0.0
  0
LWPOLYLINE
  5
EB6
330
1F
100
AcDbEntity
  8
Hewi
  6
CUSTOM
 62
    18
420
        0
370
     9
100
AcDbPolyline
 90
        4
 70
     0
 43
0.0
 10
550.1269714091576
 20
1209.541633675191
 10
550.0399348035098
 20
1209.404251019152
 10
549.9347701092956
 20
1209.164688205268
 10
549.833057817912
 20
1208.825553286027
  0
LWPOLYLINE
  5
EB7
330
1F
100
AcDbEntity
  8
Hewi
  6
CUSTOM
 62
    18
420
        0
370
     9
100
AcDbPolyline
 90
        3
 70
     0
 43
0.0
 10
556.6864020008033
 20
1215.83014325815
 10
556.4444664926122
 20
1215.727030873633
 10
556.3593354334552
 20
1215.682014938857
  0
LWPOLYLINE
  5
EB8
330
1F
100
AcDbEntity
  8
Hewi
  6
CUSTOM
 62
    18
420
        0
370
     9
100
AcDbPolyline
 90
        4
 70
     0
 43
0.0
 10
560.568259740492
 20
1191.835305102955
 10
560.1807626196714
 20
1191.830321590198
 10
559.5015777697518
 20
1191.917256204791
 10
559.488316927669
 20
1191.920374775145
  0
LWPOLYLINE
  5
EB9
330
1F
100
AcDbEntity
  8
Hewi
  6
CUSTOM
 62
    18
420
        0
370
     9
100
AcDbPolyline
 90
        3
 70
     0
 43
0.0
 10
557.2608455483496
 20
1192.520771243122
 10
557.6555634995566
 20
1192.351985529762
 10
558.7597732548856
 20
1192.080254512188
  0
LINE
  5
EBA
330
1F
100
AcDbEntity
  8
Hewi
  6
CUSTOM
 62
    18
420
        0
370
     9
100
AcDbLine
 10
559.1603151518102
 20
1191.981686593633
 30
0.0
 11
559.252563487611
 21
1191.958985531595
 31
0.0
  0
LWPOLYLINE
  5
EBB
330
1F
100
AcDbEntity
  8
Hewi
  6
CUSTOM
 62
    18
420
        0
370
     9
100
AcDbPolyline
 90
        4
 70
     0
 43
0.0
 10
557.0857443014065
 20
1192.57167456066
 10
557.4104121333911
 20
1192.433057708382
 10
557.6600539935243
 20
1192.35032986777
 10
557.7104992628774
 20
1192.338466584839
  0
LINE
  5
EBC
330
1F
100
AcDbEntity
  8
Hewi
  6
CUSTOM
 62
    18
420
        0
370
     9
100
AcDbLine
 10
548.9485804329051
 20
1204.131587310852
 30
0.0
 11
548.9405635647308
 21
1203.925985475727
 31
0.0
  0
LWPOLYLINE
  5
EBD
330
1F
100
AcDbEntity
  8
Hewi
  6
CUSTOM
 62
    18
420
        0
370
     9
100
AcDbPolyline
 90
        4
 70
     0
 43
0.0
 10
552.5002536892243
 20
1195.565329291523
 10
552.6243234021785
 20
1195.401308130525
 10
552.8120822927776
 20
1195.217929960381
 10
553.1618852986648
 20
1194.953378554524
  0
LINE
  5
EBE
330
1F
100
AcDbEntity
  8
Hewi
  6
CUSTOM
 62
    18
420
        0
370
     9
100
AcDbLine
 10
555.4245635162406
 20
1193.305985525307
 30
0.0
 11
555.3137364197136
 21
1193.37633086821
 31
0.0
  0
LWPOLYLINE
  5
EBF
330
1F
100
AcDbEntity
  8
Hewi
  6
CUSTOM
 62
    18
420
        0
370
     9
100
AcDbPolyline
 90
        4
 70
     0
 43
0.0
 10
550.5457014135936
 20
1198.149263161005
 10
550.5043875200317
 20
1198.203880461442
 10
550.3797497859668
 20
1198.433913915367
 10
550.3393024963734
 20
1198.536890414902
  0
LINE
  5
EC0
330
1F
100
AcDbEntity
  8
Hewi
  6
CUSTOM
 62
    18
420
        0
370
     9
100
AcDbLine
 10
549.5310440309695
 20
1208.071149627594
 30
0.0
 11
549.5205635603924
 21
1208.046985456487
 31
0.0
  0
LINE
  5
EC1
330
1F
100
AcDbEntity
  8
Hewi
  6
CUSTOM
 62
    18
420
        0
370
     9
100
AcDbLine
 10
552.0695635413285
 20
1212.544985435488
 30
0.0
 11
551.5306696120023
 21
1211.785698603154
 31
0.0
  0
LINE
  5
EC2
330
1F
100
AcDbEntity
  8
Hewi
  6
CUSTOM
 62
    18
420
        0
370
     9
100
AcDbLine
 10
558.8545634905931
 20
1216.497985417034
 30
0.0
 11
558.5816824860922
 21
1216.408749948979
 31
0.0
  0
LWPOLYLINE
  5
EC3
330
1F
100
AcDbEntity
  8
Hewi
  6
CUSTOM
 62
    18
420
        0
370
     9
100
AcDbPolyline
 90
        3
 70
     0
 43
0.0
 10
551.8800985785455
 20
1212.3088517336
 10
551.9205594554441
 20
1212.372717077294
 10
552.0650695775221
 20
1212.539384524738
  0
LWPOLYLINE
  5
EC4
330
1F
100
AcDbEntity
  8
Hewi
  6
CUSTOM
 62
    18
420
        0
370
     9
100
AcDbPolyline
 90
        3
 70
     0
 43
0.0
 10
552.2741936821694
 20
1212.733750430674
 10
552.092491322157
 20
1212.571010767366
 10
552.0713120947657
 20
1212.546584189369
  0
LWPOLYLINE
  5
EC5
330
1F
100
AcDbEntity
  8
Hewi
  6
CUSTOM
 62
    18
420
        0
370
     9
100
AcDbPolyline
 90
        3
 70
     0
 43
0.0
 10
554.9530056362637
 20
1214.938370362502
 10
554.772658466114
 20
1214.843005679761
 10
554.4999289157604
 20
1214.660346006969
  0
LINE
  5
EC6
330
1F
100
AcDbEntity
  8
Hewi
  6
CUSTOM
 62
    18
420
        0
370
     9
100
AcDbLine
 10
554.3618573208768
 20
1214.567873033982
 30
0.0
 11
554.2039513503696
 21
1214.462116056538
 31
0.0
  0
LINE
  5
EC7
330
1F
100
AcDbEntity
  8
Hewi
  6
CUSTOM
 62
    18
420
        0
370
     9
100
AcDbLine
 10
549.2802938957538
 20
1201.405170135889
 30
0.0
 11
549.5255635603498
 21
1200.469985491862
 31
0.0
  0
LWPOLYLINE
  5
EC8
330
1F
100
AcDbEntity
  8
Hewi
  6
CUSTOM
 62
    18
420
        0
370
     9
100
AcDbPolyline
 90
        3
 70
     0
 43
0.0
 10
549.1239180649754
 20
1202.307769662377
 10
548.9463010646832
 20
1203.749085476553
 10
548.9500952574998
 20
1203.844542864553
  0
LWPOLYLINE
  5
EC9
330
1F
100
AcDbEntity
  8
Hewi
  6
CUSTOM
 62
    18
420
        0
370
     9
100
AcDbPolyline
 90
       41
 70
     0
 43
0.0
 10
461.6546049154457
 20
1023.246093490812
 10
571.6284565065543
 20
980.3188666046299
 10
575.5017437185743
 20
978.8094612833029
 10
579.1700458003033
 20
977.3799378890126
 10
581.4751967655502
 20
976.4816293095192
 10
585.6895046943391
 20
974.8393295095775
 10
589.2879254816398
 20
973.437038590413
 10
592.1819428212002
 20
972.3092510205205
 10
594.302607169182
 20
971.4828361753607
 10
595.3517583360662
 20
971.0739859488002
 10
595.9210579479368
 20
970.8521320514373
 10
596.0300727672329
 20
970.8096493902413
 10
596.897778739476
 20
970.527316623311
 10
599.2989628085306
 20
970.2720242732102
 10
600.1277789734922
 20
970.3525794432989
 10
601.6671048313037
 20
970.7443922214588
 10
603.7860534368992
 20
971.9020104361788
 10
605.463431047694
 20
973.6395418706633
 10
606.5450347806145
 20
975.7981359750374
 10
606.7608920012681
 20
976.602667537416
 10
606.9340056469409
 20
978.1815700133156
 10
606.7928805554147
 20
979.7637994756806
 10
606.5947746457641
 20
980.5718832722615
 10
605.5567553034088
 20
982.7526228234091
 10
603.9233596223821
 20
984.5182090318594
 10
601.8396674444884
 20
985.7176589082737
 10
601.5946170387215
 20
985.8131541210514
 10
600.8641245743929
 20
986.0978242610345
 10
600.1122018464375
 20
986.3908456933932
 10
597.9915374984557
 20
987.2172605385548
 10
595.0975201589026
 20
988.3450481084473
 10
591.4990993715946
 20
989.74733902761
 10
587.2847914428093
 20
991.3896388275516
 10
583.7823409665033
 20
992.7545304808736
 10
580.0404305879928
 20
994.2127387489636
 10
577.4380511838135
 20
995.2268761226623
 10
467.1364843215815
 20
1038.210977961464
 10
461.7843673878196
 20
1040.833302189225
 10
457.6679954804348
 20
1044.134243610195
 10
455.9128629518927
 20
1045.890388000634
 10
454.3937156506581
 20
1047.693018985137
  0
LWPOLYLINE
  5
ECA
330
1F
100
AcDbEntity
  8
Hewi
  6
CUSTOM
 62
    18
420
        0
370
     9
100
AcDbPolyline
 90
        3
 70
     0
 43
0.0
 10
549.1921376867066
 20
1201.754185154832
 10
549.1936870988393
 20
1201.741612077925
 10
549.1986638818234
 20
1201.720672721776
  0
LINE
  5
ECB
330
1F
100
AcDbEntity
  8
Hewi
  6
CUSTOM
 62
    18
420
        0
370
     9
100
AcDbLine
 10
556.6864020008033
 20
1215.83014325815
 30
0.0
 11
558.1803207525553
 21
1216.315056132456
 31
0.0
  0
LWPOLYLINE
  5
ECC
330
1F
100
AcDbEntity
  8
Hewi
  6
CUSTOM
 62
    18
420
        0
370
     9
100
AcDbPolyline
 90
        3
 70
     0
 43
0.0
 10
559.9688537725669
 20
1216.614120283528
 10
559.1554034913388
 20
1216.557062942758
 10
558.9013483225062
 20
1216.502861480612
  0
LWPOLYLINE
  5
ECD
330
1F
100
AcDbEntity
  8
Hewi
  6
CUSTOM
 62
    18
420
        0
370
     9
100
AcDbPolyline
 90
        3
 70
     0
 43
0.0
 10
555.9118101452222
 20
1193.072885464491
 10
555.6711528113992
 20
1193.175634054916
 10
555.5110550531789
 20
1193.264607747849
  0
LWPOLYLINE
  5
ECE
330
1F
100
AcDbEntity
  8
Hewi
  6
CUSTOM
 62
    18
420
        0
370
     9
100
AcDbPolyline
 90
        3
 70
     0
 43
0.0
 10
558.3979003566018
 20
1216.385680556353
 10
558.4857480013452
 20
1216.414195128425
 10
558.5111172802826
 20
1216.419607543445
  0
LWPOLYLINE
  5
ECF
330
1F
100
AcDbEntity
  8
Hewi
  6
CUSTOM
 62
    18
420
        0
370
     9
100
AcDbPolyline
 90
        7
 70
     0
 43
0.0
 10
461.6546049154457
 20
1023.246093490812
 10
453.8642111572844
 20
1027.05579300359
 10
453.4848028114611
 20
1027.307752163708
 10
446.7651197727536
 20
1032.435643660528
 10
444.1716677420008
 20
1035.031491075144
 10
441.7850138866124
 20
1037.844040042349
 10
321.9381996802804
 20
1191.266983609228
  0
LWPOLYLINE
  5
ED0
330
1F
100
AcDbEntity
  8
Hewi
  6
CUSTOM
 62
    18
420
        0
370
     9
100
AcDbPolyline
 90
        3
 70
     0
 43
0.0
 10
554.9966110808891
 20
1193.565799611882
 10
555.0728632478713
 20
1193.508131102364
 10
555.1684220947718
 20
1193.455024652929
  0
LINE
  5
ED1
330
1F
100
AcDbEntity
  8
Hewi
  6
CUSTOM
 62
    18
420
        0
370
     9
100
AcDbLine
 10
556.5026466428644
 20
1215.728879481543
 30
0.0
 11
556.6864020008033
 21
1215.83014325815
 31
0.0
  0
LINE
  5
ED2
330
1F
100
AcDbEntity
  8
Hewi
  6
CUSTOM
 62
    18
420
        0
370
     9
100
AcDbLine
 10
554.1636347754574
 20
1214.426006972284
 30
0.0
 11
554.2039513503696
 21
1214.462116056538
 31
0.0
  0
LWPOLYLINE
  5
ED3
330
1F
100
AcDbEntity
  8
Hewi
  6
CUSTOM
 62
    18
420
        0
370
     9
100
AcDbPolyline
 90
        3
 70
     0
 43
0.0
 10
549.4161361503211
 20
1200.887219442231
 10
549.3670582125377
 20
1201.012169081328
 10
549.258743505572
 20
1201.467893237097
  0
LWPOLYLINE
  5
ED4
330
1F
100
AcDbEntity
  8
Hewi
  6
CUSTOM
 62
    18
420
        0
370
     9
100
AcDbPolyline
 90
        5
 70
     0
 43
0.0
 10
454.2622771648494
 20
1026.86112864095
 10
454.4753103037619
 20
1026.707105323144
 10
457.6765283848289
 20
1024.990592909118
 10
458.327226318157
 20
1024.699454674435
 10
461.0020434809266
 20
1023.537957924833
  0
LINE
  5
ED5
330
1F
100
AcDbEntity
  8
Hewi
  6
CUSTOM
 62
    18
420
        0
370
     9
100
AcDbLine
 10
555.3398690569811
 20
1193.359743684979
 30
0.0
 11
555.2821442897038
 21
1193.391823995003
 31
0.0
  0
LINE
  5
ED6
330
1F
100
AcDbEntity
  8
Hewi
  6
CUSTOM
 62
    18
420
        0
370
     9
100
AcDbLine
 10
554.2039513503696
 20
1214.462116056538
 30
0.0
 11
554.2891355654647
 21
1214.509059315362
 31
0.0
  0
LINE
  5
ED7
330
1F
100
AcDbEntity
  8
Hewi
  6
CUSTOM
 62
    18
420
        0
370
     9
100
AcDbLine
 10
461.0020434809266
 20
1023.537957924833
 30
0.0
 11
461.6546049154457
 21
1023.246093490812
 31
0.0
  0
LINE
  5
ED8
330
1F
100
AcDbEntity
  8
Hewi
  6
CUSTOM
 62
    18
420
        0
370
     9
100
AcDbLine
 10
217.3625660443504
 20
1217.711985411364
 30
0.0
 11
217.0185660469178
 21
1217.958985410212
 31
0.0
  0
LINE
  5
ED9
330
1F
100
AcDbEntity
  8
Hewi
  6
CUSTOM
 62
    18
420
        0
370
     9
100
AcDbLine
 10
216.6275660498432
 20
1226.183985371812
 30
0.0
 11
217.3625660443504
 21
1226.821985368835
 31
0.0
  0
LWPOLYLINE
  5
EDA
330
1F
100
AcDbEntity
  8
Hewi
  6
CUSTOM
 62
    18
420
        0
370
     9
100
AcDbPolyline
 90
       53
 70
     0
 43
0.0
 10
218.9355660325855
 20
1217.266985413444
 10
218.8195660334495
 20
1217.266985413444
 10
218.2165660379578
 20
1217.266985413444
 10
217.108566046245
 20
1217.266985413444
 10
214.8905660628334
 20
1217.266985413444
 10
211.906566085152
 20
1217.266985413444
 10
208.2695661123471
 20
1217.266985413444
 10
204.1195661433812
 20
1217.266985413444
 10
201.9025661599626
 20
1217.266985413444
 10
198.4575661857197
 20
1217.266985413444
 10
194.9355662120615
 20
1217.266985413444
 10
56.93556724406153
 20
1217.266985413444
 10
53.54756726939377
 20
1217.266985413444
 10
50.29056729375224
 20
1217.266985413444
 10
48.23456730912949
 20
1217.266985413444
 10
45.73856732778949
 20
1217.266985413444
 10
43.56856734402026
 20
1217.266985413444
 10
42.32256735333431
 20
1217.266985413444
 10
40.93456736371808
 20
1217.266985413444
 10
40.29356736851332
 20
1217.266985413444
 10
39.27856737609909
 20
1217.266985413444
 10
38.93556737866675
 20
1217.266985413444
 10
37.85756738672717
 20
1217.466985412509
 10
37.01856739300274
 20
1217.958985410212
 10
36.38056739777312
 20
1218.69398540678
 10
36.04956740024864
 20
1219.449985403253
 10
35.93556740110216
 20
1220.266985399437
 10
35.93556740110216
 20
1224.266985380764
 10
36.04956740024864
 20
1225.083985376947
 10
36.38056739777312
 20
1225.839985373419
 10
37.01856739300274
 20
1226.574985369985
 10
37.85756738672717
 20
1227.066985367692
 10
38.93556737866675
 20
1227.266985366757
 10
39.07956737759014
 20
1227.266985366757
 10
39.93656737117999
 20
1227.266985366757
 10
41.51656735936194
 20
1227.266985366757
 10
42.94656734867385
 20
1227.266985366757
 10
43.89256734159789
 20
1227.266985366757
 10
46.68456732071717
 20
1227.266985366757
 10
49.87156729688286
 20
1227.266985366757
 10
52.16356727974562
 20
1227.266985366757
 10
53.51856726961341
 20
1227.266985366757
 10
55.09856725779901
 20
1227.266985366757
 10
56.93556724406153
 20
1227.266985366757
 10
194.9355662120615
 20
1227.266985366757
 10
199.2015661801597
 20
1227.266985366757
 10
202.6035661547175
 20
1227.266985366757
 10
207.2735661197949
 20
1227.266985366757
 10
211.906566085152
 20
1227.266985366757
 10
215.5205660581232
 20
1227.266985366757
 10
217.6775660419917
 20
1227.266985366757
 10
218.5535660354399
 20
1227.266985366757
 10
218.9355660325855
 20
1227.266985366757
  0
LWPOLYLINE
  5
EDB
330
1F
100
AcDbEntity
  8
Hewi
  6
CUSTOM
 62
    18
420
        0
370
     9
100
AcDbPolyline
 90
       10
 70
     0
 43
0.0
 10
574.435563374067
 20
1217.266985413444
 10
236.9355658979766
 20
1217.266985413444
 10
233.7355659219065
 20
1217.266985413444
 10
231.184565940981
 20
1217.266985413444
 10
227.6815659671775
 20
1217.266985413444
 10
224.2075659931579
 20
1217.266985413444
 10
221.4965660134294
 20
1217.266985413444
 10
219.8785660255344
 20
1217.266985413444
 10
219.2225660304357
 20
1217.266985413444
 10
218.9355660325855
 20
1217.266985413444
  0
LWPOLYLINE
  5
EDC
330
1F
100
AcDbEntity
  8
Hewi
  6
CUSTOM
 62
    18
420
        0
370
     9
100
AcDbPolyline
 90
        3
 70
     0
 43
0.0
 10
450.6056717838873
 20
1029.504860482668
 10
447.635995159595
 20
1031.651941677737
 10
447.1074852698912
 20
1032.174379383878
  0
LINE
  5
EDD
330
1F
100
AcDbEntity
  8
Hewi
  6
CUSTOM
 62
    18
420
        0
370
     9
100
AcDbLine
 10
454.3937156506581
 20
1047.693018985137
 30
0.0
 11
457.6699577828876
 21
1044.132670047682
 31
0.0
  0
LINE
  5
EDE
330
1F
100
AcDbEntity
  8
Hewi
  6
CUSTOM
 62
    18
420
        0
370
     9
100
AcDbLine
 10
217.8575660406459
 20
1227.066985367692
 30
0.0
 11
218.1185660386946
 21
1227.152985367291
 31
0.0
  0
LINE
  5
EDF
330
1F
100
AcDbEntity
  8
Hewi
  6
CUSTOM
 62
    18
420
        0
370
     9
100
AcDbLine
 10
342.241402415475
 20
1191.266984864997
 30
0.0
 11
454.3937156506581
 21
1047.693018985137
 31
0.0
  0
LWPOLYLINE
  5
EE0
330
1F
100
AcDbEntity
  8
Hewi
  6
CUSTOM
 62
    18
420
        0
370
     9
100
AcDbPolyline
 90
        3
 70
     0
 43
0.0
 10
573.35256338217
 20
1226.574985369985
 10
573.0085633847448
 20
1226.821985368835
 10
572.703854698997
 20
1226.955396182677
  0
LWPOLYLINE
  5
EE1
330
1F
100
AcDbEntity
  8
Hewi
  6
CUSTOM
 62
    18
420
        0
370
     9
100
AcDbPolyline
 90
        6
 70
     0
 43
0.0
 10
216.0495660541674
 20
1219.449985403251
 10
215.9355660550172
 20
1220.266985399437
 10
215.9355660550172
 20
1224.266985380764
 10
216.0495660541674
 20
1225.083985376947
 10
216.1355660535228
 20
1225.34498537573
 10
216.6275660498432
 20
1226.183985371812
  0
LINE
  5
EE2
330
1F
100
AcDbEntity
  8
Hewi
  6
CUSTOM
 62
    18
420
        0
370
     9
100
AcDbLine
 10
216.3805660516918
 20
1218.69398540678
 30
0.0
 11
216.0495660541674
 21
1219.449985403251
 31
0.0
  0
LWPOLYLINE
  5
EE3
330
1F
100
AcDbEntity
  8
Hewi
  6
CUSTOM
 62
    18
420
        0
370
     9
100
AcDbPolyline
 90
        4
 70
     0
 43
0.0
 10
218.9355660325855
 20
1217.266985413444
 10
218.1185660386946
 20
1217.38098541291
 10
217.8575660406459
 20
1217.466985412509
 10
217.0185660469178
 20
1217.958985410212
  0
LINE
  5
EE4
330
1F
100
AcDbEntity
  8
Hewi
  6
CUSTOM
 62
    18
420
        0
370
     9
100
AcDbLine
 10
462.6986647742888
 20
1040.385332868016
 30
0.0
 11
460.5708122026662
 21
1041.806458824059
 31
0.0
  0
LINE
  5
EE5
330
1F
100
AcDbEntity
  8
Hewi
  6
CUSTOM
 62
    18
420
        0
370
     9
100
AcDbLine
 10
217.3625660443504
 20
1226.821985368835
 30
0.0
 11
218.1185660386946
 21
1227.152985367291
 31
0.0
  0
LINE
  5
EE6
330
1F
100
AcDbEntity
  8
Hewi
  6
CUSTOM
 62
    18
420
        0
370
     9
100
AcDbLine
 10
216.6275660498432
 20
1218.349985408387
 30
0.0
 11
216.3805660516918
 21
1218.69398540678
 31
0.0
  0
LINE
  5
EE7
330
1F
100
AcDbEntity
  8
Hewi
  6
CUSTOM
 62
    18
420
        0
370
     9
100
AcDbLine
 10
217.0185660469178
 20
1217.958985410212
 30
0.0
 11
216.3805660516918
 21
1218.69398540678
 31
0.0
  0
LINE
  5
EE8
330
1F
100
AcDbEntity
  8
Hewi
  6
CUSTOM
 62
    18
420
        0
370
     9
100
AcDbLine
 10
218.1185660386946
 20
1227.152985367291
 30
0.0
 11
218.9355660325855
 21
1227.266985366757
 31
0.0
  0
LINE
  5
EE9
330
1F
100
AcDbEntity
  8
Hewi
  6
CUSTOM
 62
    18
420
        0
370
     9
100
AcDbLine
 10
216.6275660498432
 20
1226.183985371812
 30
0.0
 11
216.3805660516918
 21
1225.839985373419
 31
0.0
  0
LINE
  5
EEA
330
1F
100
AcDbEntity
  8
Hewi
  6
CUSTOM
 62
    18
420
        0
370
     9
100
AcDbLine
 10
217.3625660443504
 20
1226.821985368835
 30
0.0
 11
217.0185660469178
 21
1226.574985369985
 31
0.0
  0
LINE
  5
EEB
330
1F
100
AcDbEntity
  8
Hewi
  6
CUSTOM
 62
    18
420
        0
370
     9
100
AcDbLine
 10
216.1355660535228
 20
1219.188985404471
 30
0.0
 11
216.0495660541674
 21
1219.449985403251
 31
0.0
  0
LINE
  5
EEC
330
1F
100
AcDbEntity
  8
Hewi
  6
CUSTOM
 62
    18
420
        0
370
     9
100
AcDbLine
 10
461.0020434809266
 20
1023.537957924833
 30
0.0
 11
458.8148778865943
 21
1024.634791805713
 31
0.0
  0
LWPOLYLINE
  5
EED
330
1F
100
AcDbEntity
  8
Hewi
  6
CUSTOM
 62
    18
420
        0
370
     9
100
AcDbPolyline
 90
       13
 70
     0
 43
0.0
 10
573.35256338217
 20
1226.574985369985
 10
572.5135633884455
 20
1227.066985367692
 10
572.2525633903933
 20
1227.152985367291
 10
571.435563396506
 20
1227.266985366757
 10
236.9355658979766
 20
1227.266985366757
 10
233.4235659242404
 20
1227.266985366757
 10
230.0475659494878
 20
1227.266985366757
 10
226.9355659727589
 20
1227.266985366757
 10
224.2075659931579
 20
1227.266985366757
 10
221.9695660098951
 20
1227.266985366757
 10
220.3055660223399
 20
1227.266985366757
 10
219.2815660299966
 20
1227.266985366757
 10
218.9355660325855
 20
1227.266985366757
  0
LINE
  5
EEE
330
1F
100
AcDbEntity
  8
Hewi
  6
CUSTOM
 62
    18
420
        0
370
     9
100
AcDbLine
 10
573.35256338217
 20
1226.574985369985
 30
0.0
 11
573.9905633773997
 21
1225.839985373419
 31
0.0
  0
LWPOLYLINE
  5
EEF
330
1F
100
AcDbEntity
  8
Hewi
  6
CUSTOM
 62
    18
420
        0
370
     9
100
AcDbPolyline
 90
        3
 70
     0
 43
0.0
 10
574.435563374067
 20
1217.266985413444
 10
574.435563374067
 20
1224.266985380764
 10
574.3225633749171
 20
1225.083985376947
  0
LWPOLYLINE
  5
EF0
330
1F
100
AcDbEntity
  8
Hewi
  6
CUSTOM
 62
    18
420
        0
370
     9
100
AcDbPolyline
 90
        3
 70
     0
 43
0.0
 10
573.9905633773997
 20
1225.839985373419
 10
573.7435633792447
 20
1226.183985371812
 10
573.5342516611272
 20
1226.365673639208
  0
LWPOLYLINE
  5
EF1
330
1F
100
AcDbEntity
  8
Hewi
  6
CUSTOM
 62
    18
420
        0
370
     9
100
AcDbPolyline
 90
        6
 70
     0
 43
0.0
 10
571.435563396506
 20
1220.266985399437
 10
572.5135633884455
 20
1219.188985404471
 10
573.35256338217
 20
1218.349985408387
 10
573.9905633773997
 20
1217.711985411364
 10
574.3135633749807
 20
1217.387985412879
 10
574.435563374067
 20
1217.266985413444
  0
LWPOLYLINE
  5
EF2
330
1F
100
AcDbEntity
  8
Hewi
  6
CUSTOM
 62
    18
420
        0
370
     9
100
AcDbPolyline
 90
        3
 70
     0
 43
0.0
 10
574.3225633749171
 20
1225.083985376947
 10
574.2355633755651
 20
1225.34498537573
 10
574.1255792290758
 20
1225.532539642319
  0
LINE
  5
EF3
330
1F
100
AcDbEntity
  8
Hewi
  6
CUSTOM
 62
    18
420
        0
370
     9
100
AcDbLine
 10
573.9905633773997
 20
1225.839985373419
 30
0.0
 11
574.3225633749171
 21
1225.083985376947
 31
0.0
  0
LWPOLYLINE
  5
EF4
330
1F
100
AcDbEntity
  8
Hewi
  6
CUSTOM
 62
    18
420
        0
370
     9
100
AcDbPolyline
 90
       11
 70
     0
 43
0.0
 10
561.4355634712883
 20
1191.266985534828
 10
236.9355658979766
 20
1191.266985534828
 10
234.1125659190875
 20
1191.266985534828
 10
231.3975659393873
 20
1191.266985534828
 10
229.6845659521969
 20
1191.266985534828
 10
226.9705659724968
 20
1191.266985534828
 10
224.7575659890463
 20
1191.266985534828
 10
223.6015659976947
 20
1191.266985534828
 10
223.0665660016894
 20
1191.266985534828
 10
222.221566008011
 20
1191.266985534828
 10
221.9355660101464
 20
1191.266985534828
  0
LINE
  5
EF5
330
1F
100
AcDbEntity
  8
Hewi
  6
CUSTOM
 62
    18
420
        0
370
     9
100
AcDbLine
 10
561.4355634712883
 20
1191.266985534828
 30
0.0
 11
563.2235634579192
 21
1191.390985534248
 31
0.0
  0
LINE
  5
EF6
330
1F
100
AcDbEntity
  8
Hewi
  6
CUSTOM
 62
    18
420
        0
370
     9
100
AcDbLine
 10
561.4355634712883
 20
1191.266985534828
 30
0.0
 11
562.8145634609754
 21
1191.339985534487
 31
0.0
  0
LWPOLYLINE
  5
F5F
330
1F
100
AcDbEntity
  8
Hewi
  6
CUSTOM
 62
    18
420
        0
370
     9
100
AcDbPolyline
 90
       14
 70
     0
 43
0.0
 10
803.5924252814002
 20
644.5958050533845
 10
833.592423853719
 20
644.5958050533845
 10
834.9544237889022
 20
644.5958050533845
 10
836.2144237289431
 20
644.5958050533845
 10
837.43842367069
 20
644.5958050533845
 10
838.2584236316688
 20
644.5958050533845
 10
838.5924236157734
 20
644.5958050533845
 10
838.5924236157734
 20
639.5958052913283
 10
838.458423622149
 20
639.5958052913283
 10
837.9894236444707
 20
639.5958052913283
 10
837.215423681304
 20
639.5958052913283
 10
835.5634237599224
 20
639.5958052913283
 10
833.592423853719
 20
639.5958052913283
 10
803.5924252814002
 20
639.5958052913283
  0
LWPOLYLINE
  5
F60
330
1F
100
AcDbEntity
  8
Hewi
  6
CUSTOM
 62
    18
420
        0
370
     9
100
AcDbPolyline
 90
        4
 70
     0
 43
0.0
 10
793.5924257572878
 20
634.5958055292758
 10
793.5924257572878
 20
589.0958076945844
 10
793.5924257572878
 20
586.9128077984714
 10
793.5924257572878
 20
585.3158078744727
  0
LWPOLYLINE
  5
F61
330
1F
100
AcDbEntity
  8
Hewi
  6
CUSTOM
 62
    18
420
        0
370
     9
100
AcDbPolyline
 90
       14
 70
     0
 43
0.0
 10
793.5924257572878
 20
577.7198082359591
 10
793.5924257572878
 20
577.1858082613725
 10
793.5924257572878
 20
576.8598082768858
 10
793.5924257572878
 20
576.6008082892112
 10
798.5924255193386
 20
576.6008082892112
 10
798.5924255193386
 20
576.6658082861194
 10
798.5924255193386
 20
577.1808082616098
 10
798.5924255193386
 20
578.1918082134998
 10
798.5924255193386
 20
579.7298081403059
 10
798.5924255193386
 20
581.6908080469838
 10
798.5924255193386
 20
583.9308079403836
 10
798.5924255193386
 20
586.5148078174115
 10
798.5924255193386
 20
589.0958076945844
 10
798.5924255193386
 20
634.5958055292758
  0
LWPOLYLINE
  5
F62
330
1F
100
AcDbEntity
  8
Hewi
  6
CUSTOM
 62
    18
420
        0
370
     9
100
AcDbPolyline
 90
        3
 70
     0
 43
0.0
 10
796.5159849977354
 20
641.6184113428407
 10
796.6994256094294
 20
641.8398051845379
 10
797.9794255485139
 20
642.8718051354262
  0
LINE
  5
F63
330
1F
100
AcDbEntity
  8
Hewi
  6
CUSTOM
 62
    18
420
        0
370
     9
100
AcDbLine
 10
801.6214253751968
 20
639.1908053106035
 30
0.0
 11
803.5924252814002
 21
639.5958052913283
 31
0.0
  0
LWPOLYLINE
  5
F64
330
1F
100
AcDbEntity
  8
Hewi
  6
CUSTOM
 62
    18
420
        0
370
     9
100
AcDbPolyline
 90
        4
 70
     0
 43
0.0
 10
798.5924255193386
 20
634.5958055292758
 10
798.6324255174404
 20
635.2278054991984
 10
799.0764254963068
 20
636.7418054271492
 10
799.9694254538117
 20
638.0418053652829
  0
LINE
  5
F65
330
1F
100
AcDbEntity
  8
Hewi
  6
CUSTOM
 62
    18
420
        0
370
     9
100
AcDbLine
 10
799.9694254538117
 20
638.0418053652829
 30
0.0
 11
801.6214253751968
 21
639.1908053106035
 31
0.0
  0
LINE
  5
F66
330
1F
100
AcDbEntity
  8
Hewi
  6
CUSTOM
 62
    18
420
        0
370
     9
100
AcDbLine
 10
795.3434256739565
 20
640.248805260253
 30
0.0
 11
794.3794257198351
 21
638.4848053442019
 31
0.0
  0
LWPOLYLINE
  5
F67
330
1F
100
AcDbEntity
  8
Hewi
  6
CUSTOM
 62
    18
420
        0
370
     9
100
AcDbPolyline
 90
        3
 70
     0
 43
0.0
 10
793.9914257382988
 20
637.3928053961699
 10
794.2274257270692
 20
638.1028053623794
 10
794.3794257198351
 20
638.4848053442019
  0
LINE
  5
F68
330
1F
100
AcDbEntity
  8
Hewi
  6
CUSTOM
 62
    18
420
        0
370
     9
100
AcDbLine
 10
803.5924252814002
 20
644.5958050533845
 30
0.0
 11
799.981425453243
 21
643.9208050855068
 31
0.0
  0
LWPOLYLINE
  5
F69
330
1F
100
AcDbEntity
  8
Hewi
  6
CUSTOM
 62
    18
420
        0
370
     9
100
AcDbPolyline
 90
       16
 70
     0
 43
0.0
 10
1167.592407958924
 20
640.5958052437399
 10
1167.592407958924
 20
634.5958055292758
 10
1167.308407972436
 20
634.5958055292758
 10
1166.478408011935
 20
634.5958055292758
 10
1164.88440808779
 20
634.5958055292758
 10
1162.786408187632
 20
634.5958055292758
 10
1160.092408315839
 20
634.5958055292758
 10
1105.092410933248
 20
634.5958055292758
 10
1103.758410996732
 20
634.5958055292758
 10
1101.954411082581
 20
634.5958055292758
 10
1100.352411158819
 20
634.5958055292758
 10
1099.437411202365
 20
634.5958055292758
 10
1098.331411254999
 20
634.5958055292758
 10
1097.712411284454
 20
634.5958055292758
 10
1097.592411290163
 20
634.5958055292758
 10
1097.592411290163
 20
640.5958052437399
  0
LWPOLYLINE
  5
F6A
330
1F
100
AcDbEntity
  8
Hewi
  6
CUSTOM
 62
    18
420
        0
370
     9
100
AcDbPolyline
 90
        4
 70
     0
 43
0.0
 10
797.9794255485139
 20
642.8718051354262
 10
798.5924255193386
 20
643.2558051171526
 10
799.8154254611436
 20
643.8548050886474
 10
799.981425453243
 20
643.9208050855068
  0
LWPOLYLINE
  5
F6B
330
1F
100
AcDbEntity
  8
Hewi
  6
CUSTOM
 62
    18
420
        0
370
     9
100
AcDbPolyline
 90
        3
 70
     0
 43
0.0
 10
797.9794255485139
 20
642.8718051354262
 10
796.2794256294182
 20
641.4158052047187
 10
795.3434256739565
 20
640.248805260253
  0
LWPOLYLINE
  5
F6C
330
1F
100
AcDbEntity
  8
Hewi
  6
CUSTOM
 62
    18
420
        0
370
     9
100
AcDbPolyline
 90
        3
 70
     0
 43
0.0
 10
793.706425751865
 20
636.1028054575581
 10
793.6954257523902
 20
636.0238054613183
 10
793.5924257572878
 20
634.5958055292758
  0
LINE
  5
F6D
330
1F
100
AcDbEntity
  8
Hewi
  6
CUSTOM
 62
    18
420
        0
370
     9
100
AcDbLine
 10
803.5924252814002
 20
639.5958052913283
 30
0.0
 11
801.3627261960573
 21
639.0057233111674
 31
0.0
  0
LWPOLYLINE
  5
F6E
330
1F
100
AcDbEntity
  8
Hewi
  6
CUSTOM
 62
    18
420
        0
370
     9
100
AcDbPolyline
 90
        5
 70
     0
 43
0.0
 10
800.0507406989127
 20
643.9337621023114
 10
801.0254254035571
 20
644.2608050693252
 10
802.0794253533967
 20
644.4808050588562
 10
803.1864253007189
 20
644.587805053763
 10
803.5924252814002
 20
644.5958050533845
  0
LWPOLYLINE
  5
F6F
330
1F
100
AcDbEntity
  8
Hewi
  6
CUSTOM
 62
    18
420
        0
370
     9
100
AcDbPolyline
 90
       16
 70
     0
 43
0.0
 10
1097.592411290163
 20
610.5958066714156
 10
1097.592411290163
 20
616.5958063858815
 10
1097.876411276651
 20
616.5958063858815
 10
1098.706411237152
 20
616.5958063858815
 10
1100.30041116129
 20
616.5958063858815
 10
1102.398411061455
 20
616.5958063858815
 10
1105.092410933248
 20
616.5958063858815
 10
1160.092408315839
 20
616.5958063858815
 10
1161.426408252355
 20
616.5958063858815
 10
1163.230408166506
 20
616.5958063858815
 10
1164.832408090267
 20
616.5958063858815
 10
1165.747408046722
 20
616.5958063858815
 10
1166.853407994087
 20
616.5958063858815
 10
1167.472407964633
 20
616.5958063858815
 10
1167.592407958924
 20
616.5958063858815
 10
1167.592407958924
 20
610.5958066714156
  0
LWPOLYLINE
  5
F70
330
1F
100
AcDbEntity
  8
Hewi
  6
CUSTOM
 62
    18
420
        0
370
     9
100
AcDbPolyline
 90
        3
 70
     0
 43
0.0
 10
795.3434256739565
 20
640.248805260253
 10
795.1914256811942
 20
640.0198052711512
 10
794.3794257198351
 20
638.4848053442019
  0
LINE
  5
F71
330
1F
100
AcDbEntity
  8
Hewi
  6
CUSTOM
 62
    18
420
        0
370
     9
100
AcDbLine
 10
799.0132267624139
 20
636.5263034316795
 30
0.0
 11
799.9694254538117
 21
638.0418053652829
 31
0.0
  0
LINE
  5
F72
330
1F
100
AcDbEntity
  8
Hewi
  6
CUSTOM
 62
    18
420
        0
370
     9
100
AcDbLine
 10
794.3794257198351
 20
638.4848053442019
 30
0.0
 11
793.9914257382988
 21
637.3928053961699
 31
0.0
  0
LINE
  5
F73
330
1F
100
AcDbEntity
  8
Hewi
  6
CUSTOM
 62
    18
420
        0
370
     9
100
AcDbLine
 10
799.981425453243
 20
643.9208050855068
 30
0.0
 11
797.9794255485139
 21
642.8718051354262
 31
0.0
  0
LINE
  5
F74
330
1F
100
AcDbEntity
  8
Hewi
  6
CUSTOM
 62
    18
420
        0
370
     9
100
AcDbLine
 10
793.9914257382988
 20
637.3928053961699
 30
0.0
 11
793.706425751865
 21
636.1028054575581
 31
0.0
  0
LINE
  5
F75
330
1F
100
AcDbEntity
  8
Hewi
  6
CUSTOM
 62
    18
420
        0
370
     9
100
AcDbLine
 10
799.931592283865
 20
637.9818426801448
 30
0.0
 11
801.6214253751968
 21
639.1908053106035
 31
0.0
  0
LINE
  5
F76
330
1F
100
AcDbEntity
  8
Hewi
  6
CUSTOM
 62
    18
420
        0
370
     9
100
AcDbLine
 10
798.5924255193386
 20
634.5958055292758
 30
0.0
 11
798.8383067289942
 21
635.9298418795206
 31
0.0
  0
LINE
  5
F77
330
1F
100
AcDbEntity
  8
Hewi
  6
CUSTOM
 62
    18
420
        0
370
     9
100
AcDbLine
 10
793.706425751865
 20
636.1028054575581
 30
0.0
 11
793.5924257572878
 21
634.5958055292758
 31
0.0
  0
LWPOLYLINE
  5
F78
330
1F
100
AcDbEntity
  8
Hewi
  6
CUSTOM
 62
    18
420
        0
370
     9
100
AcDbPolyline
 90
       19
 70
     0
 43
0.0
 10
1170.092407839947
 20
610.5958066714156
 10
1170.092407839947
 20
606.5958068617747
 10
1169.8644078508
 20
606.5958068617747
 10
1169.191407882826
 20
606.5958068617747
 10
1168.510407915229
 20
606.5958068617747
 10
1167.338407971008
 20
606.5958068617747
 10
1165.586408054387
 20
606.5958068617747
 10
1163.567408150469
 20
606.5958068617747
 10
1162.114408219611
 20
606.5958068617747
 10
1160.092408315839
 20
606.5958068617747
 10
1105.092410933248
 20
606.5958068617747
 10
1102.321411065117
 20
606.5958068617747
 10
1099.787411185705
 20
606.5958068617747
 10
1098.304411256278
 20
606.5958068617747
 10
1097.551411292119
 20
606.5958068617747
 10
1096.078411362217
 20
606.5958068617747
 10
1095.252411401525
 20
606.5958068617747
 10
1095.092411409139
 20
606.5958068617747
 10
1095.092411409139
 20
610.5958066714156
  0
LWPOLYLINE
  5
F79
330
1F
100
AcDbEntity
  8
Hewi
  6
CUSTOM
 62
    18
420
        0
370
     9
100
AcDbPolyline
 90
        7
 70
     0
 43
0.0
 10
1095.092411409139
 20
634.5942484176102
 10
1095.092411409139
 20
635.5958054816856
 10
1095.092411409139
 20
636.9578054168687
 10
1095.092411409139
 20
638.2178053569077
 10
1095.092411409139
 20
639.4418052986602
 10
1095.092411409139
 20
640.2618052596353
 10
1095.092411409139
 20
640.5958052437399
  0
LWPOLYLINE
  5
F7A
330
1F
100
AcDbEntity
  8
Hewi
  6
CUSTOM
 62
    18
420
        0
370
     9
100
AcDbPolyline
 90
        7
 70
     0
 43
0.0
 10
1170.092407839947
 20
640.5958052437399
 10
1170.092407839947
 20
640.2348052609213
 10
1170.092407839947
 20
639.3848053013698
 10
1170.092407839947
 20
638.1438053604288
 10
1170.092407839947
 20
636.6558054312426
 10
1170.092407839947
 20
635.5958054816856
 10
1170.092407839947
 20
634.5942480450812
  0
LWPOLYLINE
  5
F7B
330
1F
100
AcDbEntity
  8
Hewi
  6
CUSTOM
 62
    18
420
        0
370
     9
100
AcDbPolyline
 90
        7
 70
     0
 43
0.0
 10
1170.092407839947
 20
618.6539715997477
 10
1170.092407839947
 20
615.5958064334718
 10
1170.092407839947
 20
613.7708065203224
 10
1170.092407839947
 20
612.1968065952278
 10
1170.092407839947
 20
611.3238066367721
 10
1170.092407839947
 20
610.7348066648028
 10
1170.092407839947
 20
610.5958066714156
  0
LWPOLYLINE
  5
F7C
330
1F
100
AcDbEntity
  8
Hewi
  6
CUSTOM
 62
    18
420
        0
370
     9
100
AcDbPolyline
 90
        7
 70
     0
 43
0.0
 10
1095.092411409139
 20
610.5958066714156
 10
1095.092411409139
 20
610.784806662421
 10
1095.092411409139
 20
611.3378066361056
 10
1095.092411409139
 20
612.4008065855178
 10
1095.092411409139
 20
613.7998065189422
 10
1095.092411409139
 20
615.5958064334718
 10
1095.092411409139
 20
618.6539713017245
  0
LWPOLYLINE
  5
F7D
330
1F
100
AcDbEntity
  8
Hewi
  6
CUSTOM
 62
    18
420
        0
370
     9
100
AcDbPolyline
 90
       17
 70
     0
 43
0.0
 10
1095.092411409139
 20
640.5958052437399
 10
1095.092411409139
 20
644.5958050533845
 10
1095.320411398286
 20
644.5958050533845
 10
1095.99341136626
 20
644.5958050533845
 10
1096.67441133385
 20
644.5958050533845
 10
1097.846411278078
 20
644.5958050533845
 10
1099.5984111947
 20
644.5958050533845
 10
1101.617411098617
 20
644.5958050533845
 10
1103.070411029468
 20
644.5958050533845
 10
1105.092410933248
 20
644.5958050533845
 10
1160.092408315839
 20
644.5958050533845
 10
1162.817408186158
 20
644.5958050533845
 10
1165.33540806633
 20
644.5958050533845
 10
1167.784407949784
 20
644.5958050533845
 10
1169.424407871738
 20
644.5958050533845
 10
1170.092407839947
 20
644.5958050533845
 10
1170.092407839947
 20
640.5958052437399
  0
LWPOLYLINE
  5
F7E
330
1F
100
AcDbEntity
  8
Hewi
  6
CUSTOM
 62
    18
420
        0
370
     9
100
AcDbPolyline
 90
       15
 70
     0
 43
0.0
 10
1095.092411409139
 20
610.5958066714156
 10
1095.320411398286
 20
610.5958066714156
 10
1095.99341136626
 20
610.5958066714156
 10
1096.67441133385
 20
610.5958066714156
 10
1097.846411278078
 20
610.5958066714156
 10
1099.5984111947
 20
610.5958066714156
 10
1101.617411098617
 20
610.5958066714156
 10
1103.070411029468
 20
610.5958066714156
 10
1105.092410933248
 20
610.5958066714156
 10
1160.092408315839
 20
610.5958066714156
 10
1162.817408186158
 20
610.5958066714156
 10
1165.33540806633
 20
610.5958066714156
 10
1167.784407949784
 20
610.5958066714156
 10
1169.424407871738
 20
610.5958066714156
 10
1170.092407839947
 20
610.5958066714156
  0
LWPOLYLINE
  5
F7F
330
1F
100
AcDbEntity
  8
Hewi
  6
CUSTOM
 62
    18
420
        0
370
     9
100
AcDbPolyline
 90
       17
 70
     0
 43
0.0
 10
1170.092407839947
 20
640.5958052437399
 10
1169.8644078508
 20
640.5958052437399
 10
1169.191407882826
 20
640.5958052437399
 10
1168.510407915229
 20
640.5958052437399
 10
1167.338407971008
 20
640.5958052437399
 10
1165.586408054387
 20
640.5958052437399
 10
1163.567408150469
 20
640.5958052437399
 10
1162.114408219611
 20
640.5958052437399
 10
1160.092408315839
 20
640.5958052437399
 10
1105.092410933248
 20
640.5958052437399
 10
1102.321411065117
 20
640.5958052437399
 10
1099.787411185705
 20
640.5958052437399
 10
1098.304411256278
 20
640.5958052437399
 10
1097.551411292119
 20
640.5958052437399
 10
1096.078411362217
 20
640.5958052437399
 10
1095.252411401525
 20
640.5958052437399
 10
1095.092411409139
 20
640.5958052437399
  0
LWPOLYLINE
  5
F80
330
1F
100
AcDbEntity
  8
Hewi
  6
CUSTOM
 62
    18
420
        0
370
     9
100
AcDbPolyline
 90
       20
 70
     0
 43
0.0
 10
793.5924257572878
 20
601.5638071012435
 10
788.5924259952335
 20
601.5958070997203
 10
786.5924260904139
 20
599.5958071948989
 10
786.5924260904139
 20
599.4358072025134
 10
786.5924260904139
 20
598.7968072329204
 10
786.5924260904139
 20
597.6968072852705
 10
786.5924260904139
 20
596.1898073569864
 10
786.5924260904139
 20
594.3458074447407
 10
786.5924260904139
 20
592.2528075443442
 10
786.5924260904139
 20
590.0108076510405
 10
786.5924260904139
 20
587.7248077598306
 10
786.5924260904139
 20
585.5048078654781
 10
786.5924260904139
 20
583.4538079630838
 10
786.5924260904139
 20
581.6708080479347
 10
786.5924260904139
 20
580.3718081097522
 10
786.5924260904139
 20
579.3388081589127
 10
786.5924260904139
 20
578.7858081852282
 10
786.5924260904139
 20
578.5958081942717
 10
788.5924259952335
 20
576.5958082894521
 10
793.5924257572878
 20
576.6138082885936
  0
LWPOLYLINE
  5
F81
330
1F
100
AcDbEntity
  8
Hewi
  6
CUSTOM
 62
    18
420
        0
370
     9
100
AcDbPolyline
 90
        3
 70
     0
 43
0.0
 10
1466.592393729741
 20
601.085499124003
 10
1466.092393753537
 20
601.5850696002307
 10
1461.256947268295
 20
601.5850696002307
  0
LINE
  5
F82
330
1F
100
AcDbEntity
  8
Hewi
  6
CUSTOM
 62
    18
420
        0
370
     9
100
AcDbLine
 10
788.5924259952335
 20
601.0798071242752
 30
0.0
 11
788.5924259952335
 21
599.5758071958498
 31
0.0
  0
LWPOLYLINE
  5
F83
330
1F
100
AcDbEntity
  8
Hewi
  6
CUSTOM
 62
    18
420
        0
370
     9
100
AcDbPolyline
 90
        3
 70
     0
 43
0.0
 10
1462.592393860494
 20
576.6065457889399
 10
1466.092393753537
 20
576.6065457889399
 10
1466.592393729741
 20
577.1060748331674
  0
LINE
  5
F84
330
1F
100
AcDbEntity
  8
Hewi
  6
CUSTOM
 62
    18
420
        0
370
     9
100
AcDbLine
 10
788.5924259952335
 20
589.0958076945844
 30
0.0
 11
788.5924259952335
 21
586.6698078100362
 31
0.0
  0
LWPOLYLINE
  5
F85
330
1F
100
AcDbEntity
  8
Hewi
  6
CUSTOM
 62
    18
420
        0
370
     9
100
AcDbPolyline
 90
       29
 70
     0
 43
0.0
 10
1471.592393491795
 20
601.5638071012435
 10
1476.592393253853
 20
601.5958070997203
 10
1478.592393158673
 20
599.5958071948989
 10
1478.592393158673
 20
599.346807206748
 10
1478.592393158673
 20
598.6118072417248
 10
1478.592393158673
 20
597.4258072981665
 10
1478.592393158673
 20
595.8448073734053
 10
1478.592393158673
 20
593.9438074638728
 10
1478.592393158673
 20
591.8138075652368
 10
1478.592393158673
 20
589.5538076727898
 10
1478.592393158673
 20
587.2728077813389
 10
1478.592393158673
 20
585.0778078857984
 10
1478.592393158673
 20
583.0728079812143
 10
1478.592393158673
 20
581.3548080629716
 10
1478.592393158673
 20
580.0028081273139
 10
1478.592393158673
 20
579.0818081711422
 10
1478.592393158673
 20
578.6358081923699
 10
1478.592393158673
 20
578.5958081942717
 10
1476.592393253853
 20
576.5958082894521
 10
1471.592393491795
 20
576.6138082878187
 10
1471.592393491795
 20
576.6008082892112
 10
1466.592393729741
 20
576.5958082894521
 10
1466.592393729741
 20
577.2078082603257
 10
1466.592393729741
 20
578.9828081758551
 10
1466.592393729741
 20
581.7488080442217
 10
1466.592393729741
 20
583.4208079646542
 10
1466.592393729741
 20
586.1778078334482
 10
1466.592393729741
 20
589.0958076945844
 10
1466.592393729741
 20
634.5958055292758
  0
LWPOLYLINE
  5
F86
330
1F
100
AcDbEntity
  8
Hewi
  6
CUSTOM
 62
    18
420
        0
370
     9
100
AcDbPolyline
 90
        3
 70
     0
 43
0.0
 10
793.5924257572878
 20
579.531808149728
 10
793.5924257572878
 20
578.3408082064069
 10
793.5924257572878
 20
577.7858082328184
  0
LWPOLYLINE
  5
F87
330
1F
100
AcDbEntity
  8
Hewi
  6
CUSTOM
 62
    18
420
        0
370
     9
100
AcDbPolyline
 90
        3
 70
     0
 43
0.0
 10
1466.092393753537
 20
596.8658020018174
 10
1466.092393753537
 20
599.4335648786182
 10
1466.092393753537
 20
600.663500162087
  0
LWPOLYLINE
  5
F88
330
1F
100
AcDbEntity
  8
Hewi
  6
CUSTOM
 62
    18
420
        0
370
     9
100
AcDbPolyline
 90
        3
 70
     0
 43
0.0
 10
1466.092393753537
 20
581.8641958637327
 10
1466.092393753537
 20
584.3466464145931
 10
1466.092393753537
 20
586.1459923429666
  0
LINE
  5
F89
330
1F
100
AcDbEntity
  8
Hewi
  6
CUSTOM
 62
    18
420
        0
370
     9
100
AcDbLine
 10
1466.092393753537
 20
589.9056688620439
 30
0.0
 11
1466.092393753537
 21
593.5903926386909
 31
0.0
  0
LINE
  5
F8A
330
1F
100
AcDbEntity
  8
Hewi
  6
CUSTOM
 62
    18
420
        0
370
     9
100
AcDbLine
 10
788.5924259952335
 20
584.3368079210613
 30
0.0
 11
788.5924259952335
 21
582.8768079905422
 31
0.0
  0
LINE
  5
F8B
330
1F
100
AcDbEntity
  8
Hewi
  6
CUSTOM
 62
    18
420
        0
370
     9
100
AcDbLine
 10
1468.838393622856
 20
641.4868052013371
 30
0.0
 11
1467.086393706235
 21
642.9518051316208
 31
0.0
  0
LWPOLYLINE
  5
F8C
330
1F
100
AcDbEntity
  8
Hewi
  6
CUSTOM
 62
    18
420
        0
370
     9
100
AcDbPolyline
 90
        3
 70
     0
 43
0.0
 10
1469.837393575315
 20
640.2538052600156
 10
1469.31139360035
 20
640.9528052267505
 10
1468.838393622856
 20
641.4868052013371
  0
LINE
  5
F8D
330
1F
100
AcDbEntity
  8
Hewi
  6
CUSTOM
 62
    18
420
        0
370
     9
100
AcDbLine
 10
1471.592393491795
 20
576.894808275223
 30
0.0
 11
1471.592393491795
 21
577.2078082603257
 31
0.0
  0
LWPOLYLINE
  5
F8E
330
1F
100
AcDbEntity
  8
Hewi
  6
CUSTOM
 62
    18
420
        0
370
     9
100
AcDbPolyline
 90
       14
 70
     0
 43
0.0
 10
1461.592393967687
 20
639.5958052913283
 10
1431.592395395368
 20
639.5958052913283
 10
1430.074395467607
 20
639.5958052913283
 10
1428.699395533043
 20
639.5958052913283
 10
1427.457395592151
 20
639.5958052913283
 10
1426.734395626554
 20
639.5958052913283
 10
1426.592395633313
 20
639.5958052913283
 10
1426.592395633313
 20
644.5958050533845
 10
1426.781395624319
 20
644.5958050533845
 10
1427.334395598002
 20
644.5958050533845
 10
1428.397395547414
 20
644.5958050533845
 10
1429.796395480836
 20
644.5958050533845
 10
1431.592395395368
 20
644.5958050533845
 10
1461.592393967687
 20
644.5958050533845
  0
LINE
  5
F8F
330
1F
100
AcDbEntity
  8
Hewi
  6
CUSTOM
 62
    18
420
        0
370
     9
100
AcDbLine
 10
1476.592393253853
 20
596.5258073409986
 30
0.0
 11
1476.592393253853
 21
598.5998072422971
 31
0.0
  0
LINE
  5
F90
330
1F
100
AcDbEntity
  8
Hewi
  6
CUSTOM
 62
    18
420
        0
370
     9
100
AcDbLine
 10
1471.592393491795
 20
578.1918082134998
 30
0.0
 11
1471.592393491795
 21
577.1808082616098
 31
0.0
  0
LWPOLYLINE
  5
F91
330
1F
100
AcDbEntity
  8
Hewi
  6
CUSTOM
 62
    18
420
        0
370
     9
100
AcDbPolyline
 90
        3
 70
     0
 43
0.0
 10
1471.592393491795
 20
580.4618081054704
 10
1471.592393491795
 20
582.0618080293279
 10
1471.592393491795
 20
583.0738079811653
  0
LINE
  5
F92
330
1F
100
AcDbEntity
  8
Hewi
  6
CUSTOM
 62
    18
420
        0
370
     9
100
AcDbLine
 10
1476.592393253853
 20
577.9228082262998
 30
0.0
 11
1476.592393253853
 21
580.1048081224599
 31
0.0
  0
LWPOLYLINE
  5
F93
330
1F
100
AcDbEntity
  8
Hewi
  6
CUSTOM
 62
    18
420
        0
370
     9
100
AcDbPolyline
 90
        5
 70
     0
 43
0.0
 10
1461.592393967687
 20
639.5958052913283
 10
1463.39739388179
 20
639.2588053073686
 10
1465.045393803364
 20
638.2118053571921
 10
1466.166393750016
 20
636.6158054331463
 10
1466.535393732454
 20
635.3498054933934
  0
LINE
  5
F94
330
1F
100
AcDbEntity
  8
Hewi
  6
CUSTOM
 62
    18
420
        0
370
     9
100
AcDbLine
 10
1476.592393253853
 20
589.0958076945844
 30
0.0
 11
1476.592393253853
 21
591.635807573708
 31
0.0
  0
LWPOLYLINE
  5
F95
330
1F
100
AcDbEntity
  8
Hewi
  6
CUSTOM
 62
    18
420
        0
370
     9
100
AcDbPolyline
 90
        5
 70
     0
 43
0.0
 10
1471.512393495603
 20
635.8598054691229
 10
1471.592393491795
 20
634.5958055292758
 10
1471.592393491795
 20
589.0958076945844
 10
1471.592393491795
 20
586.5148078174115
 10
1471.592393491795
 20
583.9308079403836
  0
LINE
  5
F96
330
1F
100
AcDbEntity
  8
Hewi
  6
CUSTOM
 62
    18
420
        0
370
     9
100
AcDbLine
 10
1463.614393871466
 20
644.388805063234
 30
0.0
 11
1461.592393967687
 21
644.5958050533845
 31
0.0
  0
LINE
  5
F97
330
1F
100
AcDbEntity
  8
Hewi
  6
CUSTOM
 62
    18
420
        0
370
     9
100
AcDbLine
 10
1463.614393871466
 20
644.388805063234
 30
0.0
 11
1464.827393813739
 21
644.0578050789863
 31
0.0
  0
LINE
  5
F98
330
1F
100
AcDbEntity
  8
Hewi
  6
CUSTOM
 62
    18
420
        0
370
     9
100
AcDbLine
 10
1465.067393802317
 20
643.9728050830308
 30
0.0
 11
1463.614393871466
 21
644.388805063234
 31
0.0
  0
LINE
  5
F99
330
1F
100
AcDbEntity
  8
Hewi
  6
CUSTOM
 62
    18
420
        0
370
     9
100
AcDbLine
 10
1466.535393732454
 20
635.3498054933934
 30
0.0
 11
1466.592393729741
 21
634.5958055292758
 31
0.0
  0
LWPOLYLINE
  5
F9A
330
1F
100
AcDbEntity
  8
Hewi
  6
CUSTOM
 62
    18
420
        0
370
     9
100
AcDbPolyline
 90
        4
 70
     0
 43
0.0
 10
1465.067393802317
 20
643.9728050830308
 10
1466.099393753204
 20
643.5228051044468
 10
1466.592393729741
 20
643.2558051171526
 10
1467.086393706235
 20
642.9518051316208
  0
LINE
  5
F9B
330
1F
100
AcDbEntity
  8
Hewi
  6
CUSTOM
 62
    18
420
        0
370
     9
100
AcDbLine
 10
1467.086393706235
 20
642.9518051316208
 30
0.0
 11
1465.067393802317
 21
643.9728050830308
 31
0.0
  0
LINE
  5
F9C
330
1F
100
AcDbEntity
  8
Hewi
  6
CUSTOM
 62
    18
420
        0
370
     9
100
AcDbLine
 10
1469.837393575315
 20
640.2538052600156
 30
0.0
 11
1468.838393622856
 21
641.4868052013371
 31
0.0
  0
LWPOLYLINE
  5
F9D
330
1F
100
AcDbEntity
  8
Hewi
  6
CUSTOM
 62
    18
420
        0
370
     9
100
AcDbPolyline
 90
        3
 70
     0
 43
0.0
 10
1467.086393706235
 20
642.9518051316208
 10
1467.778393673303
 20
642.452805155368
 10
1468.838393622856
 20
641.4868052013371
  0
LWPOLYLINE
  5
F9E
330
1F
100
AcDbEntity
  8
Hewi
  6
CUSTOM
 62
    18
420
        0
370
     9
100
AcDbPolyline
 90
       14
 70
     0
 43
0.0
 10
1057.375477760524
 20
604.2318635077099
 10
1059.974413080374
 20
607.8894190600022
 10
1063.765412899964
 20
611.5744925045764
 10
1068.201412688861
 20
614.5719340396444
 10
1073.139412453864
 20
616.7839098569438
 10
1078.422412202453
 20
618.1405386648566
 10
1083.879411942755
 20
618.6539714103801
 10
1181.305407306332
 20
618.6539714103801
 10
1186.762407046633
 20
618.1405386648566
 10
1192.045406795223
 20
616.7839098569438
 10
1196.983406560226
 20
614.5719340396444
 10
1201.419406349116
 20
611.5744925045764
 10
1205.210406168713
 20
607.8894190600022
 10
1207.809341443488
 20
604.2318635711454
  0
LWPOLYLINE
  5
F9F
330
1F
100
AcDbEntity
  8
Hewi
  6
CUSTOM
 62
    18
420
        0
370
     9
100
AcDbPolyline
 90
       20
 70
     0
 43
0.0
 10
1225.874637198351
 20
602.0958071287223
 10
1225.026405225679
 20
604.5098294225663
 10
1221.777405380297
 20
611.559454120832
 10
1221.241405405806
 20
612.4016262475816
 10
1216.755405619289
 20
618.7142362569302
 10
1211.132405886885
 20
624.1798850118903
 10
1204.554406199924
 20
628.6243351586945
 10
1197.231406548424
 20
631.9040971118938
 10
1189.398406921191
 20
633.9157465598928
 10
1181.305407306332
 20
634.5942480452485
 10
1083.879411942755
 20
634.5942480452485
 10
1075.786412327896
 20
633.9157465598928
 10
1067.953412700663
 20
631.9040971118938
 10
1060.630413049162
 20
628.6243351586945
 10
1054.052413362202
 20
624.1798850118903
 10
1048.429413629797
 20
618.7142362569302
 10
1043.943413843281
 20
612.4016262475816
 10
1043.40741386879
 20
611.559454120832
 10
1040.158414023404
 20
604.5098294225663
 10
1039.310181762415
 20
602.0958063081907
  0
LWPOLYLINE
  5
FA0
330
1F
100
AcDbEntity
  8
Hewi
  6
CUSTOM
 62
    18
420
        0
370
     9
100
AcDbPolyline
 90
        3
 70
     0
 43
0.0
 10
1463.634551469004
 20
644.3833045127485
 10
1463.658393869373
 20
644.3798050636615
 10
1464.827393813739
 20
644.0578050789863
  0
LINE
  5
FA1
330
1F
100
AcDbEntity
  8
Hewi
  6
CUSTOM
 62
    18
420
        0
370
     9
100
AcDbLine
 10
1461.592393967687
 20
639.5958052913283
 30
0.0
 11
1464.470691285132
 21
638.5769227963719
 31
0.0
  0
LWPOLYLINE
  5
FA2
330
1F
100
AcDbEntity
  8
Hewi
  6
CUSTOM
 62
    18
420
        0
370
     9
100
AcDbPolyline
 90
       12
 70
     0
 43
0.0
 10
1441.592394919476
 20
243.5958241366606
 10
1447.314394647168
 20
244.3908240988276
 10
1449.136394560461
 20
244.9978240699402
 10
1452.214394413982
 20
246.4798239994143
 10
1452.603394395468
 20
246.7138239882788
 10
1455.010394280922
 20
248.4418239060451
 10
1455.356394264458
 20
248.7358238920533
 10
1457.452394164709
 20
250.8318237923049
 10
1457.746394150716
 20
251.177823775839
 10
1459.474394068482
 20
253.5848236612928
 10
1459.708394057346
 20
253.9738236427802
 10
1461.190393986821
 20
257.0518234963001
  0
LWPOLYLINE
  5
FA3
330
1F
100
AcDbEntity
  8
Hewi
  6
CUSTOM
 62
    18
420
        0
370
     9
100
AcDbPolyline
 90
        3
 70
     0
 43
0.0
 10
1461.190393986821
 20
257.0518234963001
 10
1461.797393957935
 20
258.8738234095927
 10
1461.861140979436
 20
259.3326415945448
  0
LINE
  5
FA4
330
1F
100
AcDbEntity
  8
Hewi
  6
CUSTOM
 62
    18
420
        0
370
     9
100
AcDbLine
 10
1471.512393495603
 20
635.8598054691229
 30
0.0
 11
1470.935393523061
 21
638.1618053595721
 31
0.0
  0
LWPOLYLINE
  5
FA5
330
1F
100
AcDbEntity
  8
Hewi
  6
CUSTOM
 62
    18
420
        0
370
     9
100
AcDbPolyline
 90
        3
 70
     0
 43
0.0
 10
1471.512393495603
 20
635.8598054691229
 10
1471.313393505072
 20
636.943805417537
 10
1470.935393523061
 20
638.1618053595721
  0
LINE
  5
FA6
330
1F
100
AcDbEntity
  8
Hewi
  6
CUSTOM
 62
    18
420
        0
370
     9
100
AcDbLine
 10
1466.44356832789
 20
635.5784518209747
 30
0.0
 11
1466.592393729741
 21
634.5958055292758
 31
0.0
  0
LINE
  5
FA7
330
1F
100
AcDbEntity
  8
Hewi
  6
CUSTOM
 62
    18
420
        0
370
     9
100
AcDbLine
 10
1056.416157060485
 20
602.0958071283621
 30
0.0
 11
1057.484413198875
 21
604.4744229014813
 31
0.0
  0
LWPOLYLINE
  5
FA8
330
1F
100
AcDbEntity
  8
Hewi
  6
CUSTOM
 62
    18
420
        0
370
     9
100
AcDbPolyline
 90
        4
 70
     0
 43
0.0
 10
1461.592393967687
 20
644.5958050533845
 10
1461.728393961221
 20
644.5948050534298
 10
1462.418393928383
 20
644.5618050550002
 10
1463.557143490339
 20
644.3946660063921
  0
LINE
  5
FA9
330
1F
100
AcDbEntity
  8
Hewi
  6
CUSTOM
 62
    18
420
        0
370
     9
100
AcDbLine
 10
1464.827393813739
 20
644.0578050789863
 30
0.0
 11
1464.948673081297
 21
644.0067953241559
 31
0.0
  0
LINE
  5
FAA
330
1F
100
AcDbEntity
  8
Hewi
  6
CUSTOM
 62
    18
420
        0
370
     9
100
AcDbLine
 10
1207.700406050211
 20
604.4744229014813
 30
0.0
 11
1208.768662188602
 21
602.0958071283621
 31
0.0
  0
LWPOLYLINE
  5
FAB
330
1F
100
AcDbEntity
  8
Hewi
  6
CUSTOM
 62
    18
420
        0
370
     9
100
AcDbPolyline
 90
        3
 70
     0
 43
0.0
 10
1469.837393575315
 20
640.2538052600156
 10
1470.490393544241
 20
639.1598053120778
 10
1470.681106429245
 20
638.6462940688543
  0
LINE
  5
FAC
330
1F
100
AcDbEntity
  8
Hewi
  6
CUSTOM
 62
    18
420
        0
370
     9
100
AcDbLine
 10
1466.535393732454
 20
635.3498054933934
 30
0.0
 11
1465.840790050628
 21
637.0793768233489
 31
0.0
  0
LINE
  5
FAD
330
1F
100
AcDbEntity
  8
Hewi
  6
CUSTOM
 62
    18
420
        0
370
     9
100
AcDbLine
 10
1464.912518304169
 20
638.2962232231148
 30
0.0
 11
1465.210327865563
 21
637.9769839789896
 31
0.0
  0
LWPOLYLINE
  5
FAE
330
1F
100
AcDbEntity
  8
Hewi
  6
CUSTOM
 62
    18
420
        0
370
     9
100
AcDbPolyline
 90
       15
 70
     0
 43
0.0
 10
807.4384250983712
 20
71.17783234189847
 10
805.7104251806048
 20
73.58483222735049
 10
805.4764251917404
 20
73.97383220883966
 10
803.9944252622662
 20
77.05183206235961
 10
803.3874252911518
 20
78.87383197565213
 10
803.0304253081412
 20
80.32983190636333
 10
802.61042532813
 20
83.71983174503474
 10
802.5924253289849
 20
84.59583170334553
 10
802.5924253289849
 20
599.0958072186931
 10
802.7924253194651
 20
600.1738071673917
 10
803.2844252960567
 20
601.012807127463
 10
804.0194252610744
 20
601.650807097103
 10
804.775425225096
 20
601.9828070813036
 10
805.5924251862162
 20
602.0958070759261
 10
1459.592394062871
 20
602.0958070759261
  0
LINE
  5
FAF
330
1F
100
AcDbEntity
  8
Hewi
  6
CUSTOM
 62
    18
420
        0
370
     9
100
AcDbLine
 10
1470.935393523061
 20
638.1618053595721
 30
0.0
 11
1469.837393575315
 21
640.2538052600156
 31
0.0
  0
LWPOLYLINE
  5
FB0
330
1F
100
AcDbEntity
  8
Hewi
  6
CUSTOM
 62
    18
420
        0
370
     9
100
AcDbPolyline
 90
        4
 70
     0
 43
0.0
 10
1446.855576511094
 20
244.3270770902
 10
1445.858394716459
 20
244.0338241158151
 10
1442.468394877785
 20
243.6138241358039
 10
1441.592394919476
 20
243.5958241366606
  0
LWPOLYLINE
  5
FB1
330
1F
100
AcDbEntity
  8
Hewi
  6
CUSTOM
 62
    18
420
        0
370
     9
100
AcDbPolyline
 90
        7
 70
     0
 43
0.0
 10
1462.147393941275
 20
600.6688071438348
 10
1462.478393925525
 20
599.9128071798131
 10
1462.592393920098
 20
599.0958072186931
 10
1462.592393920098
 20
264.5958231372861
 10
1462.574393920957
 20
263.7198231789753
 10
1462.154393940946
 20
260.3298233403038
 10
1461.190393986821
 20
257.0518234963001
  0
LWPOLYLINE
  5
FB2
330
1F
100
AcDbEntity
  8
Hewi
  6
CUSTOM
 62
    18
420
        0
370
     9
100
AcDbPolyline
 90
        6
 70
     0
 43
0.0
 10
1462.147393941275
 20
600.6688071438348
 10
1461.90039395303
 20
601.012807127463
 10
1461.509393971639
 20
601.4038071088561
 10
1461.165393988012
 20
601.650807097103
 10
1460.670394011566
 20
601.8958070854441
 10
1459.592394062871
 20
602.0958070759261
  0
LWPOLYLINE
  5
FB3
330
1F
100
AcDbEntity
  8
Hewi
  6
CUSTOM
 62
    18
420
        0
370
     9
100
AcDbPolyline
 90
       22
 70
     0
 43
0.0
 10
807.4384250983712
 20
71.17783234189847
 10
809.8284249846292
 20
68.73583245811096
 10
810.1744249681614
 20
68.44183247210276
 10
812.5814248536189
 20
66.7138325543383
 10
812.9704248351044
 20
66.47983256547195
 10
816.0484246886225
 20
64.99783263599965
 10
817.8704246019188
 20
64.39083266488523
 10
819.3264245326281
 20
64.03383268187645
 10
822.7164243713014
 20
63.61383270186343
 10
823.5924243296103
 20
63.59583270272015
 10
1111.592410623914
 20
63.59583270272015
 10
1117.314410351613
 20
64.39083266488523
 10
1122.603410099913
 20
66.7138325543383
 10
1125.356409968899
 20
68.73583245811096
 10
1127.746409855161
 20
71.17783234189847
 10
1129.708409761791
 20
73.97383220883966
 10
1131.190409691265
 20
77.05183206235961
 10
1132.154409645387
 20
80.32983190636333
 10
1132.574409625398
 20
83.71983174503474
 10
1132.592409624543
 20
84.59583170334553
 10
1132.592409624543
 20
222.5958251360335
 10
1133.852666103779
 20
229.3771196291546
  0
LWPOLYLINE
  5
FB4
330
1F
100
AcDbEntity
  8
Hewi
  6
CUSTOM
 62
    18
420
        0
370
     9
100
AcDbPolyline
 90
        5
 70
     0
 43
0.0
 10
1142.970409130663
 20
240.7118242739088
 10
1140.174409263724
 20
238.749824367278
 10
1137.732409379936
 20
236.3598244810182
 10
1135.71040947616
 20
233.6068246120303
 10
1133.38740958671
 20
228.3178248637287
  0
LWPOLYLINE
  5
FB5
330
1F
100
AcDbEntity
  8
Hewi
  6
CUSTOM
 62
    18
420
        0
370
     9
100
AcDbPolyline
 90
        3
 70
     0
 43
0.0
 10
1460.572088771321
 20
601.914045538022
 10
1460.437394022654
 20
601.9738070817311
 10
1459.592394062871
 20
602.0958070759261
  0
LINE
  5
FB6
330
1F
100
AcDbEntity
  8
Hewi
  6
CUSTOM
 62
    18
420
        0
370
     9
100
AcDbLine
 10
1153.592408625169
 20
243.5958241366606
 30
0.0
 11
1152.71640866686
 21
243.5778241375174
 31
0.0
  0
LINE
  5
FB7
330
1F
100
AcDbEntity
  8
Hewi
  6
CUSTOM
 62
    18
420
        0
370
     9
100
AcDbLine
 10
1441.592394919476
 20
243.5958241366606
 30
0.0
 11
1153.592408625169
 21
243.5958241366606
 31
0.0
  0
LINE
  5
FB8
330
1F
100
AcDbEntity
  8
Hewi
  6
CUSTOM
 62
    18
420
        0
370
     9
100
AcDbLine
 10
1146.048408984185
 20
242.1938242033812
 30
0.0
 11
1153.592408625169
 21
243.5958241366606
 31
0.0
  0
LWPOLYLINE
  5
FB9
330
1F
100
AcDbEntity
  8
Hewi
  6
CUSTOM
 62
    18
420
        0
370
     9
100
AcDbPolyline
 90
        3
 70
     0
 43
0.0
 10
1462.413184910878
 20
600.0617437784185
 10
1462.392393929614
 20
600.1738071673917
 10
1462.147393941275
 20
600.6688071438348
  0
LINE
  5
FBA
330
1F
100
AcDbEntity
  8
Hewi
  6
CUSTOM
 62
    18
420
        0
370
     9
100
AcDbLine
 10
1140.011152780051
 20
238.59004427111
 30
0.0
 11
1141.391724852201
 21
239.6040350919884
 31
0.0
  0
LWPOLYLINE
  5
FBB
330
1F
100
AcDbEntity
  8
Hewi
  6
CUSTOM
 62
    18
420
        0
370
     9
100
AcDbPolyline
 90
        3
 70
     0
 43
0.0
 10
808.7917031661636
 20
69.79511056660522
 10
807.7324250843776
 20
70.83183235836258
 10
807.4384250983712
 20
71.17783234189847
  0
LINE
  5
FBC
330
1F
100
AcDbEntity
  8
Hewi
  6
CUSTOM
 62
    18
420
        0
370
     9
100
AcDbLine
 10
1135.645209575818
 20
233.4583776618947
 30
0.0
 11
1136.584198704622
 21
234.7965089585941
 31
0.0
  0
LINE
  5
FBD
330
1F
100
AcDbEntity
  8
Hewi
  6
CUSTOM
 62
    18
420
        0
370
     9
100
AcDbLine
 10
1137.598189484968
 20
236.1770809754434
 30
0.0
 11
1138.791687488428
 21
237.3965462994783
 31
0.0
  0
LWPOLYLINE
  5
FBE
330
1F
100
AcDbEntity
  8
Hewi
  6
CUSTOM
 62
    18
420
        0
370
     9
100
AcDbPolyline
 90
        3
 70
     0
 43
0.0
 10
803.9436932581303
 20
601.5850696002307
 10
799.0924254955498
 20
601.5850696002307
 10
798.5924255193386
 20
601.085499124003
  0
LWPOLYLINE
  5
FBF
330
1F
100
AcDbEntity
  8
Hewi
  6
CUSTOM
 62
    18
420
        0
370
     9
100
AcDbPolyline
 90
        3
 70
     0
 43
0.0
 10
798.5924255193386
 20
577.1061576971624
 10
799.0924254955498
 20
576.6065457889399
 10
802.5924253885932
 20
576.6065457889399
  0
LINE
  5
FC0
330
1F
100
AcDbEntity
  8
Hewi
  6
CUSTOM
 62
    18
420
        0
370
     9
100
AcDbLine
 10
799.0924254955498
 20
577.5950147938983
 30
0.0
 11
799.0924254955498
 21
576.7992612027683
 31
0.0
  0
LINE
  5
FC1
330
1F
100
AcDbEntity
  8
Hewi
  6
CUSTOM
 62
    18
420
        0
370
     9
100
AcDbLine
 10
1142.729856097314
 20
240.5430241830436
 30
0.0
 11
1146.811114100335
 21
242.3355676394694
 31
0.0
  0
LINE
  5
FC2
330
1F
100
AcDbEntity
  8
Hewi
  6
CUSTOM
 62
    18
420
        0
370
     9
100
AcDbLine
 10
799.0924254955498
 20
584.1047109161063
 30
0.0
 11
799.0924254955498
 21
582.4329029566688
 31
0.0
  0
LWPOLYLINE
  5
105A
330
1F
100
AcDbEntity
  8
Hewi
  6
CUSTOM
 62
    18
420
        0
370
     9
100
AcDbPolyline
 90
        3
 70
     0
 43
0.0
 10
838.4504015410421
 20
1160.582984236116
 10
838.5924015449454
 20
1161.76698425619
 10
838.5924015449454
 20
1191.266983445066
  0
LWPOLYLINE
  5
105B
330
1F
100
AcDbEntity
  8
Hewi
  6
CUSTOM
 62
    18
420
        0
370
     9
100
AcDbPolyline
 90
        3
 70
     0
 43
0.0
 10
808.5924007204958
 20
1156.766984171412
 10
833.5924014075354
 20
1156.766984171412
 10
835.1104014492557
 20
1157.002984175415
  0
LINE
  5
105C
330
1F
100
AcDbEntity
  8
Hewi
  6
CUSTOM
 62
    18
420
        0
370
     9
100
AcDbLine
 10
835.1104014492557
 20
1157.002984175415
 30
0.0
 11
836.4854014870434
 21
1157.688984187047
 31
0.0
  0
LWPOLYLINE
  5
105D
330
1F
100
AcDbEntity
  8
Hewi
  6
CUSTOM
 62
    18
420
        0
370
     9
100
AcDbPolyline
 90
        4
 70
     0
 43
0.0
 10
838.4504015410421
 20
1160.582984236116
 10
838.4034015397519
 20
1160.404984233097
 10
837.8504015245562
 20
1159.144984211734
 10
837.7274015211733
 20
1158.954984208512
  0
LWPOLYLINE
  5
105E
330
1F
100
AcDbEntity
  8
Hewi
  6
CUSTOM
 62
    18
420
        0
370
     9
100
AcDbPolyline
 90
        3
 70
     0
 43
0.0
 10
835.8549793490274
 20
1157.374460851501
 10
835.3884014568938
 20
1157.100984177077
 10
835.1104014492557
 20
1157.002984175415
  0
LINE
  5
105F
330
1F
100
AcDbEntity
  8
Hewi
  6
CUSTOM
 62
    18
420
        0
370
     9
100
AcDbLine
 10
837.7274015211733
 20
1158.954984208512
 30
0.0
 11
838.4504015410421
 21
1160.582984236116
 31
0.0
  0
LINE
  5
1060
330
1F
100
AcDbEntity
  8
Hewi
  6
CUSTOM
 62
    18
420
        0
370
     9
100
AcDbLine
 10
804.9694006209284
 20
1158.320984197762
 30
0.0
 11
806.6214006663285
 21
1157.171984178279
 31
0.0
  0
LWPOLYLINE
  5
1061
330
1F
100
AcDbEntity
  8
Hewi
  6
CUSTOM
 62
    18
420
        0
370
     9
100
AcDbPolyline
 90
        3
 70
     0
 43
0.0
 10
837.3613301058211
 20
1158.581838952817
 10
836.7874014953413
 20
1157.92098419098
 10
836.4854014870434
 20
1157.688984187047
  0
LINE
  5
1062
330
1F
100
AcDbEntity
  8
Hewi
  6
CUSTOM
 62
    18
420
        0
370
     9
100
AcDbLine
 10
836.4854014870434
 20
1157.688984187047
 30
0.0
 11
837.7274015211733
 21
1158.954984208512
 31
0.0
  0
LWPOLYLINE
  5
1063
330
1F
100
AcDbEntity
  8
Hewi
  6
CUSTOM
 62
    18
420
        0
370
     9
100
AcDbPolyline
 90
        3
 70
     0
 43
0.0
 10
806.6214006663285
 20
1157.171984178279
 10
807.2304006830636
 20
1156.955984174619
 10
808.5924007204958
 20
1156.766984171412
  0
LWPOLYLINE
  5
1064
330
1F
100
AcDbEntity
  8
Hewi
  6
CUSTOM
 62
    18
420
        0
370
     9
100
AcDbPolyline
 90
        3
 70
     0
 43
0.0
 10
806.6214006663285
 20
1157.171984178279
 10
805.9704006484389
 20
1157.508984183994
 10
804.9694006209284
 20
1158.320984197762
  0
LINE
  5
1065
330
1F
100
AcDbEntity
  8
Hewi
  6
CUSTOM
 62
    18
420
        0
370
     9
100
AcDbLine
 10
806.6214006663285
 20
1157.171984178279
 30
0.0
 11
808.5924007204958
 21
1156.766984171412
 31
0.0
  0
LWPOLYLINE
  5
1066
330
1F
100
AcDbEntity
  8
Hewi
  6
CUSTOM
 62
    18
420
        0
370
     9
100
AcDbPolyline
 90
        3
 70
     0
 43
0.0
 10
804.9694006209284
 20
1158.320984197762
 10
804.7464006148038
 20
1158.571984202017
 10
804.1954005996595
 20
1159.38598421582
  0
LWPOLYLINE
  5
1067
330
1F
100
AcDbEntity
  8
Hewi
  6
CUSTOM
 62
    18
420
        0
370
     9
100
AcDbPolyline
 90
        4
 70
     0
 43
0.0
 10
803.2041474074867
 20
1188.642266624261
 10
803.5924005830892
 20
1186.766984680071
 10
803.5924005830892
 20
1161.76698425619
 10
803.7264005867692
 20
1160.615984236674
  0
LINE
  5
1068
330
1F
100
AcDbEntity
  8
Hewi
  6
CUSTOM
 62
    18
420
        0
370
     9
100
AcDbLine
 10
804.1954005996595
 20
1159.38598421582
 30
0.0
 11
804.9694006209284
 21
1158.320984197762
 31
0.0
  0
LWPOLYLINE
  5
1069
330
1F
100
AcDbEntity
  8
Hewi
  6
CUSTOM
 62
    18
420
        0
370
     9
100
AcDbPolyline
 90
        3
 70
     0
 43
0.0
 10
804.0578564333699
 20
1159.746707738222
 10
803.9264005922669
 20
1159.970984225738
 10
803.7264005867692
 20
1160.615984236674
  0
LINE
  5
106A
330
1F
100
AcDbEntity
  8
Hewi
  6
CUSTOM
 62
    18
420
        0
370
     9
100
AcDbLine
 10
803.7264005867692
 20
1160.615984236674
 30
0.0
 11
804.1954005996595
 21
1159.38598421582
 31
0.0
  0
LINE
  5
106B
330
1F
100
AcDbEntity
  8
Hewi
  6
CUSTOM
 62
    18
420
        0
370
     9
100
AcDbLine
 10
801.1174005150715
 20
1191.081984753233
 30
0.0
 11
802.3504005489558
 21
1190.058984735888
 31
0.0
  0
LINE
  5
106C
330
1F
100
AcDbEntity
  8
Hewi
  6
CUSTOM
 62
    18
420
        0
370
     9
100
AcDbLine
 10
802.3504005489558
 20
1190.058984735888
 30
0.0
 11
803.2694005742124
 21
1188.533984710031
 31
0.0
  0
LWPOLYLINE
  5
106D
330
1F
100
AcDbEntity
  8
Hewi
  6
CUSTOM
 62
    18
420
        0
370
     9
100
AcDbPolyline
 90
        7
 70
     0
 43
0.0
 10
798.5924004456828
 20
1216.766985188729
 10
798.6324004467824
 20
1216.766985188729
 10
799.07640045898
 20
1216.766985188729
 10
799.9694004835219
 20
1216.766985188729
 10
801.6214005289221
 20
1216.766985188729
 10
803.5924005830892
 20
1216.766985188729
 10
808.5924013165422
 20
1216.766985188729
  0
LINE
  5
106E
330
1F
100
AcDbEntity
  8
Hewi
  6
CUSTOM
 62
    18
420
        0
370
     9
100
AcDbLine
 10
798.5924004456828
 20
1191.766984764846
 30
0.0
 11
801.1174005150715
 21
1191.081984753233
 31
0.0
  0
LWPOLYLINE
  5
106F
330
1F
100
AcDbEntity
  8
Hewi
  6
CUSTOM
 62
    18
420
        0
370
     9
100
AcDbPolyline
 90
        4
 70
     0
 43
0.0
 10
798.5924004456828
 20
1191.766984764846
 10
798.9214004547248
 20
1191.757984764695
 10
799.8784004810186
 20
1191.596984761963
 10
801.1174005150715
 20
1191.081984753233
  0
LWPOLYLINE
  5
1070
330
1F
100
AcDbEntity
  8
Hewi
  6
CUSTOM
 62
    18
420
        0
370
     9
100
AcDbPolyline
 90
        3
 70
     0
 43
0.0
 10
793.5924003082691
 20
1191.766984764846
 10
793.5924003082691
 20
1192.035984769409
 10
793.5924003082691
 20
1192.880984783734
  0
LWPOLYLINE
  5
1071
330
1F
100
AcDbEntity
  8
Hewi
  6
CUSTOM
 62
    18
420
        0
370
     9
100
AcDbPolyline
 90
       18
 70
     0
 43
0.0
 10
798.5924004456828
 20
1216.766985188729
 10
798.5924004456828
 20
1216.497985184167
 10
798.5924004456828
 20
1215.652985169839
 10
798.5924004456828
 20
1214.337985147544
 10
798.5924004456828
 20
1212.544985117143
 10
798.5924004456828
 20
1210.377985080402
 10
798.5924004456828
 20
1208.046985040877
 10
798.5924004456828
 20
1205.592984999271
 10
798.5924004456828
 20
1203.925984971007
 10
798.5924004456828
 20
1201.712984933483
 10
798.5924004456828
 20
1200.469984912408
 10
798.5924004456828
 20
1199.08698488896
 10
798.5924004456828
 20
1196.667984847945
 10
798.5924004456828
 20
1194.635984813492
 10
798.5924004456828
 20
1193.305984790941
 10
798.5924004456828
 20
1192.351984774767
 10
798.5924004456828
 20
1191.958984768102
 10
798.5924004456828
 20
1191.766984764846
  0
LINE
  5
1072
330
1F
100
AcDbEntity
  8
Hewi
  6
CUSTOM
 62
    18
420
        0
370
     9
100
AcDbLine
 10
793.5924003082691
 20
1198.155984873174
 30
0.0
 11
793.5924003082691
 21
1200.486984912697
 31
0.0
  0
LWPOLYLINE
  5
1073
330
1F
100
AcDbEntity
  8
Hewi
  6
CUSTOM
 62
    18
420
        0
370
     9
100
AcDbPolyline
 90
        4
 70
     0
 43
0.0
 10
793.5924003082691
 20
1204.607984982569
 10
793.5924003082691
 20
1206.820985020091
 10
793.5924003082691
 20
1208.063985041168
 10
793.5924003082691
 20
1209.446985064615
  0
LWPOLYLINE
  5
1074
330
1F
100
AcDbEntity
  8
Hewi
  6
CUSTOM
 62
    18
420
        0
370
     9
100
AcDbPolyline
 90
        3
 70
     0
 43
0.0
 10
793.5924003082691
 20
1216.181985178809
 10
793.5924003082691
 20
1216.574985185472
 10
793.5924003082691
 20
1216.766985188729
  0
LINE
  5
1075
330
1F
100
AcDbEntity
  8
Hewi
  6
CUSTOM
 62
    18
420
        0
370
     9
100
AcDbLine
 10
793.5924003082691
 20
1216.766985188729
 30
0.0
 11
798.5924004456828
 21
1216.766985188729
 31
0.0
  0
LINE
  5
1076
330
1F
100
AcDbEntity
  8
Hewi
  6
CUSTOM
 62
    18
420
        0
370
     9
100
AcDbLine
 10
798.5924004456828
 20
1191.766984764846
 30
0.0
 11
793.5924003082691
 21
1191.766984764846
 31
0.0
  0
LINE
  5
1077
330
1F
100
AcDbEntity
  8
Hewi
  6
CUSTOM
 62
    18
420
        0
370
     9
100
AcDbLine
 10
802.3504005489558
 20
1190.058984735888
 30
0.0
 11
801.0610591949152
 21
1191.097269422891
 31
0.0
  0
LINE
  5
1078
330
1F
100
AcDbEntity
  8
Hewi
  6
CUSTOM
 62
    18
420
        0
370
     9
100
AcDbLine
 10
1471.592418940818
 20
1191.766984764846
 30
0.0
 11
1476.592419078224
 21
1191.766984764846
 31
0.0
  0
LWPOLYLINE
  5
1079
330
1F
100
AcDbEntity
  8
Hewi
  6
CUSTOM
 62
    18
420
        0
370
     9
100
AcDbPolyline
 90
        3
 70
     0
 43
0.0
 10
1471.592418940818
 20
1196.217984840314
 10
1471.592418940818
 20
1197.895984868764
 10
1471.592418940818
 20
1198.944984886551
  0
LWPOLYLINE
  5
107A
330
1F
100
AcDbEntity
  8
Hewi
  6
CUSTOM
 62
    18
420
        0
370
     9
100
AcDbPolyline
 90
       20
 70
     0
 43
0.0
 10
1476.592419078224
 20
1191.766984764846
 10
1478.592419133187
 20
1193.806984799434
 10
1478.592419133187
 20
1193.856984800284
 10
1478.592419133187
 20
1194.39998480949
 10
1478.592419133187
 20
1195.41098482663
 10
1478.592419133187
 20
1196.841984850893
 10
1478.592419133187
 20
1198.424984877736
 10
1478.592419133187
 20
1200.386984911001
 10
1478.592419133187
 20
1202.278984943079
 10
1478.592419133187
 20
1204.267984976804
 10
1478.592419133187
 20
1205.181984992301
 10
1478.592419133187
 20
1207.423985030313
 10
1478.592419133187
 20
1209.516985065802
 10
1478.592419133187
 20
1211.360985097068
 10
1478.592419133187
 20
1212.867985122619
 10
1478.592419133187
 20
1213.967985141271
 10
1478.592419133187
 20
1214.606985152104
 10
1478.592419133187
 20
1214.756985154647
 10
1476.592419078224
 20
1216.766985188729
 10
1471.592418940818
 20
1216.766985188729
  0
LINE
  5
107B
330
1F
100
AcDbEntity
  8
Hewi
  6
CUSTOM
 62
    18
420
        0
370
     9
100
AcDbLine
 10
802.1910283486795
 20
1190.187324461589
 30
0.0
 11
802.8952865380414
 21
1189.154794173151
 31
0.0
  0
LINE
  5
107C
330
1F
100
AcDbEntity
  8
Hewi
  6
CUSTOM
 62
    18
420
        0
370
     9
100
AcDbLine
 10
1471.592418940818
 20
1206.984985022871
 30
0.0
 11
1471.592418940818
 21
1208.129985042285
 31
0.0
  0
LWPOLYLINE
  5
107D
330
1F
100
AcDbEntity
  8
Hewi
  6
CUSTOM
 62
    18
420
        0
370
     9
100
AcDbPolyline
 90
        3
 70
     0
 43
0.0
 10
1471.592418940818
 20
1213.305985130046
 10
1471.592418940818
 20
1214.599985151984
 10
1471.592418940818
 20
1215.220985162514
  0
LINE
  5
107E
330
1F
100
AcDbEntity
  8
Hewi
  6
CUSTOM
 62
    18
420
        0
370
     9
100
AcDbLine
 10
1476.592419078224
 20
1191.766984764846
 30
0.0
 11
1476.592419078224
 21
1192.004984768882
 31
0.0
  0
LINE
  5
107F
330
1F
100
AcDbEntity
  8
Hewi
  6
CUSTOM
 62
    18
420
        0
370
     9
100
AcDbLine
 10
1476.592419078224
 20
1192.707984780802
 30
0.0
 11
1476.592419078224
 21
1193.423984792942
 31
0.0
  0
LWPOLYLINE
  5
1080
330
1F
100
AcDbEntity
  8
Hewi
  6
CUSTOM
 62
    18
420
        0
370
     9
100
AcDbPolyline
 90
        3
 70
     0
 43
0.0
 10
1169.864410648835
 20
1125.887983647853
 10
1169.424410636747
 20
1127.358983672795
 10
1169.191410630345
 20
1127.913983682207
  0
LWPOLYLINE
  5
1081
330
1F
100
AcDbEntity
  8
Hewi
  6
CUSTOM
 62
    18
420
        0
370
     9
100
AcDbPolyline
 90
        3
 70
     0
 43
0.0
 10
1163.567410475789
 20
1133.14398377088
 10
1162.817410455176
 20
1133.388983775035
 10
1162.114410435854
 20
1133.559983777933
  0
LWPOLYLINE
  5
1082
330
1F
100
AcDbEntity
  8
Hewi
  6
CUSTOM
 62
    18
420
        0
370
     9
100
AcDbPolyline
 90
        3
 70
     0
 43
0.0
 10
1097.551408661558
 20
1130.334983723253
 10
1096.67440863746
 20
1129.164983703415
 10
1096.078408621077
 20
1128.096983685307
  0
LWPOLYLINE
  5
1083
330
1F
100
AcDbEntity
  8
Hewi
  6
CUSTOM
 62
    18
420
        0
370
     9
100
AcDbPolyline
 90
        4
 70
     0
 43
0.0
 10
1095.252408598379
 20
1125.547983642089
 10
1095.320408600251
 20
1125.887983647853
 10
1095.993408618746
 20
1127.913983682207
 10
1096.078408621077
 20
1128.096983685307
  0
LWPOLYLINE
  5
1084
330
1F
100
AcDbEntity
  8
Hewi
  6
CUSTOM
 62
    18
420
        0
370
     9
100
AcDbPolyline
 90
        3
 70
     0
 43
0.0
 10
1165.586410531272
 20
1132.12298375357
 10
1165.335410524374
 20
1132.281983756265
 10
1164.849947051662
 20
1132.495410308544
  0
LINE
  5
1085
330
1F
100
AcDbEntity
  8
Hewi
  6
CUSTOM
 62
    18
420
        0
370
     9
100
AcDbLine
 10
1097.551408661558
 20
1130.334983723253
 30
0.0
 11
1096.078408621077
 21
1128.096983685307
 31
0.0
  0
LINE
  5
1086
330
1F
100
AcDbEntity
  8
Hewi
  6
CUSTOM
 62
    18
420
        0
370
     9
100
AcDbLine
 10
1476.592419078224
 20
1209.871985071822
 30
0.0
 11
1476.592419078224
 21
1212.950985124025
 31
0.0
  0
LINE
  5
1087
330
1F
100
AcDbEntity
  8
Hewi
  6
CUSTOM
 62
    18
420
        0
370
     9
100
AcDbLine
 10
1096.078408621077
 20
1128.096983685307
 30
0.0
 11
1095.252408598379
 21
1125.547983642089
 31
0.0
  0
LINE
  5
1088
330
1F
100
AcDbEntity
  8
Hewi
  6
CUSTOM
 62
    18
420
        0
370
     9
100
AcDbLine
 10
1168.510410611627
 20
1129.164983703415
 30
0.0
 11
1167.338410579421
 21
1130.657983728728
 31
0.0
  0
LINE
  5
1089
330
1F
100
AcDbEntity
  8
Hewi
  6
CUSTOM
 62
    18
420
        0
370
     9
100
AcDbLine
 10
1099.787408723008
 20
1132.243983755619
 30
0.0
 11
1098.304408682255
 21
1131.110983736413
 31
0.0
  0
LWPOLYLINE
  5
108A
330
1F
100
AcDbEntity
  8
Hewi
  6
CUSTOM
 62
    18
420
        0
370
     9
100
AcDbPolyline
 90
       18
 70
     0
 43
0.0
 10
1095.252408598379
 20
1125.547983642089
 10
1095.09240859398
 20
1123.766983611893
 10
1095.09240859398
 20
973.7669810686057
 10
1095.09240859398
 20
970.5339810137921
 10
1095.09240859398
 20
968.0159809710968
 10
1095.09240859398
 20
966.1029809386636
 10
1095.09240859398
 20
965.1079809217936
 10
1095.09240859398
 20
964.7669809160106
 10
1170.092410655106
 20
964.7669809160106
 10
1170.092410655106
 20
964.8179809168759
 10
1170.092410655106
 20
965.1529809225557
 10
1170.092410655106
 20
966.2139809405452
 10
1170.092410655106
 20
967.8939809690291
 10
1170.092410655106
 20
969.5339809968372
 10
1170.092410655106
 20
971.4659810295943
 10
1170.092410655106
 20
973.7669810686057
 10
1170.092410655106
 20
1123.766983611893
 10
1169.864410648835
 20
1125.887983647853
  0
LINE
  5
108B
330
1F
100
AcDbEntity
  8
Hewi
  6
CUSTOM
 62
    18
420
        0
370
     9
100
AcDbLine
 10
1163.567410475789
 20
1133.14398377088
 30
0.0
 11
1162.114410435854
 21
1133.559983777933
 31
0.0
  0
LINE
  5
108C
330
1F
100
AcDbEntity
  8
Hewi
  6
CUSTOM
 62
    18
420
        0
370
     9
100
AcDbLine
 10
1167.338410579421
 20
1130.657983728728
 30
0.0
 11
1165.586410531272
 21
1132.12298375357
 31
0.0
  0
LWPOLYLINE
  5
108D
330
1F
100
AcDbEntity
  8
Hewi
  6
CUSTOM
 62
    18
420
        0
370
     9
100
AcDbPolyline
 90
        3
 70
     0
 43
0.0
 10
1162.114410435854
 20
1133.559983777933
 10
1160.09241038029
 20
1133.766983781443
 10
1105.092408868797
 20
1133.766983781443
  0
LINE
  5
108E
330
1F
100
AcDbEntity
  8
Hewi
  6
CUSTOM
 62
    18
420
        0
370
     9
100
AcDbLine
 10
1169.864410648835
 20
1125.887983647853
 30
0.0
 11
1169.191410630345
 21
1127.913983682207
 31
0.0
  0
LINE
  5
108F
330
1F
100
AcDbEntity
  8
Hewi
  6
CUSTOM
 62
    18
420
        0
370
     9
100
AcDbLine
 10
1097.846408669666
 20
1130.657983728728
 30
0.0
 11
1098.304408682255
 21
1131.110983736413
 31
0.0
  0
LINE
  5
1090
330
1F
100
AcDbEntity
  8
Hewi
  6
CUSTOM
 62
    18
420
        0
370
     9
100
AcDbLine
 10
1165.586410531272
 20
1132.12298375357
 30
0.0
 11
1163.567410475789
 21
1133.14398377088
 31
0.0
  0
LWPOLYLINE
  5
1091
330
1F
100
AcDbEntity
  8
Hewi
  6
CUSTOM
 62
    18
420
        0
370
     9
100
AcDbPolyline
 90
        3
 70
     0
 43
0.0
 10
1167.338410579421
 20
1130.657983728728
 10
1167.784410591681
 20
1130.156983720235
 10
1168.510410611627
 20
1129.164983703415
  0
LINE
  5
1092
330
1F
100
AcDbEntity
  8
Hewi
  6
CUSTOM
 62
    18
420
        0
370
     9
100
AcDbLine
 10
1169.191410630345
 20
1127.913983682207
 30
0.0
 11
1168.510410611627
 21
1129.164983703415
 31
0.0
  0
LWPOLYLINE
  5
1093
330
1F
100
AcDbEntity
  8
Hewi
  6
CUSTOM
 62
    18
420
        0
370
     9
100
AcDbPolyline
 90
        3
 70
     0
 43
0.0
 10
1099.787408723008
 20
1132.243983755619
 10
1099.598408717815
 20
1132.12298375357
 10
1098.304408682255
 20
1131.110983736413
  0
LINE
  5
1094
330
1F
100
AcDbEntity
  8
Hewi
  6
CUSTOM
 62
    18
420
        0
370
     9
100
AcDbLine
 10
1102.32140879265
 20
1133.375983774815
 30
0.0
 11
1099.787408723008
 21
1132.243983755619
 31
0.0
  0
LINE
  5
1095
330
1F
100
AcDbEntity
  8
Hewi
  6
CUSTOM
 62
    18
420
        0
370
     9
100
AcDbLine
 10
1097.551408661558
 20
1130.334983723253
 30
0.0
 11
1097.846408669666
 21
1130.657983728728
 31
0.0
  0
LINE
  5
1096
330
1F
100
AcDbEntity
  8
Hewi
  6
CUSTOM
 62
    18
420
        0
370
     9
100
AcDbLine
 10
1098.304408682255
 20
1131.110983736413
 30
0.0
 11
1097.551408661558
 21
1130.334983723253
 31
0.0
  0
LWPOLYLINE
  5
1097
330
1F
100
AcDbEntity
  8
Hewi
  6
CUSTOM
 62
    18
420
        0
370
     9
100
AcDbPolyline
 90
        4
 70
     0
 43
0.0
 10
1461.450418662098
 20
1160.582984236116
 10
1461.403418660804
 20
1160.404984233097
 10
1460.850418645608
 20
1159.144984211734
 10
1460.727418642225
 20
1158.954984208512
  0
LWPOLYLINE
  5
1098
330
1F
100
AcDbEntity
  8
Hewi
  6
CUSTOM
 62
    18
420
        0
370
     9
100
AcDbPolyline
 90
        7
 70
     0
 43
0.0
 10
1456.592418379579
 20
1216.766985188729
 10
1461.592418665998
 20
1216.766985188729
 10
1463.397418715602
 20
1216.766985188729
 10
1465.045418760896
 20
1216.766985188729
 10
1466.166418791697
 20
1216.766985188729
 10
1466.535418801839
 20
1216.766985188729
 10
1466.592418803404
 20
1216.766985188729
  0
LWPOLYLINE
  5
1099
330
1F
100
AcDbEntity
  8
Hewi
  6
CUSTOM
 62
    18
420
        0
370
     9
100
AcDbPolyline
 90
        3
 70
     0
 43
0.0
 10
1105.092408868797
 20
1133.766983781443
 10
1103.070408813233
 20
1133.559983777933
 10
1102.32140879265
 20
1133.375983774815
  0
LWPOLYLINE
  5
109A
330
1F
100
AcDbEntity
  8
Hewi
  6
CUSTOM
 62
    18
420
        0
370
     9
100
AcDbPolyline
 90
        3
 70
     0
 43
0.0
 10
1102.32140879265
 20
1133.375983774815
 10
1101.617408773298
 20
1133.14398377088
 10
1100.218524500487
 20
1132.436573752304
  0
LWPOLYLINE
  5
109B
330
1F
100
AcDbEntity
  8
Hewi
  6
CUSTOM
 62
    18
420
        0
370
     9
100
AcDbPolyline
 90
        5
 70
     0
 43
0.0
 10
1461.450418662098
 20
1160.582984236116
 10
1461.592418665998
 20
1161.76698425619
 10
1461.592418665998
 20
1186.766984680071
 10
1461.912418674794
 20
1188.525984709895
 10
1462.823418699831
 20
1190.046984735683
  0
LWPOLYLINE
  5
109C
330
1F
100
AcDbEntity
  8
Hewi
  6
CUSTOM
 62
    18
420
        0
370
     9
100
AcDbPolyline
 90
        3
 70
     0
 43
0.0
 10
1431.592417841551
 20
1156.766984171412
 10
1456.592418528591
 20
1156.766984171412
 10
1458.110418570308
 20
1157.002984175415
  0
LINE
  5
109D
330
1F
100
AcDbEntity
  8
Hewi
  6
CUSTOM
 62
    18
420
        0
370
     9
100
AcDbLine
 10
1460.727418642225
 20
1158.954984208512
 30
0.0
 11
1461.450418662098
 21
1160.582984236116
 31
0.0
  0
LINE
  5
109E
330
1F
100
AcDbEntity
  8
Hewi
  6
CUSTOM
 62
    18
420
        0
370
     9
100
AcDbLine
 10
1097.846408669666
 20
1130.657983728728
 30
0.0
 11
1097.944112123005
 21
1130.739682106374
 31
0.0
  0
LINE
  5
109F
330
1F
100
AcDbEntity
  8
Hewi
  6
CUSTOM
 62
    18
420
        0
370
     9
100
AcDbLine
 10
1105.092408868797
 20
1133.766983781443
 30
0.0
 11
1102.32140879265
 21
1133.375983774815
 31
0.0
  0
LINE
  5
10A0
330
1F
100
AcDbEntity
  8
Hewi
  6
CUSTOM
 62
    18
420
        0
370
     9
100
AcDbLine
 10
1458.110418570308
 20
1157.002984175415
 30
0.0
 11
1459.485418608095
 21
1157.688984187047
 31
0.0
  0
LWPOLYLINE
  5
10A1
330
1F
100
AcDbEntity
  8
Hewi
  6
CUSTOM
 62
    18
420
        0
370
     9
100
AcDbPolyline
 90
        3
 70
     0
 43
0.0
 10
1458.854996470079
 20
1157.374460851501
 10
1458.388418577946
 20
1157.100984177077
 10
1458.110418570308
 20
1157.002984175415
  0
LWPOLYLINE
  5
10A2
330
1F
100
AcDbEntity
  8
Hewi
  6
CUSTOM
 62
    18
420
        0
370
     9
100
AcDbPolyline
 90
        3
 70
     0
 43
0.0
 10
1460.361347226877
 20
1158.581838952817
 10
1459.787418616397
 20
1157.92098419098
 10
1459.485418608095
 20
1157.688984187047
  0
LWPOLYLINE
  5
10A3
330
1F
100
AcDbEntity
  8
Hewi
  6
CUSTOM
 62
    18
420
        0
370
     9
100
AcDbPolyline
 90
       13
 70
     0
 43
0.0
 10
1466.592418803404
 20
1191.766984764846
 10
1466.592418803404
 20
1191.920984767457
 10
1466.592418803404
 20
1192.718984780988
 10
1466.592418803404
 20
1194.153984805318
 10
1466.592418803404
 20
1196.919984852218
 10
1466.592418803404
 20
1200.40398491129
 10
1466.592418803404
 20
1204.266984976786
 10
1466.592418803404
 20
1208.129985042285
 10
1466.592418803404
 20
1211.613985101357
 10
1466.592418803404
 20
1214.379985148254
 10
1466.592418803404
 20
1215.404985165634
 10
1466.592418803404
 20
1216.421985182878
 10
1466.592418803404
 20
1216.766985188729
  0
LINE
  5
10A4
330
1F
100
AcDbEntity
  8
Hewi
  6
CUSTOM
 62
    18
420
        0
370
     9
100
AcDbLine
 10
1427.195417720712
 20
1159.38598421582
 30
0.0
 11
1427.96941774198
 21
1158.320984197762
 31
0.0
  0
LWPOLYLINE
  5
10A5
330
1F
100
AcDbEntity
  8
Hewi
  6
CUSTOM
 62
    18
420
        0
370
     9
100
AcDbPolyline
 90
        3
 70
     0
 43
0.0
 10
1426.592417704141
 20
1191.266984935182
 10
1426.592417704141
 20
1161.76698425619
 10
1426.726417707825
 20
1160.615984236674
  0
LINE
  5
10A6
330
1F
100
AcDbEntity
  8
Hewi
  6
CUSTOM
 62
    18
420
        0
370
     9
100
AcDbLine
 10
1429.621417787384
 20
1157.171984178279
 30
0.0
 11
1431.592417841551
 21
1156.766984171412
 31
0.0
  0
LWPOLYLINE
  5
10A7
330
1F
100
AcDbEntity
  8
Hewi
  6
CUSTOM
 62
    18
420
        0
370
     9
100
AcDbPolyline
 90
        5
 70
     0
 43
0.0
 10
1463.673418723185
 20
1190.823984748858
 10
1464.739418752484
 20
1191.408984758778
 10
1465.684418778455
 20
1191.682984763422
 10
1466.36841879725
 20
1191.763984764795
 10
1466.592418803404
 20
1191.766984764846
  0
LINE
  5
10A8
330
1F
100
AcDbEntity
  8
Hewi
  6
CUSTOM
 62
    18
420
        0
370
     9
100
AcDbLine
 10
1426.726417707825
 20
1160.615984236674
 30
0.0
 11
1427.195417720712
 21
1159.38598421582
 31
0.0
  0
LWPOLYLINE
  5
10A9
330
1F
100
AcDbEntity
  8
Hewi
  6
CUSTOM
 62
    18
420
        0
370
     9
100
AcDbPolyline
 90
        4
 70
     0
 43
0.0
 10
1471.592418940818
 20
1203.925984971007
 10
1471.592418940818
 20
1201.712984933483
 10
1471.592418940818
 20
1200.469984912408
 10
1471.592418940818
 20
1199.08698488896
  0
LWPOLYLINE
  5
10AA
330
1F
100
AcDbEntity
  8
Hewi
  6
CUSTOM
 62
    18
420
        0
370
     9
100
AcDbPolyline
 90
        3
 70
     0
 43
0.0
 10
1429.621417787384
 20
1157.171984178279
 10
1430.230417804123
 20
1156.955984174619
 10
1431.592417841551
 20
1156.766984171412
  0
LWPOLYLINE
  5
10AB
330
1F
100
AcDbEntity
  8
Hewi
  6
CUSTOM
 62
    18
420
        0
370
     9
100
AcDbPolyline
 90
        3
 70
     0
 43
0.0
 10
1427.96941774198
 20
1158.320984197762
 10
1427.746417735856
 20
1158.571984202017
 10
1427.195417720712
 20
1159.38598421582
  0
LINE
  5
10AC
330
1F
100
AcDbEntity
  8
Hewi
  6
CUSTOM
 62
    18
420
        0
370
     9
100
AcDbLine
 10
1459.485418608095
 20
1157.688984187047
 30
0.0
 11
1460.727418642225
 21
1158.954984208512
 31
0.0
  0
LWPOLYLINE
  5
10AD
330
1F
100
AcDbEntity
  8
Hewi
  6
CUSTOM
 62
    18
420
        0
370
     9
100
AcDbPolyline
 90
        3
 70
     0
 43
0.0
 10
1429.621417787384
 20
1157.171984178279
 10
1428.970417769495
 20
1157.508984183994
 10
1427.96941774198
 20
1158.320984197762
  0
LINE
  5
10AE
330
1F
100
AcDbEntity
  8
Hewi
  6
CUSTOM
 62
    18
420
        0
370
     9
100
AcDbLine
 10
1427.96941774198
 20
1158.320984197762
 30
0.0
 11
1429.621417787384
 21
1157.171984178279
 31
0.0
  0
LWPOLYLINE
  5
10AF
330
1F
100
AcDbEntity
  8
Hewi
  6
CUSTOM
 62
    18
420
        0
370
     9
100
AcDbPolyline
 90
        3
 70
     0
 43
0.0
 10
1427.057873554422
 20
1159.746707738222
 10
1426.926417713319
 20
1159.970984225738
 10
1426.726417707825
 20
1160.615984236674
  0
LINE
  5
10B0
330
1F
100
AcDbEntity
  8
Hewi
  6
CUSTOM
 62
    18
420
        0
370
     9
100
AcDbLine
 10
1462.823418699831
 20
1190.046984735683
 30
0.0
 11
1463.673418723185
 21
1190.823984748858
 31
0.0
  0
LINE
  5
10B1
330
1F
100
AcDbEntity
  8
Hewi
  6
CUSTOM
 62
    18
420
        0
370
     9
100
AcDbLine
 10
1466.592418803404
 20
1191.766984764846
 30
0.0
 11
1463.673418723185
 21
1190.823984748858
 31
0.0
  0
LWPOLYLINE
  5
10B2
330
1F
100
AcDbEntity
  8
Hewi
  6
CUSTOM
 62
    18
420
        0
370
     9
100
AcDbPolyline
 90
        3
 70
     0
 43
0.0
 10
1457.092418542332
 20
1193.508130372367
 10
1457.092418542332
 20
1192.350329112738
 10
1457.092418542332
 20
1191.917255440394
  0
LWPOLYLINE
  5
10B3
330
1F
100
AcDbEntity
  8
Hewi
  6
CUSTOM
 62
    18
420
        0
370
     9
100
AcDbPolyline
 90
       20
 70
     0
 43
0.0
 10
788.5924001708627
 20
1216.766985188729
 10
786.5924001159001
 20
1214.726985154138
 10
786.5924001159001
 20
1214.676985153292
 10
786.5924001159001
 20
1214.133985144086
 10
786.5924001159001
 20
1213.122985126942
 10
786.5924001159001
 20
1211.691985102679
 10
786.5924001159001
 20
1210.10898507584
 10
786.5924001159001
 20
1208.146985042575
 10
786.5924001159001
 20
1206.254985010493
 10
786.5924001159001
 20
1204.265984976771
 10
786.5924001159001
 20
1203.351984961273
 10
786.5924001159001
 20
1201.10998492326
 10
786.5924001159001
 20
1199.01698488777
 10
786.5924001159001
 20
1197.172984856506
 10
786.5924001159001
 20
1195.665984830955
 10
786.5924001159001
 20
1194.565984812305
 10
786.5924001159001
 20
1193.92698480147
 10
786.5924001159001
 20
1193.776984798925
 10
788.5924001708627
 20
1191.766984764846
 10
793.5924003082691
 20
1191.766984764846
  0
LINE
  5
10B4
330
1F
100
AcDbEntity
  8
Hewi
  6
CUSTOM
 62
    18
420
        0
370
     9
100
AcDbLine
 10
1466.092418789667
 20
1198.433913291885
 30
0.0
 11
1466.092418789667
 21
1201.0121685136
 31
0.0
  0
LINE
  5
10B5
330
1F
100
AcDbEntity
  8
Hewi
  6
CUSTOM
 62
    18
420
        0
370
     9
100
AcDbLine
 10
788.5924001708627
 20
1216.766985188729
 30
0.0
 11
788.5924001708627
 21
1216.528985184694
 31
0.0
  0
LINE
  5
10B6
330
1F
100
AcDbEntity
  8
Hewi
  6
CUSTOM
 62
    18
420
        0
370
     9
100
AcDbLine
 10
788.5924001708627
 20
1215.825985172774
 30
0.0
 11
788.5924001708627
 21
1215.109985160634
 31
0.0
  0
LWPOLYLINE
  5
10B7
330
1F
100
AcDbEntity
  8
Hewi
  6
CUSTOM
 62
    18
420
        0
370
     9
100
AcDbPolyline
 90
        4
 70
     0
 43
0.0
 10
1456.592418528591
 20
1192.309952261053
 10
1457.092418542332
 20
1191.902600969148
 10
1466.092418789667
 20
1191.830320823921
 10
1466.592418803404
 20
1192.315321785145
  0
LWPOLYLINE
  5
10B8
330
1F
100
AcDbEntity
  8
Hewi
  6
CUSTOM
 62
    18
420
        0
370
     9
100
AcDbPolyline
 90
        3
 70
     0
 43
0.0
 10
1466.092418789667
 20
1214.462115779646
 10
1466.092418789667
 20
1215.830143010844
 10
1466.092418789667
 20
1216.414194893747
  0
LWPOLYLINE
  5
10B9
330
1F
100
AcDbEntity
  8
Hewi
  6
CUSTOM
 62
    18
420
        0
370
     9
100
AcDbPolyline
 90
        4
 70
     0
 43
0.0
 10
1456.592418528591
 20
1216.254054566032
 10
1457.092418542332
 20
1216.755369991531
 10
1466.092418789667
 20
1216.74124665029
 10
1466.592418803404
 20
1216.267355565255
  0
LINE
  5
10BA
330
1F
100
AcDbEntity
  8
Hewi
  6
CUSTOM
 62
    18
420
        0
370
     9
100
AcDbLine
 10
1466.592418803404
 20
1216.766985188729
 30
0.0
 11
1471.592418940818
 21
1216.766985188729
 31
0.0
  0
LINE
  5
10BB
330
1F
100
AcDbEntity
  8
Hewi
  6
CUSTOM
 62
    18
420
        0
370
     9
100
AcDbLine
 10
1466.092418789667
 20
1192.43305695514
 30
0.0
 11
1466.092418789667
 21
1193.175633317731
 31
0.0
  0
LINE
  5
10BC
330
1F
100
AcDbEntity
  8
Hewi
  6
CUSTOM
 62
    18
420
        0
370
     9
100
AcDbLine
 10
1471.592418940818
 20
1191.766984764846
 30
0.0
 11
1466.592418803404
 21
1191.766984764846
 31
0.0
  0
LWPOLYLINE
  5
10BD
330
1F
100
AcDbEntity
  8
Hewi
  6
CUSTOM
 62
    18
420
        0
370
     9
100
AcDbPolyline
 90
        3
 70
     0
 43
0.0
 10
1471.592418940818
 20
1216.766985188729
 10
1471.592418940818
 20
1216.497985184167
 10
1471.592418940818
 20
1215.652985169839
  0
LINE
  5
10BE
330
1F
100
AcDbEntity
  8
Hewi
  6
CUSTOM
 62
    18
420
        0
370
     9
100
AcDbLine
 10
1462.823418699831
 20
1190.046984735683
 30
0.0
 11
1461.841219451286
 21
1188.134611424402
 31
0.0
  0
LINE
  5
10BF
330
1F
100
AcDbEntity
  8
Hewi
  6
CUSTOM
 62
    18
420
        0
370
     9
100
AcDbLine
 10
1463.66290938064
 20
1190.814377973478
 30
0.0
 11
1463.69250591932
 21
1190.830150978956
 31
0.0
  0
LINE
  5
10C0
330
1F
100
AcDbEntity
  8
Hewi
  6
CUSTOM
 62
    18
420
        0
370
     9
100
AcDbLine
 10
1457.092418542332
 20
1209.164687813829
 30
0.0
 11
1457.092418542332
 21
1206.511440670842
 31
0.0
  0
LWPOLYLINE
  5
10C1
330
1F
100
AcDbEntity
  8
Hewi
  6
CUSTOM
 62
    18
420
        0
370
     9
100
AcDbPolyline
 90
        3
 70
     0
 43
0.0
 10
793.5924003082691
 20
1195.22798482353
 10
793.5924003082691
 20
1193.933984801588
 10
793.5924003082691
 20
1193.31298479106
  0
LINE
  5
10C2
330
1F
100
AcDbEntity
  8
Hewi
  6
CUSTOM
 62
    18
420
        0
370
     9
100
AcDbLine
 10
1462.707391148327
 20
1189.821075383126
 30
0.0
 11
1463.645026495713
 21
1190.798030912214
 31
0.0
  0
LWPOLYLINE
  5
10C3
330
1F
100
AcDbEntity
  8
Hewi
  6
CUSTOM
 62
    18
420
        0
370
     9
100
AcDbPolyline
 90
        3
 70
     0
 43
0.0
 10
1471.592418940818
 20
1192.351984774767
 10
1471.592418940818
 20
1191.958984768102
 10
1471.592418940818
 20
1191.766984764846
  0
LINE
  5
10C4
330
1F
100
AcDbEntity
  8
Hewi
  6
CUSTOM
 62
    18
420
        0
370
     9
100
AcDbLine
 10
1457.092418542332
 20
1215.727030624095
 30
0.0
 11
1457.092418542332
 21
1214.843005411105
 31
0.0
  0
LWPOLYLINE
  5
10C5
330
1F
100
AcDbEntity
  8
Hewi
  6
CUSTOM
 62
    18
420
        0
370
     9
100
AcDbPolyline
 90
        3
 70
     0
 43
0.0
 10
793.5924003082691
 20
1212.315985113258
 10
793.5924003082691
 20
1210.63798508481
 10
793.5924003082691
 20
1209.588985067023
  0
LINE
  5
10C6
330
1F
100
AcDbEntity
  8
Hewi
  6
CUSTOM
 62
    18
420
        0
370
     9
100
AcDbLine
 10
793.5924003082691
 20
1216.766985188729
 30
0.0
 11
788.5924001708627
 21
1216.766985188729
 31
0.0
  0
LINE
  5
10C7
330
1F
100
AcDbEntity
  8
Hewi
  6
CUSTOM
 62
    18
420
        0
370
     9
100
AcDbLine
 10
1471.592418940818
 20
1210.377985080402
 30
0.0
 11
1471.592418940818
 21
1208.046985040877
 31
0.0
  0
LINE
  5
10C8
330
1F
100
AcDbEntity
  8
Hewi
  6
CUSTOM
 62
    18
420
        0
370
     9
100
AcDbLine
 10
793.5924003082691
 20
1201.548984930703
 30
0.0
 11
793.5924003082691
 21
1200.40398491129
 31
0.0
  0
LINE
  5
10C9
330
1F
100
AcDbEntity
  8
Hewi
  6
CUSTOM
 62
    18
420
        0
370
     9
100
AcDbLine
 10
788.5924001708627
 20
1198.661984881753
 30
0.0
 11
788.5924001708627
 21
1195.582984829547
 31
0.0
  0
LWPOLYLINE
  5
10CA
330
1F
100
AcDbEntity
  8
Hewi
  6
CUSTOM
 62
    18
420
        0
370
     9
100
AcDbPolyline
 90
        3
 70
     0
 43
0.0
 10
1267.613413335144
 20
1034.330737615399
 10
1268.090413348247
 20
1035.267228199245
 10
1268.463860420648
 20
1036.341926857669
  0
LWPOLYLINE
  5
10CB
330
1F
100
AcDbEntity
  8
Hewi
  6
CUSTOM
 62
    18
420
        0
370
     9
100
AcDbPolyline
 90
       13
 70
     0
 43
0.0
 10
1001.463406020906
 20
1027.446242427002
 10
1002.560406051052
 20
1026.102256680322
 10
1041.270407114865
 20
983.1203325100959
 10
1042.747407155457
 20
981.573834517134
 10
1045.469407230259
 20
979.2562049501102
 10
1049.784407348845
 20
976.8902474599872
 10
1051.811407404551
 20
975.863176468656
 10
1056.897407544326
 20
973.9365695867345
 10
1062.847407707835
 20
972.3697944839313
 10
1069.472407889901
 20
971.2133220152319
 10
1076.558408084638
 20
970.5041883476132
 10
1083.879408285833
 20
970.3525738878234
 10
1095.092408423083
 20
970.3433025934264
  0
LWPOLYLINE
  5
10CC
330
1F
100
AcDbEntity
  8
Hewi
  6
CUSTOM
 62
    18
420
        0
370
     9
100
AcDbPolyline
 90
        6
 70
     0
 43
0.0
 10
1001.463406020906
 20
1027.446242427002
 10
1000.373405990947
 20
1029.034538846217
 10
997.9024059230432
 20
1033.607715107819
 10
996.3234058796516
 20
1037.052445228221
 10
995.0544058447739
 20
1040.511769488272
 10
941.2981990862718
 20
1191.266980799974
  0
LWPOLYLINE
  5
10CD
330
1F
100
AcDbEntity
  8
Hewi
  6
CUSTOM
 62
    18
420
        0
370
     9
100
AcDbPolyline
 90
       14
 70
     0
 43
0.0
 10
1170.092413003647
 20
970.2812900085882
 10
1181.305410963254
 20
970.2720187159902
 10
1188.626411164448
 20
970.5041883476132
 10
1195.712411359185
 20
971.2133220152319
 10
1202.337411541251
 20
972.3697944839313
 10
1208.287411704761
 20
973.9365695867345
 10
1213.373411844535
 20
975.863176468656
 10
1215.400411900242
 20
976.8902474599872
 10
1219.715412018828
 20
979.2562049501102
 10
1221.816412076565
 20
981.1671235337254
 10
1223.914412134221
 20
983.1203325100959
 10
1262.624413198035
 20
1026.102256680322
 10
1265.157413267647
 20
1029.590709067741
 10
1267.613413335144
 20
1034.330737615399
  0
LWPOLYLINE
  5
10CE
330
1F
100
AcDbEntity
  8
Hewi
  6
CUSTOM
 62
    18
420
        0
370
     9
100
AcDbPolyline
 90
        7
 70
     0
 43
0.0
 10
1170.092410826004
 20
986.2459551274897
 10
1181.305410963254
 20
986.2459551274897
 10
1187.534411134438
 20
986.4650014880226
 10
1193.564411300154
 20
987.0684731498659
 10
1199.20041145504
 20
988.052473272368
 10
1204.264411594209
 20
989.3854121837012
 10
1208.093281554833
 20
990.8360778278602
  0
LWPOLYLINE
  5
10CF
330
1F
100
AcDbEntity
  8
Hewi
  6
CUSTOM
 62
    18
420
        0
370
     9
100
AcDbPolyline
 90
        5
 70
     0
 43
0.0
 10
1323.904908614993
 20
1191.266984992351
 10
1270.130413404313
 20
1040.511769488272
 10
1269.607413389938
 20
1039.324694625164
 10
1268.627413363007
 20
1036.728706849219
 10
1267.613413335144
 20
1034.330737615399
  0
LWPOLYLINE
  5
10D0
330
1F
100
AcDbEntity
  8
Hewi
  6
CUSTOM
 62
    18
420
        0
370
     9
100
AcDbPolyline
 90
        3
 70
     0
 43
0.0
 10
1004.659406108738
 20
1024.148684604277
 10
1002.897406060314
 20
1025.953058543728
 10
1001.463406020906
 20
1027.446242427002
  0
LWPOLYLINE
  5
10D1
330
1F
100
AcDbEntity
  8
Hewi
  6
CUSTOM
 62
    18
420
        0
370
     9
100
AcDbPolyline
 90
        4
 70
     0
 43
0.0
 10
1014.431406377287
 20
1036.360766033998
 10
1012.107406313422
 20
1040.87065090621
 10
1010.162406259969
 20
1045.651587811581
 10
958.22231121191
 20
1191.266984581816
  0
LWPOLYLINE
  5
10D2
330
1F
100
AcDbEntity
  8
Hewi
  6
CUSTOM
 62
    18
420
        0
370
     9
100
AcDbPolyline
 90
        5
 70
     0
 43
0.0
 10
1253.077412935665
 20
1040.54756734733
 10
1253.927412959027
 20
1042.382158549018
 10
1254.290412969003
 20
1043.666565048463
 10
1255.09041299099
 20
1045.795017090211
 10
1306.964675274517
 20
1191.266981992803
  0
LWPOLYLINE
  5
10D3
330
1F
100
AcDbEntity
  8
Hewi
  6
CUSTOM
 62
    18
420
        0
370
     9
100
AcDbPolyline
 90
        3
 70
     0
 43
0.0
 10
1206.564411657411
 20
989.9977362304143
 10
1209.761411745276
 20
991.7507814671099
 10
1211.479926224278
 20
993.1272645941644
  0
LWPOLYLINE
  5
10D4
330
1F
100
AcDbEntity
  8
Hewi
  6
CUSTOM
 62
    18
420
        0
370
     9
100
AcDbPolyline
 90
        7
 70
     0
 43
0.0
 10
1057.091537565298
 20
990.8360778767182
 10
1060.920407654877
 20
989.3854121837012
 10
1065.984407794047
 20
988.052473272368
 10
1071.620407948932
 20
987.0684731498659
 10
1077.650408114648
 20
986.4650014880226
 10
1083.879408285833
 20
986.2459551274897
 10
1095.092406245439
 20
986.2459551274897
  0
LWPOLYLINE
  5
10D5
330
1F
100
AcDbEntity
  8
Hewi
  6
CUSTOM
 62
    18
420
        0
370
     9
100
AcDbPolyline
 90
        3
 70
     0
 43
0.0
 10
1053.476438962865
 20
993.3809346035722
 10
1055.423407503811
 20
991.7507814671099
 10
1058.620407591676
 20
989.9977362304143
  0
LWPOLYLINE
  5
10D6
330
1F
100
AcDbEntity
  8
Hewi
  6
CUSTOM
 62
    18
420
        0
370
     9
100
AcDbPolyline
 90
        4
 70
     0
 43
0.0
 10
1053.77240745844
 20
993.0522981618942
 10
1015.063406394656
 20
1036.033859232446
 10
1014.181406370415
 20
1037.113768125582
 10
1013.629908056377
 20
1037.916129657826
  0
LWPOLYLINE
  5
10D7
330
1F
100
AcDbEntity
  8
Hewi
  6
CUSTOM
 62
    18
420
        0
370
     9
100
AcDbPolyline
 90
        3
 70
     0
 43
0.0
 10
1211.412411790647
 20
993.0522981618942
 10
1250.12141285443
 20
1036.033859232446
 10
1251.636970192951
 20
1038.119825304895
  0
LINE
  5
10D8
330
1F
100
AcDbEntity
  8
Hewi
  6
CUSTOM
 62
    18
420
        0
370
     9
100
AcDbLine
 10
1251.294412886666
 20
1037.498269853367
 30
0.0
 11
1253.617939188967
 21
1041.714208147697
 31
0.0
  0
LWPOLYLINE
  5
10D9
330
1F
100
AcDbEntity
  8
Hewi
  6
CUSTOM
 62
    18
420
        0
370
     9
100
AcDbPolyline
 90
        3
 70
     0
 43
0.0
 10
1460.575253685292
 20
1217.449329369674
 10
1460.437418634261
 20
1217.387985199257
 10
1459.592418611035
 20
1217.266985197204
  0
LWPOLYLINE
  5
10DA
330
1F
100
AcDbEntity
  8
Hewi
  6
CUSTOM
 62
    18
420
        0
370
     9
100
AcDbPolyline
 90
       31
 70
     0
 43
0.0
 10
1459.592418611035
 20
1217.266985197204
 10
1460.67041864066
 20
1217.466985200597
 10
1461.165418654262
 20
1217.711985204751
 10
1461.509418663718
 20
1217.958985208937
 10
1461.900418674464
 20
1218.349985215569
 10
1462.147418681252
 20
1218.6939852214
 10
1462.478418690349
 20
1219.449985234219
 10
1462.592418693479
 20
1220.266985248072
 10
1462.592418693479
 20
1224.266985315891
 10
1462.392418687985
 20
1225.34498533417
 10
1461.900418674464
 20
1226.183985348396
 10
1461.165418654262
 20
1226.821985359213
 10
1460.409418633488
 20
1227.152985364824
 10
1459.592418611035
 20
1227.266985366757
 10
1459.246418601528
 20
1227.266985366757
 10
1458.222418573386
 20
1227.266985366757
 10
1456.558418527657
 20
1227.266985366757
 10
1454.320418466152
 20
1227.266985366757
 10
1451.592418391181
 20
1227.266985366757
 10
1448.480418305662
 20
1227.266985366757
 10
1445.104418212882
 20
1227.266985366757
 10
1441.592418116364
 20
1227.266985366757
 10
1153.592410201658
 20
1227.266985366757
 10
1149.32641008442
 20
1227.266985366757
 10
1145.92440999093
 20
1227.266985366757
 10
1141.254409862587
 20
1227.266985366757
 10
1136.621409735264
 20
1227.266985366757
 10
1133.007409635946
 20
1227.266985366757
 10
1130.850409576673
 20
1227.266985366757
 10
1129.974409552596
 20
1227.266985366757
 10
1129.592409542099
 20
1227.266985366757
  0
LWPOLYLINE
  5
10DB
330
1F
100
AcDbEntity
  8
Hewi
  6
CUSTOM
 62
    18
420
        0
370
     9
100
AcDbPolyline
 90
       36
 70
     0
 43
0.0
 10
805.5924006380518
 20
1217.266985197204
 10
804.5144006084266
 20
1217.466985200597
 10
804.0194005948251
 20
1217.711985204751
 10
803.6754005853691
 20
1217.958985208937
 10
803.2844005746229
 20
1218.349985215569
 10
803.037400567835
 20
1218.6939852214
 10
802.706400558738
 20
1219.449985234219
 10
802.5924005556079
 20
1220.266985248072
 10
802.5924005556079
 20
1224.266985315891
 10
802.706400558738
 20
1225.083985329745
 10
803.037400567835
 20
1225.839985342563
 10
803.6754005853691
 20
1226.574985355022
 10
804.5144006084266
 20
1227.066985363366
 10
805.5924006380518
 20
1227.266985366757
 10
805.9144006468995
 20
1227.266985366757
 10
806.8644006730064
 20
1227.266985366757
 10
807.8354006996887
 20
1227.266985366757
 10
809.4984007453968
 20
1227.266985366757
 10
811.5374008014295
 20
1227.266985366757
 10
813.0824008438903
 20
1227.266985366757
 10
815.3474009061319
 20
1227.266985366757
 10
816.7344009442494
 20
1227.266985366757
 10
820.0974010366735
 20
1227.266985366757
 10
823.5924011327224
 20
1227.266985366757
 10
1111.592409047429
 20
1227.266985366757
 10
1113.867409109953
 20
1227.266985366757
 10
1117.510409210066
 20
1227.266985366757
 10
1120.879409302651
 20
1227.266985366757
 10
1122.920409358743
 20
1227.266985366757
 10
1123.997409388339
 20
1227.266985366757
 10
1126.388409454048
 20
1227.266985366757
 10
1128.148409502413
 20
1227.266985366757
 10
1128.9484095244
 20
1227.266985366757
 10
1129.265409533112
 20
1227.266985366757
 10
1129.498409539512
 20
1227.266985366757
 10
1129.592409542099
 20
1227.266985366757
  0
LWPOLYLINE
  5
10DC
330
1F
100
AcDbEntity
  8
Hewi
  6
CUSTOM
 62
    18
420
        0
370
     9
100
AcDbPolyline
 90
       20
 70
     0
 43
0.0
 10
1459.592418611035
 20
1217.266985197204
 10
1459.305418603148
 20
1217.266985197204
 10
1458.649418585122
 20
1217.266985197204
 10
1457.031418540653
 20
1217.266985197204
 10
1454.320418466152
 20
1217.266985197204
 10
1450.846418370682
 20
1217.266985197204
 10
1447.343418274413
 20
1217.266985197204
 10
1444.79241820431
 20
1217.266985197204
 10
1441.592418116364
 20
1217.266985197204
 10
1153.592410201658
 20
1217.266985197204
 10
1151.240410137019
 20
1217.266985197204
 10
1147.760410041388
 20
1217.266985197204
 10
1144.408409949268
 20
1217.266985197204
 10
1140.258409835216
 20
1217.266985197204
 10
1136.621409735264
 20
1217.266985197204
 10
1133.63740965326
 20
1217.266985197204
 10
1131.419409592308
 20
1217.266985197204
 10
1130.625409570486
 20
1217.266985197204
 10
1129.852409549243
 20
1217.266985197204
 10
1129.592409542099
 20
1217.266985197204
  0
LWPOLYLINE
  5
10DD
330
1F
100
AcDbEntity
  8
Hewi
  6
CUSTOM
 62
    18
420
        0
370
     9
100
AcDbPolyline
 90
       23
 70
     0
 43
0.0
 10
1129.592409542099
 20
1217.266985197204
 10
1129.270409533252
 20
1217.266985197204
 10
1128.320409507141
 20
1217.266985197204
 10
1127.349409480455
 20
1217.266985197204
 10
1125.686409434754
 20
1217.266985197204
 10
1123.647409378722
 20
1217.266985197204
 10
1122.102409336261
 20
1217.266985197204
 10
1119.837409274019
 20
1217.266985197204
 10
1118.450409235898
 20
1217.266985197204
 10
1115.087409143478
 20
1217.266985197204
 10
1111.592409047429
 20
1217.266985197204
 10
823.5924011327224
 20
1217.266985197204
 10
821.3174010701987
 20
1217.266985197204
 10
817.6744009700851
 20
1217.266985197204
 10
814.3054008774997
 20
1217.266985197204
 10
812.2644008214082
 20
1217.266985197204
 10
811.1884007918378
 20
1217.266985197204
 10
808.7964007261033
 20
1217.266985197204
 10
807.0364006777344
 20
1217.266985197204
 10
806.2364006557473
 20
1217.266985197204
 10
805.9194006470388
 20
1217.266985197204
 10
805.6864006406321
 20
1217.266985197204
 10
805.5924006380518
 20
1217.266985197204
  0
LWPOLYLINE
  5
10DE
330
1F
100
AcDbEntity
  8
Hewi
  6
CUSTOM
 62
    18
420
        0
370
     9
100
AcDbPolyline
 90
        3
 70
     0
 43
0.0
 10
805.5924006380518
 20
1217.266985197204
 10
804.7744006155735
 20
1217.380985199139
 10
804.6250718864284
 20
1217.446452495596
  0
LWPOLYLINE
  5
10DF
330
1F
100
AcDbEntity
  8
Hewi
  6
CUSTOM
 62
    18
420
        0
370
     9
100
AcDbPolyline
 90
       12
 70
     0
 43
0.0
 10
1129.592409542099
 20
1227.266985366757
 10
1130.670409571725
 20
1227.066985363366
 10
1131.509409594782
 20
1226.574985355022
 10
1132.147409612316
 20
1225.839985342563
 10
1132.479409621435
 20
1225.083985329745
 10
1132.592409624543
 20
1224.266985315891
 10
1132.592409624543
 20
1220.266985248072
 10
1132.392409619046
 20
1219.188985229793
 10
1131.900409605528
 20
1218.349985215569
 10
1131.165409585326
 20
1217.711985204751
 10
1130.409409564552
 20
1217.380985199139
 10
1129.592409542099
 20
1217.266985197204
  0
LWPOLYLINE
  5
10E0
330
1F
100
AcDbEntity
  8
Hewi
  6
CUSTOM
 62
    18
420
        0
370
     9
100
AcDbPolyline
 90
        3
 70
     0
 43
0.0
 10
1462.413209670802
 20
1219.301048626001
 10
1462.392418687985
 20
1219.188985229793
 10
1462.280829495154
 20
1218.998693904992
  0
LWPOLYLINE
  5
10E1
330
1F
100
AcDbEntity
  8
Hewi
  6
CUSTOM
 62
    18
420
        0
370
     9
100
AcDbPolyline
 90
       25
 70
     0
 43
0.0
 10
1456.592418528591
 20
1217.266985197204
 10
1456.592418528591
 20
1191.266984756368
 10
1456.324418521224
 20
1191.266984756368
 10
1455.53241849946
 20
1191.266984756368
 10
1454.723418477228
 20
1191.266984756368
 10
1452.803418424464
 20
1191.266984756368
 10
1450.350418357051
 20
1191.266984756368
 10
1448.463418305196
 20
1191.266984756368
 10
1447.307418273427
 20
1191.266984756368
 10
1444.505418196422
 20
1191.266984756368
 10
1441.592418116368
 20
1191.266984756368
 10
1150.592410119214
 20
1191.266984756368
 10
1147.559410035857
 20
1191.266984756368
 10
1143.292409918598
 20
1191.266984756368
 10
1139.290409808618
 20
1191.266984756368
 10
1136.818409740681
 20
1191.266984756368
 10
1135.488409704128
 20
1191.266984756368
 10
1134.053409664695
 20
1191.266984756368
 10
1131.217409586755
 20
1191.266984756368
 10
1129.022409526434
 20
1191.266984756368
 10
1127.933409496509
 20
1191.266984756368
 10
1127.451409483259
 20
1191.266984756368
 10
1127.028409471633
 20
1191.266984756368
 10
1126.71740946309
 20
1191.266984756368
 10
1126.592409459652
 20
1191.266984756368
  0
LWPOLYLINE
  5
10E2
330
1F
100
AcDbEntity
  8
Hewi
  6
CUSTOM
 62
    18
420
        0
370
     9
100
AcDbPolyline
 90
       23
 70
     0
 43
0.0
 10
1126.592409459652
 20
1191.266984756368
 10
1126.324409452289
 20
1191.266984756368
 10
1125.532409430525
 20
1191.266984756368
 10
1124.723409408292
 20
1191.266984756368
 10
1122.803409355529
 20
1191.266984756368
 10
1120.350409288116
 20
1191.266984756368
 10
1118.463409236254
 20
1191.266984756368
 10
1117.307409204484
 20
1191.266984756368
 10
1114.505409127479
 20
1191.266984756368
 10
1111.592409047429
 20
1191.266984756368
 10
823.5924011327224
 20
1191.266984756368
 10
821.6964010806149
 20
1191.266984756368
 10
819.0824010087817
 20
1191.266984756368
 10
816.6264009412843
 20
1191.266984756368
 10
815.1054008994833
 20
1191.266984756368
 10
813.2554008486405
 20
1191.266984756368
 10
811.5154008008248
 20
1191.266984756368
 10
810.158400763532
 20
1191.266984756368
 10
809.478400744847
 20
1191.266984756368
 10
808.8654007279982
 20
1191.266984756368
 10
808.6704007226398
 20
1191.266984756368
 10
808.5924007204994
 20
1191.266984756368
 10
808.5924007204994
 20
1217.266985197204
  0
LINE
  5
10E3
330
1F
100
AcDbEntity
  8
Hewi
  6
CUSTOM
 62
    18
420
        0
370
     9
100
AcDbLine
 10
1126.592409459652
 20
1191.266984756368
 30
0.0
 11
1126.592409459652
 21
1217.266985197204
 31
0.0
  0
LWPOLYLINE
  5
10E4
330
1F
100
AcDbEntity
  8
Hewi
  6
CUSTOM
 62
    18
420
        0
370
     9
100
AcDbPolyline
 90
        4
 70
     0
 43
0.0
 10
808.5924007204994
 20
1192.315321785145
 10
808.0924007067551
 20
1191.830320823921
 10
799.0924004594199
 20
1191.902600969148
 10
798.5924004456828
 20
1192.309952261053
  0
LWPOLYLINE
  5
10E5
330
1F
100
AcDbEntity
  8
Hewi
  6
CUSTOM
 62
    18
420
        0
370
     9
100
AcDbPolyline
 90
        3
 70
     0
 43
0.0
 10
808.0924007067551
 20
1214.462115779646
 10
808.0924007067551
 20
1215.830143010844
 10
808.0924007067551
 20
1216.414194893747
  0
LWPOLYLINE
  5
10E6
330
1F
100
AcDbEntity
  8
Hewi
  6
CUSTOM
 62
    18
420
        0
370
     9
100
AcDbPolyline
 90
        4
 70
     0
 43
0.0
 10
808.5924007204994
 20
1216.267355565255
 10
808.0924007067551
 20
1216.74124665029
 10
799.0924004594199
 20
1216.755369991531
 10
798.5924004456828
 20
1216.254054566032
  0
LINE
  5
10E7
330
1F
100
AcDbEntity
  8
Hewi
  6
CUSTOM
 62
    18
420
        0
370
     9
100
AcDbLine
 10
799.0924004594199
 20
1215.727030624095
 30
0.0
 11
799.0924004594199
 21
1214.843005411105
 31
0.0
  0
LINE
  5
10E8
330
1F
100
AcDbEntity
  8
Hewi
  6
CUSTOM
 62
    18
420
        0
370
     9
100
AcDbLine
 10
799.0924004594199
 20
1209.164687813829
 30
0.0
 11
799.0924004594199
 21
1206.511440670842
 31
0.0
  0
LWPOLYLINE
  5
10E9
330
1F
100
AcDbEntity
  8
Hewi
  6
CUSTOM
 62
    18
420
        0
370
     9
100
AcDbPolyline
 90
        3
 70
     0
 43
0.0
 10
799.0924004594199
 20
1193.508130372367
 10
799.0924004594199
 20
1192.350329112738
 10
799.0924004594199
 20
1191.917255440394
  0
LINE
  5
10EA
330
1F
100
AcDbEntity
  8
Hewi
  6
CUSTOM
 62
    18
420
        0
370
     9
100
AcDbLine
 10
808.0924007067551
 20
1198.433913291885
 30
0.0
 11
808.0924007067551
 21
1201.0121685136
 31
0.0
  0
LINE
  5
10EB
330
1F
100
AcDbEntity
  8
Hewi
  6
CUSTOM
 62
    18
420
        0
370
     9
100
AcDbLine
 10
808.0924007067551
 20
1192.43305695514
 30
0.0
 11
808.0924007067551
 21
1193.175633317731
 31
0.0
  0
LWPOLYLINE
  5
10EC
330
1F
100
AcDbEntity
  8
Hewi
  6
CUSTOM
 62
    18
420
        0
370
     9
100
AcDbPolyline
 90
        3
 70
     0
 43
0.0
 10
802.7716095782853
 20
1219.301048626001
 10
802.7924005611021
 20
1219.188985229793
 10
802.9039897539405
 20
1218.998693904992
  0
ENDSEC
  0
SECTION
  2
OBJECTS
  0
DICTIONARY
  5
C
330
0
100
AcDbDictionary
281
     1
  3
ACAD_CIP_PREVIOUS_PRODUCT_INFO
350
175
  3
ACAD_COLOR
350
16F
  3
ACAD_DETAILVIEWSTYLE
350
16A
  3
ACAD_GROUP
350
D
  3
ACAD_IMAGE_DICT
350
6E
  3
ACAD_LAYOUT
350
1A
  3
ACAD_MATERIAL
350
43
  3
ACAD_MLEADERSTYLE
350
6B
  3
ACAD_MLINESTYLE
350
17
  3
ACAD_PLOTSETTINGS
350
19
  3
ACAD_PLOTSTYLENAME
350
E
  3
ACAD_SCALELIST
350
47
  3
ACAD_SECTIONVIEWSTYLE
350
16B
  3
ACAD_TABLESTYLE
350
69
  3
ACAD_VISUALSTYLE
350
2A
  3
ACDB_RECOMPOSE_DATA
350
10F9
  3
AcDbVariableDictionary
350
166
  0
SUN
  5
6D
330
29
100
AcDbSun
 90
        1
290
     0
 63
     7
421
 16777215
 40
1.0
291
     1
 91
  2455826
 92
 54000000
292
     0
 70
     0
 71
   256
280
     1
1001
ACAD
1000
AcDbSavedByObjectVersion
1070
     0
  0
DICTIONARY
  5
374
330
2
100
AcDbDictionary
280
     1
281
     1
  3
ACAD_LAYERSTATES
360
375
  0
DICTIONARY
  5
372
330
371
100
AcDbDictionary
280
     1
281
     1
  0
DICTIONARY
  5
5EE
330
1F
100
AcDbDictionary
280
     1
281
     1
  3
ACAD_SORTENTS
360
5EF
  0
XRECORD
  5
175
102
{ACAD_REACTORS
330
C
102
}
330
C
100
AcDbXrecord
280
     1
300
ACDLT
300
2021
300
ACDLT_F_S
  0
DICTIONARY
  5
16F
102
{ACAD_REACTORS
330
C
102
}
330
C
100
AcDbDictionary
281
     1
  0
DICTIONARY
  5
16A
102
{ACAD_REACTORS
330
C
102
}
330
C
100
AcDbDictionary
281
     1
  3
Metric50
350
171
  0
DICTIONARY
  5
D
102
{ACAD_REACTORS
330
C
102
}
330
C
100
AcDbDictionary
281
     1
  0
DICTIONARY
  5
6E
102
{ACAD_REACTORS
330
C
102
}
330
C
100
AcDbDictionary
281
     1
  0
DICTIONARY
  5
1A
102
{ACAD_REACTORS
330
C
102
}
330
C
100
AcDbDictionary
281
     1
  3
Layout1
350
1E
  3
Layout2
350
26
  3
Model
350
22
  0
DICTIONARY
  5
43
102
{ACAD_REACTORS
330
C
102
}
330
C
100
AcDbDictionary
281
     1
  3
ByBlock
350
45
  3
ByLayer
350
44
  3
Global
350
46
  0
DICTIONARY
  5
6B
102
{ACAD_REACTORS
330
C
102
}
330
C
100
AcDbDictionary
281
     1
  3
Standard
350
6C
  0
DICTIONARY
  5
17
102
{ACAD_REACTORS
330
C
102
}
330
C
100
AcDbDictionary
281
     1
  3
Standard
350
18
  0
DICTIONARY
  5
19
102
{ACAD_REACTORS
330
C
102
}
330
C
100
AcDbDictionary
281
     1
  0
ACDBDICTIONARYWDFLT
  5
E
102
{ACAD_REACTORS
330
C
102
}
330
C
100
AcDbDictionary
281
     1
  3
Normal
350
F
100
AcDbDictionaryWithDefault
340
F
  0
DICTIONARY
  5
47
102
{ACAD_REACTORS
330
C
102
}
330
C
100
AcDbDictionary
281
     1
  3
A0
350
48
  3
A1
350
49
  3
A2
350
4A
  3
A3
350
4B
  3
A4
350
4C
  3
A5
350
4D
  3
A6
350
4E
  3
A7
350
4F
  3
A8
350
50
  3
A9
350
51
  3
B0
350
52
  3
B1
350
53
  3
B2
350
54
  3
B3
350
55
  3
B4
350
56
  3
B5
350
57
  3
B6
350
58
  3
B7
350
59
  3
B8
350
5A
  3
B9
350
5B
  3
C0
350
5C
  3
C1
350
5D
  3
C2
350
5E
  3
C3
350
5F
  3
C4
350
60
  3
C5
350
61
  3
C6
350
62
  3
C7
350
63
  3
C8
350
64
  3
C9
350
65
  3
D0
350
66
  3
D1
350
67
  3
D2
350
68
  0
DICTIONARY
  5
16B
102
{ACAD_REACTORS
330
C
102
}
330
C
100
AcDbDictionary
281
     1
  3
Metric50
350
170
  0
DICTIONARY
  5
69
102
{ACAD_REACTORS
330
C
102
}
330
C
100
AcDbDictionary
281
     1
  3
Standard
350
6A
  0
DICTIONARY
  5
2A
102
{ACAD_REACTORS
330
C
102
}
330
C
100
AcDbDictionary
281
     1
  3
2dWireframe
350
2F
  3
Basic
350
32
  3
Brighten
350
36
  3
ColorChange
350
3A
  3
Conceptual
350
34
  3
Dim
350
35
  3
EdgeColorOff
350
3D
  3
Facepattern
350
39
  3
Flat
350
2B
  3
FlatWithEdges
350
2C
  3
Gouraud
350
2D
  3
GouraudWithEdges
350
2E
  3
Hidden
350
31
  3
JitterOff
350
3B
  3
Linepattern
350
38
  3
OverhangOff
350
3C
  3
Realistic
350
33
  3
Shaded
350
42
  3
Shaded with edges
350
41
  3
Shades of Gray
350
3E
  3
Sketchy
350
3F
  3
Thicken
350
37
  3
Wireframe
350
30
  3
X-Ray
350
40
  0
XRECORD
  5
10F9
102
{ACAD_REACTORS
330
C
102
}
330
C
100
AcDbXrecord
280
     1
 90
        1
330
6A
  0
DICTIONARY
  5
166
102
{ACAD_REACTORS
330
C
102
}
330
C
100
AcDbDictionary
281
     1
  3
CANNOSCALE
350
167
  3
CENTEREXE
350
16C
  3
CENTERLTYPEFILE
350
16D
  3
CMLEADERSTYLE
350
169
  3
CTABLESTYLE
350
168
  3
CVIEWDETAILSTYLE
350
667
  3
CVIEWSECTIONSTYLE
350
668
  0
DICTIONARY
  5
375
102
{ACAD_REACTORS
330
374
102
}
330
374
100
AcDbDictionary
281
     1
  0
SORTENTSTABLE
  5
5EF
102
{ACAD_REACTORS
330
5EE
102
}
330
5EE
100
AcDbSortentsTable
330
1F
  0
ACDBDETAILVIEWSTYLE
  5
171
102
{ACAD_XDICTIONARY
360
10FC
102
}
102
{ACAD_REACTORS
330
16A
102
}
330
16A
100
AcDbModelDocViewStyle
 70
     0
  3
Metric50
290
     0
100
AcDbDetailViewStyle
 70
     0
 71
     0
 90
        3
 71
     1
340
11
 62
   256
 40
5.0
340
0
 62
   256
 40
5.0
300

 40
0.0
280
     1
 71
     2
340
16
 90
       25
 62
   256
 71
     3
340
11
 62
   256
 40
5.0
 90
        0
 40
15.0
 90
        1
300
%<\AcVar ViewDetailId>% (%<\AcVar ViewScale \f "%sn">%)
 71
     4
340
16
 90
       25
 62
   256
340
16
 90
       25
 62
   256
280
     0
  0
LAYOUT
  5
1E
102
{ACAD_REACTORS
330
1A
102
}
330
1A
100
AcDbPlotSettings
  1

  2
none_device
  4

  6

 40
0.0
 41
0.0
 42
0.0
 43
0.0
 44
0.0
 45
0.0
 46
0.0
 47
0.0
 48
0.0
 49
0.0
140
0.0
141
0.0
142
1.0
143
1.0
 70
   688
 72
     1
 73
     0
 74
     5
  7

 75
    16
147
1.0
 76
     0
 77
     2
 78
   300
148
0.0
149
0.0
100
AcDbLayout
  1
Layout1
 70
     1
 71
     1
 10
0.0
 20
0.0
 11
420.0
 21
297.0
 12
0.0
 22
0.0
 32
0.0
 14
1.000000000000000E+20
 24
1.000000000000000E+20
 34
1.000000000000000E+20
 15
-1.000000000000000E+20
 25
-1.000000000000000E+20
 35
-1.000000000000000E+20
146
0.0
 13
0.0
 23
0.0
 33
0.0
 16
1.0
 26
0.0
 36
0.0
 17
0.0
 27
1.0
 37
0.0
 76
     0
330
1B
  0
LAYOUT
  5
26
102
{ACAD_REACTORS
330
1A
102
}
330
1A
100
AcDbPlotSettings
  1

  2
none_device
  4

  6

 40
0.0
 41
0.0
 42
0.0
 43
0.0
 44
0.0
 45
0.0
 46
0.0
 47
0.0
 48
0.0
 49
0.0
140
0.0
141
0.0
142
1.0
143
1.0
 70
   688
 72
     1
 73
     0
 74
     5
  7

 75
    16
147
1.0
 76
     0
 77
     2
 78
   300
148
0.0
149
0.0
100
AcDbLayout
  1
Layout2
 70
     1
 71
     2
 10
0.0
 20
0.0
 11
0.0
 21
0.0
 12
0.0
 22
0.0
 32
0.0
 14
0.0
 24
0.0
 34
0.0
 15
0.0
 25
0.0
 35
0.0
146
0.0
 13
0.0
 23
0.0
 33
0.0
 16
1.0
 26
0.0
 36
0.0
 17
0.0
 27
1.0
 37
0.0
 76
     0
330
23
  0
LAYOUT
  5
22
102
{ACAD_REACTORS
330
1A
102
}
330
1A
100
AcDbPlotSettings
  1

  2
none_device
  4
Letter_(8.50_x_11.00_Inches)
  6

 40
6.349999999999999
 41
6.349999999999999
 42
6.350005079999999
 43
6.350005079999999
 44
215.9
 45
279.4
 46
0.0
 47
0.0
 48
0.0
 49
0.0
140
0.0
141
0.0
142
1.0
143
1.0
 70
  1712
 72
     1
 73
     0
 74
     0
  7

 75
     0
147
1.0
 76
     0
 77
     2
 78
   300
148
0.0
149
0.0
100
AcDbLayout
  1
Model
 70
     1
 71
     0
 10
0.0
 20
0.0
 11
420.0
 21
297.0
 12
0.0
 22
0.0
 32
0.0
 14
-207.8283572922613
 24
-149.9999957938967
 34
0.0
 15
-155.2924570130382
 25
-104.8671957971767
 35
0.0
146
0.0
 13
0.0
 23
0.0
 33
0.0
 16
1.0
 26
0.0
 36
0.0
 17
0.0
 27
1.0
 37
0.0
 76
     0
330
1F
331
29
  0
MATERIAL
  5
45
102
{ACAD_REACTORS
330
43
102
}
330
43
100
AcDbMaterial
  1
ByBlock
 73
     1
 78
     1
172
     1
176
     1
270
     1
274
     1
  0
MATERIAL
  5
44
102
{ACAD_REACTORS
330
43
102
}
330
43
100
AcDbMaterial
  1
ByLayer
 73
     1
 78
     1
172
     1
176
     1
270
     1
274
     1
  0
MATERIAL
  5
46
102
{ACAD_REACTORS
330
43
102
}
330
43
100
AcDbMaterial
  1
Global
 73
     1
 78
     1
172
     1
176
     1
270
     1
274
     1
  0
MLEADERSTYLE
  5
6C
102
{ACAD_REACTORS
330
6B
102
}
330
6B
100
AcDbMLeaderStyle
179
     2
170
     2
171
     1
172
     0
 90
        2
 40
0.0
 41
0.0
173
     1
 91
-1056964608
340
14
 92
       -2
290
     1
 42
2.0
291
     1
 43
8.0
  3
Standard
 44
4.0
300

342
11
174
     1
178
     6
175
     1
176
     0
 93
-1056964608
 45
4.0
292
     0
297
     0
 46
4.0
 94
-1056964608
 47
1.0
 49
1.0
140
1.0
293
     1
141
0.0
294
     1
177
     0
142
1.0
295
     0
296
     0
143
3.75
271
     0
272
     9
273
     9
298
     0
  0
MLINESTYLE
  5
18
102
{ACAD_REACTORS
330
17
102
}
330
17
100
AcDbMlineStyle
  2
STANDARD
 70
     0
  3

 62
   256
 51
90.0
 52
90.0
 71
     2
 49
0.5
 62
   256
  6
BYLAYER
 49
-0.5
 62
   256
  6
BYLAYER
  0
ACDBPLACEHOLDER
  5
F
102
{ACAD_REACTORS
330
E
102
}
330
E
  0
SCALE
  5
48
102
{ACAD_REACTORS
330
47
102
}
330
47
100
AcDbScale
 70
     0
300
1:1
140
1.0
141
1.0
290
     1
  0
SCALE
  5
49
102
{ACAD_REACTORS
330
47
102
}
330
47
100
AcDbScale
 70
     0
300
1:2
140
1.0
141
2.0
290
     0
  0
SCALE
  5
4A
102
{ACAD_REACTORS
330
47
102
}
330
47
100
AcDbScale
 70
     0
300
1:4
140
1.0
141
4.0
290
     0
  0
SCALE
  5
4B
102
{ACAD_REACTORS
330
47
102
}
330
47
100
AcDbScale
 70
     0
300
1:5
140
1.0
141
5.0
290
     0
  0
SCALE
  5
4C
102
{ACAD_REACTORS
330
47
102
}
330
47
100
AcDbScale
 70
     0
300
1:8
140
1.0
141
8.0
290
     0
  0
SCALE
  5
4D
102
{ACAD_REACTORS
330
47
102
}
330
47
100
AcDbScale
 70
     0
300
1:10
140
1.0
141
10.0
290
     0
  0
SCALE
  5
4E
102
{ACAD_REACTORS
330
47
102
}
330
47
100
AcDbScale
 70
     0
300
1:16
140
1.0
141
16.0
290
     0
  0
SCALE
  5
4F
102
{ACAD_REACTORS
330
47
102
}
330
47
100
AcDbScale
 70
     0
300
1:20
140
1.0
141
20.0
290
     0
  0
SCALE
  5
50
102
{ACAD_REACTORS
330
47
102
}
330
47
100
AcDbScale
 70
     0
300
1:30
140
1.0
141
30.0
290
     0
  0
SCALE
  5
51
102
{ACAD_REACTORS
330
47
102
}
330
47
100
AcDbScale
 70
     0
300
1:40
140
1.0
141
40.0
290
     0
  0
SCALE
  5
52
102
{ACAD_REACTORS
330
47
102
}
330
47
100
AcDbScale
 70
     0
300
1:50
140
1.0
141
50.0
290
     0
  0
SCALE
  5
53
102
{ACAD_REACTORS
330
47
102
}
330
47
100
AcDbScale
 70
     0
300
1:100
140
1.0
141
100.0
290
     0
  0
SCALE
  5
54
102
{ACAD_REACTORS
330
47
102
}
330
47
100
AcDbScale
 70
     0
300
2:1
140
2.0
141
1.0
290
     0
  0
SCALE
  5
55
102
{ACAD_REACTORS
330
47
102
}
330
47
100
AcDbScale
 70
     0
300
4:1
140
4.0
141
1.0
290
     0
  0
SCALE
  5
56
102
{ACAD_REACTORS
330
47
102
}
330
47
100
AcDbScale
 70
     0
300
8:1
140
8.0
141
1.0
290
     0
  0
SCALE
  5
57
102
{ACAD_REACTORS
330
47
102
}
330
47
100
AcDbScale
 70
     0
300
10:1
140
10.0
141
1.0
290
     0
  0
SCALE
  5
58
102
{ACAD_REACTORS
330
47
102
}
330
47
100
AcDbScale
 70
     0
300
100:1
140
100.0
141
1.0
290
     0
  0
SCALE
  5
59
102
{ACAD_REACTORS
330
47
102
}
330
47
100
AcDbScale
 70
     0
300
1/128" = 1'-0"
140
0.0078125
141
12.0
290
     0
  0
SCALE
  5
5A
102
{ACAD_REACTORS
330
47
102
}
330
47
100
AcDbScale
 70
     0
300
1/64" = 1'-0"
140
0.015625
141
12.0
290
     0
  0
SCALE
  5
5B
102
{ACAD_REACTORS
330
47
102
}
330
47
100
AcDbScale
 70
     0
300
1/32" = 1'-0"
140
0.03125
141
12.0
290
     0
  0
SCALE
  5
5C
102
{ACAD_REACTORS
330
47
102
}
330
47
100
AcDbScale
 70
     0
300
1/16" = 1'-0"
140
0.0625
141
12.0
290
     0
  0
SCALE
  5
5D
102
{ACAD_REACTORS
330
47
102
}
330
47
100
AcDbScale
 70
     0
300
3/32" = 1'-0"
140
0.09375
141
12.0
290
     0
  0
SCALE
  5
5E
102
{ACAD_REACTORS
330
47
102
}
330
47
100
AcDbScale
 70
     0
300
1/8" = 1'-0"
140
0.125
141
12.0
290
     0
  0
SCALE
  5
5F
102
{ACAD_REACTORS
330
47
102
}
330
47
100
AcDbScale
 70
     0
300
3/16" = 1'-0"
140
0.1875
141
12.0
290
     0
  0
SCALE
  5
60
102
{ACAD_REACTORS
330
47
102
}
330
47
100
AcDbScale
 70
     0
300
1/4" = 1'-0"
140
0.25
141
12.0
290
     0
  0
SCALE
  5
61
102
{ACAD_REACTORS
330
47
102
}
330
47
100
AcDbScale
 70
     0
300
3/8" = 1'-0"
140
0.375
141
12.0
290
     0
  0
SCALE
  5
62
102
{ACAD_REACTORS
330
47
102
}
330
47
100
AcDbScale
 70
     0
300
1/2" = 1'-0"
140
0.5
141
12.0
290
     0
  0
SCALE
  5
63
102
{ACAD_REACTORS
330
47
102
}
330
47
100
AcDbScale
 70
     0
300
3/4" = 1'-0"
140
0.75
141
12.0
290
     0
  0
SCALE
  5
64
102
{ACAD_REACTORS
330
47
102
}
330
47
100
AcDbScale
 70
     0
300
1" = 1'-0"
140
1.0
141
12.0
290
     0
  0
SCALE
  5
65
102
{ACAD_REACTORS
330
47
102
}
330
47
100
AcDbScale
 70
     0
300
1-1/2" = 1'-0"
140
1.5
141
12.0
290
     0
  0
SCALE
  5
66
102
{ACAD_REACTORS
330
47
102
}
330
47
100
AcDbScale
 70
     0
300
3" = 1'-0"
140
3.0
141
12.0
290
     0
  0
SCALE
  5
67
102
{ACAD_REACTORS
330
47
102
}
330
47
100
AcDbScale
 70
     0
300
6" = 1'-0"
140
6.0
141
12.0
290
     0
  0
SCALE
  5
68
102
{ACAD_REACTORS
330
47
102
}
330
47
100
AcDbScale
 70
     0
300
1'-0" = 1'-0"
140
12.0
141
12.0
290
     0
  0
ACDBSECTIONVIEWSTYLE
  5
170
102
{ACAD_XDICTIONARY
360
10FA
102
}
102
{ACAD_REACTORS
330
16B
102
}
330
16B
100
AcDbModelDocViewStyle
 70
     0
  3
Metric50
290
     0
100
AcDbSectionViewStyle
 70
     0
 71
     0
 90
      102
 71
     1
340
11
 62
   256
 40
5.0
340
0
340
0
 62
   256
 40
5.0
300
I, O, Q, S, X, Z
 40
10.0
 90
        0
 40
2.5
 90
        0
 71
     2
340
16
 90
       25
 62
   256
340
16
 90
       50
 62
   256
 40
5.0
 40
2.5
 40
5.0
 71
     3
340
11
 62
   256
 40
5.0
 90
        0
 40
15.0
 90
        1
300
%<\AcVar ViewSectionStartId>%-%<\AcVar ViewSectionEndId>% (%<\AcVar ViewScale \f "%sn">%)
 71
     4
 62
   256
 62
   257
300
ANSI31
 40
1.0
 90
        0
290
     0
290
     0
 90
        6
 40
0.0
 40
1.570796326794896
 40
0.2617993877991494
 40
1.308996938995747
 40
-0.2617993877991494
 40
1.832595714594046
  0
TABLESTYLE
  5
6A
102
{ACAD_XDICTIONARY
360
10F7
102
}
102
{ACAD_REACTORS
330
69
102
}
330
69
100
AcDbTableStyle
280
     0
  3
Standard
 70
     0
 71
     0
 40
1.5
 41
1.5
280
     0
281
     0
  7
Standard
140
4.5
170
     2
 62
     0
 63
     7
283
     0
 90
        4
 91
        0
  1

274
    -2
284
     1
 64
     0
275
    -2
285
     1
 65
     0
276
    -2
286
     1
 66
     0
277
    -2
287
     1
 67
     0
278
    -2
288
     1
 68
     0
279
    -2
289
     1
 69
     0
  7
Standard
140
6.0
170
     5
 62
     0
 63
     7
283
     0
 90
        4
 91
        0
  1

274
    -2
284
     1
 64
     0
275
    -2
285
     1
 65
     0
276
    -2
286
     1
 66
     0
277
    -2
287
     1
 67
     0
278
    -2
288
     1
 68
     0
279
    -2
289
     1
 69
     0
  7
Standard
140
4.5
170
     5
 62
     0
 63
     7
283
     0
 90
        4
 91
        0
  1

274
    -2
284
     1
 64
     0
275
    -2
285
     1
 65
     0
276
    -2
286
     1
 66
     0
277
    -2
287
     1
 67
     0
278
    -2
288
     1
 68
     0
279
    -2
289
     1
 69
     0
  0
VISUALSTYLE
  5
2F
102
{ACAD_REACTORS
330
2A
102
}
330
2A
100
AcDbVisualStyle
  2
2dWireframe
 70
     4
177
     3
291
     0
 70
    58
 90
        0
176
     1
 90
        2
176
     1
 90
        0
176
     1
 90
        0
176
     1
 40
0.6
176
     1
 40
30.0
176
     1
 62
     7
420
 16777215
176
     1
 90
        1
176
     1
 90
        4
176
     1
 62
     7
176
     1
 62
   257
176
     1
 90
        1
176
     1
 90
        1
176
     1
 40
1.0
176
     1
 90
        0
176
     1
 62
   257
176
     1
 40
1.0
176
     1
 90
        1
176
     1
 90
        6
176
     1
 90
        2
176
     1
 62
     7
176
     1
 90
        5
176
     1
 90
        0
176
     1
 90
        0
176
     1
290
     0
176
     1
 90
        1
176
     1
 40
0.0
176
     1
 90
        0
176
     1
290
     1
176
     1
290
     1
176
     1
290
     0
176
     1
290
     0
176
     1
290
     0
176
     1
290
     0
176
     1
290
     0
176
     1
290
     0
176
     1
290
     0
176
     1
 90
       50
176
     1
 40
0.0
176
     1
 40
1.0
176
     1
 90
        0
176
     1
 62
    18
420
        0
176
     1
 90
       50
176
     1
 90
        3
176
     1
 62
     5
420
      255
176
     1
290
     0
176
     1
 90
       50
176
     1
 90
       50
176
     1
 90
       50
176
     1
290
     0
176
     1
 90
       50
176
     1
 62
   256
176
     0
 40
1.0
176
     0
 90
        2
176
     1
  1
strokes_ogs.tif
176
     1
290
     0
176
     1
 40
1.0
176
     1
 40
1.0
176
     1
1001
ACAD
1000
AcDbSavedByObjectVersion
1070
     0
  0
VISUALSTYLE
  5
32
102
{ACAD_REACTORS
330
2A
102
}
330
2A
100
AcDbVisualStyle
  2
Basic
 70
     7
177
     3
291
     1
 70
    58
 90
        1
176
     1
 90
        0
176
     1
 90
        1
176
     1
 90
        0
176
     1
 40
0.6
176
     1
 40
30.0
176
     1
 62
     7
420
 16777215
176
     1
 90
        0
176
     1
 90
        4
176
     1
 62
     7
176
     1
 62
   257
176
     1
 90
        1
176
     1
 90
        1
176
     1
 40
1.0
176
     1
 90
        8
176
     1
 62
     7
176
     1
 40
1.0
176
     1
 90
        1
176
     1
 90
        6
176
     1
 90
        2
176
     1
 62
     7
176
     1
 90
        5
176
     1
 90
        0
176
     1
 90
        0
176
     1
290
     0
176
     1
 90
        1
176
     1
 40
0.0
176
     1
 90
        0
176
     1
290
     0
176
     1
290
     1
176
     1
290
     1
176
     1
290
     0
176
     1
290
     0
176
     1
290
     0
176
     1
290
     0
176
     1
290
     0
176
     1
290
     0
176
     1
 90
       50
176
     1
 40
0.0
176
     1
 40
1.0
176
     1
 90
        0
176
     1
 62
    18
420
        0
176
     1
 90
       50
176
     1
 90
        3
176
     1
 62
     5
420
      255
176
     1
290
     0
176
     1
 90
       50
176
     1
 90
       50
176
     1
 90
       50
176
     1
290
     0
176
     1
 90
       50
176
     1
 62
   256
176
     0
 40
1.0
176
     0
 90
        2
176
     1
  1
strokes_ogs.tif
176
     1
290
     0
176
     1
 40
1.0
176
     1
 40
1.0
176
     1
1001
ACAD
1000
AcDbSavedByObjectVersion
1070
     0
  0
VISUALSTYLE
  5
36
102
{ACAD_REACTORS
330
2A
102
}
330
2A
100
AcDbVisualStyle
  2
Brighten
 70
    12
177
     3
291
     1
 70
    58
 90
        2
176
     1
 90
        2
176
     1
 90
        0
176
     1
 90
        0
176
     1
 40
0.6
176
     1
 40
30.0
176
     1
 62
     7
420
 16777215
176
     1
 90
        1
176
     1
 90
        4
176
     1
 62
     7
176
     1
 62
   257
176
     1
 90
        1
176
     1
 90
        1
176
     1
 40
1.0
176
     1
 90
        8
176
     1
 62
     7
176
     1
 40
1.0
176
     1
 90
        1
176
     1
 90
        6
176
     1
 90
        2
176
     1
 62
     7
176
     1
 90
        5
176
     1
 90
        0
176
     1
 90
        0
176
     1
290
     0
176
     1
 90
        1
176
     1
 40
50.0
176
     1
 90
        0
176
     1
290
     0
176
     1
290
     1
176
     1
290
     1
176
     1
290
     0
176
     1
290
     0
176
     1
290
     0
176
     1
290
     0
176
     1
290
     0
176
     1
290
     0
176
     1
 90
       50
176
     1
 40
0.0
176
     1
 40
1.0
176
     1
 90
        0
176
     1
 62
    18
420
        0
176
     1
 90
       50
176
     1
 90
        3
176
     1
 62
     5
420
      255
176
     1
290
     0
176
     1
 90
       50
176
     1
 90
       50
176
     1
 90
       50
176
     1
290
     0
176
     1
 90
       50
176
     1
 62
   256
176
     0
 40
1.0
176
     0
 90
        2
176
     1
  1
strokes_ogs.tif
176
     1
290
     0
176
     1
 40
1.0
176
     1
 40
1.0
176
     1
1001
ACAD
1000
AcDbSavedByObjectVersion
1070
     0
  0
VISUALSTYLE
  5
3A
102
{ACAD_REACTORS
330
2A
102
}
330
2A
100
AcDbVisualStyle
  2
ColorChange
 70
    16
177
     3
291
     1
 70
    58
 90
        2
176
     1
 90
        2
176
     1
 90
        3
176
     1
 90
        0
176
     1
 40
0.6
176
     1
 40
30.0
176
     1
 62
     8
420
  8421504
176
     1
 90
        1
176
     1
 90
        4
176
     1
 62
     7
176
     1
 62
   257
176
     1
 90
        1
176
     1
 90
        1
176
     1
 40
1.0
176
     1
 90
        8
176
     1
 62
     8
420
  8421504
176
     1
 40
1.0
176
     1
 90
        1
176
     1
 90
        6
176
     1
 90
        2
176
     1
 62
     7
176
     1
 90
        5
176
     1
 90
        0
176
     1
 90
        0
176
     1
290
     0
176
     1
 90
        1
176
     1
 40
0.0
176
     1
 90
        0
176
     1
290
     0
176
     1
290
     1
176
     1
290
     1
176
     1
290
     0
176
     1
290
     0
176
     1
290
     0
176
     1
290
     0
176
     1
290
     0
176
     1
290
     0
176
     1
 90
       50
176
     1
 40
0.0
176
     1
 40
1.0
176
     1
 90
        0
176
     1
 62
    18
420
        0
176
     1
 90
       50
176
     1
 90
        3
176
     1
 62
     5
420
      255
176
     1
290
     0
176
     1
 90
       50
176
     1
 90
       50
176
     1
 90
       50
176
     1
290
     0
176
     1
 90
       50
176
     1
 62
   256
176
     0
 40
1.0
176
     0
 90
        2
176
     1
  1
strokes_ogs.tif
176
     1
290
     0
176
     1
 40
1.0
176
     1
 40
1.0
176
     1
1001
ACAD
1000
AcDbSavedByObjectVersion
1070
     0
  0
VISUALSTYLE
  5
34
102
{ACAD_REACTORS
330
2A
102
}
330
2A
100
AcDbVisualStyle
  2
Conceptual
 70
     9
177
     3
291
     0
 70
    58
 90
        3
176
     1
 90
        2
176
     1
 90
        0
176
     1
 90
        0
176
     1
 40
0.6
176
     1
 40
30.0
176
     1
 62
     7
420
 16777215
176
     1
 90
        2
176
     1
 90
        2
176
     1
 62
     7
176
     1
 62
   257
176
     1
 90
        1
176
     1
 90
        1
176
     1
 40
179.0
176
     1
 90
        8
176
     1
 62
     7
176
     1
 40
1.0
176
     1
 90
        1
176
     1
 90
        6
176
     1
 90
        2
176
     1
 62
     7
176
     1
 90
        3
176
     1
 90
        0
176
     1
 90
        0
176
     1
290
     0
176
     1
 90
        1
176
     1
 40
0.0
176
     1
 90
        0
176
     1
290
     0
176
     1
290
     1
176
     1
290
     1
176
     1
290
     0
176
     1
290
     0
176
     1
290
     0
176
     1
290
     0
176
     1
290
     0
176
     1
290
     0
176
     1
 90
       50
176
     1
 40
0.0
176
     1
 40
1.0
176
     1
 90
        0
176
     1
 62
    18
420
        0
176
     1
 90
       50
176
     1
 90
        3
176
     1
 62
     5
420
      255
176
     1
290
     0
176
     1
 90
       50
176
     1
 90
       50
176
     1
 90
       50
176
     1
290
     0
176
     1
 90
       50
176
     1
 62
   256
176
     0
 40
1.0
176
     0
 90
        2
176
     1
  1
strokes_ogs.tif
176
     1
290
     0
176
     1
 40
1.0
176
     1
 40
1.0
176
     1
1001
ACAD
1000
AcDbSavedByObjectVersion
1070
     0
  0
VISUALSTYLE
  5
35
102
{ACAD_REACTORS
330
2A
102
}
330
2A
100
AcDbVisualStyle
  2
Dim
 70
    11
177
     3
291
     1
 70
    58
 90
        2
176
     1
 90
        2
176
     1
 90
        0
176
     1
 90
        0
176
     1
 40
0.6
176
     1
 40
30.0
176
     1
 62
     7
420
 16777215
176
     1
 90
        1
176
     1
 90
        4
176
     1
 62
     7
176
     1
 62
   257
176
     1
 90
        1
176
     1
 90
        1
176
     1
 40
1.0
176
     1
 90
        8
176
     1
 62
     7
176
     1
 40
1.0
176
     1
 90
        1
176
     1
 90
        6
176
     1
 90
        2
176
     1
 62
     7
176
     1
 90
        5
176
     1
 90
        0
176
     1
 90
        0
176
     1
290
     0
176
     1
 90
        1
176
     1
 40
-50.0
176
     1
 90
        0
176
     1
290
     0
176
     1
290
     1
176
     1
290
     1
176
     1
290
     0
176
     1
290
     0
176
     1
290
     0
176
     1
290
     0
176
     1
290
     0
176
     1
290
     0
176
     1
 90
       50
176
     1
 40
0.0
176
     1
 40
1.0
176
     1
 90
        0
176
     1
 62
    18
420
        0
176
     1
 90
       50
176
     1
 90
        3
176
     1
 62
     5
420
      255
176
     1
290
     0
176
     1
 90
       50
176
     1
 90
       50
176
     1
 90
       50
176
     1
290
     0
176
     1
 90
       50
176
     1
 62
   256
176
     0
 40
1.0
176
     0
 90
        2
176
     1
  1
strokes_ogs.tif
176
     1
290
     0
176
     1
 40
1.0
176
     1
 40
1.0
176
     1
1001
ACAD
1000
AcDbSavedByObjectVersion
1070
     0
  0
VISUALSTYLE
  5
3D
102
{ACAD_REACTORS
330
2A
102
}
330
2A
100
AcDbVisualStyle
  2
EdgeColorOff
 70
    22
177
     3
291
     1
 70
    58
 90
        2
176
     0
 90
        2
176
     0
 90
        0
176
     0
 90
        0
176
     0
 40
0.6
176
     0
 40
30.0
176
     0
 62
     7
420
 16777215
176
     0
 90
        1
176
     0
 90
        4
176
     0
 62
     7
176
     0
 62
   257
176
     0
 90
        1
176
     0
 90
        1
176
     0
 40
1.0
176
     0
 90
        8
176
     2
 62
     7
176
     0
 40
1.0
176
     0
 90
        1
176
     0
 90
        6
176
     0
 90
        2
176
     0
 62
     7
176
     0
 90
        5
176
     0
 90
        0
176
     0
 90
        0
176
     0
290
     0
176
     0
 90
        1
176
     0
 40
0.0
176
     0
 90
        0
176
     0
290
     0
176
     0
290
     1
176
     0
290
     1
176
     0
290
     0
176
     0
290
     0
176
     0
290
     0
176
     0
290
     0
176
     0
290
     0
176
     0
290
     0
176
     0
 90
       50
176
     0
 40
0.0
176
     0
 40
1.0
176
     0
 90
        0
176
     0
 62
    18
420
        0
176
     0
 90
       50
176
     0
 90
        3
176
     0
 62
     5
420
      255
176
     0
290
     0
176
     0
 90
       50
176
     0
 90
       50
176
     0
 90
       50
176
     0
290
     0
176
     0
 90
       50
176
     0
 62
   256
176
     0
 40
1.0
176
     0
 90
        2
176
     0
  1
strokes_ogs.tif
176
     0
290
     0
176
     0
 40
1.0
176
     0
 40
1.0
176
     0
1001
ACAD
1000
AcDbSavedByObjectVersion
1070
     0
  0
VISUALSTYLE
  5
39
102
{ACAD_REACTORS
330
2A
102
}
330
2A
100
AcDbVisualStyle
  2
Facepattern
 70
    15
177
     3
291
     1
 70
    58
 90
        2
176
     1
 90
        2
176
     1
 90
        0
176
     1
 90
        0
176
     1
 40
0.6
176
     1
 40
30.0
176
     1
 62
     7
420
 16777215
176
     1
 90
        1
176
     1
 90
        4
176
     1
 62
     7
176
     1
 62
   257
176
     1
 90
        1
176
     1
 90
        1
176
     1
 40
1.0
176
     1
 90
        8
176
     1
 62
     7
176
     1
 40
1.0
176
     1
 90
        1
176
     1
 90
        6
176
     1
 90
        2
176
     1
 62
     7
176
     1
 90
        5
176
     1
 90
        0
176
     1
 90
        0
176
     1
290
     0
176
     1
 90
        1
176
     1
 40
0.0
176
     1
 90
        0
176
     1
290
     0
176
     1
290
     1
176
     1
290
     1
176
     1
290
     0
176
     1
290
     0
176
     1
290
     0
176
     1
290
     0
176
     1
290
     0
176
     1
290
     0
176
     1
 90
       50
176
     1
 40
0.0
176
     1
 40
1.0
176
     1
 90
        0
176
     1
 62
    18
420
        0
176
     1
 90
       50
176
     1
 90
        3
176
     1
 62
     5
420
      255
176
     1
290
     0
176
     1
 90
       50
176
     1
 90
       50
176
     1
 90
       50
176
     1
290
     0
176
     1
 90
       50
176
     1
 62
   256
176
     0
 40
1.0
176
     0
 90
        2
176
     1
  1
strokes_ogs.tif
176
     1
290
     0
176
     1
 40
1.0
176
     1
 40
1.0
176
     1
1001
ACAD
1000
AcDbSavedByObjectVersion
1070
     0
  0
VISUALSTYLE
  5
2B
102
{ACAD_REACTORS
330
2A
102
}
330
2A
100
AcDbVisualStyle
  2
Flat
 70
     0
177
     3
291
     1
 70
    58
 90
        2
176
     1
 90
        1
176
     1
 90
        1
176
     1
 90
        2
176
     1
 40
0.6
176
     1
 40
30.0
176
     1
 62
     7
420
 16777215
176
     1
 90
        0
176
     1
 90
        0
176
     1
 62
     7
176
     1
 62
   257
176
     1
 90
        1
176
     1
 90
        1
176
     1
 40
1.0
176
     1
 90
        8
176
     1
 62
     7
176
     1
 40
1.0
176
     1
 90
        1
176
     1
 90
        6
176
     1
 90
        2
176
     1
 62
     7
176
     1
 90
        5
176
     1
 90
        0
176
     1
 90
        0
176
     1
290
     0
176
     1
 90
       13
176
     1
 40
0.0
176
     1
 90
        0
176
     1
290
     0
176
     1
290
     1
176
     1
290
     1
176
     1
290
     0
176
     1
290
     0
176
     1
290
     0
176
     1
290
     0
176
     1
290
     0
176
     1
290
     0
176
     1
 90
       50
176
     1
 40
0.0
176
     1
 40
1.0
176
     1
 90
        0
176
     1
 62
    18
420
        0
176
     1
 90
       50
176
     1
 90
        3
176
     1
 62
     5
420
      255
176
     1
290
     0
176
     1
 90
       50
176
     1
 90
       50
176
     1
 90
       50
176
     1
290
     0
176
     1
 90
       50
176
     1
 62
   256
176
     0
 40
1.0
176
     0
 90
        2
176
     1
  1
strokes_ogs.tif
176
     1
290
     0
176
     1
 40
1.0
176
     1
 40
1.0
176
     1
1001
ACAD
1000
AcDbSavedByObjectVersion
1070
     0
  0
VISUALSTYLE
  5
2C
102
{ACAD_REACTORS
330
2A
102
}
330
2A
100
AcDbVisualStyle
  2
FlatWithEdges
 70
     1
177
     3
291
     1
 70
    58
 90
        2
176
     1
 90
        1
176
     1
 90
        1
176
     1
 90
        2
176
     1
 40
0.6
176
     1
 40
30.0
176
     1
 62
     7
420
 16777215
176
     1
 90
        1
176
     1
 90
        0
176
     1
 62
     7
176
     1
 62
   257
176
     1
 90
        1
176
     1
 90
        1
176
     1
 40
1.0
176
     1
 90
        0
176
     1
 62
   257
176
     1
 40
1.0
176
     1
 90
        1
176
     1
 90
        6
176
     1
 90
        2
176
     1
 62
     7
176
     1
 90
        5
176
     1
 90
        0
176
     1
 90
        0
176
     1
290
     0
176
     1
 90
       13
176
     1
 40
0.0
176
     1
 90
        0
176
     1
290
     0
176
     1
290
     1
176
     1
290
     1
176
     1
290
     0
176
     1
290
     0
176
     1
290
     0
176
     1
290
     0
176
     1
290
     0
176
     1
290
     0
176
     1
 90
       50
176
     1
 40
0.0
176
     1
 40
1.0
176
     1
 90
        0
176
     1
 62
    18
420
        0
176
     1
 90
       50
176
     1
 90
        3
176
     1
 62
     5
420
      255
176
     1
290
     0
176
     1
 90
       50
176
     1
 90
       50
176
     1
 90
       50
176
     1
290
     0
176
     1
 90
       50
176
     1
 62
   256
176
     0
 40
1.0
176
     0
 90
        2
176
     1
  1
strokes_ogs.tif
176
     1
290
     0
176
     1
 40
1.0
176
     1
 40
1.0
176
     1
1001
ACAD
1000
AcDbSavedByObjectVersion
1070
     0
  0
VISUALSTYLE
  5
2D
102
{ACAD_REACTORS
330
2A
102
}
330
2A
100
AcDbVisualStyle
  2
Gouraud
 70
     2
177
     3
291
     1
 70
    58
 90
        2
176
     1
 90
        2
176
     1
 90
        1
176
     1
 90
        2
176
     1
 40
0.6
176
     1
 40
30.0
176
     1
 62
     7
420
 16777215
176
     1
 90
        0
176
     1
 90
        0
176
     1
 62
     7
176
     1
 62
   257
176
     1
 90
        1
176
     1
 90
        1
176
     1
 40
1.0
176
     1
 90
        0
176
     1
 62
     7
176
     1
 40
1.0
176
     1
 90
        1
176
     1
 90
        6
176
     1
 90
        2
176
     1
 62
     7
176
     1
 90
        5
176
     1
 90
        0
176
     1
 90
        0
176
     1
290
     0
176
     1
 90
       13
176
     1
 40
0.0
176
     1
 90
        0
176
     1
290
     0
176
     1
290
     1
176
     1
290
     1
176
     1
290
     0
176
     1
290
     0
176
     1
290
     0
176
     1
290
     0
176
     1
290
     0
176
     1
290
     0
176
     1
 90
       50
176
     1
 40
0.0
176
     1
 40
1.0
176
     1
 90
        0
176
     1
 62
    18
420
        0
176
     1
 90
       50
176
     1
 90
        3
176
     1
 62
     5
420
      255
176
     1
290
     0
176
     1
 90
       50
176
     1
 90
       50
176
     1
 90
       50
176
     1
290
     0
176
     1
 90
       50
176
     1
 62
   256
176
     0
 40
1.0
176
     0
 90
        2
176
     1
  1
strokes_ogs.tif
176
     1
290
     0
176
     1
 40
1.0
176
     1
 40
1.0
176
     1
1001
ACAD
1000
AcDbSavedByObjectVersion
1070
     0
  0
VISUALSTYLE
  5
2E
102
{ACAD_REACTORS
330
2A
102
}
330
2A
100
AcDbVisualStyle
  2
GouraudWithEdges
 70
     3
177
     3
291
     1
 70
    58
 90
        2
176
     1
 90
        2
176
     1
 90
        1
176
     1
 90
        2
176
     1
 40
0.6
176
     1
 40
30.0
176
     1
 62
     7
420
 16777215
176
     1
 90
        1
176
     1
 90
        0
176
     1
 62
     7
176
     1
 62
   257
176
     1
 90
        1
176
     1
 90
        1
176
     1
 40
1.0
176
     1
 90
        0
176
     1
 62
   257
176
     1
 40
1.0
176
     1
 90
        1
176
     1
 90
        6
176
     1
 90
        2
176
     1
 62
     7
176
     1
 90
        5
176
     1
 90
        0
176
     1
 90
        0
176
     1
290
     0
176
     1
 90
       13
176
     1
 40
0.0
176
     1
 90
        0
176
     1
290
     0
176
     1
290
     1
176
     1
290
     1
176
     1
290
     0
176
     1
290
     0
176
     1
290
     0
176
     1
290
     0
176
     1
290
     0
176
     1
290
     0
176
     1
 90
       50
176
     1
 40
0.0
176
     1
 40
1.0
176
     1
 90
        0
176
     1
 62
    18
420
        0
176
     1
 90
       50
176
     1
 90
        3
176
     1
 62
     5
420
      255
176
     1
290
     0
176
     1
 90
       50
176
     1
 90
       50
176
     1
 90
       50
176
     1
290
     0
176
     1
 90
       50
176
     1
 62
   256
176
     0
 40
1.0
176
     0
 90
        2
176
     1
  1
strokes_ogs.tif
176
     1
290
     0
176
     1
 40
1.0
176
     1
 40
1.0
176
     1
1001
ACAD
1000
AcDbSavedByObjectVersion
1070
     0
  0
VISUALSTYLE
  5
31
102
{ACAD_REACTORS
330
2A
102
}
330
2A
100
AcDbVisualStyle
  2
Hidden
 70
     6
177
     3
291
     0
 70
    58
 90
        1
176
     1
 90
        2
176
     1
 90
        2
176
     1
 90
        0
176
     1
 40
0.6
176
     1
 40
30.0
176
     1
 62
     7
420
 16777215
176
     1
 90
        2
176
     1
 90
        2
176
     1
 62
     7
176
     1
 62
   257
176
     1
 90
        2
176
     1
 90
        1
176
     1
 40
40.0
176
     1
 90
        0
176
     1
 62
   257
176
     1
 40
1.0
176
     1
 90
        1
176
     1
 90
        6
176
     1
 90
        2
176
     1
 62
     7
176
     1
 90
        3
176
     1
 90
        0
176
     1
 90
        0
176
     1
290
     0
176
     1
 90
        1
176
     1
 40
0.0
176
     1
 90
        0
176
     1
290
     0
176
     1
290
     1
176
     1
290
     1
176
     1
290
     0
176
     1
290
     0
176
     1
290
     0
176
     1
290
     0
176
     1
290
     0
176
     1
290
     0
176
     1
 90
       50
176
     1
 40
0.0
176
     1
 40
1.0
176
     1
 90
        0
176
     1
 62
    18
420
        0
176
     1
 90
       50
176
     1
 90
        3
176
     1
 62
     5
420
      255
176
     1
290
     0
176
     1
 90
       50
176
     1
 90
       50
176
     1
 90
       50
176
     1
290
     0
176
     1
 90
       50
176
     1
 62
   256
176
     0
 40
1.0
176
     0
 90
        2
176
     1
  1
strokes_ogs.tif
176
     1
290
     0
176
     1
 40
1.0
176
     1
 40
1.0
176
     1
1001
ACAD
1000
AcDbSavedByObjectVersion
1070
     0
  0
VISUALSTYLE
  5
3B
102
{ACAD_REACTORS
330
2A
102
}
330
2A
100
AcDbVisualStyle
  2
JitterOff
 70
    20
177
     3
291
     1
 70
    58
 90
        2
176
     0
 90
        2
176
     0
 90
        0
176
     0
 90
        0
176
     0
 40
0.6
176
     0
 40
30.0
176
     0
 62
     7
420
 16777215
176
     0
 90
        1
176
     0
 90
        4
176
     0
 62
     7
176
     0
 62
   257
176
     0
 90
        1
176
     0
 90
        1
176
     0
 40
1.0
176
     0
 90
       10
176
     2
 62
     7
176
     0
 40
1.0
176
     0
 90
        1
176
     0
 90
        6
176
     0
 90
        2
176
     0
 62
     7
176
     0
 90
        5
176
     0
 90
        0
176
     0
 90
        0
176
     0
290
     0
176
     0
 90
        1
176
     0
 40
0.0
176
     0
 90
        0
176
     0
290
     0
176
     0
290
     1
176
     0
290
     1
176
     0
290
     0
176
     0
290
     0
176
     0
290
     0
176
     0
290
     0
176
     0
290
     0
176
     0
290
     0
176
     0
 90
       50
176
     0
 40
0.0
176
     0
 40
1.0
176
     0
 90
        0
176
     0
 62
    18
420
        0
176
     0
 90
       50
176
     0
 90
        3
176
     0
 62
     5
420
      255
176
     0
290
     0
176
     0
 90
       50
176
     0
 90
       50
176
     0
 90
       50
176
     0
290
     0
176
     0
 90
       50
176
     0
 62
   256
176
     0
 40
1.0
176
     0
 90
        2
176
     0
  1
strokes_ogs.tif
176
     0
290
     0
176
     0
 40
1.0
176
     0
 40
1.0
176
     0
1001
ACAD
1000
AcDbSavedByObjectVersion
1070
     0
  0
VISUALSTYLE
  5
38
102
{ACAD_REACTORS
330
2A
102
}
330
2A
100
AcDbVisualStyle
  2
Linepattern
 70
    14
177
     3
291
     1
 70
    58
 90
        2
176
     1
 90
        2
176
     1
 90
        0
176
     1
 90
        0
176
     1
 40
0.6
176
     1
 40
30.0
176
     1
 62
     7
420
 16777215
176
     1
 90
        1
176
     1
 90
        4
176
     1
 62
     7
176
     1
 62
   257
176
     1
 90
        7
176
     1
 90
        7
176
     1
 40
1.0
176
     1
 90
        8
176
     1
 62
     7
176
     1
 40
1.0
176
     1
 90
        1
176
     1
 90
        6
176
     1
 90
        2
176
     1
 62
     7
176
     1
 90
        5
176
     1
 90
        0
176
     1
 90
        0
176
     1
290
     0
176
     1
 90
        1
176
     1
 40
0.0
176
     1
 90
        0
176
     1
290
     0
176
     1
290
     1
176
     1
290
     1
176
     1
290
     0
176
     1
290
     0
176
     1
290
     0
176
     1
290
     0
176
     1
290
     0
176
     1
290
     0
176
     1
 90
       50
176
     1
 40
0.0
176
     1
 40
1.0
176
     1
 90
        0
176
     1
 62
    18
420
        0
176
     1
 90
       50
176
     1
 90
        3
176
     1
 62
     5
420
      255
176
     1
290
     0
176
     1
 90
       50
176
     1
 90
       50
176
     1
 90
       50
176
     1
290
     0
176
     1
 90
       50
176
     1
 62
   256
176
     0
 40
1.0
176
     0
 90
        2
176
     1
  1
strokes_ogs.tif
176
     1
290
     0
176
     1
 40
1.0
176
     1
 40
1.0
176
     1
1001
ACAD
1000
AcDbSavedByObjectVersion
1070
     0
  0
VISUALSTYLE
  5
3C
102
{ACAD_REACTORS
330
2A
102
}
330
2A
100
AcDbVisualStyle
  2
OverhangOff
 70
    21
177
     3
291
     1
 70
    58
 90
        2
176
     0
 90
        2
176
     0
 90
        0
176
     0
 90
        0
176
     0
 40
0.6
176
     0
 40
30.0
176
     0
 62
     7
420
 16777215
176
     0
 90
        1
176
     0
 90
        4
176
     0
 62
     7
176
     0
 62
   257
176
     0
 90
        1
176
     0
 90
        1
176
     0
 40
1.0
176
     0
 90
        9
176
     2
 62
     7
176
     0
 40
1.0
176
     0
 90
        1
176
     0
 90
        6
176
     0
 90
        2
176
     0
 62
     7
176
     0
 90
        5
176
     0
 90
        0
176
     0
 90
        0
176
     0
290
     0
176
     0
 90
        1
176
     0
 40
0.0
176
     0
 90
        0
176
     0
290
     0
176
     0
290
     1
176
     0
290
     1
176
     0
290
     0
176
     0
290
     0
176
     0
290
     0
176
     0
290
     0
176
     0
290
     0
176
     0
290
     0
176
     0
 90
       50
176
     0
 40
0.0
176
     0
 40
1.0
176
     0
 90
        0
176
     0
 62
    18
420
        0
176
     0
 90
       50
176
     0
 90
        3
176
     0
 62
     5
420
      255
176
     0
290
     0
176
     0
 90
       50
176
     0
 90
       50
176
     0
 90
       50
176
     0
290
     0
176
     0
 90
       50
176
     0
 62
   256
176
     0
 40
1.0
176
     0
 90
        2
176
     0
  1
strokes_ogs.tif
176
     0
290
     0
176
     0
 40
1.0
176
     0
 40
1.0
176
     0
1001
ACAD
1000
AcDbSavedByObjectVersion
1070
     0
  0
VISUALSTYLE
  5
33
102
{ACAD_REACTORS
330
2A
102
}
330
2A
100
AcDbVisualStyle
  2
Realistic
 70
     8
177
     3
291
     0
 70
    58
 90
        2
176
     1
 90
        3
176
     1
 90
        0
176
     1
 90
        2
176
     1
 40
0.6
176
     1
 40
30.0
176
     1
 62
     7
420
 16777215
176
     1
 90
        0
176
     1
 90
        0
176
     1
 62
     7
176
     1
 62
   257
176
     1
 90
        1
176
     1
 90
        1
176
     1
 40
1.0
176
     1
 90
        8
176
     1
 62
   257
176
     1
 40
1.0
176
     1
 90
        1
176
     1
 90
        6
176
     1
 90
        2
176
     1
 62
     7
176
     1
 90
        3
176
     1
 90
        0
176
     1
 90
        0
176
     1
290
     0
176
     1
 90
       13
176
     1
 40
0.0
176
     1
 90
        0
176
     1
290
     0
176
     1
290
     1
176
     1
290
     1
176
     1
290
     0
176
     1
290
     0
176
     1
290
     0
176
     1
290
     0
176
     1
290
     0
176
     1
290
     0
176
     1
 90
       50
176
     1
 40
0.0
176
     1
 40
1.0
176
     1
 90
        0
176
     1
 62
    18
420
        0
176
     1
 90
       50
176
     1
 90
        3
176
     1
 62
     5
420
      255
176
     1
290
     0
176
     1
 90
       50
176
     1
 90
       50
176
     1
 90
       50
176
     1
290
     0
176
     1
 90
       50
176
     1
 62
   256
176
     0
 40
1.0
176
     0
 90
        2
176
     1
  1
strokes_ogs.tif
176
     1
290
     0
176
     1
 40
1.0
176
     1
 40
1.0
176
     1
1001
ACAD
1000
AcDbSavedByObjectVersion
1070
     0
  0
VISUALSTYLE
  5
42
102
{ACAD_REACTORS
330
2A
102
}
330
2A
100
AcDbVisualStyle
  2
Shaded
 70
    27
177
     3
291
     0
 70
    58
 90
        2
176
     1
 90
        2
176
     1
 90
        1
176
     1
 90
        2
176
     1
 40
0.6
176
     1
 40
30.0
176
     1
 62
     7
420
 16777215
176
     1
 90
        0
176
     1
 90
        4
176
     1
 62
     7
176
     1
 62
   257
176
     1
 90
        1
176
     1
 90
        1
176
     1
 40
1.0
176
     1
 90
        8
176
     1
 62
   257
176
     1
 40
1.0
176
     1
 90
        1
176
     1
 90
        6
176
     1
 90
        2
176
     1
 62
     8
420
  7895160
176
     1
 90
        3
176
     1
 90
        0
176
     1
 90
        0
176
     1
290
     0
176
     1
 90
        5
176
     1
 40
0.0
176
     1
 90
        0
176
     1
290
     0
176
     1
290
     1
176
     1
290
     1
176
     1
290
     0
176
     1
290
     0
176
     1
290
     0
176
     1
290
     0
176
     1
290
     0
176
     1
290
     0
176
     1
 90
       50
176
     1
 40
0.0
176
     1
 40
1.0
176
     1
 90
        0
176
     1
 62
    18
420
        0
176
     1
 90
       50
176
     1
 90
        3
176
     1
 62
     5
420
      255
176
     1
290
     0
176
     1
 90
       50
176
     1
 90
       50
176
     1
 90
       50
176
     1
290
     0
176
     1
 90
       50
176
     1
 62
   256
176
     0
 40
1.0
176
     0
 90
        2
176
     1
  1
strokes_ogs.tif
176
     1
290
     0
176
     1
 40
1.0
176
     1
 40
1.0
176
     1
1001
ACAD
1000
AcDbSavedByObjectVersion
1070
     0
  0
VISUALSTYLE
  5
41
102
{ACAD_REACTORS
330
2A
102
}
330
2A
100
AcDbVisualStyle
  2
Shaded with edges
 70
    26
177
     3
291
     0
 70
    58
 90
        2
176
     1
 90
        2
176
     1
 90
        1
176
     1
 90
        2
176
     1
 40
0.6
176
     1
 40
30.0
176
     1
 62
     7
420
 16777215
176
     1
 90
        1
176
     1
 90
        2
176
     1
 62
     7
176
     1
 62
   257
176
     1
 90
        2
176
     1
 90
        1
176
     1
 40
1.0
176
     1
 90
        8
176
     1
 62
   257
176
     1
 40
1.0
176
     1
 90
        1
176
     1
 90
        6
176
     1
 90
        2
176
     1
 62
     7
176
     1
 90
        3
176
     1
 90
        0
176
     1
 90
        0
176
     1
290
     0
176
     1
 90
        5
176
     1
 40
0.0
176
     1
 90
        0
176
     1
290
     0
176
     1
290
     1
176
     1
290
     1
176
     1
290
     0
176
     1
290
     0
176
     1
290
     0
176
     1
290
     0
176
     1
290
     0
176
     1
290
     0
176
     1
 90
       50
176
     1
 40
0.0
176
     1
 40
1.0
176
     1
 90
        0
176
     1
 62
    18
420
        0
176
     1
 90
       50
176
     1
 90
        3
176
     1
 62
     5
420
      255
176
     1
290
     0
176
     1
 90
       50
176
     1
 90
       50
176
     1
 90
       50
176
     1
290
     0
176
     1
 90
       50
176
     1
 62
   256
176
     0
 40
1.0
176
     0
 90
        2
176
     1
  1
strokes_ogs.tif
176
     1
290
     0
176
     1
 40
1.0
176
     1
 40
1.0
176
     1
1001
ACAD
1000
AcDbSavedByObjectVersion
1070
     0
  0
VISUALSTYLE
  5
3E
102
{ACAD_REACTORS
330
2A
102
}
330
2A
100
AcDbVisualStyle
  2
Shades of Gray
 70
    23
177
     3
291
     0
 70
    58
 90
        2
176
     1
 90
        2
176
     1
 90
        3
176
     1
 90
        0
176
     1
 40
0.6
176
     1
 40
30.0
176
     1
 62
     7
420
 16777215
176
     1
 90
        2
176
     1
 90
        2
176
     1
 62
     7
176
     1
 62
     7
176
     1
 90
        1
176
     1
 90
        1
176
     1
 40
40.0
176
     1
 90
        8
176
     1
 62
     7
176
     1
 40
1.0
176
     1
 90
        1
176
     1
 90
        6
176
     1
 90
        2
176
     1
 62
     7
176
     1
 90
        3
176
     1
 90
        0
176
     1
 90
        0
176
     1
290
     0
176
     1
 90
        1
176
     1
 40
0.0
176
     1
 90
        0
176
     1
290
     0
176
     1
290
     1
176
     1
290
     1
176
     1
290
     0
176
     1
290
     0
176
     1
290
     0
176
     1
290
     0
176
     1
290
     0
176
     1
290
     0
176
     1
 90
       50
176
     1
 40
0.0
176
     1
 40
1.0
176
     1
 90
        0
176
     1
 62
    18
420
        0
176
     1
 90
       50
176
     1
 90
        3
176
     1
 62
     5
420
      255
176
     1
290
     0
176
     1
 90
       50
176
     1
 90
       50
176
     1
 90
       50
176
     1
290
     0
176
     1
 90
       50
176
     1
 62
   256
176
     0
 40
1.0
176
     0
 90
        2
176
     1
  1
strokes_ogs.tif
176
     1
290
     0
176
     1
 40
1.0
176
     1
 40
1.0
176
     1
1001
ACAD
1000
AcDbSavedByObjectVersion
1070
     0
  0
VISUALSTYLE
  5
3F
102
{ACAD_REACTORS
330
2A
102
}
330
2A
100
AcDbVisualStyle
  2
Sketchy
 70
    24
177
     3
291
     0
 70
    58
 90
        1
176
     1
 90
        2
176
     1
 90
        2
176
     1
 90
        0
176
     1
 40
0.6
176
     1
 40
30.0
176
     1
 62
     7
420
 16777215
176
     1
 90
        2
176
     1
 90
        2
176
     1
 62
     7
176
     1
 62
     7
176
     1
 90
        1
176
     1
 90
        1
176
     1
 40
40.0
176
     1
 90
       11
176
     1
 62
     7
176
     1
 40
1.0
176
     1
 90
        1
176
     1
 90
        6
176
     1
 90
        2
176
     1
 62
     7
176
     1
 90
        6
176
     1
 90
        0
176
     1
 90
        0
176
     1
290
     0
176
     1
 90
        1
176
     1
 40
0.0
176
     1
 90
        0
176
     1
290
     0
176
     1
290
     1
176
     1
290
     1
176
     1
290
     0
176
     1
290
     0
176
     1
290
     0
176
     1
290
     0
176
     1
290
     0
176
     1
290
     0
176
     1
 90
       50
176
     1
 40
0.0
176
     1
 40
1.0
176
     1
 90
        0
176
     1
 62
    18
420
        0
176
     1
 90
       50
176
     1
 90
        3
176
     1
 62
     5
420
      255
176
     1
290
     0
176
     1
 90
       50
176
     1
 90
       50
176
     1
 90
       50
176
     1
290
     0
176
     1
 90
       50
176
     1
 62
   256
176
     0
 40
1.0
176
     0
 90
        2
176
     1
  1
strokes_ogs.tif
176
     1
290
     0
176
     1
 40
1.0
176
     1
 40
1.0
176
     1
1001
ACAD
1000
AcDbSavedByObjectVersion
1070
     0
  0
VISUALSTYLE
  5
37
102
{ACAD_REACTORS
330
2A
102
}
330
2A
100
AcDbVisualStyle
  2
Thicken
 70
    13
177
     3
291
     1
 70
    58
 90
        2
176
     1
 90
        2
176
     1
 90
        0
176
     1
 90
        0
176
     1
 40
0.6
176
     1
 40
30.0
176
     1
 62
     7
420
 16777215
176
     1
 90
        1
176
     1
 90
        4
176
     1
 62
     7
176
     1
 62
   257
176
     1
 90
        1
176
     1
 90
        1
176
     1
 40
1.0
176
     1
 90
       12
176
     1
 62
     7
176
     1
 40
1.0
176
     1
 90
        1
176
     1
 90
        6
176
     1
 90
        2
176
     1
 62
     7
176
     1
 90
        5
176
     1
 90
        0
176
     1
 90
        0
176
     1
290
     0
176
     1
 90
        1
176
     1
 40
0.0
176
     1
 90
        0
176
     1
290
     0
176
     1
290
     1
176
     1
290
     1
176
     1
290
     0
176
     1
290
     0
176
     1
290
     0
176
     1
290
     0
176
     1
290
     0
176
     1
290
     0
176
     1
 90
       50
176
     1
 40
0.0
176
     1
 40
1.0
176
     1
 90
        0
176
     1
 62
    18
420
        0
176
     1
 90
       50
176
     1
 90
        3
176
     1
 62
     5
420
      255
176
     1
290
     0
176
     1
 90
       50
176
     1
 90
       50
176
     1
 90
       50
176
     1
290
     0
176
     1
 90
       50
176
     1
 62
   256
176
     0
 40
1.0
176
     0
 90
        2
176
     1
  1
strokes_ogs.tif
176
     1
290
     0
176
     1
 40
1.0
176
     1
 40
1.0
176
     1
1001
ACAD
1000
AcDbSavedByObjectVersion
1070
     0
  0
VISUALSTYLE
  5
30
102
{ACAD_REACTORS
330
2A
102
}
330
2A
100
AcDbVisualStyle
  2
Wireframe
 70
     5
177
     3
291
     0
 70
    58
 90
        0
176
     1
 90
        2
176
     1
 90
        0
176
     1
 90
        0
176
     1
 40
0.6
176
     1
 40
30.0
176
     1
 62
     7
420
 16777215
176
     1
 90
        1
176
     1
 90
        4
176
     1
 62
     7
176
     1
 62
   257
176
     1
 90
        1
176
     1
 90
        1
176
     1
 40
1.0
176
     1
 90
        0
176
     1
 62
   257
176
     1
 40
1.0
176
     1
 90
        1
176
     1
 90
        6
176
     1
 90
        2
176
     1
 62
     7
176
     1
 90
        3
176
     1
 90
        0
176
     1
 90
        0
176
     1
290
     0
176
     1
 90
        1
176
     1
 40
0.0
176
     1
 90
        0
176
     1
290
     0
176
     1
290
     1
176
     1
290
     1
176
     1
290
     0
176
     1
290
     0
176
     1
290
     0
176
     1
290
     0
176
     1
290
     0
176
     1
290
     0
176
     1
 90
       50
176
     1
 40
0.0
176
     1
 40
1.0
176
     1
 90
        0
176
     1
 62
    18
420
        0
176
     1
 90
       50
176
     1
 90
        3
176
     1
 62
     5
420
      255
176
     1
290
     0
176
     1
 90
       50
176
     1
 90
       50
176
     1
 90
       50
176
     1
290
     0
176
     1
 90
       50
176
     1
 62
   256
176
     0
 40
1.0
176
     0
 90
        2
176
     1
  1
strokes_ogs.tif
176
     1
290
     0
176
     1
 40
1.0
176
     1
 40
1.0
176
     1
1001
ACAD
1000
AcDbSavedByObjectVersion
1070
     0
  0
VISUALSTYLE
  5
40
102
{ACAD_REACTORS
330
2A
102
}
330
2A
100
AcDbVisualStyle
  2
X-Ray
 70
    25
177
     3
291
     0
 70
    58
 90
        2
176
     1
 90
        2
176
     1
 90
        1
176
     1
 90
        1
176
     1
 40
0.5
176
     1
 40
30.0
176
     1
 62
     7
420
 16777215
176
     1
 90
        1
176
     1
 90
        0
176
     1
 62
     7
176
     1
 62
   257
176
     1
 90
        1
176
     1
 90
        1
176
     1
 40
1.0
176
     1
 90
        8
176
     1
 62
     7
176
     1
 40
1.0
176
     1
 90
        1
176
     1
 90
        6
176
     1
 90
        2
176
     1
 62
     7
176
     1
 90
        3
176
     1
 90
        0
176
     1
 90
        0
176
     1
290
     0
176
     1
 90
       13
176
     1
 40
0.0
176
     1
 90
        0
176
     1
290
     0
176
     1
290
     1
176
     1
290
     1
176
     1
290
     0
176
     1
290
     0
176
     1
290
     0
176
     1
290
     0
176
     1
290
     0
176
     1
290
     0
176
     1
 90
       50
176
     1
 40
0.0
176
     1
 40
1.0
176
     1
 90
        0
176
     1
 62
    18
420
        0
176
     1
 90
       50
176
     1
 90
        3
176
     1
 62
     5
420
      255
176
     1
290
     0
176
     1
 90
       50
176
     1
 90
       50
176
     1
 90
       50
176
     1
290
     0
176
     1
 90
       50
176
     1
 62
   256
176
     0
 40
1.0
176
     0
 90
        2
176
     1
  1
strokes_ogs.tif
176
     1
290
     0
176
     1
 40
1.0
176
     1
 40
1.0
176
     1
1001
ACAD
1000
AcDbSavedByObjectVersion
1070
     0
  0
DICTIONARYVAR
  5
167
102
{ACAD_REACTORS
330
166
102
}
330
166
100
DictionaryVariables
280
     0
  1
1:1
  0
DICTIONARYVAR
  5
16C
102
{ACAD_REACTORS
330
166
102
}
330
166
100
DictionaryVariables
280
     0
  1
3.500000
  0
DICTIONARYVAR
  5
16D
102
{ACAD_REACTORS
330
166
102
}
330
166
100
DictionaryVariables
280
     0
  1
acadiso.lin
  0
DICTIONARYVAR
  5
169
102
{ACAD_REACTORS
330
166
102
}
330
166
100
DictionaryVariables
280
     0
  1
STANDARD
  0
DICTIONARYVAR
  5
168
102
{ACAD_REACTORS
330
166
102
}
330
166
100
DictionaryVariables
280
     0
  1
STANDARD
  0
DICTIONARYVAR
  5
667
102
{ACAD_REACTORS
330
166
102
}
330
166
100
DictionaryVariables
280
     0
  1
Metric50
  0
DICTIONARYVAR
  5
668
102
{ACAD_REACTORS
330
166
102
}
330
166
100
DictionaryVariables
280
     0
  1
Metric50
  0
DICTIONARY
  5
10FC
330
171
100
AcDbDictionary
280
     1
281
     1
  3
ACAD_XREC_ROUNDTRIP
360
10FD
  0
DICTIONARY
  5
10FA
330
170
100
AcDbDictionary
280
     1
281
     1
  3
ACAD_XREC_ROUNDTRIP
360
10FB
  0
DICTIONARY
  5
10F7
330
6A
100
AcDbDictionary
280
     1
281
     1
  3
ACAD_ROUNDTRIP_2008_TABLESTYLE_CELLSTYLEMAP
360
10F8
  0
XRECORD
  5
10FD
102
{ACAD_REACTORS
330
10FC
102
}
330
10FC
100
AcDbXrecord
280
     1
102
DISPLAYNAME
  1
Metric50
102
FLAGS
 90
        0
  0
XRECORD
  5
10FB
102
{ACAD_REACTORS
330
10FA
102
}
330
10FA
100
AcDbXrecord
280
     1
102
DISPLAYNAME
  1
Metric50
102
FLAGS
 90
        0
  0
CELLSTYLEMAP
  5
10F8
102
{ACAD_REACTORS
330
10F7
102
}
330
10F7
100
AcDbCellStyleMap
 90
        3
300
CELLSTYLE
  1
TABLEFORMAT_BEGIN
 90
        5
170
     1
 91
        0
 92
    32768
 62
   257
 93
        1
300
CONTENTFORMAT
  1
CONTENTFORMAT_BEGIN
 90
        0
 91
        0
 92
        4
 93
        0
300

 40
0.0
140
1.0
 94
        5
 62
     0
340
11
144
6.0
309
CONTENTFORMAT_END
171
     1
301
MARGIN
  1
CELLMARGIN_BEGIN
 40
1.5
 40
1.5
 40
1.5
 40
1.5
 40
1.5
 40
1.5
309
CELLMARGIN_END
 94
        6
 95
        1
302
GRIDFORMAT
  1
GRIDFORMAT_BEGIN
 90
        0
 91
        1
 62
     0
 92
       -2
340
14
 93
        0
 40
0.045
309
GRIDFORMAT_END
 95
        2
302
GRIDFORMAT
  1
GRIDFORMAT_BEGIN
 90
        0
 91
        1
 62
     0
 92
       -2
340
14
 93
        0
 40
0.045
309
GRIDFORMAT_END
 95
        4
302
GRIDFORMAT
  1
GRIDFORMAT_BEGIN
 90
        0
 91
        1
 62
     0
 92
       -2
340
14
 93
        0
 40
0.045
309
GRIDFORMAT_END
 95
        8
302
GRIDFORMAT
  1
GRIDFORMAT_BEGIN
 90
        0
 91
        1
 62
     0
 92
       -2
340
14
 93
        0
 40
0.045
309
GRIDFORMAT_END
 95
       16
302
GRIDFORMAT
  1
GRIDFORMAT_BEGIN
 90
        0
 91
        1
 62
     0
 92
       -2
340
14
 93
        0
 40
0.045
309
GRIDFORMAT_END
 95
       32
302
GRIDFORMAT
  1
GRIDFORMAT_BEGIN
 90
        0
 91
        1
 62
     0
 92
       -2
340
14
 93
        0
 40
0.045
309
GRIDFORMAT_END
309
TABLEFORMAT_END
  1
CELLSTYLE_BEGIN
 90
        1
 91
        1
300
_TITLE
309
CELLSTYLE_END
300
CELLSTYLE
  1
TABLEFORMAT_BEGIN
 90
        5
170
     1
 91
        0
 92
        0
 62
   257
 93
        1
300
CONTENTFORMAT
  1
CONTENTFORMAT_BEGIN
 90
        0
 91
        0
 92
        4
 93
        0
300

 40
0.0
140
1.0
 94
        5
 62
     0
340
11
144
4.5
309
CONTENTFORMAT_END
171
     1
301
MARGIN
  1
CELLMARGIN_BEGIN
 40
1.5
 40
1.5
 40
1.5
 40
1.5
 40
1.5
 40
1.5
309
CELLMARGIN_END
 94
        6
 95
        1
302
GRIDFORMAT
  1
GRIDFORMAT_BEGIN
 90
        0
 91
        1
 62
     0
 92
       -2
340
14
 93
        0
 40
0.045
309
GRIDFORMAT_END
 95
        2
302
GRIDFORMAT
  1
GRIDFORMAT_BEGIN
 90
        0
 91
        1
 62
     0
 92
       -2
340
14
 93
        0
 40
0.045
309
GRIDFORMAT_END
 95
        4
302
GRIDFORMAT
  1
GRIDFORMAT_BEGIN
 90
        0
 91
        1
 62
     0
 92
       -2
340
14
 93
        0
 40
0.045
309
GRIDFORMAT_END
 95
        8
302
GRIDFORMAT
  1
GRIDFORMAT_BEGIN
 90
        0
 91
        1
 62
     0
 92
       -2
340
14
 93
        0
 40
0.045
309
GRIDFORMAT_END
 95
       16
302
GRIDFORMAT
  1
GRIDFORMAT_BEGIN
 90
        0
 91
        1
 62
     0
 92
       -2
340
14
 93
        0
 40
0.045
309
GRIDFORMAT_END
 95
       32
302
GRIDFORMAT
  1
GRIDFORMAT_BEGIN
 90
        0
 91
        1
 62
     0
 92
       -2
340
14
 93
        0
 40
0.045
309
GRIDFORMAT_END
309
TABLEFORMAT_END
  1
CELLSTYLE_BEGIN
 90
        2
 91
        1
300
_HEADER
309
CELLSTYLE_END
300
CELLSTYLE
  1
TABLEFORMAT_BEGIN
 90
        5
170
     1
 91
        0
 92
        0
 62
   257
 93
        1
300
CONTENTFORMAT
  1
CONTENTFORMAT_BEGIN
 90
        0
 91
        0
 92
        4
 93
        0
300

 40
0.0
140
1.0
 94
        2
 62
     0
340
11
144
4.5
309
CONTENTFORMAT_END
171
     1
301
MARGIN
  1
CELLMARGIN_BEGIN
 40
1.5
 40
1.5
 40
1.5
 40
1.5
 40
1.5
 40
1.5
309
CELLMARGIN_END
 94
        6
 95
        1
302
GRIDFORMAT
  1
GRIDFORMAT_BEGIN
 90
        0
 91
        1
 62
     0
 92
       -2
340
14
 93
        0
 40
0.045
309
GRIDFORMAT_END
 95
        2
302
GRIDFORMAT
  1
GRIDFORMAT_BEGIN
 90
        0
 91
        1
 62
     0
 92
       -2
340
14
 93
        0
 40
0.045
309
GRIDFORMAT_END
 95
        4
302
GRIDFORMAT
  1
GRIDFORMAT_BEGIN
 90
        0
 91
        1
 62
     0
 92
       -2
340
14
 93
        0
 40
0.045
309
GRIDFORMAT_END
 95
        8
302
GRIDFORMAT
  1
GRIDFORMAT_BEGIN
 90
        0
 91
        1
 62
     0
 92
       -2
340
14
 93
        0
 40
0.045
309
GRIDFORMAT_END
 95
       16
302
GRIDFORMAT
  1
GRIDFORMAT_BEGIN
 90
        0
 91
        1
 62
     0
 92
       -2
340
14
 93
        0
 40
0.045
309
GRIDFORMAT_END
 95
       32
302
GRIDFORMAT
  1
GRIDFORMAT_BEGIN
 90
        0
 91
        1
 62
     0
 92
       -2
340
14
 93
        0
 40
0.045
309
GRIDFORMAT_END
309
TABLEFORMAT_END
  1
CELLSTYLE_BEGIN
 90
        3
 91
        2
300
_DATA
309
CELLSTYLE_END
  0
ENDSEC
  0
EOF
