  0
SECTION
  2
HEADER
  9
$ACADVER
  1
AC1027
  9
$ACADMAINTVER
 70
   125
  9
$DWGCODEPAGE
  3
ANSI_1252
  9
$LASTSAVEDBY
  1
kaschu
  9
$REQUIREDVERSIONS
160
                 0
  9
$INSBASE
 10
0.0
 20
0.0
 30
0.0
  9
$EXTMIN
 10
64.08861222898486
 20
63.59583270272015
 30
0.0
  9
$EXTMAX
 10
2448.46234140706
 20
1227.266985366757
 30
0.0
  9
$LIMMIN
 10
0.0
 20
0.0
  9
$LIMMAX
 10
420.0
 20
297.0
  9
$ORTHOMODE
 70
     1
  9
$REGENMODE
 70
     1
  9
$FILLMODE
 70
     1
  9
$QTEXTMODE
 70
     0
  9
$MIRRTEXT
 70
     1
  9
$LTSCALE
 40
1.0
  9
$ATTMODE
 70
     1
  9
$TEXTSIZE
 40
2.5
  9
$TRACEWID
 40
1.0
  9
$TEXTSTYLE
  7
Standard
  9
$CLAYER
  8
0
  9
$CELTYPE
  6
ByLayer
  9
$CECOLOR
 62
   256
  9
$CELTSCALE
 40
1.0
  9
$DISPSILH
 70
     0
  9
$DIMSCALE
 40
1.0
  9
$DIMASZ
 40
2.5
  9
$DIMEXO
 40
0.625
  9
$DIMDLI
 40
3.75
  9
$DIMRND
 40
0.0
  9
$DIMDLE
 40
0.0
  9
$DIMEXE
 40
1.25
  9
$DIMTP
 40
0.0
  9
$DIMTM
 40
0.0
  9
$DIMTXT
 40
2.5
  9
$DIMCEN
 40
2.5
  9
$DIMTSZ
 40
0.0
  9
$DIMTOL
 70
     0
  9
$DIMLIM
 70
     0
  9
$DIMTIH
 70
     0
  9
$DIMTOH
 70
     0
  9
$DIMSE1
 70
     0
  9
$DIMSE2
 70
     0
  9
$DIMTAD
 70
     1
  9
$DIMZIN
 70
     8
  9
$DIMBLK
  1

  9
$DIMASO
 70
     1
  9
$DIMSHO
 70
     1
  9
$DIMPOST
  1

  9
$DIMAPOST
  1

  9
$DIMALT
 70
     0
  9
$DIMALTD
 70
     3
  9
$DIMALTF
 40
0.03937007874016
  9
$DIMLFAC
 40
1.0
  9
$DIMTOFL
 70
     1
  9
$DIMTVP
 40
0.0
  9
$DIMTIX
 70
     0
  9
$DIMSOXD
 70
     0
  9
$DIMSAH
 70
     0
  9
$DIMBLK1
  1

  9
$DIMBLK2
  1

  9
$DIMSTYLE
  2
ISO-25
  9
$DIMCLRD
 70
     0
  9
$DIMCLRE
 70
     0
  9
$DIMCLRT
 70
     0
  9
$DIMTFAC
 40
1.0
  9
$DIMGAP
 40
0.625
  9
$DIMJUST
 70
     0
  9
$DIMSD1
 70
     0
  9
$DIMSD2
 70
     0
  9
$DIMTOLJ
 70
     0
  9
$DIMTZIN
 70
     8
  9
$DIMALTZ
 70
     0
  9
$DIMALTTZ
 70
     0
  9
$DIMUPT
 70
     0
  9
$DIMDEC
 70
     2
  9
$DIMTDEC
 70
     2
  9
$DIMALTU
 70
     2
  9
$DIMALTTD
 70
     3
  9
$DIMTXSTY
  7
Standard
  9
$DIMAUNIT
 70
     0
  9
$DIMADEC
 70
     0
  9
$DIMALTRND
 40
0.0
  9
$DIMAZIN
 70
     0
  9
$DIMDSEP
 70
    44
  9
$DIMATFIT
 70
     3
  9
$DIMFRAC
 70
     0
  9
$DIMLDRBLK
  1

  9
$DIMLUNIT
 70
     2
  9
$DIMLWD
 70
    -2
  9
$DIMLWE
 70
    -2
  9
$DIMTMOVE
 70
     0
  9
$DIMFXL
 40
1.0
  9
$DIMFXLON
 70
     0
  9
$DIMJOGANG
 40
0.7853981633974483
  9
$DIMTFILL
 70
     0
  9
$DIMTFILLCLR
 70
     0
  9
$DIMARCSYM
 70
     0
  9
$DIMLTYPE
  6

  9
$DIMLTEX1
  6

  9
$DIMLTEX2
  6

  9
$DIMTXTDIRECTION
 70
     0
  9
$LUNITS
 70
     2
  9
$LUPREC
 70
     4
  9
$SKETCHINC
 40
1.0
  9
$FILLETRAD
 40
10.0
  9
$AUNITS
 70
     0
  9
$AUPREC
 70
     0
  9
$MENU
  1
.
  9
$ELEVATION
 40
0.0
  9
$PELEVATION
 40
0.0
  9
$THICKNESS
 40
0.0
  9
$LIMCHECK
 70
     0
  9
$CHAMFERA
 40
0.0
  9
$CHAMFERB
 40
0.0
  9
$CHAMFERC
 40
0.0
  9
$CHAMFERD
 40
0.0
  9
$SKPOLY
 70
     0
  9
$TDCREATE
 40
2459124.429664352
  9
$TDUCREATE
 40
2459124.346339595
  9
$TDUPDATE
 40
2459124.514016203
  9
$TDUUPDATE
 40
2459124.430682871
  9
$TDINDWG
 40
0.0142708449
  9
$TDUSRTIMER
 40
0.0142708449
  9
$USRTIMER
 70
     1
  9
$ANGBASE
 50
0.0
  9
$ANGDIR
 70
     0
  9
$PDMODE
 70
     0
  9
$PDSIZE
 40
0.0
  9
$PLINEWID
 40
0.0
  9
$SPLFRAME
 70
     0
  9
$SPLINETYPE
 70
     6
  9
$SPLINESEGS
 70
     8
  9
$HANDSEED
  5
1125
  9
$SURFTAB1
 70
     6
  9
$SURFTAB2
 70
     6
  9
$SURFTYPE
 70
     6
  9
$SURFU
 70
     6
  9
$SURFV
 70
     6
  9
$UCSBASE
  2

  9
$UCSNAME
  2

  9
$UCSORG
 10
0.0
 20
0.0
 30
0.0
  9
$UCSXDIR
 10
1.0
 20
0.0
 30
0.0
  9
$UCSYDIR
 10
0.0
 20
1.0
 30
0.0
  9
$UCSORTHOREF
  2

  9
$UCSORTHOVIEW
 70
     0
  9
$UCSORGTOP
 10
0.0
 20
0.0
 30
0.0
  9
$UCSORGBOTTOM
 10
0.0
 20
0.0
 30
0.0
  9
$UCSORGLEFT
 10
0.0
 20
0.0
 30
0.0
  9
$UCSORGRIGHT
 10
0.0
 20
0.0
 30
0.0
  9
$UCSORGFRONT
 10
0.0
 20
0.0
 30
0.0
  9
$UCSORGBACK
 10
0.0
 20
0.0
 30
0.0
  9
$PUCSBASE
  2

  9
$PUCSNAME
  2

  9
$PUCSORG
 10
0.0
 20
0.0
 30
0.0
  9
$PUCSXDIR
 10
1.0
 20
0.0
 30
0.0
  9
$PUCSYDIR
 10
0.0
 20
1.0
 30
0.0
  9
$PUCSORTHOREF
  2

  9
$PUCSORTHOVIEW
 70
     0
  9
$PUCSORGTOP
 10
0.0
 20
0.0
 30
0.0
  9
$PUCSORGBOTTOM
 10
0.0
 20
0.0
 30
0.0
  9
$PUCSORGLEFT
 10
0.0
 20
0.0
 30
0.0
  9
$PUCSORGRIGHT
 10
0.0
 20
0.0
 30
0.0
  9
$PUCSORGFRONT
 10
0.0
 20
0.0
 30
0.0
  9
$PUCSORGBACK
 10
0.0
 20
0.0
 30
0.0
  9
$USERI1
 70
     0
  9
$USERI2
 70
     0
  9
$USERI3
 70
     0
  9
$USERI4
 70
     0
  9
$USERI5
 70
     0
  9
$USERR1
 40
0.0
  9
$USERR2
 40
0.0
  9
$USERR3
 40
0.0
  9
$USERR4
 40
0.0
  9
$USERR5
 40
0.0
  9
$WORLDVIEW
 70
     1
  9
$SHADEDGE
 70
     3
  9
$SHADEDIF
 70
    70
  9
$TILEMODE
 70
     1
  9
$MAXACTVP
 70
    64
  9
$PINSBASE
 10
0.0
 20
0.0
 30
0.0
  9
$PLIMCHECK
 70
     0
  9
$PEXTMIN
 10
1.000000000000000E+20
 20
1.000000000000000E+20
 30
1.000000000000000E+20
  9
$PEXTMAX
 10
-1.000000000000000E+20
 20
-1.000000000000000E+20
 30
-1.000000000000000E+20
  9
$PLIMMIN
 10
0.0
 20
0.0
  9
$PLIMMAX
 10
420.0
 20
297.0
  9
$UNITMODE
 70
     0
  9
$VISRETAIN
 70
     1
  9
$PLINEGEN
 70
     0
  9
$PSLTSCALE
 70
     1
  9
$TREEDEPTH
 70
  3020
  9
$CMLSTYLE
  2
Standard
  9
$CMLJUST
 70
     0
  9
$CMLSCALE
 40
20.0
  9
$PROXYGRAPHICS
 70
     1
  9
$MEASUREMENT
 70
     1
  9
$CELWEIGHT
370
    -1
  9
$ENDCAPS
280
     0
  9
$JOINSTYLE
280
     0
  9
$LWDISPLAY
290
     0
  9
$INSUNITS
 70
     5
  9
$HYPERLINKBASE
  1

  9
$STYLESHEET
  1

  9
$XEDIT
290
     1
  9
$CEPSNTYPE
380
     0
  9
$PSTYLEMODE
290
     1
  9
$FINGERPRINTGUID
  2
{D65F844E-A70C-446A-BAFE-CE0D367131DF}
  9
$VERSIONGUID
  2
{B02E2335-A109-7D49-B49D-DA8110F836D0}
  9
$EXTNAMES
290
     1
  9
$PSVPSCALE
 40
0.0
  9
$OLESTARTUP
290
     0
  9
$SORTENTS
280
   127
  9
$INDEXCTL
280
     0
  9
$HIDETEXT
280
     1
  9
$XCLIPFRAME
280
     2
  9
$HALOGAP
280
     0
  9
$OBSCOLOR
 70
   257
  9
$OBSLTYPE
280
     0
  9
$INTERSECTIONDISPLAY
280
     0
  9
$INTERSECTIONCOLOR
 70
   257
  9
$DIMASSOC
280
     2
  9
$PROJECTNAME
  1

  9
$CAMERADISPLAY
290
     0
  9
$LENSLENGTH
 40
50.0
  9
$CAMERAHEIGHT
 40
0.0
  9
$STEPSPERSEC
 40
2.0
  9
$STEPSIZE
 40
6.0
  9
$3DDWFPREC
 40
2.0
  9
$PSOLWIDTH
 40
5.0
  9
$PSOLHEIGHT
 40
80.0
  9
$LOFTANG1
 40
1.570796326794896
  9
$LOFTANG2
 40
1.570796326794896
  9
$LOFTMAG1
 40
0.0
  9
$LOFTMAG2
 40
0.0
  9
$LOFTPARAM
 70
     7
  9
$LOFTNORMALS
280
     1
  9
$LATITUDE
 40
37.795
  9
$LONGITUDE
 40
-122.394
  9
$NORTHDIRECTION
 40
0.0
  9
$TIMEZONE
 70
 -8000
  9
$LIGHTGLYPHDISPLAY
280
     1
  9
$TILEMODELIGHTSYNCH
280
     1
  9
$CMATERIAL
347
44
  9
$SOLIDHIST
280
     0
  9
$SHOWHIST
280
     1
  9
$DWFFRAME
280
     2
  9
$DGNFRAME
280
     2
  9
$REALWORLDSCALE
290
     1
  9
$INTERFERECOLOR
 62
   256
  9
$INTERFEREOBJVS
345
33
  9
$INTERFEREVPVS
346
30
  9
$CSHADOW
280
     0
  9
$SHADOWPLANELOCATION
 40
0.0
  0
ENDSEC
  0
SECTION
  2
CLASSES
  0
CLASS
  1
ACDBDICTIONARYWDFLT
  2
AcDbDictionaryWithDefault
  3
ObjectDBX Classes
 90
        0
 91
        1
280
     0
281
     0
  0
CLASS
  1
VISUALSTYLE
  2
AcDbVisualStyle
  3
ObjectDBX Classes
 90
     4095
 91
       24
280
     0
281
     0
  0
CLASS
  1
MATERIAL
  2
AcDbMaterial
  3
ObjectDBX Classes
 90
     1153
 91
        3
280
     0
281
     0
  0
CLASS
  1
SCALE
  2
AcDbScale
  3
ObjectDBX Classes
 90
     1153
 91
       33
280
     0
281
     0
  0
CLASS
  1
TABLESTYLE
  2
AcDbTableStyle
  3
ObjectDBX Classes
 90
     4095
 91
        1
280
     0
281
     0
  0
CLASS
  1
MLEADERSTYLE
  2
AcDbMLeaderStyle
  3
ACDB_MLEADERSTYLE_CLASS
 90
     4095
 91
        1
280
     0
281
     0
  0
CLASS
  1
SUN
  2
AcDbSun
  3
SCENEOE
 90
     1153
 91
        1
280
     0
281
     0
  0
CLASS
  1
DICTIONARYVAR
  2
AcDbDictionaryVar
  3
ObjectDBX Classes
 90
        0
 91
        7
280
     0
281
     0
  0
CLASS
  1
ACDBSECTIONVIEWSTYLE
  2
AcDbSectionViewStyle
  3
ObjectDBX Classes
 90
     1025
 91
        1
280
     0
281
     0
  0
CLASS
  1
ACDBDETAILVIEWSTYLE
  2
AcDbDetailViewStyle
  3
ObjectDBX Classes
 90
     1025
 91
        1
280
     0
281
     0
  0
CLASS
  1
SORTENTSTABLE
  2
AcDbSortentsTable
  3
ObjectDBX Classes
 90
        0
 91
        1
280
     0
281
     0
  0
CLASS
  1
DIMASSOC
  2
AcDbDimAssoc
  3
"AcDbDimAssoc|Product Desc:     AcDim ARX App For Dimension|Company:          Autodesk, Inc.|WEB Address:      www.autodesk.com"
 90
        0
 91
        1
280
     0
281
     0
  0
CLASS
  1
CELLSTYLEMAP
  2
AcDbCellStyleMap
  3
ObjectDBX Classes
 90
     1152
 91
        1
280
     0
281
     0
  0
ENDSEC
  0
SECTION
  2
TABLES
  0
TABLE
  2
VPORT
  5
8
330
0
100
AcDbSymbolTable
 70
     1
1001
ACAD
1000
DbSaveVer
1071
      224
  0
VPORT
  5
29
330
8
100
AcDbSymbolTableRecord
100
AcDbViewportTableRecord
  2
*Active
 70
     0
 10
0.0
 20
0.0
 11
1.0
 21
1.0
 12
1491.409363681132
 22
410.3664477136375
 13
0.0
 23
0.0
 14
10.0
 24
10.0
 15
10.0
 25
10.0
 16
0.0
 26
0.0
 36
1.0
 17
0.0
 27
0.0
 37
0.0
 40
2217.715385161429
 41
2.046436285097192
 42
50.0
 43
0.0
 44
0.0
 50
0.0
 51
0.0
 71
     0
 72
   100
 73
     1
 74
     3
 75
     0
 76
     0
 77
     0
 78
     0
281
     0
 65
     1
110
0.0
120
0.0
130
0.0
111
1.0
121
0.0
131
0.0
112
0.0
122
1.0
132
0.0
 79
     0
146
0.0
348
2F
 60
     3
 61
     5
292
     1
282
     1
141
0.0
142
0.0
 63
   250
421
  3355443
361
6D
1001
ACAD_NAV_VCDISPLAY
1070
     3
  0
ENDTAB
  0
TABLE
  2
LTYPE
  5
5
330
0
100
AcDbSymbolTable
 70
    10
  0
LTYPE
  5
14
330
5
100
AcDbSymbolTableRecord
100
AcDbLinetypeTableRecord
  2
ByBlock
 70
     0
  3

 72
    65
 73
     0
 40
0.0
  0
LTYPE
  5
15
330
5
100
AcDbSymbolTableRecord
100
AcDbLinetypeTableRecord
  2
ByLayer
 70
     0
  3

 72
    65
 73
     0
 40
0.0
  0
LTYPE
  5
16
330
5
100
AcDbSymbolTableRecord
100
AcDbLinetypeTableRecord
  2
Continuous
 70
     0
  3
Solid line
 72
    65
 73
     0
 40
0.0
  0
LTYPE
  5
6F
330
5
100
AcDbSymbolTableRecord
100
AcDbLinetypeTableRecord
  2
CUSTOM
 70
     0
  3

 72
    65
 73
     0
 40
0.0
  0
LTYPE
  5
70
330
5
100
AcDbSymbolTableRecord
100
AcDbLinetypeTableRecord
  2
SOLID
 70
     0
  3

 72
    65
 73
     0
 40
0.0
  0
LTYPE
  5
71
330
5
100
AcDbSymbolTableRecord
100
AcDbLinetypeTableRecord
  2
DASHED
 70
     0
  3

 72
    65
 73
     2
 40
2.62679501396115
 49
1.313397506980575
 74
     0
 49
-1.313397506980575
 74
     0
  0
LTYPE
  5
72
330
5
100
AcDbSymbolTableRecord
100
AcDbLinetypeTableRecord
  2
LONG_DASH
 70
     0
  3

 72
    65
 73
     2
 40
2.62679501396115
 49
1.970096260470862
 74
     0
 49
-0.656698753490288
 74
     0
  0
LTYPE
  5
73
330
5
100
AcDbSymbolTableRecord
100
AcDbLinetypeTableRecord
  2
SHORT_DASH
 70
     0
  3

 72
    65
 73
     4
 40
2.62679501396115
 49
0.5253590027922303
 74
     0
 49
-0.7880385041883456
 74
     0
 49
0.5253590027922303
 74
     0
 49
-0.7880385041883456
 74
     0
  0
LTYPE
  5
74
330
5
100
AcDbSymbolTableRecord
100
AcDbLinetypeTableRecord
  2
DOTTED
 70
     0
  3

 72
    65
 73
     8
 40
2.62679501396115
 49
0.1313397506980576
 74
     0
 49
-0.5253590027922303
 74
     0
 49
0.1313397506980576
 74
     0
 49
-0.5253590027922303
 74
     0
 49
0.1313397506980576
 74
     0
 49
-0.5253590027922303
 74
     0
 49
0.1313397506980576
 74
     0
 49
-0.5253590027922303
 74
     0
  0
LTYPE
  5
75
330
5
100
AcDbSymbolTableRecord
100
AcDbLinetypeTableRecord
  2
DOTDASH
 70
     0
  3

 72
    65
 73
     4
 40
2.62679501396115
 49
0.1313397506980576
 74
     0
 49
-0.656698753490288
 74
     0
 49
1.182057756282518
 74
     0
 49
-0.656698753490288
 74
     0
  0
LTYPE
  5
76
330
5
100
AcDbSymbolTableRecord
100
AcDbLinetypeTableRecord
  2
DOTDOTDASH
 70
     0
  3

 72
    65
 73
     6
 40
2.62679501396115
 49
0.1313397506980576
 74
     0
 49
-0.3940192520941727
 74
     0
 49
0.1313397506980576
 74
     0
 49
-0.3940192520941727
 74
     0
 49
1.182057756282518
 74
     0
 49
-0.3940192520941727
 74
     0
  0
LTYPE
  5
77
330
5
100
AcDbSymbolTableRecord
100
AcDbLinetypeTableRecord
  2
DASHDASHDOT
 70
     0
  3

 72
    65
 73
     6
 40
2.62679501396115
 49
0.1313397506980576
 74
     0
 49
-0.3940192520941727
 74
     0
 49
0.1313397506980576
 74
     0
 49
-0.3940192520941727
 74
     0
 49
1.182057756282518
 74
     0
 49
-0.3940192520941727
 74
     0
  0
ENDTAB
  0
TABLE
  2
LAYER
  5
2
102
{ACAD_XDICTIONARY
360
374
102
}
330
0
100
AcDbSymbolTable
 70
     3
  0
LAYER
  5
10
330
2
100
AcDbSymbolTableRecord
100
AcDbLayerTableRecord
  2
0
 70
     0
 62
     7
  6
Continuous
370
    -3
390
F
347
46
348
0
  0
LAYER
  5
371
102
{ACAD_XDICTIONARY
360
372
102
}
330
2
100
AcDbSymbolTableRecord
100
AcDbLayerTableRecord
  2
Hewi
 70
     0
 62
     7
  6
Continuous
370
    -3
390
F
347
46
348
0
  0
LAYER
  5
475
330
2
100
AcDbSymbolTableRecord
100
AcDbLayerTableRecord
  2
Defpoints
 70
     0
 62
     7
  6
Continuous
290
     0
370
    -3
390
F
347
46
348
0
  0
ENDTAB
  0
TABLE
  2
STYLE
  5
3
330
0
100
AcDbSymbolTable
 70
     1
  0
STYLE
  5
11
330
3
100
AcDbSymbolTableRecord
100
AcDbTextStyleTableRecord
  2
Standard
 70
     0
 40
0.0
 41
1.0
 50
0.0
 71
     0
 42
2.5
  3
txt
  4

  0
ENDTAB
  0
TABLE
  2
VIEW
  5
6
330
0
100
AcDbSymbolTable
 70
     0
  0
ENDTAB
  0
TABLE
  2
UCS
  5
7
330
0
100
AcDbSymbolTable
 70
     0
  0
ENDTAB
  0
TABLE
  2
APPID
  5
9
330
0
100
AcDbSymbolTable
 70
     4
  0
APPID
  5
12
330
9
100
AcDbSymbolTableRecord
100
AcDbRegAppTableRecord
  2
ACAD
 70
     0
  0
APPID
  5
176
330
9
100
AcDbSymbolTableRecord
100
AcDbRegAppTableRecord
  2
ACAD_NAV_VCDISPLAY
 70
     0
  0
APPID
  5
373
330
9
100
AcDbSymbolTableRecord
100
AcDbRegAppTableRecord
  2
ACAD_PSEXT
 70
     0
  0
APPID
  5
5CB
330
9
100
AcDbSymbolTableRecord
100
AcDbRegAppTableRecord
  2
ACAD_EXEMPT_FROM_CAD_STANDARDS
 70
     0
  0
ENDTAB
  0
TABLE
  2
DIMSTYLE
  5
A
330
0
100
AcDbSymbolTable
 70
     2
100
AcDbDimStyleTable
 71
     2
340
27
340
615
  0
DIMSTYLE
105
27
330
A
100
AcDbSymbolTableRecord
100
AcDbDimStyleTableRecord
  2
ISO-25
 70
     0
 41
2.5
 42
0.625
 43
3.75
 44
1.25
 73
     0
 74
     0
 77
     1
 78
     8
140
2.5
141
2.5
143
0.03937007874016
147
0.625
171
     3
172
     1
271
     2
272
     2
274
     3
278
    44
283
     0
284
     8
340
11
  0
DIMSTYLE
105
615
330
A
100
AcDbSymbolTableRecord
100
AcDbDimStyleTableRecord
  2
Standard
 70
     0
340
11
  0
ENDTAB
  0
TABLE
  2
BLOCK_RECORD
  5
1
330
0
100
AcDbSymbolTable
 70
     8
  0
BLOCK_RECORD
  5
1F
102
{ACAD_XDICTIONARY
360
5EE
102
}
330
1
100
AcDbSymbolTableRecord
100
AcDbBlockTableRecord
  2
*Model_Space
340
22
 70
     0
280
     1
281
     0
  0
BLOCK_RECORD
  5
1B
330
1
100
AcDbSymbolTableRecord
100
AcDbBlockTableRecord
  2
*Paper_Space
340
1E
 70
     0
280
     1
281
     0
  0
BLOCK_RECORD
  5
23
330
1
100
AcDbSymbolTableRecord
100
AcDbBlockTableRecord
  2
*Paper_Space0
340
26
 70
     0
280
     1
281
     0
  0
BLOCK_RECORD
  5
1108
330
1
100
AcDbSymbolTableRecord
100
AcDbBlockTableRecord
  2
*D7
340
0
 70
     0
280
     1
281
     0
  0
ENDTAB
  0
ENDSEC
  0
SECTION
  2
BLOCKS
  0
BLOCK
  5
20
330
1F
100
AcDbEntity
  8
0
100
AcDbBlockBegin
  2
*Model_Space
 70
     0
 10
0.0
 20
0.0
 30
0.0
  3
*Model_Space
  1

  0
ENDBLK
  5
21
330
1F
100
AcDbEntity
  8
0
100
AcDbBlockEnd
  0
BLOCK
  5
1C
330
1B
100
AcDbEntity
 67
     1
  8
0
100
AcDbBlockBegin
  2
*Paper_Space
 70
     0
 10
0.0
 20
0.0
 30
0.0
  3
*Paper_Space
  1

  0
ENDBLK
  5
1D
330
1B
100
AcDbEntity
 67
     1
  8
0
100
AcDbBlockEnd
  0
BLOCK
  5
24
330
23
100
AcDbEntity
 67
     1
  8
0
100
AcDbBlockBegin
  2
*Paper_Space0
 70
     0
 10
0.0
 20
0.0
 30
0.0
  3
*Paper_Space0
  1

  0
ENDBLK
  5
25
330
23
100
AcDbEntity
 67
     1
  8
0
100
AcDbBlockEnd
  0
BLOCK
  5
1109
330
1108
100
AcDbEntity
  8
0
100
AcDbBlockBegin
  2
*D7
 70
     1
 10
0.0
 20
0.0
 30
0.0
  3
*D7
  1

  0
LINE
  5
1115
330
1108
100
AcDbEntity
  8
0
 62
     0
440
 16777216
370
    -2
100
AcDbLine
 10
871.805514888063
 20
431.2208151779896
 30
0.0
 11
871.805514888063
 21
363.6616574671225
 31
0.0
  0
LINE
  5
1116
330
1108
100
AcDbEntity
  8
0
 62
     0
440
 16777216
370
    -2
100
AcDbLine
 10
1681.805483479176
 20
431.2208151779895
 30
0.0
 11
1681.805483479176
 21
363.6616574671225
 31
0.0
  0
LINE
  5
1117
330
1108
100
AcDbEntity
  8
0
 62
     0
440
 16777216
370
    -2
100
AcDbLine
 10
874.3055148880628
 20
364.9116574671225
 30
0.0
 11
1679.305483479176
 21
364.9116574671225
 31
0.0
  0
SOLID
  5
1118
330
1108
100
AcDbEntity
  8
0
 62
     0
440
 16777216
100
AcDbTrace
 10
874.3055148880628
 20
365.3283241337892
 30
0.0
 11
874.3055148880628
 21
364.4949908004558
 31
0.0
 12
871.805514888063
 22
364.9116574671225
 32
0.0
 13
871.805514888063
 23
364.9116574671225
 33
0.0
  0
SOLID
  5
1119
330
1108
100
AcDbEntity
  8
0
 62
     0
440
 16777216
100
AcDbTrace
 10
1679.305483479176
 20
365.3283241337892
 30
0.0
 11
1679.305483479176
 21
364.4949908004558
 31
0.0
 12
1681.805483479176
 22
364.9116574671225
 32
0.0
 13
1681.805483479176
 23
364.9116574671225
 33
0.0
  0
MTEXT
  5
111A
330
1108
100
AcDbEntity
  8
0
 62
     0
440
 16777216
100
AcDbMText
 10
1276.80549918362
 20
366.7866574671225
 30
0.0
 40
2.5
 41
0.0
 46
0.0
 71
     5
 72
     1
  1
810
 73
     1
 44
1.0
  0
POINT
  5
111B
330
1108
100
AcDbEntity
  8
Defpoints
 62
     0
440
 16777216
100
AcDbPoint
 10
871.805514888063
 20
431.8458151779895
 30
0.0
  0
POINT
  5
111C
330
1108
100
AcDbEntity
  8
Defpoints
 62
     0
440
 16777216
100
AcDbPoint
 10
1681.805483479176
 20
431.8458151779895
 30
0.0
  0
POINT
  5
111D
330
1108
100
AcDbEntity
  8
Defpoints
 62
     0
440
 16777216
100
AcDbPoint
 10
1681.805483479176
 20
364.9116574671225
 30
0.0
  0
ENDBLK
  5
110A
330
1108
100
AcDbEntity
  8
0
100
AcDbBlockEnd
  0
ENDSEC
  0
SECTION
  2
ENTITIES
  0
LWPOLYLINE
  5
CA5
330
1F
100
AcDbEntity
  8
Hewi
  6
CUSTOM
 62
    18
420
        0
370
     9
100
AcDbPolyline
 90
       30
 70
     0
 43
0.0
 10
645.0886327025618
 20
973.7669861943013
 10
645.0886327025618
 20
1123.766985704631
 10
645.0886327025618
 20
1125.887985697707
 10
645.0886327025618
 20
1127.913985691093
 10
645.0886327025618
 20
1129.164985687008
 10
645.0886327025618
 20
1130.657985682135
 10
645.0886327025618
 20
1132.122985677352
 10
645.0886327025618
 20
1133.14398567402
 10
645.0886327025618
 20
1133.559985672662
 10
645.0886327025618
 20
1133.766985671986
 10
641.0886325616046
 20
1133.766985671986
 10
641.0886325616046
 20
1133.375985673261
 10
641.0886325616046
 20
1132.243985676958
 10
641.0886325616046
 20
1131.110985680656
 10
641.0886325616046
 20
1130.33498568319
 10
641.0886325616046
 20
1128.096985690496
 10
641.0886325616046
 20
1125.547985698817
 10
641.0886325616046
 20
1123.766985704631
 10
641.0886325616046
 20
973.7669861943013
 10
640.7546325498369
 20
971.9709862001636
 10
639.9346325209408
 20
970.5719862047315
 10
638.7106324778105
 20
969.5089862082003
 10
637.4506324334105
 20
968.9559862100066
 10
636.0886323854137
 20
968.7669862106247
 10
616.0886316806463
 20
968.7669862106247
 10
614.2926316173543
 20
969.1009862095322
 10
612.8936315680585
 20
969.9209862068563
 10
611.8306315305998
 20
971.1449862028604
 10
611.2776315111112
 20
972.4049861987476
 10
611.0886315044517
 20
973.7669861943013
  0
LWPOLYLINE
  5
CA6
330
1F
100
AcDbEntity
  8
Hewi
  6
CUSTOM
 62
    18
420
        0
370
     9
100
AcDbPolyline
 90
        3
 70
     0
 43
0.0
 10
607.0886313635018
 20
973.7669861943013
 10
607.3876313740365
 20
971.4659862018145
 10
607.6896313846737
 20
970.533986204855
  0
LWPOLYLINE
  5
CA7
330
1F
100
AcDbEntity
  8
Hewi
  6
CUSTOM
 62
    18
420
        0
370
     9
100
AcDbPolyline
 90
       19
 70
     0
 43
0.0
 10
611.0886315044517
 20
993.0845169718738
 10
611.0886315044517
 20
1123.766985704631
 10
611.0886315044517
 20
1125.887985697707
 10
611.0886315044517
 20
1127.913985691093
 10
611.0886315044517
 20
1129.164985687008
 10
611.0886315044517
 20
1130.657985682135
 10
611.0886315044517
 20
1132.122985677352
 10
611.0886315044517
 20
1133.14398567402
 10
611.0886315044517
 20
1133.559985672662
 10
611.0886315044517
 20
1133.766985671986
 10
607.0886313635018
 20
1133.766985671986
 10
607.0886313635018
 20
1133.375985673261
 10
607.0886313635018
 20
1132.243985676958
 10
607.0886313635018
 20
1131.110985680656
 10
607.0886313635018
 20
1130.33498568319
 10
607.0886313635018
 20
1128.096985690496
 10
607.0886313635018
 20
1125.547985698817
 10
607.0886313635018
 20
1123.766985704631
 10
607.0886313635018
 20
994.6432983820104
  0
LINE
  5
CA8
330
1F
100
AcDbEntity
  8
Hewi
  6
CUSTOM
 62
    18
420
        0
370
     9
100
AcDbLine
 10
607.6896313846737
 20
970.533986204855
 30
0.0
 11
607.0886313635018
 21
973.7669861943013
 31
0.0
  0
LINE
  5
CA9
330
1F
100
AcDbEntity
  8
Hewi
  6
CUSTOM
 62
    18
420
        0
370
     9
100
AcDbLine
 10
636.0886323854137
 20
964.7669862236817
 30
0.0
 11
616.0886316806463
 21
964.7669862236817
 31
0.0
  0
LWPOLYLINE
  5
CAA
330
1F
100
AcDbEntity
  8
Hewi
  6
CUSTOM
 62
    18
420
        0
370
     9
100
AcDbPolyline
 90
        3
 70
     0
 43
0.0
 10
641.8396325880713
 20
966.8439862169014
 10
640.0526325251013
 20
965.6869862206786
 10
639.5766330225342
 20
965.5174622986088
  0
LINE
  5
CAB
330
1F
100
AcDbEntity
  8
Hewi
  6
CUSTOM
 62
    18
420
        0
370
     9
100
AcDbLine
 10
616.0886316806463
 20
964.7669862236817
 30
0.0
 11
613.6366315942396
 21
965.1079862225687
 31
0.0
  0
LWPOLYLINE
  5
CAC
330
1F
100
AcDbEntity
  8
Hewi
  6
CUSTOM
 62
    18
420
        0
370
     9
100
AcDbPolyline
 90
        4
 70
     0
 43
0.0
 10
609.1656314366883
 20
968.0159862130748
 10
609.268631440318
 20
967.8939862134738
 10
611.1946315081876
 20
966.2139862189578
 10
611.3696315143532
 20
966.1029862193188
  0
LWPOLYLINE
  5
CAD
330
1F
100
AcDbEntity
  8
Hewi
  6
CUSTOM
 62
    18
420
        0
370
     9
100
AcDbPolyline
 90
        4
 70
     0
 43
0.0
 10
641.8396325880713
 20
966.8439862169014
 10
641.8996325901862
 20
966.8939862167372
 10
643.4026326431484
 20
968.5219862114227
 10
643.7526326554834
 20
969.0479862097053
  0
LINE
  5
CAE
330
1F
100
AcDbEntity
  8
Hewi
  6
CUSTOM
 62
    18
420
        0
370
     9
100
AcDbLine
 10
611.3696315143532
 20
966.1029862193188
 30
0.0
 11
609.1656314366883
 21
968.0159862130748
 31
0.0
  0
LWPOLYLINE
  5
CAF
330
1F
100
AcDbEntity
  8
Hewi
  6
CUSTOM
 62
    18
420
        0
370
     9
100
AcDbPolyline
 90
        3
 70
     0
 43
0.0
 10
616.0886316806463
 20
964.7669862236817
 10
615.1276316467811
 20
964.8179862235172
 10
613.6366315942396
 20
965.1079862225687
  0
LINE
  5
CB0
330
1F
100
AcDbEntity
  8
Hewi
  6
CUSTOM
 62
    18
420
        0
370
     9
100
AcDbLine
 10
645.0886327025618
 20
973.7669861943013
 30
0.0
 11
644.7476326905488
 21
971.3149862023074
 31
0.0
  0
LWPOLYLINE
  5
CB1
330
1F
100
AcDbEntity
  8
Hewi
  6
CUSTOM
 62
    18
420
        0
370
     9
100
AcDbPolyline
 90
        3
 70
     0
 43
0.0
 10
645.0886327025618
 20
973.7669861943013
 10
644.8406326938238
 20
971.6689862011516
 10
644.7476326905488
 20
971.3149862023074
  0
LWPOLYLINE
  5
CB2
330
1F
100
AcDbEntity
  8
Hewi
  6
CUSTOM
 62
    18
420
        0
370
     9
100
AcDbPolyline
 90
        3
 70
     0
 43
0.0
 10
643.7526326554834
 20
969.0479862097053
 10
644.1836326706725
 20
969.8329862071441
 10
644.7476326905488
 20
971.3149862023074
  0
LINE
  5
CB3
330
1F
100
AcDbEntity
  8
Hewi
  6
CUSTOM
 62
    18
420
        0
370
     9
100
AcDbLine
 10
643.7526326554834
 20
969.0479862097053
 30
0.0
 11
641.8396325880713
 21
966.8439862169014
 31
0.0
  0
LINE
  5
CB4
330
1F
100
AcDbEntity
  8
Hewi
  6
CUSTOM
 62
    18
420
        0
370
     9
100
AcDbLine
 10
609.1656314366883
 20
968.0159862130748
 30
0.0
 11
607.6896313846737
 21
970.533986204855
 31
0.0
  0
LINE
  5
CB5
330
1F
100
AcDbEntity
  8
Hewi
  6
CUSTOM
 62
    18
420
        0
370
     9
100
AcDbLine
 10
644.7476326905488
 20
971.3149862023074
 30
0.0
 11
643.7526326554834
 21
969.0479862097053
 31
0.0
  0
LWPOLYLINE
  5
CB6
330
1F
100
AcDbEntity
  8
Hewi
  6
CUSTOM
 62
    18
420
        0
370
     9
100
AcDbPolyline
 90
        3
 70
     0
 43
0.0
 10
636.0886323854137
 20
964.7669862236817
 10
638.1236324571253
 20
964.9999862229217
 10
639.3216324993407
 20
965.3679862217197
  0
LWPOLYLINE
  5
CB7
330
1F
100
AcDbEntity
  8
Hewi
  6
CUSTOM
 62
    18
420
        0
370
     9
100
AcDbPolyline
 90
        3
 70
     0
 43
0.0
 10
609.1656314366883
 20
968.0159862130748
 10
608.1466314007776
 20
969.5339862081199
 10
607.8841212052174
 20
970.2021939529222
  0
LINE
  5
CB8
330
1F
100
AcDbEntity
  8
Hewi
  6
CUSTOM
 62
    18
420
        0
370
     9
100
AcDbLine
 10
613.6366315942396
 20
965.1079862225687
 30
0.0
 11
611.3696315143532
 21
966.1029862193188
 31
0.0
  0
LINE
  5
CB9
330
1F
100
AcDbEntity
  8
Hewi
  6
CUSTOM
 62
    18
420
        0
370
     9
100
AcDbLine
 10
641.8396325880713
 20
966.8439862169014
 30
0.0
 11
639.3216324993407
 21
965.3679862217197
 31
0.0
  0
LWPOLYLINE
  5
CBA
330
1F
100
AcDbEntity
  8
Hewi
  6
CUSTOM
 62
    18
420
        0
370
     9
100
AcDbPolyline
 90
        3
 70
     0
 43
0.0
 10
613.6366315942396
 20
965.1079862225687
 10
613.4826315888131
 20
965.1529862224215
 10
612.5723336260161
 20
965.5751130149637
  0
LWPOLYLINE
  5
CBB
330
1F
100
AcDbEntity
  8
Hewi
  6
CUSTOM
 62
    18
420
        0
370
     9
100
AcDbPolyline
 90
       10
 70
     0
 43
0.0
 10
641.0886325616046
 20
1131.266985680147
 10
635.0886323501762
 20
1131.266985680147
 10
635.0886323501762
 20
1131.14698568054
 10
635.0886323501762
 20
1130.578985682392
 10
635.0886323501762
 20
1129.579985685655
 10
635.0886323501762
 20
1128.692985688549
 10
635.0886323501762
 20
1127.013985694031
 10
635.0886323501762
 20
1125.10298570027
 10
635.0886323501762
 20
1123.766985704631
 10
635.0886323501762
 20
968.7669862106247
  0
LINE
  5
CBC
330
1F
100
AcDbEntity
  8
Hewi
  6
CUSTOM
 62
    18
420
        0
370
     9
100
AcDbLine
 10
639.9535720671228
 20
970.6042989199175
 30
0.0
 11
639.9185118992862
 21
970.5579860209564
 31
0.0
  0
LINE
  5
CBD
330
1F
100
AcDbEntity
  8
Hewi
  6
CUSTOM
 62
    18
420
        0
370
     9
100
AcDbLine
 10
639.3238848111904
 20
970.0415737942986
 30
0.0
 11
638.6589243017588
 21
969.4862920516298
 31
0.0
  0
LINE
  5
CBE
330
1F
100
AcDbEntity
  8
Hewi
  6
CUSTOM
 62
    18
420
        0
370
     9
100
AcDbLine
 10
638.7934660721912
 20
969.5809242076919
 30
0.0
 11
638.6717949315243
 21
969.4919408395854
 31
0.0
  0
LINE
  5
CBF
330
1F
100
AcDbEntity
  8
Hewi
  6
CUSTOM
 62
    18
420
        0
370
     9
100
AcDbLine
 10
640.7365949253216
 20
971.9453621520152
 30
0.0
 11
640.7351101255844
 21
971.9376790334592
 31
0.0
  0
LWPOLYLINE
  5
CC0
330
1F
100
AcDbEntity
  8
Hewi
  6
CUSTOM
 62
    18
420
        0
370
     9
100
AcDbPolyline
 90
        8
 70
     0
 43
0.0
 10
617.0886317158838
 20
990.7463397157716
 10
617.0886317158838
 20
1123.766985704631
 10
617.0886317158838
 20
1125.810985697959
 10
617.0886317158838
 20
1127.698985691793
 10
617.0886317158838
 20
1129.535985685799
 10
617.0886317158838
 20
1130.765985681782
 10
617.0886317158838
 20
1131.266985680147
 10
611.0886315044517
 20
1131.266985680147
  0
LINE
  5
CC1
330
1F
100
AcDbEntity
  8
Hewi
  6
CUSTOM
 62
    18
420
        0
370
     9
100
AcDbLine
 10
611.0886315044517
 20
973.7669861943013
 30
0.0
 11
611.0886315044517
 21
975.9125296023976
 31
0.0
  0
LINE
  5
CC2
330
1F
100
AcDbEntity
  8
Hewi
  6
CUSTOM
 62
    18
420
        0
370
     9
100
AcDbLine
 10
617.0886317158838
 20
968.7669862106247
 30
0.0
 11
617.0886317158838
 21
973.5743523835465
 31
0.0
  0
LINE
  5
CC3
330
1F
100
AcDbEntity
  8
Hewi
  6
CUSTOM
 62
    18
420
        0
370
     9
100
AcDbLine
 10
611.3082579282782
 20
972.3989222888793
 30
0.0
 11
611.2634196194958
 21
972.5074020640112
 31
0.0
  0
LINE
  5
CC4
330
1F
100
AcDbEntity
  8
Hewi
  6
CUSTOM
 62
    18
420
        0
370
     9
100
AcDbLine
 10
611.7991121386658
 20
971.216802534489
 30
0.0
 11
611.8595592093696
 21
971.1116771981853
 31
0.0
  0
LINE
  5
CC5
330
1F
100
AcDbEntity
  8
Hewi
  6
CUSTOM
 62
    18
420
        0
370
     9
100
AcDbLine
 10
611.8766387725481
 20
971.0920107907693
 30
0.0
 11
611.7151671968131
 21
971.4080694830427
 31
0.0
  0
LINE
  5
CC6
330
1F
100
AcDbEntity
  8
Hewi
  6
CUSTOM
 62
    18
420
        0
370
     9
100
AcDbLine
 10
638.330918635238
 20
969.3423340281642
 30
0.0
 11
637.2776626048469
 21
968.9319837876936
 31
0.0
  0
LINE
  5
CC7
330
1F
100
AcDbEntity
  8
Hewi
  6
CUSTOM
 62
    18
420
        0
370
     9
100
AcDbLine
 10
612.8497913880818
 20
969.9714663371867
 30
0.0
 11
613.0204676691718
 21
969.8466433901502
 31
0.0
  0
LINE
  5
CC8
330
1F
100
AcDbEntity
  8
Hewi
  6
CUSTOM
 62
    18
420
        0
370
     9
100
AcDbLine
 10
614.2981035079973
 20
969.0999686084143
 30
0.0
 11
612.8275747403313
 21
969.9970478993217
 31
0.0
  0
LINE
  5
CC9
330
1F
100
AcDbEntity
  8
Hewi
  6
CUSTOM
 62
    18
420
        0
370
     9
100
AcDbLine
 10
611.2426790376702
 20
972.6568659219502
 30
0.0
 11
611.3467615506197
 21
972.2474747201212
 31
0.0
  0
LINE
  5
CCA
330
1F
100
AcDbEntity
  8
Hewi
  6
CUSTOM
 62
    18
420
        0
370
     9
100
AcDbLine
 10
611.3760561689012
 20
972.1807274940363
 30
0.0
 11
611.0886315044517
 21
973.7669861943013
 31
0.0
  0
LWPOLYLINE
  5
CCB
330
1F
100
AcDbEntity
  8
Hewi
  6
CUSTOM
 62
    18
420
        0
370
     9
100
AcDbPolyline
 90
        3
 70
     0
 43
0.0
 10
640.0886325263672
 20
1186.766985498969
 10
640.078632526016
 20
1188.525985493228
 10
640.036158483057
 20
1188.974617554706
  0
LINE
  5
CCC
330
1F
100
AcDbEntity
  8
Hewi
  6
CUSTOM
 62
    18
420
        0
370
     9
100
AcDbLine
 10
639.9321731961499
 20
1190.053376442409
 30
0.0
 11
639.9239108756228
 21
1190.074847421682
 31
0.0
  0
LINE
  5
CCD
330
1F
100
AcDbEntity
  8
Hewi
  6
CUSTOM
 62
    18
420
        0
370
     9
100
AcDbLine
 10
640.0295625950457
 20
970.7339461682403
 30
0.0
 11
639.9063052749442
 21
970.5473850242595
 31
0.0
  0
LINE
  5
CCE
330
1F
100
AcDbEntity
  8
Hewi
  6
CUSTOM
 62
    18
420
        0
370
     9
100
AcDbLine
 10
637.1359990454874
 20
1191.730959875536
 30
0.0
 11
636.6516277796944
 21
1191.759104833225
 31
0.0
  0
LINE
  5
CCF
330
1F
100
AcDbEntity
  8
Hewi
  6
CUSTOM
 62
    18
420
        0
370
     9
100
AcDbLine
 10
640.7160991214803
 20
971.905244414971
 30
0.0
 11
640.7574636933168
 21
971.9862099497513
 31
0.0
  0
LINE
  5
CD0
330
1F
100
AcDbEntity
  8
Hewi
  6
CUSTOM
 62
    18
420
        0
370
     9
100
AcDbLine
 10
614.2952163771878
 20
969.1005055248606
 30
0.0
 11
614.2854707876177
 21
969.1051834076716
 31
0.0
  0
LINE
  5
CD1
330
1F
100
AcDbEntity
  8
Hewi
  6
CUSTOM
 62
    18
420
        0
370
     9
100
AcDbLine
 10
639.3216324993407
 20
965.3679862217197
 30
0.0
 11
636.0886323854137
 21
964.7669862236817
 31
0.0
  0
LINE
  5
CD2
330
1F
100
AcDbEntity
  8
Hewi
  6
CUSTOM
 62
    18
420
        0
370
     9
100
AcDbLine
 10
607.0886313635018
 20
977.4713135271031
 30
0.0
 11
607.0886313635018
 21
973.7669861943013
 31
0.0
  0
LINE
  5
CD3
330
1F
100
AcDbEntity
  8
Hewi
  6
CUSTOM
 62
    18
420
        0
370
     9
100
AcDbLine
 10
640.8353615623091
 20
972.4050859025355
 30
0.0
 11
640.644467051039
 21
971.7830331225068
 31
0.0
  0
LINE
  5
CD4
330
1F
100
AcDbEntity
  8
Hewi
  6
CUSTOM
 62
    18
420
        0
370
     9
100
AcDbLine
 10
611.8503416876156
 20
971.1277076724382
 30
0.0
 11
611.8241257983063
 21
971.1598093729973
 31
0.0
  0
LWPOLYLINE
  5
CD5
330
1F
100
AcDbEntity
  8
Hewi
  6
CUSTOM
 62
    18
420
        0
370
     9
100
AcDbPolyline
 90
        3
 70
     0
 43
0.0
 10
584.8296305791263
 20
1215.825985404106
 10
584.9866305846553
 20
1215.888985403902
 10
585.4139127387789
 20
1216.013199724453
  0
LWPOLYLINE
  5
CD6
330
1F
100
AcDbEntity
  8
Hewi
  6
CUSTOM
 62
    18
420
        0
370
     9
100
AcDbPolyline
 90
        9
 70
     0
 43
0.0
 10
579.4366473572772
 20
1211.487576075384
 10
578.8336303678334
 20
1210.637985421042
 10
578.300630349051
 20
1209.636985424309
 10
578.2786303482788
 20
1209.588985424467
 10
577.3956303171616
 20
1207.018985432856
 10
577.31763031441
 20
1206.648985434065
 10
577.0886303063453
 20
1204.266985441842
 10
577.1066303069781
 20
1203.587985444055
 10
577.1439659669741
 20
1203.317069402033
  0
LINE
  5
CD7
330
1F
100
AcDbEntity
  8
Hewi
  6
CUSTOM
 62
    18
420
        0
370
     9
100
AcDbLine
 10
638.6092681788177
 20
1191.507810574259
 30
0.0
 11
638.1829866233382
 21
1191.623112787192
 31
0.0
  0
LWPOLYLINE
  5
CD8
330
1F
100
AcDbEntity
  8
Hewi
  6
CUSTOM
 62
    18
420
        0
370
     9
100
AcDbPolyline
 90
        3
 70
     0
 43
0.0
 10
587.1626306613326
 20
1216.52898540181
 10
587.2466306642963
 20
1216.545985401757
 10
589.5886307468282
 20
1216.766985401035
  0
LWPOLYLINE
  5
CD9
330
1F
100
AcDbEntity
  8
Hewi
  6
CUSTOM
 62
    18
420
        0
370
     9
100
AcDbPolyline
 90
        6
 70
     0
 43
0.0
 10
584.8296305791263
 20
1215.825985404106
 10
583.3696305276716
 20
1215.109985406443
 10
582.274630489086
 20
1214.403985408749
 10
580.4176304236497
 20
1212.759985414114
 10
580.0246304098036
 20
1212.315985415565
 10
579.8217974508406
 20
1212.030214053657
  0
LWPOLYLINE
  5
CDA
330
1F
100
AcDbEntity
  8
Hewi
  6
CUSTOM
 62
    18
420
        0
370
     9
100
AcDbPolyline
 90
        6
 70
     0
 43
0.0
 10
580.5976304299947
 20
1195.582985470189
 10
578.4156303531017
 20
1198.661985460137
 10
577.7006303279086
 20
1200.403985454452
 10
577.4246303181826
 20
1201.386985451241
 10
577.3876303168799
 20
1201.548985450714
 10
577.2668827319757
 20
1202.42515739426
  0
LWPOLYLINE
  5
CDB
330
1F
100
AcDbEntity
  8
Hewi
  6
CUSTOM
 62
    18
420
        0
370
     9
100
AcDbPolyline
 90
        3
 70
     0
 43
0.0
 10
579.128630378229
 20
1203.351985444828
 10
579.0886303768202
 20
1204.265985441843
 10
579.2786303835163
 20
1206.254985435351
  0
LINE
  5
CDC
330
1F
100
AcDbEntity
  8
Hewi
  6
CUSTOM
 62
    18
420
        0
370
     9
100
AcDbLine
 10
639.5013932088367
 20
1190.942790309316
 30
0.0
 11
639.2186224322394
 21
1191.193048853854
 31
0.0
  0
LWPOLYLINE
  5
CDD
330
1F
100
AcDbEntity
  8
Hewi
  6
CUSTOM
 62
    18
420
        0
370
     9
100
AcDbPolyline
 90
        3
 70
     0
 43
0.0
 10
597.5572702579993
 20
1194.716745835287
 10
598.0676310456109
 20
1195.082985471821
 10
599.0926310817303
 20
1196.146985468347
  0
LINE
  5
CDE
330
1F
100
AcDbEntity
  8
Hewi
  6
CUSTOM
 62
    18
420
        0
370
     9
100
AcDbLine
 10
585.9976306202842
 20
1214.133985409631
 30
0.0
 11
588.2176306985093
 21
1214.676985407857
 31
0.0
  0
LWPOLYLINE
  5
CDF
330
1F
100
AcDbEntity
  8
Hewi
  6
CUSTOM
 62
    18
420
        0
370
     9
100
AcDbPolyline
 90
        7
 70
     0
 43
0.0
 10
589.5886307468282
 20
1191.766985482647
 10
592.1286308363305
 20
1192.027985481794
 10
592.6976308563788
 20
1192.159985481363
 10
594.5626309221007
 20
1192.798985479277
 10
595.5746309577626
 20
1193.293985477661
 10
597.0186310086464
 20
1194.214985474655
 10
599.0926310817303
 20
1196.146985468347
  0
LINE
  5
CE0
330
1F
100
AcDbEntity
  8
Hewi
  6
CUSTOM
 62
    18
420
        0
370
     9
100
AcDbLine
 10
577.1439659669741
 20
1203.317069402033
 30
0.0
 11
577.2668827319757
 21
1202.42515739426
 31
0.0
  0
LWPOLYLINE
  5
CE1
330
1F
100
AcDbEntity
  8
Hewi
  6
CUSTOM
 62
    18
420
        0
370
     9
100
AcDbPolyline
 90
        5
 70
     0
 43
0.0
 10
583.5666305346166
 20
1193.3129854776
 10
583.5986305357437
 20
1193.295985477656
 10
586.4906306376542
 20
1192.156985481373
 10
586.4976306378992
 20
1192.15498548138
 10
589.5886307468282
 20
1191.766985482647
  0
LWPOLYLINE
  5
CE2
330
1F
100
AcDbEntity
  8
Hewi
  6
CUSTOM
 62
    18
420
        0
370
     9
100
AcDbPolyline
 90
        3
 70
     0
 43
0.0
 10
580.5976304299947
 20
1195.582985470189
 10
580.9546304425747
 20
1195.227985471347
 10
581.8232737570288
 20
1194.525470217833
  0
LWPOLYLINE
  5
CE3
330
1F
100
AcDbEntity
  8
Hewi
  6
CUSTOM
 62
    18
420
        0
370
     9
100
AcDbPolyline
 90
       11
 70
     0
 43
0.0
 10
600.0686311161224
 20
1211.080985419598
 10
599.2876310886022
 20
1212.152985416096
 10
598.2636310525194
 20
1213.266985412461
 10
597.8616310383513
 20
1213.636985411252
 10
596.9356310057228
 20
1214.379985408828
 10
596.0126309731967
 20
1214.989985406835
 10
594.3686309152652
 20
1215.816985404135
 10
594.3206309135712
 20
1215.836985404072
 10
591.9996308317823
 20
1216.531985401801
 10
591.5496308159271
 20
1216.61198540154
 10
589.5886307468282
 20
1216.766985401035
  0
LINE
  5
CE4
330
1F
100
AcDbEntity
  8
Hewi
  6
CUSTOM
 62
    18
420
        0
370
     9
100
AcDbLine
 10
601.5726311691214
 20
1207.820985430238
 30
0.0
 11
600.0686311161224
 21
1211.080985419598
 31
0.0
  0
LWPOLYLINE
  5
CE5
330
1F
100
AcDbEntity
  8
Hewi
  6
CUSTOM
 62
    18
420
        0
370
     9
100
AcDbPolyline
 90
        3
 70
     0
 43
0.0
 10
580.5976304299947
 20
1195.582985470189
 10
579.0126303741415
 20
1197.603985463591
 10
578.8887194028975
 20
1197.86842959935
  0
LWPOLYLINE
  5
CE6
330
1F
100
AcDbEntity
  8
Hewi
  6
CUSTOM
 62
    18
420
        0
370
     9
100
AcDbPolyline
 90
        3
 70
     0
 43
0.0
 10
600.0686311161224
 20
1211.080985419598
 10
600.9166311460067
 20
1209.551985424588
 10
601.5726311691214
 20
1207.820985430238
  0
LINE
  5
CE7
330
1F
100
AcDbEntity
  8
Hewi
  6
CUSTOM
 62
    18
420
        0
370
     9
100
AcDbLine
 10
581.8476304740397
 20
1197.172985464998
 30
0.0
 11
580.4956304264013
 21
1199.01698545898
 31
0.0
  0
LWPOLYLINE
  5
CE8
330
1F
100
AcDbEntity
  8
Hewi
  6
CUSTOM
 62
    18
420
        0
370
     9
100
AcDbPolyline
 90
        4
 70
     0
 43
0.0
 10
602.0886311873036
 20
1204.266985441842
 10
602.0336311853679
 20
1205.433985438032
 10
601.867631179517
 20
1206.608985434197
 10
601.5726311691214
 20
1207.820985430238
  0
LINE
  5
CE9
330
1F
100
AcDbEntity
  8
Hewi
  6
CUSTOM
 62
    18
420
        0
370
     9
100
AcDbLine
 10
592.3066308426022
 20
1194.124985474949
 30
0.0
 11
590.0466307629649
 21
1193.776985476084
 31
0.0
  0
LWPOLYLINE
  5
CEA
330
1F
100
AcDbEntity
  8
Hewi
  6
CUSTOM
 62
    18
420
        0
370
     9
100
AcDbPolyline
 90
        7
 70
     0
 43
0.0
 10
599.0926310817303
 20
1196.146985468347
 10
599.4596310946653
 20
1196.597985466875
 10
600.1426311187278
 20
1197.568985463707
 10
600.208631121055
 20
1197.67498546336
 10
601.4646311653195
 20
1200.364985454578
 10
601.6096311704276
 20
1200.838985453032
 10
602.0886311873036
 20
1204.266985441842
  0
LINE
  5
CEB
330
1F
100
AcDbEntity
  8
Hewi
  6
CUSTOM
 62
    18
420
        0
370
     9
100
AcDbLine
 10
582.1636304851818
 20
1211.691985417603
 30
0.0
 11
583.9466305480091
 21
1213.122985412929
 31
0.0
  0
LINE
  5
CEC
330
1F
100
AcDbEntity
  8
Hewi
  6
CUSTOM
 62
    18
420
        0
370
     9
100
AcDbLine
 10
579.8217974508406
 20
1212.030214053657
 30
0.0
 11
579.4366473572772
 21
1211.487576075384
 31
0.0
  0
LINE
  5
CED
330
1F
100
AcDbEntity
  8
Hewi
  6
CUSTOM
 62
    18
420
        0
370
     9
100
AcDbLine
 10
578.7144806577453
 20
1198.240280565542
 30
0.0
 11
578.8887194028975
 21
1197.86842959935
 31
0.0
  0
LWPOLYLINE
  5
CEE
330
1F
100
AcDbEntity
  8
Hewi
  6
CUSTOM
 62
    18
420
        0
370
     9
100
AcDbPolyline
 90
        3
 70
     0
 43
0.0
 10
582.3552446581889
 20
1194.095238768082
 10
582.5546304989584
 20
1193.933985475572
 10
583.5666305346166
 20
1193.3129854776
  0
LINE
  5
CEF
330
1F
100
AcDbEntity
  8
Hewi
  6
CUSTOM
 62
    18
420
        0
370
     9
100
AcDbLine
 10
581.8232737570288
 20
1194.525470217833
 30
0.0
 11
582.3552446581889
 21
1194.095238768082
 31
0.0
  0
LWPOLYLINE
  5
CF0
330
1F
100
AcDbEntity
  8
Hewi
  6
CUSTOM
 62
    18
420
        0
370
     9
100
AcDbPolyline
 90
        4
 70
     0
 43
0.0
 10
599.2896310886752
 20
1208.284985428723
 10
599.9286311111899
 20
1206.089985435889
 10
600.0886311168287
 20
1204.266985441842
 10
599.8396311080541
 20
1201.99398544926
  0
LWPOLYLINE
  5
CF1
330
1F
100
AcDbEntity
  8
Hewi
  6
CUSTOM
 62
    18
420
        0
370
     9
100
AcDbPolyline
 90
        3
 70
     0
 43
0.0
 10
601.7371178001122
 20
1201.751353212023
 10
602.0566311861803
 20
1203.376985444746
 10
602.0886311873036
 20
1204.266985441842
  0
LINE
  5
CF2
330
1F
100
AcDbEntity
  8
Hewi
  6
CUSTOM
 62
    18
420
        0
370
     9
100
AcDbLine
 10
589.5886307468282
 20
1216.766985401035
 30
0.0
 11
587.1626306613326
 21
1216.52898540181
 31
0.0
  0
LINE
  5
CF3
330
1F
100
AcDbEntity
  8
Hewi
  6
CUSTOM
 62
    18
420
        0
370
     9
100
AcDbLine
 10
586.4640512880359
 20
1216.318483352903
 30
0.0
 11
585.4139127387789
 21
1216.013199724453
 31
0.0
  0
LINE
  5
CF4
330
1F
100
AcDbEntity
  8
Hewi
  6
CUSTOM
 62
    18
420
        0
370
     9
100
AcDbLine
 10
587.1626306613326
 20
1216.52898540181
 30
0.0
 11
584.8296305791263
 21
1215.825985404106
 31
0.0
  0
LWPOLYLINE
  5
CF5
330
1F
100
AcDbEntity
  8
Hewi
  6
CUSTOM
 62
    18
420
        0
370
     9
100
AcDbPolyline
 90
       11
 70
     0
 43
0.0
 10
635.0886323501762
 20
1191.766985482647
 10
636.5166324004929
 20
1191.766985482647
 10
638.5956324737597
 20
1191.766985482647
 10
640.5126325413111
 20
1191.766985482647
 10
642.3326326054448
 20
1191.766985482647
 10
643.7486326553442
 20
1191.766985482647
 10
644.3476326764502
 20
1191.605985483173
 10
644.753632690761
 20
1191.125985484739
 10
644.9736326985076
 20
1190.35098548727
 10
645.0806327022801
 20
1188.727985492567
 10
645.0886327025618
 20
1186.766985498969
  0
LWPOLYLINE
  5
CF6
330
1F
100
AcDbEntity
  8
Hewi
  6
CUSTOM
 62
    18
420
        0
370
     9
100
AcDbPolyline
 90
       11
 70
     0
 43
0.0
 10
645.0886327025618
 20
1186.766985498969
 10
645.0886327025618
 20
1216.766985401035
 10
644.4136326787738
 20
1216.766985401035
 10
643.3646326418128
 20
1216.766985401035
 10
641.9086325905046
 20
1216.766985401035
 10
640.7416325493795
 20
1216.766985401035
 10
638.9776324872183
 20
1216.766985401035
 10
637.8856324487388
 20
1216.766985401035
 10
636.595632403285
 20
1216.766985401035
 10
635.0886323501762
 20
1216.766985401035
 10
589.5886307468282
 20
1216.766985401035
  0
LWPOLYLINE
  5
CF7
330
1F
100
AcDbEntity
  8
Hewi
  6
CUSTOM
 62
    18
420
        0
370
     9
100
AcDbPolyline
 90
       14
 70
     0
 43
0.0
 10
640.0886325263672
 20
1186.766985498969
 10
640.0886325263672
 20
1161.766985580581
 10
640.0886325263672
 20
1160.61598558434
 10
640.0886325263672
 20
1159.385985588355
 10
640.0886325263672
 20
1158.32098559183
 10
640.0886325263672
 20
1157.171985595581
 10
640.0886325263672
 20
1156.766985596903
 10
645.0886327025618
 20
1156.766985596903
 10
645.0886327025618
 20
1156.955985596285
 10
645.0886327025618
 20
1157.50898559448
 10
645.0886327025618
 20
1158.571985591012
 10
645.0886327025618
 20
1159.970985586444
 10
645.0886327025618
 20
1161.766985580581
 10
645.0886327025618
 20
1186.766985498969
  0
LWPOLYLINE
  5
CF8
330
1F
100
AcDbEntity
  8
Hewi
  6
CUSTOM
 62
    18
420
        0
370
     9
100
AcDbPolyline
 90
        7
 70
     0
 43
0.0
 10
635.0886323501762
 20
1191.766985482647
 10
636.8736324130768
 20
1191.757985482676
 10
638.4366324681576
 20
1191.596985483202
 10
639.4336325032891
 20
1191.081985484883
 10
639.9316325208347
 20
1190.058985488222
 10
640.078632526016
 20
1188.533985493201
 10
640.0886325263672
 20
1186.766985498969
  0
LINE
  5
CF9
330
1F
100
AcDbEntity
  8
Hewi
  6
CUSTOM
 62
    18
420
        0
370
     9
100
AcDbLine
 10
587.4056306698949
 20
1216.574985401661
 30
0.0
 11
589.5886307468282
 21
1216.766985401035
 31
0.0
  0
LINE
  5
CFA
330
1F
100
AcDbEntity
  8
Hewi
  6
CUSTOM
 62
    18
420
        0
370
     9
100
AcDbLine
 10
589.5886307468282
 20
1191.766985482647
 30
0.0
 11
587.007630655873
 21
1192.035985481769
 31
0.0
  0
LWPOLYLINE
  5
CFB
330
1F
100
AcDbEntity
  8
Hewi
  6
CUSTOM
 62
    18
420
        0
370
     9
100
AcDbPolyline
 90
        3
 70
     0
 43
0.0
 10
589.5886307468282
 20
1191.766985482647
 10
587.4056306698949
 20
1191.95898548202
 10
587.007630655873
 20
1192.035985481769
  0
LWPOLYLINE
  5
CFC
330
1F
100
AcDbEntity
  8
Hewi
  6
CUSTOM
 62
    18
420
        0
370
     9
100
AcDbPolyline
 90
        3
 70
     0
 43
0.0
 10
577.0936303065171
 20
1204.607985440729
 10
577.1586303088079
 20
1205.592985437512
 10
577.3054622790732
 20
1206.522416636175
  0
LINE
  5
CFD
330
1F
100
AcDbEntity
  8
Hewi
  6
CUSTOM
 62
    18
420
        0
370
     9
100
AcDbLine
 10
584.4236305648155
 20
1192.880985479011
 30
0.0
 11
583.9574097975819
 21
1193.154682034952
 31
0.0
  0
LINE
  5
CFE
330
1F
100
AcDbEntity
  8
Hewi
  6
CUSTOM
 62
    18
420
        0
370
     9
100
AcDbLine
 10
582.355244700153
 20
1194.095238741201
 30
0.0
 11
582.1836304858843
 21
1194.195985474716
 31
0.0
  0
LWPOLYLINE
  5
CFF
330
1F
100
AcDbEntity
  8
Hewi
  6
CUSTOM
 62
    18
420
        0
370
     9
100
AcDbPolyline
 90
        3
 70
     0
 43
0.0
 10
582.2426230074596
 20
1214.375649212537
 10
582.1836304858843
 20
1214.337985408963
 10
581.6206304660409
 20
1213.8979854104
  0
LINE
  5
D00
330
1F
100
AcDbEntity
  8
Hewi
  6
CUSTOM
 62
    18
420
        0
370
     9
100
AcDbLine
 10
635.0886323501762
 20
1191.766985482647
 30
0.0
 11
589.5886307468282
 21
1191.766985482647
 31
0.0
  0
LWPOLYLINE
  5
D01
330
1F
100
AcDbEntity
  8
Hewi
  6
CUSTOM
 62
    18
420
        0
370
     9
100
AcDbPolyline
 90
        3
 70
     0
 43
0.0
 10
584.4236305648155
 20
1192.880985479011
 10
583.5776305350044
 20
1193.305985477624
 10
583.5668446710659
 20
1193.312871717606
  0
LINE
  5
D02
330
1F
100
AcDbEntity
  8
Hewi
  6
CUSTOM
 62
    18
420
        0
370
     9
100
AcDbLine
 10
582.4070383647629
 20
1194.053350607753
 30
0.0
 11
582.1836304858843
 21
1194.195985474716
 31
0.0
  0
LWPOLYLINE
  5
D03
330
1F
100
AcDbEntity
  8
Hewi
  6
CUSTOM
 62
    18
420
        0
370
     9
100
AcDbPolyline
 90
        3
 70
     0
 43
0.0
 10
577.6913451456748
 20
1200.437055504122
 10
577.6786303271327
 20
1200.469985454236
 10
577.6736303269608
 20
1200.486985454179
  0
LINE
  5
D04
330
1F
100
AcDbEntity
  8
Hewi
  6
CUSTOM
 62
    18
420
        0
370
     9
100
AcDbLine
 10
587.007630655873
 20
1192.035985481769
 30
0.0
 11
586.7347496397195
 21
1192.125220949949
 31
0.0
  0
LWPOLYLINE
  5
D05
330
1F
100
AcDbEntity
  8
Hewi
  6
CUSTOM
 62
    18
420
        0
370
     9
100
AcDbPolyline
 90
        3
 70
     0
 43
0.0
 10
581.3881454204637
 20
1194.877380258373
 10
581.6206304660409
 20
1194.635985473282
 10
582.1836304858843
 20
1194.195985474716
  0
LINE
  5
D06
330
1F
100
AcDbEntity
  8
Hewi
  6
CUSTOM
 62
    18
420
        0
370
     9
100
AcDbLine
 10
585.7714407975072
 20
1192.440234858741
 30
0.0
 11
584.4236305648155
 21
1192.880985479011
 31
0.0
  0
LWPOLYLINE
  5
D07
330
1F
100
AcDbEntity
  8
Hewi
  6
CUSTOM
 62
    18
420
        0
370
     9
100
AcDbPolyline
 90
        3
 70
     0
 43
0.0
 10
585.0522793297677
 20
1192.675409549325
 10
585.8086306136247
 20
1192.351985480736
 10
586.3735331717689
 20
1192.203103744707
  0
LWPOLYLINE
  5
D08
330
1F
100
AcDbEntity
  8
Hewi
  6
CUSTOM
 62
    18
420
        0
370
     9
100
AcDbPolyline
 90
        3
 70
     0
 43
0.0
 10
579.2310053656218
 20
1197.325540136742
 10
579.6636303970808
 20
1196.667985466649
 10
580.2226304167816
 20
1195.988985468864
  0
LINE
  5
D09
330
1F
100
AcDbEntity
  8
Hewi
  6
CUSTOM
 62
    18
420
        0
370
     9
100
AcDbLine
 10
577.6786303271327
 20
1208.063985429444
 30
0.0
 11
578.2126303459517
 21
1209.446985424931
 31
0.0
  0
LWPOLYLINE
  5
D0A
330
1F
100
AcDbEntity
  8
Hewi
  6
CUSTOM
 62
    18
420
        0
370
     9
100
AcDbPolyline
 90
        3
 70
     0
 43
0.0
 10
584.5834046402342
 20
1215.705233503946
 10
584.4236305648155
 20
1215.652985404671
 10
583.5776305350044
 20
1215.22798540606
  0
LWPOLYLINE
  5
D0B
330
1F
100
AcDbEntity
  8
Hewi
  6
CUSTOM
 62
    18
420
        0
370
     9
100
AcDbPolyline
 90
        3
 70
     0
 43
0.0
 10
587.1532430300685
 20
1216.526156639051
 10
587.007630655873
 20
1216.497985401913
 10
585.8086306136247
 20
1216.181985402944
  0
LWPOLYLINE
  5
D0C
330
1F
100
AcDbEntity
  8
Hewi
  6
CUSTOM
 62
    18
420
        0
370
     9
100
AcDbPolyline
 90
        3
 70
     0
 43
0.0
 10
577.6786303271327
 20
1208.063985429444
 10
577.6736303269608
 20
1208.046985429502
 10
577.4327893406262
 20
1207.127137959478
  0
LWPOLYLINE
  5
D0D
330
1F
100
AcDbEntity
  8
Hewi
  6
CUSTOM
 62
    18
420
        0
370
     9
100
AcDbPolyline
 90
        3
 70
     0
 43
0.0
 10
580.2472558048974
 20
1212.567501130879
 10
580.2226304167816
 20
1212.544985414816
 10
580.1601396621954
 20
1212.469079832115
  0
LINE
  5
D0E
330
1F
100
AcDbEntity
  8
Hewi
  6
CUSTOM
 62
    18
420
        0
370
     9
100
AcDbLine
 10
583.5776305350044
 20
1215.22798540606
 30
0.0
 11
583.4695883120183
 21
1215.159005797197
 31
0.0
  0
LWPOLYLINE
  5
D0F
330
1F
100
AcDbEntity
  8
Hewi
  6
CUSTOM
 62
    18
420
        0
370
     9
100
AcDbPolyline
 90
        3
 70
     0
 43
0.0
 10
481.6378654756917
 20
1027.307751882936
 10
482.0172738377259
 20
1027.055792722463
 10
482.41533988043
 20
1026.861128371294
  0
LWPOLYLINE
  5
D10
330
1F
100
AcDbEntity
  8
Hewi
  6
CUSTOM
 62
    18
420
        0
370
     9
100
AcDbPolyline
 90
        7
 70
     0
 43
0.0
 10
469.9380760510684
 20
1037.844039776375
 10
473.0199698249888
 20
1034.389214290673
 10
475.7890575739838
 20
1031.651941403066
 10
482.6283730103022
 20
1026.707105041531
 10
485.8295912281136
 20
1024.990592625094
 10
486.4802891892394
 20
1024.69945439
 10
489.1551064662706
 20
1023.537957638769
  0
LWPOLYLINE
  5
D11
330
1F
100
AcDbEntity
  8
Hewi
  6
CUSTOM
 62
    18
420
        0
370
     9
100
AcDbPolyline
 90
        3
 70
     0
 43
0.0
 10
489.1551064662706
 20
1023.537957638769
 10
489.807667928664
 20
1023.246093204337
 10
599.7815242174982
 20
980.3188662578797
  0
LINE
  5
D12
330
1F
100
AcDbEntity
  8
Hewi
  6
CUSTOM
 62
    18
420
        0
370
     9
100
AcDbLine
 10
577.6225554380617
 20
1200.682056517658
 30
0.0
 11
577.6736303269608
 21
1200.486985454179
 31
0.0
  0
LINE
  5
D13
330
1F
100
AcDbEntity
  8
Hewi
  6
CUSTOM
 62
    18
420
        0
370
     9
100
AcDbLine
 10
577.0936303065171
 20
1204.607985440729
 30
0.0
 11
577.249224044659
 21
1205.937440765983
 31
0.0
  0
LINE
  5
D14
330
1F
100
AcDbEntity
  8
Hewi
  6
CUSTOM
 62
    18
420
        0
370
     9
100
AcDbLine
 10
580.2226304167816
 20
1195.988985468864
 30
0.0
 11
579.6837364644344
 21
1196.748272302264
 31
0.0
  0
LINE
  5
D15
330
1F
100
AcDbEntity
  8
Hewi
  6
CUSTOM
 62
    18
420
        0
370
     9
100
AcDbLine
 10
577.1016471750372
 20
1204.402383605315
 30
0.0
 11
577.0936303065171
 21
1204.607985440729
 31
0.0
  0
LINE
  5
D16
330
1F
100
AcDbEntity
  8
Hewi
  6
CUSTOM
 62
    18
420
        0
370
     9
100
AcDbLine
 10
579.9653995421504
 20
1212.232535044243
 30
0.0
 11
579.6636303970808
 21
1211.865985417033
 31
0.0
  0
LINE
  5
D17
330
1F
100
AcDbEntity
  8
Hewi
  6
CUSTOM
 62
    18
420
        0
370
     9
100
AcDbLine
 10
581.6206304660409
 20
1213.8979854104
 30
0.0
 11
581.9754675881886
 21
1214.139136843349
 31
0.0
  0
LINE
  5
D18
330
1F
100
AcDbEntity
  8
Hewi
  6
CUSTOM
 62
    18
420
        0
370
     9
100
AcDbLine
 10
577.3510584588547
 20
1206.807554858414
 30
0.0
 11
577.3526303156467
 21
1206.820985433504
 31
0.0
  0
LINE
  5
D19
330
1F
100
AcDbEntity
  8
Hewi
  6
CUSTOM
 62
    18
420
        0
370
     9
100
AcDbLine
 10
585.8086306136247
 20
1216.181985402944
 30
0.0
 11
586.9128404161201
 21
1216.453716420898
 31
0.0
  0
LINE
  5
D1A
330
1F
100
AcDbEntity
  8
Hewi
  6
CUSTOM
 62
    18
420
        0
370
     9
100
AcDbLine
 10
577.1586303088079
 20
1202.94098544617
 30
0.0
 11
577.1439659670794
 21
1203.317069395698
 31
0.0
  0
LWPOLYLINE
  5
D1B
330
1F
100
AcDbEntity
  8
Hewi
  6
CUSTOM
 62
    18
420
        0
370
     9
100
AcDbPolyline
 90
        3
 70
     0
 43
0.0
 10
577.7593994558009
 20
1200.260802494229
 10
578.2126303459517
 20
1199.086985458751
 10
578.3626215490584
 20
1198.791134177567
  0
LWPOLYLINE
  5
D1C
330
1F
100
AcDbEntity
  8
Hewi
  6
CUSTOM
 62
    18
420
        0
370
     9
100
AcDbPolyline
 90
        3
 70
     0
 43
0.0
 10
578.7269034141391
 20
1210.437546994844
 10
578.6846303625824
 20
1210.377985421894
 10
578.4745942269
 20
1209.963698060043
  0
LINE
  5
D1D
330
1F
100
AcDbEntity
  8
Hewi
  6
CUSTOM
 62
    18
420
        0
370
     9
100
AcDbLine
 10
578.8887194346133
 20
1197.868429543678
 30
0.0
 11
578.6846303625824
 21
1198.15598546179
 31
0.0
  0
LINE
  5
D1E
330
1F
100
AcDbEntity
  8
Hewi
  6
CUSTOM
 62
    18
420
        0
370
     9
100
AcDbLine
 10
577.2668827354355
 20
1202.425157398194
 30
0.0
 11
577.1586303088079
 21
1202.94098544617
 31
0.0
  0
LINE
  5
D1F
330
1F
100
AcDbEntity
  8
Hewi
  6
CUSTOM
 62
    18
420
        0
370
     9
100
AcDbLine
 10
577.3590941436632
 20
1206.845672825537
 30
0.0
 11
577.3526303156467
 21
1206.820985433504
 31
0.0
  0
LINE
  5
D20
330
1F
100
AcDbEntity
  8
Hewi
  6
CUSTOM
 62
    18
420
        0
370
     9
100
AcDbLine
 10
578.2660324216958
 20
1209.552318752476
 30
0.0
 11
578.2126303459517
 21
1209.446985424931
 31
0.0
  0
LINE
  5
D21
330
1F
100
AcDbEntity
  8
Hewi
  6
CUSTOM
 62
    18
420
        0
370
     9
100
AcDbLine
 10
583.4930932331079
 20
1215.170532873002
 30
0.0
 11
583.5776305350044
 21
1215.22798540606
 31
0.0
  0
LINE
  5
D22
330
1F
100
AcDbEntity
  8
Hewi
  6
CUSTOM
 62
    18
420
        0
370
     9
100
AcDbLine
 10
585.4139126455557
 20
1216.013199689347
 30
0.0
 11
585.8086306136247
 21
1216.181985402944
 31
0.0
  0
LINE
  5
D23
330
1F
100
AcDbEntity
  8
Hewi
  6
CUSTOM
 62
    18
420
        0
370
     9
100
AcDbLine
 10
577.3488641136609
 20
1206.797145764116
 30
0.0
 11
577.3526303156467
 21
1206.820985433504
 31
0.0
  0
LINE
  5
D24
330
1F
100
AcDbEntity
  8
Hewi
  6
CUSTOM
 62
    18
420
        0
370
     9
100
AcDbLine
 10
578.925583228094
 20
1197.78975681003
 30
0.0
 11
578.6846303625824
 21
1198.15598546179
 31
0.0
  0
LINE
  5
D25
330
1F
100
AcDbEntity
  8
Hewi
  6
CUSTOM
 62
    18
420
        0
370
     9
100
AcDbLine
 10
577.6841107979817
 20
1200.462821283041
 30
0.0
 11
577.6736303269608
 21
1200.486985454179
 31
0.0
  0
LINE
  5
D26
330
1F
100
AcDbEntity
  8
Hewi
  6
CUSTOM
 62
    18
420
        0
370
     9
100
AcDbLine
 10
578.4594361093113
 20
1198.600171567143
 30
0.0
 11
578.6846303625824
 21
1198.15598546179
 31
0.0
  0
LINE
  5
D27
330
1F
100
AcDbEntity
  8
Hewi
  6
CUSTOM
 62
    18
420
        0
370
     9
100
AcDbLine
 10
578.6846303625824
 20
1198.15598546179
 30
0.0
 11
578.5433112863065
 21
1198.481816079107
 31
0.0
  0
LINE
  5
D28
330
1F
100
AcDbEntity
  8
Hewi
  6
CUSTOM
 62
    18
420
        0
370
     9
100
AcDbLine
 10
577.6736303269608
 20
1200.486985454179
 30
0.0
 11
577.6626926092576
 21
1200.539104207972
 31
0.0
  0
LINE
  5
D29
330
1F
100
AcDbEntity
  8
Hewi
  6
CUSTOM
 62
    18
420
        0
370
     9
100
AcDbLine
 10
577.1244837912818
 20
1203.45843649953
 30
0.0
 11
577.1586303088079
 21
1202.94098544617
 31
0.0
  0
LINE
  5
D2A
330
1F
100
AcDbEntity
  8
Hewi
  6
CUSTOM
 62
    18
420
        0
370
     9
100
AcDbLine
 10
580.4226434199661
 20
1195.806107701959
 30
0.0
 11
580.2226304167816
 21
1195.988985468864
 31
0.0
  0
LWPOLYLINE
  5
D2B
330
1F
100
AcDbEntity
  8
Hewi
  6
CUSTOM
 62
    18
420
        0
370
     9
100
AcDbPolyline
 90
        3
 70
     0
 43
0.0
 10
577.2827888219033
 20
1202.309739194203
 10
577.3526303156467
 20
1201.712985450178
 10
577.3788072860734
 20
1201.613007367594
  0
LINE
  5
D2C
330
1F
100
AcDbEntity
  8
Hewi
  6
CUSTOM
 62
    18
420
        0
370
     9
100
AcDbLine
 10
577.4333606520595
 20
1207.128800784105
 30
0.0
 11
577.6786303271327
 21
1208.063985429444
 31
0.0
  0
LINE
  5
D2D
330
1F
100
AcDbEntity
  8
Hewi
  6
CUSTOM
 62
    18
420
        0
370
     9
100
AcDbLine
 10
578.2126303459517
 20
1209.446985424931
 30
0.0
 11
578.252918976228
 21
1209.514151650215
 31
0.0
  0
LINE
  5
D2E
330
1F
100
AcDbEntity
  8
Hewi
  6
CUSTOM
 62
    18
420
        0
370
     9
100
AcDbLine
 10
579.6636303970808
 20
1211.865985417033
 30
0.0
 11
579.8217974496728
 21
1212.030214051927
 31
0.0
  0
LINE
  5
D2F
330
1F
100
AcDbEntity
  8
Hewi
  6
CUSTOM
 62
    18
420
        0
370
     9
100
AcDbLine
 10
581.1436795173904
 20
1213.402755829231
 30
0.0
 11
581.6206304660409
 21
1213.8979854104
 31
0.0
  0
LWPOLYLINE
  5
D30
330
1F
100
AcDbEntity
  8
Hewi
  6
CUSTOM
 62
    18
420
        0
370
     9
100
AcDbPolyline
 90
        4
 70
     0
 43
0.0
 10
587.4056306698949
 20
1216.574985401661
 10
587.264461413135
 20
1216.547673762548
 10
587.3084706694753
 20
1216.557062927719
 10
587.3155643033932
 20
1216.557560492083
  0
LINE
  5
D31
330
1F
100
AcDbEntity
  8
Hewi
  6
CUSTOM
 62
    18
420
        0
370
     9
100
AcDbLine
 10
587.3133823301541
 20
1216.552284339592
 30
0.0
 11
587.4056306698949
 21
1216.574985401661
 31
0.0
  0
LINE
  5
D32
330
1F
100
AcDbEntity
  8
Hewi
  6
CUSTOM
 62
    18
420
        0
370
     9
100
AcDbLine
 10
587.007630655873
 20
1192.035985481769
 30
0.0
 11
586.6092898356509
 21
1192.140969380303
 31
0.0
  0
LWPOLYLINE
  5
D33
330
1F
100
AcDbEntity
  8
Hewi
  6
CUSTOM
 62
    18
420
        0
370
     9
100
AcDbPolyline
 90
        3
 70
     0
 43
0.0
 10
577.0936303065171
 20
1204.078374321516
 10
577.0936303065171
 20
1203.925985442953
 10
577.1003826265769
 20
1203.823661827551
  0
LINE
  5
D34
330
1F
100
AcDbEntity
  8
Hewi
  6
CUSTOM
 62
    18
420
        0
370
     9
100
AcDbLine
 10
579.4366473368318
 20
1211.487576043078
 30
0.0
 11
579.6636303970808
 21
1211.865985417033
 31
0.0
  0
LWPOLYLINE
  5
D35
330
1F
100
AcDbEntity
  8
Hewi
  6
CUSTOM
 62
    18
420
        0
370
     9
100
AcDbPolyline
 90
        4
 70
     0
 43
0.0
 10
475.2605476502102
 20
1032.174379119729
 10
474.9181821499404
 20
1032.435643386956
 10
472.3247300084039
 20
1035.031490805218
 10
469.9380760510684
 20
1037.844039776375
  0
LINE
  5
D36
330
1F
100
AcDbEntity
  8
Hewi
  6
CUSTOM
 62
    18
420
        0
370
     9
100
AcDbLine
 10
582.1836304858843
 20
1194.195985474716
 30
0.0
 11
581.8232738067672
 21
1194.525470176797
 31
0.0
  0
LINE
  5
D37
330
1F
100
AcDbEntity
  8
Hewi
  6
CUSTOM
 62
    18
420
        0
370
     9
100
AcDbLine
 10
583.5776305350044
 20
1215.22798540606
 30
0.0
 11
583.8323202767822
 21
1215.336893520942
 31
0.0
  0
LINE
  5
D38
330
1F
100
AcDbEntity
  8
Hewi
  6
CUSTOM
 62
    18
420
        0
370
     9
100
AcDbLine
 10
577.0936303065171
 20
1204.607985440729
 30
0.0
 11
577.0936303065171
 21
1204.318994172559
 31
0.0
  0
LWPOLYLINE
  5
D39
330
1F
100
AcDbEntity
  8
Hewi
  6
CUSTOM
 62
    18
420
        0
370
     9
100
AcDbPolyline
 90
        4
 70
     0
 43
0.0
 10
486.6562478161648
 20
1043.1873619294
 10
490.9543002094905
 20
1040.31682773652
 10
493.2746706768047
 20
1039.044463750944
 10
495.850916851501
 20
1037.607991028275
  0
LWPOLYLINE
  5
D3A
330
1F
100
AcDbEntity
  8
Hewi
  6
CUSTOM
 62
    18
420
        0
370
     9
100
AcDbPolyline
 90
       17
 70
     0
 43
0.0
 10
633.6165002039597
 20
973.6395415145343
 10
631.9391225215077
 20
971.9020100776088
 10
629.8201738254028
 20
970.7443918612662
 10
628.2808479018348
 20
970.3525790825567
 10
627.4520317014648
 20
970.2720239123516
 10
625.0508475298483
 20
970.527316262811
 10
624.1831415205306
 20
970.8096490301397
 10
623.9380911042972
 20
970.9051442430482
 10
623.2075986087656
 20
971.189814383435
 10
622.4556758486905
 20
971.482835816203
 10
620.335011410123
 20
972.3092506625251
 10
617.4409939469406
 20
973.4370382340021
 10
613.8425730059243
 20
974.8393291551327
 10
609.6282648971136
 20
976.4816289573806
 10
606.1258142711994
 20
977.846520612622
 10
602.3839037328435
 20
979.3047288827583
 10
599.7815242174982
 20
980.3188662578797
  0
LWPOLYLINE
  5
D3B
330
1F
100
AcDbEntity
  8
Hewi
  6
CUSTOM
 62
    18
420
        0
370
     9
100
AcDbPolyline
 90
       14
 70
     0
 43
0.0
 10
495.2895475689692
 20
1038.210977696004
 10
605.5911191429221
 20
995.2268757968433
 10
609.4644065203974
 20
993.7174704733987
 10
613.1327087588214
 20
992.2879470771022
 10
615.4378598225376
 20
991.3896384963463
 10
619.6521679313481
 20
989.7473386940964
 10
623.2505888723643
 20
988.3450477729676
 10
626.1446063355468
 20
987.2172602014908
 10
628.2652707741144
 20
986.3908453551683
 10
629.314421985815
 20
985.9819951280352
 10
629.8837216220053
 20
985.760141230361
 10
629.9927364459582
 20
985.717658569105
 10
632.0764287128585
 20
984.5182086910043
 10
633.7098244636581
 20
982.7526224800767
  0
LWPOLYLINE
  5
D3C
330
1F
100
AcDbEntity
  8
Hewi
  6
CUSTOM
 62
    18
420
        0
370
     9
100
AcDbPolyline
 90
       36
 70
     0
 43
0.0
 10
602.588631204926
 20
1217.266985399403
 10
85.0886129689934
 20
1217.266985399403
 10
83.25161290425967
 20
1217.266985399403
 10
81.67161284858229
 20
1217.266985399403
 10
80.31661280083426
 20
1217.266985399403
 10
78.02461272006985
 20
1217.266985399403
 10
74.83761260776373
 20
1217.266985399403
 10
72.04561250938059
 20
1217.266985399403
 10
71.09961247604224
 20
1217.266985399403
 10
69.6696124256523
 20
1217.266985399403
 10
68.08961236997493
 20
1217.266985399403
 10
67.23261233977246
 20
1217.266985399403
 10
67.08861233470088
 20
1217.266985399403
 10
66.0106122967154
 20
1217.466985398749
 10
65.17161226714597
 20
1217.958985397143
 10
64.53361224466426
 20
1218.693985394744
 10
64.20261223300258
 20
1219.449985392277
 10
64.08861222898486
 20
1220.266985389609
 10
64.08861222898486
 20
1224.266985376551
 10
64.20261223300258
 20
1225.083985373883
 10
64.53361224466426
 20
1225.839985371416
 10
65.17161226714597
 20
1226.574985369016
 10
66.0106122967154
 20
1227.06698536741
 10
67.08861233470088
 20
1227.266985366757
 10
67.43161234678701
 20
1227.266985366757
 10
68.44661238255503
 20
1227.266985366757
 10
69.08761240514285
 20
1227.266985366757
 10
70.4756124540545
 20
1227.266985366757
 10
71.72161249796045
 20
1227.266985366757
 10
73.89161257442538
 20
1227.266985366757
 10
76.38761266238361
 20
1227.266985366757
 10
78.44361273483446
 20
1227.266985366757
 10
81.7006128496032
 20
1227.266985366757
 10
85.0886129689934
 20
1227.266985366757
 10
599.5886310992101
 20
1227.266985366757
 10
600.4056311279963
 20
1227.152985367129
  0
LWPOLYLINE
  5
D3D
330
1F
100
AcDbEntity
  8
Hewi
  6
CUSTOM
 62
    18
420
        0
370
     9
100
AcDbPolyline
 90
        3
 70
     0
 43
0.0
 10
633.6165002039597
 20
973.6395415145343
 10
634.6981039830825
 20
975.7981356219387
 10
634.9139612129548
 20
976.6026671854469
  0
LWPOLYLINE
  5
D3E
330
1F
100
AcDbEntity
  8
Hewi
  6
CUSTOM
 62
    18
420
        0
370
     9
100
AcDbPolyline
 90
        3
 70
     0
 43
0.0
 10
634.9139612129548
 20
976.6026671854469
 10
635.08707486602
 20
978.1815696635639
 10
634.9459497684692
 20
979.7637991281501
  0
LWPOLYLINE
  5
D3F
330
1F
100
AcDbEntity
  8
Hewi
  6
CUSTOM
 62
    18
420
        0
370
     9
100
AcDbPolyline
 90
        6
 70
     0
 43
0.0
 10
602.588631204926
 20
1217.266985399403
 10
602.4746312009083
 20
1217.38098539903
 10
602.1436311892429
 20
1217.711985397951
 10
601.5056311667613
 20
1218.349985395867
 10
600.666631137199
 20
1219.188985393128
 10
599.5886310992101
 20
1220.266985389609
  0
LINE
  5
D40
330
1F
100
AcDbEntity
  8
Hewi
  6
CUSTOM
 62
    18
420
        0
370
     9
100
AcDbLine
 10
478.7587343244157
 20
1029.504860206927
 30
0.0
 11
481.6378654756917
 21
1027.307751882936
 31
0.0
  0
LWPOLYLINE
  5
D41
330
1F
100
AcDbEntity
  8
Hewi
  6
CUSTOM
 62
    18
420
        0
370
     9
100
AcDbPolyline
 90
        3
 70
     0
 43
0.0
 10
601.6873194414072
 20
1226.365673650014
 10
601.5056311667613
 20
1226.574985369016
 10
601.1616311546386
 20
1226.821985368211
  0
LWPOLYLINE
  5
D42
330
1F
100
AcDbEntity
  8
Hewi
  6
CUSTOM
 62
    18
420
        0
370
     9
100
AcDbPolyline
 90
        4
 70
     0
 43
0.0
 10
370.3944603277487
 20
1191.266984814449
 10
482.5467783537169
 20
1047.693018732991
 10
486.1914039598159
 20
1043.732341272556
 10
487.1845327561386
 20
1042.834537013947
  0
LINE
  5
D43
330
1F
100
AcDbEntity
  8
Hewi
  6
CUSTOM
 62
    18
420
        0
370
     9
100
AcDbLine
 10
489.1551064662706
 20
1023.537957638769
 30
0.0
 11
599.7815242174982
 21
980.3188662578797
 31
0.0
  0
LWPOLYLINE
  5
D44
330
1F
100
AcDbEntity
  8
Hewi
  6
CUSTOM
 62
    18
420
        0
370
     9
100
AcDbPolyline
 90
        5
 70
     0
 43
0.0
 10
601.8966311805378
 20
1226.183985370293
 10
602.3886311978785
 20
1225.344985373032
 10
602.4756312009412
 20
1225.083985373883
 10
602.588631204926
 20
1224.266985376551
 10
602.588631204926
 20
1217.266985399403
  0
LINE
  5
D45
330
1F
100
AcDbEntity
  8
Hewi
  6
CUSTOM
 62
    18
420
        0
370
     9
100
AcDbLine
 10
488.7238750360592
 20
1041.806458657165
 30
0.0
 11
485.8230206718143
 21
1044.132669735025
 31
0.0
  0
LINE
  5
D46
330
1F
100
AcDbEntity
  8
Hewi
  6
CUSTOM
 62
    18
420
        0
370
     9
100
AcDbLine
 10
469.9380760510684
 20
1037.844039776375
 30
0.0
 11
350.0912567252709
 21
1191.266983558678
 31
0.0
  0
LWPOLYLINE
  5
D47
330
1F
100
AcDbEntity
  8
Hewi
  6
CUSTOM
 62
    18
420
        0
370
     9
100
AcDbPolyline
 90
        3
 70
     0
 43
0.0
 10
634.9459497684692
 20
979.7637991281501
 10
634.7478438503567
 20
980.5718829258676
 10
633.7098244636581
 20
982.7526224800767
  0
LINE
  5
D48
330
1F
100
AcDbEntity
  8
Hewi
  6
CUSTOM
 62
    18
420
        0
370
     9
100
AcDbLine
 10
495.2895475689692
 20
1038.210977696004
 30
0.0
 11
494.1777992044444
 21
1038.540894063118
 31
0.0
  0
LINE
  5
D49
330
1F
100
AcDbEntity
  8
Hewi
  6
CUSTOM
 62
    18
420
        0
370
     9
100
AcDbLine
 10
633.6165002039597
 20
973.6395415145343
 30
0.0
 11
634.9139612129548
 21
976.6026671854469
 31
0.0
  0
LINE
  5
D4A
330
1F
100
AcDbEntity
  8
Hewi
  6
CUSTOM
 62
    18
420
        0
370
     9
100
AcDbLine
 10
634.9459497684692
 20
979.7637991281501
 30
0.0
 11
633.7098244636581
 21
982.7526224800767
 31
0.0
  0
LINE
  5
D4B
330
1F
100
AcDbEntity
  8
Hewi
  6
CUSTOM
 62
    18
420
        0
370
     9
100
AcDbLine
 10
482.1592372490521
 20
1027.046291020799
 30
0.0
 11
481.6378654756917
 21
1027.307751882936
 31
0.0
  0
LINE
  5
D4C
330
1F
100
AcDbEntity
  8
Hewi
  6
CUSTOM
 62
    18
420
        0
370
     9
100
AcDbLine
 10
495.2895475689692
 20
1038.210977696004
 30
0.0
 11
490.8517278571088
 21
1040.38533259372
 31
0.0
  0
LWPOLYLINE
  5
D4D
330
1F
100
AcDbEntity
  8
Hewi
  6
CUSTOM
 62
    18
420
        0
370
     9
100
AcDbPolyline
 90
       14
 70
     0
 43
0.0
 10
70.08861244041327
 20
1217.266985399403
 10
70.08861244041327
 20
1191.266985484278
 10
70.20861244464686
 20
1191.266985484278
 10
70.78261246486727
 20
1191.266985484278
 10
71.8046125008841
 20
1191.266985484278
 10
72.72061253316133
 20
1191.266985484278
 10
74.21961258598457
 20
1191.266985484278
 10
76.19161265547518
 20
1191.266985484278
 10
78.41461273380992
 20
1191.266985484278
 10
80.00861278998128
 20
1191.266985484278
 10
82.2406128686307
 20
1191.266985484278
 10
83.55761291504313
 20
1191.266985484278
 10
85.0886129689934
 20
1191.266985484278
 10
589.5886307468282
 20
1191.266985484278
  0
LWPOLYLINE
  5
D4E
330
1F
100
AcDbEntity
  8
Hewi
  6
CUSTOM
 62
    18
420
        0
370
     9
100
AcDbPolyline
 90
        3
 70
     0
 43
0.0
 10
602.2786470403698
 20
1225.532539649959
 10
602.1436311892429
 20
1225.839985371416
 10
601.8966311805378
 20
1226.183985370293
  0
LWPOLYLINE
  5
D4F
330
1F
100
AcDbEntity
  8
Hewi
  6
CUSTOM
 62
    18
420
        0
370
     9
100
AcDbPolyline
 90
        3
 70
     0
 43
0.0
 10
600.4056311279963
 20
1227.152985367129
 10
600.666631137199
 20
1227.06698536741
 10
600.8569224654783
 20
1226.955396178007
  0
LINE
  5
D50
330
1F
100
AcDbEntity
  8
Hewi
  6
CUSTOM
 62
    18
420
        0
370
     9
100
AcDbLine
 10
592.5936308527162
 20
1191.61898548313
 30
0.0
 11
589.5886307468282
 21
1191.266985484278
 31
0.0
  0
LWPOLYLINE
  5
D51
330
1F
100
AcDbEntity
  8
Hewi
  6
CUSTOM
 62
    18
420
        0
370
     9
100
AcDbPolyline
 90
        3
 70
     0
 43
0.0
 10
589.5886307468282
 20
1191.266985484278
 10
590.9676307954177
 20
1191.339985484041
 10
592.5936308527162
 20
1191.61898548313
  0
LWPOLYLINE
  5
D52
330
1F
100
AcDbEntity
  8
Hewi
  6
CUSTOM
 62
    18
420
        0
370
     9
100
AcDbPolyline
 90
        3
 70
     0
 43
0.0
 10
591.1890348559535
 20
1191.37797547415
 10
591.3766308098273
 20
1191.390985483873
 10
591.8621803513706
 20
1191.493478300286
  0
LINE
  5
D53
330
1F
100
AcDbEntity
  8
Hewi
  6
CUSTOM
 62
    18
420
        0
370
     9
100
AcDbLine
 10
593.1554971399927
 20
1191.766985482649
 30
0.0
 11
592.9947578682877
 21
1191.744453201723
 31
0.0
  0
LINE
  5
D54
330
1F
100
AcDbEntity
  8
Hewi
  6
CUSTOM
 62
    18
420
        0
370
     9
100
AcDbLine
 10
593.157893472151
 20
1191.766985482665
 30
0.0
 11
592.8777157138427
 21
1191.707843819273
 31
0.0
  0
LINE
  5
D55
330
1F
100
AcDbEntity
  8
Hewi
  6
CUSTOM
 62
    18
420
        0
370
     9
100
AcDbLine
 10
601.1616311546386
 20
1226.821985368211
 30
0.0
 11
600.4056311279963
 21
1227.152985367129
 31
0.0
  0
LINE
  5
D56
330
1F
100
AcDbEntity
  8
Hewi
  6
CUSTOM
 62
    18
420
        0
370
     9
100
AcDbLine
 10
601.8966311805378
 20
1226.183985370293
 30
0.0
 11
601.1616311546386
 21
1226.821985368211
 31
0.0
  0
LWPOLYLINE
  5
D57
330
1F
100
AcDbEntity
  8
Hewi
  6
CUSTOM
 62
    18
420
        0
370
     9
100
AcDbPolyline
 90
        3
 70
     0
 43
0.0
 10
584.8290807439807
 20
1215.825715758963
 10
584.5975335549447
 20
1215.727030857429
 10
584.5124024921459
 20
1215.682014922591
  0
LINE
  5
D58
330
1F
100
AcDbEntity
  8
Hewi
  6
CUSTOM
 62
    18
420
        0
370
     9
100
AcDbLine
 10
583.2259302516104
 20
1193.508131054963
 30
0.0
 11
583.3097263523267
 21
1193.470631220432
 31
0.0
  0
LWPOLYLINE
  5
D59
330
1F
100
AcDbEntity
  8
Hewi
  6
CUSTOM
 62
    18
420
        0
370
     9
100
AcDbPolyline
 90
        4
 70
     0
 43
0.0
 10
578.2010117835052
 20
1209.416894654691
 10
578.1930015922588
 20
1209.40425099407
 10
578.0878368935518
 20
1209.164688179851
 10
578.0328859955589
 20
1208.981467771289
  0
LWPOLYLINE
  5
D5A
330
1F
100
AcDbEntity
  8
Hewi
  6
CUSTOM
 62
    18
420
        0
370
     9
100
AcDbPolyline
 90
        4
 70
     0
 43
0.0
 10
578.6662307783589
 20
1198.192277883796
 10
578.6574543286295
 20
1198.203880420633
 10
578.5328165892313
 20
1198.433913874883
 10
578.4952954807122
 20
1198.529440479839
  0
LWPOLYLINE
  5
D5B
330
1F
100
AcDbEntity
  8
Hewi
  6
CUSTOM
 62
    18
420
        0
370
     9
100
AcDbPolyline
 90
        3
 70
     0
 43
0.0
 10
583.9100638395138
 20
1193.138982934046
 10
583.824219840695
 20
1193.175634007048
 10
583.7029453617978
 20
1193.24303181399
  0
LWPOLYLINE
  5
D5C
330
1F
100
AcDbEntity
  8
Hewi
  6
CUSTOM
 62
    18
420
        0
370
     9
100
AcDbPolyline
 90
        3
 70
     0
 43
0.0
 10
586.419081969907
 20
1216.34287166013
 10
586.6388151508763
 20
1216.414195113188
 10
586.905947923369
 20
1216.471186617529
  0
LINE
  5
D5D
330
1F
100
AcDbEntity
  8
Hewi
  6
CUSTOM
 62
    18
420
        0
370
     9
100
AcDbLine
 10
583.128345595298
 20
1193.581933042131
 30
0.0
 11
583.2259302516104
 21
1193.508131054963
 31
0.0
  0
LWPOLYLINE
  5
D5E
330
1F
100
AcDbEntity
  8
Hewi
  6
CUSTOM
 62
    18
420
        0
370
     9
100
AcDbPolyline
 90
        3
 70
     0
 43
0.0
 10
577.5542934129735
 20
1200.9251781415
 10
577.5201249725468
 20
1201.012169044467
 10
577.4663893282813
 20
1201.238256810315
  0
LWPOLYLINE
  5
D5F
330
1F
100
AcDbEntity
  8
Hewi
  6
CUSTOM
 62
    18
420
        0
370
     9
100
AcDbPolyline
 90
        4
 70
     0
 43
0.0
 10
577.3102212250631
 20
1206.571917803258
 10
577.2920832365125
 20
1206.511441090513
 10
577.179700021552
 20
1205.770148540932
 10
577.1773741308424
 20
1205.711631893642
  0
LWPOLYLINE
  5
D60
330
1F
100
AcDbEntity
  8
Hewi
  6
CUSTOM
 62
    18
420
        0
370
     9
100
AcDbPolyline
 90
        4
 70
     0
 43
0.0
 10
582.3370447177076
 20
1214.44422691104
 10
582.3570183169939
 20
1214.462116038559
 10
582.9257254570292
 20
1214.843005662316
 10
583.0915301743261
 20
1214.930680526277
  0
LWPOLYLINE
  5
D61
330
1F
100
AcDbEntity
  8
Hewi
  6
CUSTOM
 62
    18
420
        0
370
     9
100
AcDbPolyline
 90
        4
 70
     0
 43
0.0
 10
588.8003031622611
 20
1191.836320747983
 10
588.3338298416056
 20
1191.830321540441
 10
587.654644962673
 20
1191.917256155155
 10
587.5199616790923
 20
1191.948929805698
  0
LINE
  5
D62
330
1F
100
AcDbEntity
  8
Hewi
  6
CUSTOM
 62
    18
420
        0
370
     9
100
AcDbLine
 10
602.588631204926
 20
1217.266985399403
 30
0.0
 11
602.588631204926
 21
1216.766985382408
 31
0.0
  0
LWPOLYLINE
  5
D63
330
1F
100
AcDbEntity
  8
Hewi
  6
CUSTOM
 62
    18
420
        0
370
     9
100
AcDbPolyline
 90
        3
 70
     0
 43
0.0
 10
580.224378970295
 20
1212.5465841687
 10
580.2455581985849
 20
1212.571010746731
 10
580.2687396803338
 20
1212.591772977767
  0
LWPOLYLINE
  5
D64
330
1F
100
AcDbEntity
  8
Hewi
  6
CUSTOM
 62
    18
420
        0
370
     9
100
AcDbPolyline
 90
        3
 70
     0
 43
0.0
 10
584.8111760392239
 20
1192.754253314388
 10
585.5634792369856
 20
1192.433057659471
 10
585.8131211077814
 20
1192.350329818742
  0
LWPOLYLINE
  5
D65
330
1F
100
AcDbEntity
  8
Hewi
  6
CUSTOM
 62
    18
420
        0
370
     9
100
AcDbPolyline
 90
        3
 70
     0
 43
0.0
 10
580.9423468092792
 20
1195.240200288248
 10
580.7773903013294
 20
1195.401308085782
 10
580.7684632979762
 20
1195.413109655708
  0
LINE
  5
D66
330
1F
100
AcDbEntity
  8
Hewi
  6
CUSTOM
 62
    18
420
        0
370
     9
100
AcDbLine
 10
593.0565297090979
 20
1191.766985482944
 30
0.0
 11
592.5936308527162
 21
1191.61898548313
 31
0.0
  0
LWPOLYLINE
  5
D67
330
1F
100
AcDbEntity
  8
Hewi
  6
CUSTOM
 62
    18
420
        0
370
     9
100
AcDbPolyline
 90
        3
 70
     0
 43
0.0
 10
577.2563110052724
 20
1202.475532212233
 10
577.3467538514413
 20
1201.741612042084
 10
577.3517306346366
 20
1201.720672685906
  0
LINE
  5
D68
330
1F
100
AcDbEntity
  8
Hewi
  6
CUSTOM
 62
    18
420
        0
370
     9
100
AcDbLine
 10
592.5936308527162
 20
1191.61898548313
 30
0.0
 11
593.0667947714353
 21
1191.766985481961
 31
0.0
  0
LWPOLYLINE
  5
D69
330
1F
100
AcDbEntity
  8
Hewi
  6
CUSTOM
 62
    18
420
        0
370
     9
100
AcDbPolyline
 90
        3
 70
     0
 43
0.0
 10
584.8422064225342
 20
1215.831031761461
 10
584.8394690734749
 20
1215.830143242094
 10
584.831047154068
 20
1215.826553838609
  0
LWPOLYLINE
  5
D6A
330
1F
100
AcDbEntity
  8
Hewi
  6
CUSTOM
 62
    18
420
        0
370
     9
100
AcDbPolyline
 90
        3
 70
     0
 43
0.0
 10
577.1011625863829
 20
1203.794239967808
 10
577.0993678067206
 20
1203.749085443531
 10
577.1031796013956
 20
1203.718153721307
  0
LINE
  5
D6B
330
1F
100
AcDbEntity
  8
Hewi
  6
CUSTOM
 62
    18
420
        0
370
     9
100
AcDbLine
 10
585.3134835185263
 20
1215.984004151363
 30
0.0
 11
585.4469439009481
 21
1216.027324214716
 31
0.0
  0
LINE
  5
D6C
330
1F
100
AcDbEntity
  8
Hewi
  6
CUSTOM
 62
    18
420
        0
370
     9
100
AcDbLine
 10
585.810554305768
 20
1192.351478495708
 30
0.0
 11
585.8131211077814
 21
1192.350329818742
 31
0.0
  0
LINE
  5
D6D
330
1F
100
AcDbEntity
  8
Hewi
  6
CUSTOM
 62
    18
420
        0
370
     9
100
AcDbLine
 10
585.8131211077814
 20
1192.350329818742
 30
0.0
 11
585.8297579116952
 21
1192.346417318993
 31
0.0
  0
LINE
  5
D6E
330
1F
100
AcDbEntity
  8
Hewi
  6
CUSTOM
 62
    18
420
        0
370
     9
100
AcDbLine
 10
583.4663934961208
 20
1193.374494567903
 30
0.0
 11
583.2259302516104
 21
1193.508131054963
 31
0.0
  0
LWPOLYLINE
  5
D6F
330
1F
100
AcDbEntity
  8
Hewi
  6
CUSTOM
 62
    18
420
        0
370
     9
100
AcDbPolyline
 90
        3
 70
     0
 43
0.0
 10
580.2158177773198
 20
1212.53671031281
 10
580.0736263245307
 20
1212.372717056378
 10
580.0705561828107
 20
1212.367871001052
  0
LWPOLYLINE
  5
D70
330
1F
100
AcDbEntity
  8
Hewi
  6
CUSTOM
 62
    18
420
        0
370
     9
100
AcDbPolyline
 90
        3
 70
     0
 43
0.0
 10
580.9559273876583
 20
1195.226936567405
 10
580.9651491999428
 20
1195.217929915381
 10
580.9946653588522
 20
1195.195607234098
  0
LINE
  5
D71
330
1F
100
AcDbEntity
  8
Hewi
  6
CUSTOM
 62
    18
420
        0
370
     9
100
AcDbLine
 10
577.3626843708696
 20
1201.674585851257
 30
0.0
 11
577.3808596205999
 21
1201.598115164792
 31
0.0
  0
LWPOLYLINE
  5
E3A
330
1F
100
AcDbEntity
  8
Hewi
  6
CUSTOM
 62
    18
420
        0
370
     9
100
AcDbPolyline
 90
       25
 70
     0
 43
0.0
 10
2262.462342798015
 20
1191.266985534828
 10
2262.654342796578
 20
1191.266985534828
 10
2263.599342789509
 20
1191.266985534828
 10
2265.290342776862
 20
1191.266985534828
 10
2266.808342765512
 20
1191.266985534828
 10
2267.810342758018
 20
1191.266985534828
 10
2269.071342748589
 20
1191.266985534828
 10
2272.298342724459
 20
1191.266985534828
 10
2275.940342697217
 20
1191.266985534828
 10
2278.552342677686
 20
1191.266985534828
 10
2280.099342666119
 20
1191.266985534828
 10
2281.906342652609
 20
1191.266985534828
 10
2284.013342636852
 20
1191.266985534828
 10
2286.462342618536
 20
1191.266985534828
 10
2427.4623415641
 20
1191.266985534828
 10
2430.285341542989
 20
1191.266985534828
 10
2433.000341522689
 20
1191.266985534828
 10
2434.71334150988
 20
1191.266985534828
 10
2437.427341489584
 20
1191.266985534828
 10
2439.640341473034
 20
1191.266985534828
 10
2440.79634146439
 20
1191.266985534828
 10
2441.331341460388
 20
1191.266985534828
 10
2442.176341454069
 20
1191.266985534828
 10
2442.462341451931
 20
1191.266985534828
 10
2442.462341451931
 20
1217.266985413444
  0
LINE
  5
E3B
330
1F
100
AcDbEntity
  8
Hewi
  6
CUSTOM
 62
    18
420
        0
370
     9
100
AcDbLine
 10
1909.962345434094
 20
1216.766985058149
 30
0.0
 11
1909.962345434094
 21
1217.266985413444
 31
0.0
  0
LINE
  5
E3C
330
1F
100
AcDbEntity
  8
Hewi
  6
CUSTOM
 62
    18
420
        0
370
     9
100
AcDbLine
 10
1921.361941312439
 20
1191.377975525794
 30
0.0
 11
1921.583345347185
 21
1191.339985534487
 31
0.0
  0
LINE
  5
E3D
330
1F
100
AcDbEntity
  8
Hewi
  6
CUSTOM
 62
    18
420
        0
370
     9
100
AcDbLine
 10
1921.174345350241
 20
1191.390985534248
 30
0.0
 11
1919.646918638187
 21
1191.766985515802
 31
0.0
  0
LINE
  5
E3E
330
1F
100
AcDbEntity
  8
Hewi
  6
CUSTOM
 62
    18
420
        0
370
     9
100
AcDbLine
 10
2262.462342798015
 20
1217.266985413444
 30
0.0
 11
2262.462342798015
 21
1191.266985534828
 31
0.0
  0
LWPOLYLINE
  5
E3F
330
1F
100
AcDbEntity
  8
Hewi
  6
CUSTOM
 62
    18
420
        0
370
     9
100
AcDbPolyline
 90
        3
 70
     0
 43
0.0
 10
1920.688795869744
 20
1191.493478341934
 10
1919.957345359343
 20
1191.618985533183
 10
1919.673260514136
 20
1191.707843869233
  0
LINE
  5
E40
330
1F
100
AcDbEntity
  8
Hewi
  6
CUSTOM
 62
    18
420
        0
370
     9
100
AcDbLine
 10
1919.393082764014
 20
1191.766985532511
 30
0.0
 11
1921.174345350241
 21
1191.390985534248
 31
0.0
  0
LINE
  5
E41
330
1F
100
AcDbEntity
  8
Hewi
  6
CUSTOM
 62
    18
420
        0
370
     9
100
AcDbLine
 10
1921.583345347185
 20
1191.339985534487
 30
0.0
 11
1921.45410840151
 21
1191.371583621829
 31
0.0
  0
LWPOLYLINE
  5
E42
330
1F
100
AcDbEntity
  8
Hewi
  6
CUSTOM
 62
    18
420
        0
370
     9
100
AcDbPolyline
 90
       11
 70
     0
 43
0.0
 10
1912.482345415242
 20
1197.452985505946
 10
1913.263345409406
 20
1196.380985510952
 10
1914.287345401746
 20
1195.266985516151
 10
1914.689345398743
 20
1194.89698551788
 10
1915.615345391816
 20
1194.153985521348
 10
1916.538345384909
 20
1193.543985524196
 10
1918.18234537262
 20
1192.716985528059
 10
1918.230345372259
 20
1192.696985528149
 10
1920.551345354902
 20
1192.001985531397
 10
1921.001345351538
 20
1191.921985531767
 10
1922.962345336873
 20
1191.766985532493
  0
LINE
  5
E43
330
1F
100
AcDbEntity
  8
Hewi
  6
CUSTOM
 62
    18
420
        0
370
     9
100
AcDbLine
 10
1910.978345426494
 20
1200.712985490727
 30
0.0
 11
1912.482345415242
 21
1197.452985505946
 31
0.0
  0
LWPOLYLINE
  5
E44
330
1F
100
AcDbEntity
  8
Hewi
  6
CUSTOM
 62
    18
420
        0
370
     9
100
AcDbPolyline
 90
        7
 70
     0
 43
0.0
 10
1930.195731116521
 20
1214.438732133611
 10
1929.996345284271
 20
1214.599985425895
 10
1928.984345291839
 20
1215.220985422995
 10
1928.95234529208
 20
1215.237985422915
 10
1926.060345313704
 20
1216.376985417599
 10
1926.053345313757
 20
1216.378985417588
 10
1922.962345336873
 20
1216.766985415776
  0
LINE
  5
E45
330
1F
100
AcDbEntity
  8
Hewi
  6
CUSTOM
 62
    18
420
        0
370
     9
100
AcDbLine
 10
1930.703345278988
 20
1211.360985441017
 30
0.0
 11
1932.055345268872
 21
1209.516985449623
 31
0.0
  0
LINE
  5
E46
330
1F
100
AcDbEntity
  8
Hewi
  6
CUSTOM
 62
    18
420
        0
370
     9
100
AcDbLine
 10
1925.38834531873
 20
1192.004985531381
 30
0.0
 11
1927.721345301284
 21
1192.707985528099
 31
0.0
  0
LWPOLYLINE
  5
E47
330
1F
100
AcDbEntity
  8
Hewi
  6
CUSTOM
 62
    18
420
        0
370
     9
100
AcDbPolyline
 90
        3
 70
     0
 43
0.0
 10
1912.482345415242
 20
1197.452985505946
 10
1911.634345421585
 20
1198.981985498807
 10
1910.978345426494
 20
1200.712985490727
  0
LWPOLYLINE
  5
E48
330
1F
100
AcDbEntity
  8
Hewi
  6
CUSTOM
 62
    18
420
        0
370
     9
100
AcDbPolyline
 90
        3
 70
     0
 43
0.0
 10
1933.422345258652
 20
1205.181985469864
 10
1933.462345258351
 20
1204.267985474129
 10
1933.272345259771
 20
1202.278985483417
  0
LWPOLYLINE
  5
E49
330
1F
100
AcDbEntity
  8
Hewi
  6
CUSTOM
 62
    18
420
        0
370
     9
100
AcDbPolyline
 90
        6
 70
     0
 43
0.0
 10
1927.721345301284
 20
1192.707985528099
 10
1929.181345290369
 20
1193.423985524758
 10
1930.276345282178
 20
1194.12998552146
 10
1932.133345268292
 20
1195.773985513784
 10
1932.526345265353
 20
1196.217985511714
 10
1932.729178215646
 20
1196.503756873219
  0
LWPOLYLINE
  5
E4A
330
1F
100
AcDbEntity
  8
Hewi
  6
CUSTOM
 62
    18
420
        0
370
     9
100
AcDbPolyline
 90
        7
 70
     0
 43
0.0
 10
1935.462345243395
 20
1204.266985474134
 10
1935.233345245105
 20
1201.884985485256
 10
1935.15534524569
 20
1201.514985486983
 10
1934.272345252295
 20
1198.94498549898
 10
1934.250345252457
 20
1198.896985499206
 10
1933.717345256445
 20
1197.895985503877
 10
1933.114328292763
 20
1197.046394850731
  0
LWPOLYLINE
  5
E4B
330
1F
100
AcDbEntity
  8
Hewi
  6
CUSTOM
 62
    18
420
        0
370
     9
100
AcDbPolyline
 90
        3
 70
     0
 43
0.0
 10
1925.38834531873
 20
1192.004985531381
 10
1925.304345319359
 20
1191.987985531461
 10
1922.962345336873
 20
1191.766985532493
  0
LWPOLYLINE
  5
E4C
330
1F
100
AcDbEntity
  8
Hewi
  6
CUSTOM
 62
    18
420
        0
370
     9
100
AcDbPolyline
 90
        4
 70
     0
 43
0.0
 10
1935.284092825379
 20
1206.108813519131
 10
1935.163345245634
 20
1206.984985461448
 10
1935.12634524591
 20
1207.146985460689
 10
1934.85034524797
 20
1208.1299854561
  0
LWPOLYLINE
  5
E4D
330
1F
100
AcDbEntity
  8
Hewi
  6
CUSTOM
 62
    18
420
        0
370
     9
100
AcDbPolyline
 90
        7
 70
     0
 43
0.0
 10
1913.458345407943
 20
1212.386985436225
 10
1913.091345410689
 20
1211.935985438331
 10
1912.408345415799
 20
1210.964985442864
 10
1912.342345416291
 20
1210.858985443359
 10
1911.086345425682
 20
1208.168985455917
 10
1910.941345426766
 20
1207.694985458131
 10
1910.462345430351
 20
1204.266985474134
  0
LWPOLYLINE
  5
E4E
330
1F
100
AcDbEntity
  8
Hewi
  6
CUSTOM
 62
    18
420
        0
370
     9
100
AcDbPolyline
 90
        7
 70
     0
 43
0.0
 10
1913.458345407943
 20
1212.386985436225
 10
1915.532345392435
 20
1214.318985427206
 10
1916.976345381637
 20
1215.239985422906
 10
1917.98834537407
 20
1215.734985420595
 10
1919.853345360122
 20
1216.373985417613
 10
1920.422345355869
 20
1216.505985416996
 10
1922.962345336873
 20
1216.766985415776
  0
LWPOLYLINE
  5
E4F
330
1F
100
AcDbEntity
  8
Hewi
  6
CUSTOM
 62
    18
420
        0
370
     9
100
AcDbPolyline
 90
        4
 70
     0
 43
0.0
 10
1910.978345426494
 20
1200.712985490727
 10
1910.683345428697
 20
1201.924985485067
 10
1910.51734542994
 20
1203.099985479584
 10
1910.462345430351
 20
1204.266985474134
  0
LINE
  5
E50
330
1F
100
AcDbEntity
  8
Hewi
  6
CUSTOM
 62
    18
420
        0
370
     9
100
AcDbLine
 10
1926.553345310017
 20
1194.399985520202
 30
0.0
 11
1924.333345326621
 21
1193.856985522736
 31
0.0
  0
LWPOLYLINE
  5
E51
330
1F
100
AcDbEntity
  8
Hewi
  6
CUSTOM
 62
    18
420
        0
370
     9
100
AcDbPolyline
 90
        3
 70
     0
 43
0.0
 10
1927.721345301284
 20
1192.707985528099
 10
1927.564345302457
 20
1192.644985528393
 10
1927.137063166588
 20
1192.520771208015
  0
LWPOLYLINE
  5
E52
330
1F
100
AcDbEntity
  8
Hewi
  6
CUSTOM
 62
    18
420
        0
370
     9
100
AcDbPolyline
 90
        3
 70
     0
 43
0.0
 10
1931.953345269637
 20
1212.950985433592
 10
1933.538345257785
 20
1210.929985443028
 10
1933.662256223728
 20
1210.665541307644
  0
LINE
  5
E53
330
1F
100
AcDbEntity
  8
Hewi
  6
CUSTOM
 62
    18
420
        0
370
     9
100
AcDbLine
 10
1922.962345336873
 20
1191.766985532493
 30
0.0
 11
1925.38834531873
 21
1192.004985531381
 31
0.0
  0
LWPOLYLINE
  5
E54
330
1F
100
AcDbEntity
  8
Hewi
  6
CUSTOM
 62
    18
420
        0
370
     9
100
AcDbPolyline
 90
        3
 70
     0
 43
0.0
 10
1935.462345243395
 20
1204.266985474134
 10
1935.444345243526
 20
1204.945985470964
 10
1935.407009585123
 20
1205.216901512609
  0
LWPOLYLINE
  5
E55
330
1F
100
AcDbEntity
  8
Hewi
  6
CUSTOM
 62
    18
420
        0
370
     9
100
AcDbPolyline
 90
        3
 70
     0
 43
0.0
 10
1931.953345269637
 20
1212.950985433592
 10
1934.135345253318
 20
1209.871985447966
 10
1934.85034524797
 20
1208.1299854561
  0
LWPOLYLINE
  5
E56
330
1F
100
AcDbEntity
  8
Hewi
  6
CUSTOM
 62
    18
420
        0
370
     9
100
AcDbPolyline
 90
        4
 70
     0
 43
0.0
 10
1913.261345409421
 20
1200.248985492893
 10
1912.622345414197
 20
1202.443985482645
 10
1912.462345415396
 20
1204.266985474134
 10
1912.711345413532
 20
1206.539985463523
  0
LINE
  5
E57
330
1F
100
AcDbEntity
  8
Hewi
  6
CUSTOM
 62
    18
420
        0
370
     9
100
AcDbLine
 10
1920.244345357201
 20
1214.408985426788
 30
0.0
 11
1922.504345340302
 21
1214.756985425163
 31
0.0
  0
LWPOLYLINE
  5
E58
330
1F
100
AcDbEntity
  8
Hewi
  6
CUSTOM
 62
    18
420
        0
370
     9
100
AcDbPolyline
 90
        3
 70
     0
 43
0.0
 10
1910.813858802528
 20
1206.782617700421
 10
1910.494345430113
 20
1205.156985469979
 10
1910.462345430351
 20
1204.266985474134
  0
LWPOLYLINE
  5
E59
330
1F
100
AcDbEntity
  8
Hewi
  6
CUSTOM
 62
    18
420
        0
370
     9
100
AcDbPolyline
 90
        3
 70
     0
 43
0.0
 10
1931.953345269637
 20
1212.950985433592
 10
1931.596345272305
 20
1213.305985431936
 10
1930.727701994957
 20
1214.008500684464
  0
LWPOLYLINE
  5
E5A
330
1F
100
AcDbEntity
  8
Hewi
  6
CUSTOM
 62
    18
420
        0
370
     9
100
AcDbPolyline
 90
        3
 70
     0
 43
0.0
 10
1914.993706166092
 20
1213.817225067281
 10
1914.483345400284
 20
1213.450985431258
 10
1913.458345407943
 20
1212.386985436225
  0
LINE
  5
E5B
330
1F
100
AcDbEntity
  8
Hewi
  6
CUSTOM
 62
    18
420
        0
370
     9
100
AcDbLine
 10
1930.387345281345
 20
1196.841985508799
 30
0.0
 11
1928.604345294679
 21
1195.410985515478
 31
0.0
  0
LWPOLYLINE
  5
E5C
330
1F
100
AcDbEntity
  8
Hewi
  6
CUSTOM
 62
    18
420
        0
370
     9
100
AcDbPolyline
 90
       23
 70
     0
 43
0.0
 10
1867.710345750059
 20
971.6689865600455
 10
1867.462345751915
 20
973.7669865502503
 10
1867.462345751915
 20
1123.766985849957
 10
1867.462345751915
 20
1127.358985833189
 10
1867.462345751915
 20
1130.156985820125
 10
1867.462345751915
 20
1132.281985810205
 10
1867.462345751915
 20
1133.388985805039
 10
1867.462345751915
 20
1133.766985803271
 10
1871.462345722003
 20
1133.766985803271
 10
1871.462345722003
 20
1133.559985804237
 10
1871.462345722003
 20
1133.143985806182
 10
1871.462345722003
 20
1132.122985810947
 10
1871.462345722003
 20
1130.657985817788
 10
1871.462345722003
 20
1129.164985824756
 10
1871.462345722003
 20
1127.913985830597
 10
1871.462345722003
 20
1125.887985840056
 10
1871.462345722003
 20
1123.766985849957
 10
1871.462345722003
 20
973.7669865502503
 10
1871.823345719305
 20
971.8989865589721
 10
1872.673345712948
 20
970.5039865654851
 10
1873.914345703667
 20
969.4649865703359
 10
1875.402345692538
 20
968.8809865730616
 10
1876.462345684609
 20
968.7669865735935
  0
LINE
  5
E5D
330
1F
100
AcDbEntity
  8
Hewi
  6
CUSTOM
 62
    18
420
        0
370
     9
100
AcDbLine
 10
1935.407009585123
 20
1205.216901512609
 30
0.0
 11
1935.284092825379
 21
1206.108813519131
 31
0.0
  0
LINE
  5
E5E
330
1F
100
AcDbEntity
  8
Hewi
  6
CUSTOM
 62
    18
420
        0
370
     9
100
AcDbLine
 10
1871.914536223648
 20
971.7493268502167
 30
0.0
 11
1871.814383350167
 21
971.9453625139795
 31
0.0
  0
LWPOLYLINE
  5
E5F
330
1F
100
AcDbEntity
  8
Hewi
  6
CUSTOM
 62
    18
420
        0
370
     9
100
AcDbPolyline
 90
       17
 70
     0
 43
0.0
 10
1905.462345467742
 20
994.6432987086463
 10
1905.462345467742
 20
1123.766985849957
 10
1905.462345467742
 20
1125.887985840056
 10
1905.462345467742
 20
1127.913985830597
 10
1905.462345467742
 20
1129.164985824756
 10
1905.462345467742
 20
1130.657985817788
 10
1905.462345467742
 20
1132.122985810947
 10
1905.462345467742
 20
1133.143985806182
 10
1905.462345467742
 20
1133.559985804237
 10
1905.462345467742
 20
1133.766985803271
 10
1901.462345497654
 20
1133.766985803271
 10
1901.462345497654
 20
1133.388985805039
 10
1901.462345497654
 20
1132.281985810205
 10
1901.462345497654
 20
1130.156985820125
 10
1901.462345497654
 20
1127.358985833189
 10
1901.462345497654
 20
1123.766985849957
 10
1901.462345497654
 20
993.0845173007
  0
LINE
  5
E60
330
1F
100
AcDbEntity
  8
Hewi
  6
CUSTOM
 62
    18
420
        0
370
     9
100
AcDbLine
 10
1932.729178215646
 20
1196.503756873219
 30
0.0
 11
1933.114328292763
 21
1197.046394850731
 31
0.0
  0
LWPOLYLINE
  5
E61
330
1F
100
AcDbEntity
  8
Hewi
  6
CUSTOM
 62
    18
420
        0
370
     9
100
AcDbPolyline
 90
        8
 70
     0
 43
0.0
 10
1877.462345677132
 20
968.7669865735935
 10
1877.462345677132
 20
1123.766985849957
 10
1877.462345677132
 20
1125.810985840417
 10
1877.462345677132
 20
1127.698985831603
 10
1877.462345677132
 20
1129.535985823026
 10
1877.462345677132
 20
1130.765985817283
 10
1877.462345677132
 20
1131.266985814942
 10
1871.462345722003
 20
1131.266985814942
  0
LINE
  5
E62
330
1F
100
AcDbEntity
  8
Hewi
  6
CUSTOM
 62
    18
420
        0
370
     9
100
AcDbLine
 10
1930.727701994957
 20
1214.008500684464
 30
0.0
 11
1930.195731116521
 21
1214.438732133611
 31
0.0
  0
LINE
  5
E63
330
1F
100
AcDbEntity
  8
Hewi
  6
CUSTOM
 62
    18
420
        0
370
     9
100
AcDbLine
 10
1874.36050790862
 20
969.2898798958268
 30
0.0
 11
1873.4870832806
 21
969.8227026433707
 31
0.0
  0
LINE
  5
E64
330
1F
100
AcDbEntity
  8
Hewi
  6
CUSTOM
 62
    18
420
        0
370
     9
100
AcDbLine
 10
1926.086924662192
 20
1192.215487579993
 30
0.0
 11
1927.137063166588
 21
1192.520771208015
 31
0.0
  0
LINE
  5
E65
330
1F
100
AcDbEntity
  8
Hewi
  6
CUSTOM
 62
    18
420
        0
370
     9
100
AcDbLine
 10
1876.462345684613
 20
968.7669865735935
 30
0.0
 11
1875.010710601301
 21
969.0346928200906
 31
0.0
  0
LINE
  5
E66
330
1F
100
AcDbEntity
  8
Hewi
  6
CUSTOM
 62
    18
420
        0
370
     9
100
AcDbLine
 10
1872.866634214551
 20
970.3421600131951
 30
0.0
 11
1872.545686089084
 21
970.7134985458761
 31
0.0
  0
LINE
  5
E67
330
1F
100
AcDbEntity
  8
Hewi
  6
CUSTOM
 62
    18
420
        0
370
     9
100
AcDbLine
 10
1933.836494961437
 20
1210.293690341972
 30
0.0
 11
1933.662256223728
 21
1210.665541307644
 31
0.0
  0
LWPOLYLINE
  5
E68
330
1F
100
AcDbEntity
  8
Hewi
  6
CUSTOM
 62
    18
420
        0
370
     9
100
AcDbPolyline
 90
        8
 70
     0
 43
0.0
 10
1876.462345684609
 20
968.7669865735935
 10
1896.462345535048
 20
968.7669865735935
 10
1898.287345521399
 20
969.1119865719826
 10
1899.861345509627
 20
970.0999865673727
 10
1900.734345503096
 20
971.1689865623812
 10
1901.323345498694
 20
972.5939865557263
 10
1901.462345497654
 20
973.7669865502503
 10
1901.462345497654
 20
975.9125299553343
  0
LINE
  5
E69
330
1F
100
AcDbEntity
  8
Hewi
  6
CUSTOM
 62
    18
420
        0
370
     9
100
AcDbLine
 10
1874.427345699831
 20
964.9999865911814
 30
0.0
 11
1872.498345714255
 21
965.6869865879725
 31
0.0
  0
LWPOLYLINE
  5
E6A
330
1F
100
AcDbEntity
  8
Hewi
  6
CUSTOM
 62
    18
420
        0
370
     9
100
AcDbPolyline
 90
       10
 70
     0
 43
0.0
 10
1901.462345497654
 20
1131.266985814942
 10
1895.462345542524
 20
1131.266985814942
 10
1895.462345542524
 20
1131.146985815505
 10
1895.462345542524
 20
1130.578985818156
 10
1895.462345542524
 20
1129.57998582282
 10
1895.462345542524
 20
1128.692985826961
 10
1895.462345542524
 20
1127.013985834801
 10
1895.462345542524
 20
1125.102985843721
 10
1895.462345542524
 20
1123.766985849957
 10
1895.462345542524
 20
990.746335428521
  0
LWPOLYLINE
  5
E6B
330
1F
100
AcDbEntity
  8
Hewi
  6
CUSTOM
 62
    18
420
        0
370
     9
100
AcDbPolyline
 90
        3
 70
     0
 43
0.0
 10
1874.427345699831
 20
964.9999865911814
 10
1873.229345708787
 20
965.3679865894627
 10
1872.974345248876
 20
965.5174626338975
  0
LWPOLYLINE
  5
E6C
330
1F
100
AcDbEntity
  8
Hewi
  6
CUSTOM
 62
    18
420
        0
370
     9
100
AcDbPolyline
 90
        3
 70
     0
 43
0.0
 10
1903.282345484043
 20
967.8939865776699
 10
1903.385345483275
 20
968.0159865770983
 10
1904.404345475657
 20
969.5339865700134
  0
LINE
  5
E6D
330
1F
100
AcDbEntity
  8
Hewi
  6
CUSTOM
 62
    18
420
        0
370
     9
100
AcDbLine
 10
1903.282345484043
 20
967.8939865776699
 30
0.0
 11
1901.356345498451
 21
966.2139865855133
 31
0.0
  0
LINE
  5
E6E
330
1F
100
AcDbEntity
  8
Hewi
  6
CUSTOM
 62
    18
420
        0
370
     9
100
AcDbLine
 10
1901.356345498451
 20
966.2139865855133
 30
0.0
 11
1899.068345515556
 21
965.1529865904667
 31
0.0
  0
LWPOLYLINE
  5
E6F
330
1F
100
AcDbEntity
  8
Hewi
  6
CUSTOM
 62
    18
420
        0
370
     9
100
AcDbPolyline
 90
        3
 70
     0
 43
0.0
 10
1899.978643444509
 20
965.5751133842951
 10
1901.181345499757
 20
966.102986586031
 10
1901.356345498451
 20
966.2139865855133
  0
LINE
  5
E70
330
1F
100
AcDbEntity
  8
Hewi
  6
CUSTOM
 62
    18
420
        0
370
     9
100
AcDbLine
 10
1870.651345728067
 20
966.8939865823377
 30
0.0
 11
1869.148345739304
 21
968.5219865747367
 31
0.0
  0
LINE
  5
E71
330
1F
100
AcDbEntity
  8
Hewi
  6
CUSTOM
 62
    18
420
        0
370
     9
100
AcDbLine
 10
1869.148345739304
 20
968.5219865747367
 30
0.0
 11
1868.367345745148
 21
969.8329865686174
 31
0.0
  0
LWPOLYLINE
  5
E72
330
1F
100
AcDbEntity
  8
Hewi
  6
CUSTOM
 62
    18
420
        0
370
     9
100
AcDbPolyline
 90
        4
 70
     0
 43
0.0
 10
1897.423345527858
 20
964.8179865920319
 10
1896.462345535048
 20
964.766986592269
 10
1876.462345684609
 20
964.766986592269
 10
1874.427345699831
 20
964.9999865911814
  0
LWPOLYLINE
  5
E73
330
1F
100
AcDbEntity
  8
Hewi
  6
CUSTOM
 62
    18
420
        0
370
     9
100
AcDbPolyline
 90
        3
 70
     0
 43
0.0
 10
1868.367345745148
 20
969.8329865686174
 10
1868.798345741925
 20
969.0479865722847
 10
1869.148345739304
 20
968.5219865747367
  0
LINE
  5
E74
330
1F
100
AcDbEntity
  8
Hewi
  6
CUSTOM
 62
    18
420
        0
370
     9
100
AcDbLine
 10
1868.367345745148
 20
969.8329865686174
 30
0.0
 11
1867.710345750059
 21
971.6689865600455
 31
0.0
  0
LWPOLYLINE
  5
E75
330
1F
100
AcDbEntity
  8
Hewi
  6
CUSTOM
 62
    18
420
        0
370
     9
100
AcDbPolyline
 90
        3
 70
     0
 43
0.0
 10
1905.462345467742
 20
977.4713138778515
 10
1905.462345467742
 20
973.7669865502503
 10
1905.163345469981
 20
971.4659865609938
  0
LWPOLYLINE
  5
E76
330
1F
100
AcDbEntity
  8
Hewi
  6
CUSTOM
 62
    18
420
        0
370
     9
100
AcDbPolyline
 90
        3
 70
     0
 43
0.0
 10
1867.710345750059
 20
971.6689865600455
 10
1867.803345749369
 20
971.3149865616976
 10
1868.367345745148
 20
969.8329865686174
  0
LWPOLYLINE
  5
E77
330
1F
100
AcDbEntity
  8
Hewi
  6
CUSTOM
 62
    18
420
        0
370
     9
100
AcDbPolyline
 90
        3
 70
     0
 43
0.0
 10
1904.666855659172
 20
970.2021943223407
 10
1904.861345472236
 20
970.533986565344
 10
1905.163345469981
 20
971.4659865609938
  0
LWPOLYLINE
  5
E78
330
1F
100
AcDbEntity
  8
Hewi
  6
CUSTOM
 62
    18
420
        0
370
     9
100
AcDbPolyline
 90
        3
 70
     0
 43
0.0
 10
1897.423345527858
 20
964.8179865920319
 10
1898.91434551671
 20
965.1079865906758
 10
1899.068345515556
 20
965.1529865904667
  0
LINE
  5
E79
330
1F
100
AcDbEntity
  8
Hewi
  6
CUSTOM
 62
    18
420
        0
370
     9
100
AcDbLine
 10
1899.068345515556
 20
965.1529865904667
 30
0.0
 11
1897.423345527858
 21
964.8179865920319
 31
0.0
  0
LINE
  5
E7A
330
1F
100
AcDbEntity
  8
Hewi
  6
CUSTOM
 62
    18
420
        0
370
     9
100
AcDbLine
 10
1904.404345475657
 20
969.5339865700134
 30
0.0
 11
1903.282345484043
 21
967.8939865776699
 31
0.0
  0
LINE
  5
E7B
330
1F
100
AcDbEntity
  8
Hewi
  6
CUSTOM
 62
    18
420
        0
370
     9
100
AcDbLine
 10
1872.498345714255
 20
965.6869865879725
 30
0.0
 11
1870.651345728067
 21
966.8939865823377
 31
0.0
  0
LINE
  5
E7C
330
1F
100
AcDbEntity
  8
Hewi
  6
CUSTOM
 62
    18
420
        0
370
     9
100
AcDbLine
 10
1900.751864877576
 20
971.2168028587347
 30
0.0
 11
1900.726851220311
 21
971.159809715442
 31
0.0
  0
LINE
  5
E7D
330
1F
100
AcDbEntity
  8
Hewi
  6
CUSTOM
 62
    18
420
        0
370
     9
100
AcDbLine
 10
1901.308297972271
 20
972.656866284824
 30
0.0
 11
1901.287557390492
 21
972.5074024093938
 31
0.0
  0
LINE
  5
E7E
330
1F
100
AcDbEntity
  8
Hewi
  6
CUSTOM
 62
    18
420
        0
370
     9
100
AcDbLine
 10
1871.83487916243
 20
971.9052447454615
 30
0.0
 11
1871.815868134759
 21
971.937679413495
 31
0.0
  0
LINE
  5
E7F
330
1F
100
AcDbEntity
  8
Hewi
  6
CUSTOM
 62
    18
420
        0
370
     9
100
AcDbLine
 10
1905.163345469981
 20
971.4659865609938
 30
0.0
 11
1904.404345475657
 21
969.5339865700134
 31
0.0
  0
LWPOLYLINE
  5
E80
330
1F
100
AcDbEntity
  8
Hewi
  6
CUSTOM
 62
    18
420
        0
370
     9
100
AcDbPolyline
 90
        3
 70
     0
 43
0.0
 10
1870.651345728067
 20
966.8939865823377
 10
1870.711345727618
 20
966.843986582573
 10
1872.498345714255
 20
965.6869865879725
  0
LINE
  5
E81
330
1F
100
AcDbEntity
  8
Hewi
  6
CUSTOM
 62
    18
420
        0
370
     9
100
AcDbLine
 10
1935.45734524343
 20
1203.925985475727
 30
0.0
 11
1935.462345243395
 21
1204.266985474134
 31
0.0
  0
LINE
  5
E82
330
1F
100
AcDbEntity
  8
Hewi
  6
CUSTOM
 62
    18
420
        0
370
     9
100
AcDbLine
 10
1934.877345247769
 20
1208.046985456487
 30
0.0
 11
1934.85034524797
 21
1208.1299854561
 31
0.0
  0
LWPOLYLINE
  5
E83
330
1F
100
AcDbEntity
  8
Hewi
  6
CUSTOM
 62
    18
420
        0
370
     9
100
AcDbPolyline
 90
       11
 70
     0
 43
0.0
 10
1922.962345336873
 20
1216.766985415776
 10
1877.462345677132
 20
1216.766985415776
 10
1876.198345686585
 20
1216.766985415776
 10
1873.896345703801
 20
1216.766985415776
 10
1871.804345719444
 20
1216.766985415776
 10
1870.571345728665
 20
1216.766985415776
 10
1869.106345739619
 20
1216.766985415776
 10
1868.085345747254
 20
1216.766985415776
 10
1867.669345750368
 20
1216.766985415776
 10
1867.462345751915
 20
1216.766985415776
 10
1867.462345751915
 20
1186.766985555836
  0
LWPOLYLINE
  5
E84
330
1F
100
AcDbEntity
  8
Hewi
  6
CUSTOM
 62
    18
420
        0
370
     9
100
AcDbPolyline
 90
       12
 70
     0
 43
0.0
 10
1867.462345751915
 20
1186.766985555836
 10
1867.463345751908
 20
1187.914985550476
 10
1867.496345751661
 20
1189.519985542983
 10
1867.6783457503
 20
1190.811985536951
 10
1868.000345747893
 20
1191.434985534042
 10
1868.53534574389
 20
1191.739985532618
 10
1868.802345741892
 20
1191.766985532493
 10
1869.605345735889
 20
1191.766985532493
 10
1871.105345724674
 20
1191.766985532493
 10
1872.898345711267
 20
1191.766985532493
 10
1875.114345694692
 20
1191.766985532493
 10
1877.462345677132
 20
1191.766985532493
  0
LWPOLYLINE
  5
E85
330
1F
100
AcDbEntity
  8
Hewi
  6
CUSTOM
 62
    18
420
        0
370
     9
100
AcDbPolyline
 90
       21
 70
     0
 43
0.0
 10
1867.462345751915
 20
1186.766985555836
 10
1867.462345751915
 20
1161.766985672551
 10
1867.462345751915
 20
1160.40498567891
 10
1867.462345751915
 20
1159.144985684792
 10
1867.462345751915
 20
1157.920985690507
 10
1867.462345751915
 20
1157.100985694334
 10
1867.462345751915
 20
1156.766985695894
 10
1872.462345714524
 20
1156.766985695894
 10
1872.462345714524
 20
1157.002985694793
 10
1872.462345714524
 20
1157.688985691591
 10
1872.462345714524
 20
1158.954985685679
 10
1872.462345714524
 20
1160.582985678078
 10
1872.462345714524
 20
1161.766985672551
 10
1872.462345714524
 20
1186.766985555836
 10
1872.472345714449
 20
1188.525985547623
 10
1872.616345713374
 20
1190.046985540522
 10
1872.915345711135
 20
1190.823985536894
 10
1873.576345706194
 20
1191.408985534164
 10
1874.589345698619
 20
1191.682985532887
 10
1875.983345688193
 20
1191.763985532507
 10
1877.462345677132
 20
1191.766985532493
  0
LINE
  5
E86
330
1F
100
AcDbEntity
  8
Hewi
  6
CUSTOM
 62
    18
420
        0
370
     9
100
AcDbLine
 10
1901.358761989937
 20
972.8928609835582
 30
0.0
 11
1901.104743114808
 21
972.0651098191721
 31
0.0
  0
LWPOLYLINE
  5
E87
330
1F
100
AcDbEntity
  8
Hewi
  6
CUSTOM
 62
    18
420
        0
370
     9
100
AcDbPolyline
 90
        3
 70
     0
 43
0.0
 10
1928.12734529825
 20
1215.652985420978
 10
1928.637345294436
 20
1215.404985422134
 10
1928.833240039271
 20
1215.284894444849
  0
LINE
  5
E88
330
1F
100
AcDbEntity
  8
Hewi
  6
CUSTOM
 62
    18
420
        0
370
     9
100
AcDbLine
 10
1872.618805038138
 20
1190.053376494879
 30
0.0
 11
1872.514819755775
 21
1188.974617610169
 31
0.0
  0
LINE
  5
E89
330
1F
100
AcDbEntity
  8
Hewi
  6
CUSTOM
 62
    18
420
        0
370
     9
100
AcDbLine
 10
1900.75984859448
 20
971.230687590916
 30
0.0
 11
1900.700635347984
 21
971.1277080314992
 31
0.0
  0
LINE
  5
E8A
330
1F
100
AcDbEntity
  8
Hewi
  6
CUSTOM
 62
    18
420
        0
370
     9
100
AcDbLine
 10
1898.57198591193
 20
969.2906553804423
 30
0.0
 11
1897.949430330606
 21
969.048106716411
 31
0.0
  0
LINE
  5
E8B
330
1F
100
AcDbEntity
  8
Hewi
  6
CUSTOM
 62
    18
420
        0
370
     9
100
AcDbLine
 10
1877.462345677132
 20
1191.766985532493
 30
0.0
 11
1875.899350356936
 21
1191.759104883796
 31
0.0
  0
LINE
  5
E8C
330
1F
100
AcDbEntity
  8
Hewi
  6
CUSTOM
 62
    18
420
        0
370
     9
100
AcDbLine
 10
1900.807283236932
 20
971.345448826185
 30
0.0
 11
1900.505810476708
 21
970.8891424152897
 31
0.0
  0
LINE
  5
E8D
330
1F
100
AcDbEntity
  8
Hewi
  6
CUSTOM
 62
    18
420
        0
370
     9
100
AcDbLine
 10
1873.941710010181
 20
1191.507810626943
 30
0.0
 11
1873.33235579223
 21
1191.193048918692
 31
0.0
  0
LINE
  5
E8E
330
1F
100
AcDbEntity
  8
Hewi
  6
CUSTOM
 62
    18
420
        0
370
     9
100
AcDbLine
 10
1875.414979089651
 20
1191.730959926102
 30
0.0
 11
1874.367991519102
 21
1191.623112837598
 31
0.0
  0
LWPOLYLINE
  5
E8F
330
1F
100
AcDbEntity
  8
Hewi
  6
CUSTOM
 62
    18
420
        0
370
     9
100
AcDbPolyline
 90
        3
 70
     0
 43
0.0
 10
1930.930345277283
 20
1194.635985519098
 10
1930.30934528193
 20
1194.153985521348
 10
1930.288533111579
 20
1194.14077540121
  0
LINE
  5
E90
330
1F
100
AcDbEntity
  8
Hewi
  6
CUSTOM
 62
    18
420
        0
370
     9
100
AcDbLine
 10
1934.872345247811
 20
1200.469985491862
 30
0.0
 11
1934.338345251799
 21
1199.086985498317
 31
0.0
  0
LINE
  5
E91
330
1F
100
AcDbEntity
  8
Hewi
  6
CUSTOM
 62
    18
420
        0
370
     9
100
AcDbLine
 10
1925.14534532055
 20
1191.958985531595
 30
0.0
 11
1922.962345336873
 21
1191.766985532493
 31
0.0
  0
LWPOLYLINE
  5
E92
330
1F
100
AcDbEntity
  8
Hewi
  6
CUSTOM
 62
    18
420
        0
370
     9
100
AcDbPolyline
 90
        3
 70
     0
 43
0.0
 10
1932.887345262654
 20
1196.667985509612
 10
1933.075345261244
 20
1196.919985508437
 10
1933.308308357911
 20
1197.319693372165
  0
LWPOLYLINE
  5
E93
330
1F
100
AcDbEntity
  8
Hewi
  6
CUSTOM
 62
    18
420
        0
370
     9
100
AcDbPolyline
 90
        3
 70
     0
 43
0.0
 10
1932.328345266832
 20
1212.544985435488
 10
1933.075345261244
 20
1211.613985439835
 10
1933.211499560202
 20
1211.346739479894
  0
LINE
  5
E94
330
1F
100
AcDbEntity
  8
Hewi
  6
CUSTOM
 62
    18
420
        0
370
     9
100
AcDbLine
 10
1895.462345542524
 20
973.574354472028
 30
0.0
 11
1895.462345542524
 21
968.7669865735935
 31
0.0
  0
LWPOLYLINE
  5
E95
330
1F
100
AcDbEntity
  8
Hewi
  6
CUSTOM
 62
    18
420
        0
370
     9
100
AcDbPolyline
 90
        3
 70
     0
 43
0.0
 10
1925.14534532055
 20
1191.958985531595
 10
1924.917345322249
 20
1191.920985531773
 10
1922.962345336873
 20
1191.766985532493
  0
LWPOLYLINE
  5
E96
330
1F
100
AcDbEntity
  8
Hewi
  6
CUSTOM
 62
    18
420
        0
370
     9
100
AcDbPolyline
 90
        3
 70
     0
 43
0.0
 10
1934.872345247811
 20
1200.469985491862
 10
1934.85034524797
 20
1200.40398549217
 10
1934.338345251799
 20
1199.086985498317
  0
LWPOLYLINE
  5
E97
330
1F
100
AcDbEntity
  8
Hewi
  6
CUSTOM
 62
    18
420
        0
370
     9
100
AcDbPolyline
 90
        3
 70
     0
 43
0.0
 10
1930.367345281498
 20
1214.337985427119
 10
1930.30934528193
 20
1214.379985426922
 10
1930.140020987558
 20
1214.483787700976
  0
LWPOLYLINE
  5
E98
330
1F
100
AcDbEntity
  8
Hewi
  6
CUSTOM
 62
    18
420
        0
370
     9
100
AcDbPolyline
 90
        3
 70
     0
 43
0.0
 10
1925.543345317569
 20
1216.497985417034
 10
1925.88034531505
 20
1216.42198541739
 10
1925.96780683763
 20
1216.38972267937
  0
LINE
  5
E99
330
1F
100
AcDbEntity
  8
Hewi
  6
CUSTOM
 62
    18
420
        0
370
     9
100
AcDbLine
 10
1901.350438216882
 20
972.822617913671
 30
0.0
 11
1901.242719071527
 21
972.3989226074099
 31
0.0
  0
LINE
  5
E9A
330
1F
100
AcDbEntity
  8
Hewi
  6
CUSTOM
 62
    18
420
        0
370
     9
100
AcDbLine
 10
1922.962345336873
 20
1191.766985532493
 30
0.0
 11
1877.462345677132
 21
1191.766985532493
 31
0.0
  0
LINE
  5
E9B
330
1F
100
AcDbEntity
  8
Hewi
  6
CUSTOM
 62
    18
420
        0
370
     9
100
AcDbLine
 10
1900.062465053972
 20
970.3462600993262
 30
0.0
 11
1899.483611970729
 21
969.8628831806454
 31
0.0
  0
LINE
  5
E9C
330
1F
100
AcDbEntity
  8
Hewi
  6
CUSTOM
 62
    18
420
        0
370
     9
100
AcDbLine
 10
1873.049585010504
 20
1190.94279036421
 30
0.0
 11
1872.6270673596
 21
1190.074847476484
 31
0.0
  0
LWPOLYLINE
  5
E9D
330
1F
100
AcDbEntity
  8
Hewi
  6
CUSTOM
 62
    18
420
        0
370
     9
100
AcDbPolyline
 90
        3
 70
     0
 43
0.0
 10
1927.74029600339
 20
1192.717279151384
 10
1927.746345301097
 20
1192.718985528048
 10
1928.973345291921
 20
1193.305985525307
  0
LINE
  5
E9E
330
1F
100
AcDbEntity
  8
Hewi
  6
CUSTOM
 62
    18
420
        0
370
     9
100
AcDbLine
 10
1934.877345247769
 20
1208.046985456487
 30
0.0
 11
1934.888282965003
 21
1207.994866702769
 31
0.0
  0
LINE
  5
E9F
330
1F
100
AcDbEntity
  8
Hewi
  6
CUSTOM
 62
    18
420
        0
370
     9
100
AcDbLine
 10
1935.45734524343
 20
1203.925985475727
 30
0.0
 11
1935.301751511939
 21
1202.596530152336
 31
0.0
  0
LINE
  5
EA0
330
1F
100
AcDbEntity
  8
Hewi
  6
CUSTOM
 62
    18
420
        0
370
     9
100
AcDbLine
 10
1934.338345251799
 20
1199.086985498317
 30
0.0
 11
1934.296416786328
 21
1199.015046476199
 31
0.0
  0
LINE
  5
EA1
330
1F
100
AcDbEntity
  8
Hewi
  6
CUSTOM
 62
    18
420
        0
370
     9
100
AcDbLine
 10
1935.284092821918
 20
1206.108813515195
 30
0.0
 11
1935.39234524392
 21
1205.592985467945
 31
0.0
  0
LINE
  5
EA2
330
1F
100
AcDbEntity
  8
Hewi
  6
CUSTOM
 62
    18
420
        0
370
     9
100
AcDbLine
 10
1928.973345291921
 20
1193.305985525307
 30
0.0
 11
1928.718655561021
 21
1193.197077410579
 31
0.0
  0
LWPOLYLINE
  5
EA3
330
1F
100
AcDbEntity
  8
Hewi
  6
CUSTOM
 62
    18
420
        0
370
     9
100
AcDbPolyline
 90
        3
 70
     0
 43
0.0
 10
1935.199917102098
 20
1201.726416061128
 10
1935.198345245368
 20
1201.712985486057
 10
1935.191926078475
 20
1201.688509950858
  0
LINE
  5
EA4
330
1F
100
AcDbEntity
  8
Hewi
  6
CUSTOM
 62
    18
420
        0
370
     9
100
AcDbLine
 10
1935.39234524392
 20
1205.592985467945
 30
0.0
 11
1935.415420857421
 21
1205.155867416608
 31
0.0
  0
LINE
  5
EA5
330
1F
100
AcDbEntity
  8
Hewi
  6
CUSTOM
 62
    18
420
        0
370
     9
100
AcDbLine
 10
1933.66225619202
 20
1210.665541363314
 30
0.0
 11
1933.86634525533
 21
1210.377985445604
 31
0.0
  0
LINE
  5
EA6
330
1F
100
AcDbEntity
  8
Hewi
  6
CUSTOM
 62
    18
420
        0
370
     9
100
AcDbLine
 10
1934.011075732055
 20
1210.047341022233
 30
0.0
 11
1933.86634525533
 21
1210.377985445604
 31
0.0
  0
LINE
  5
EA7
330
1F
100
AcDbEntity
  8
Hewi
  6
CUSTOM
 62
    18
420
        0
370
     9
100
AcDbLine
 10
1934.338345251799
 20
1199.086985498317
 30
0.0
 11
1934.298056623244
 21
1199.019819273128
 31
0.0
  0
LINE
  5
EA8
330
1F
100
AcDbEntity
  8
Hewi
  6
CUSTOM
 62
    18
420
        0
370
     9
100
AcDbLine
 10
1933.86634525533
 20
1210.377985445604
 30
0.0
 11
1934.00766432557
 21
1210.052154828745
 31
0.0
  0
LINE
  5
EA9
330
1F
100
AcDbEntity
  8
Hewi
  6
CUSTOM
 62
    18
420
        0
370
     9
100
AcDbLine
 10
1930.367345281498
 20
1214.337985427119
 30
0.0
 11
1930.727701945215
 21
1214.0085007255
 31
0.0
  0
LINE
  5
EAA
330
1F
100
AcDbEntity
  8
Hewi
  6
CUSTOM
 62
    18
420
        0
370
     9
100
AcDbLine
 10
1930.195731074559
 20
1214.438732160492
 30
0.0
 11
1930.367345281498
 21
1214.337985427119
 31
0.0
  0
LINE
  5
EAB
330
1F
100
AcDbEntity
  8
Hewi
  6
CUSTOM
 62
    18
420
        0
370
     9
100
AcDbLine
 10
1930.930345277283
 20
1194.635985519098
 30
0.0
 11
1930.575508170299
 21
1194.394834086488
 31
0.0
  0
LINE
  5
EAC
330
1F
100
AcDbEntity
  8
Hewi
  6
CUSTOM
 62
    18
420
        0
370
     9
100
AcDbLine
 10
1931.407296205568
 20
1195.131215099572
 30
0.0
 11
1930.930345277283
 21
1194.635985519098
 31
0.0
  0
LINE
  5
EAD
330
1F
100
AcDbEntity
  8
Hewi
  6
CUSTOM
 62
    18
420
        0
370
     9
100
AcDbLine
 10
1932.887345262654
 20
1196.667985509612
 30
0.0
 11
1932.729178216822
 21
1196.503756874948
 31
0.0
  0
LINE
  5
EAE
330
1F
100
AcDbEntity
  8
Hewi
  6
CUSTOM
 62
    18
420
        0
370
     9
100
AcDbLine
 10
1922.968147108451
 20
1216.766380736755
 30
0.0
 11
1925.543345317569
 21
1216.497985417034
 31
0.0
  0
LINE
  5
EAF
330
1F
100
AcDbEntity
  8
Hewi
  6
CUSTOM
 62
    18
420
        0
370
     9
100
AcDbLine
 10
1929.057882590204
 20
1193.363438058284
 30
0.0
 11
1928.973345291921
 21
1193.305985525307
 31
0.0
  0
LINE
  5
EB0
330
1F
100
AcDbEntity
  8
Hewi
  6
CUSTOM
 62
    18
420
        0
370
     9
100
AcDbLine
 10
1932.12833227219
 20
1212.727863202137
 30
0.0
 11
1932.328345266832
 21
1212.544985435488
 31
0.0
  0
LINE
  5
EB1
330
1F
100
AcDbEntity
  8
Hewi
  6
CUSTOM
 62
    18
420
        0
370
     9
100
AcDbLine
 10
1933.114328313207
 20
1197.046394883036
 30
0.0
 11
1932.887345262654
 21
1196.667985509612
 31
0.0
  0
LWPOLYLINE
  5
EB2
330
1F
100
AcDbEntity
  8
Hewi
  6
CUSTOM
 62
    18
420
        0
370
     9
100
AcDbPolyline
 90
        4
 70
     0
 43
0.0
 10
1935.375039668033
 20
1205.675447377984
 10
1935.371275532077
 20
1205.770148571118
 10
1935.258892321919
 20
1206.511441119657
 10
1935.202857464853
 20
1206.698275733914
  0
LINE
  5
EB3
330
1F
100
AcDbEntity
  8
Hewi
  6
CUSTOM
 62
    18
420
        0
370
     9
100
AcDbLine
 10
1935.39234524392
 20
1205.592985467945
 30
0.0
 11
1935.407009585021
 21
1205.216901518943
 31
0.0
  0
LINE
  5
EB4
330
1F
100
AcDbEntity
  8
Hewi
  6
CUSTOM
 62
    18
420
        0
370
     9
100
AcDbLine
 10
1926.779535123132
 20
1216.093736040628
 30
0.0
 11
1928.12734529825
 21
1215.652985420978
 31
0.0
  0
LINE
  5
EB5
330
1F
100
AcDbEntity
  8
Hewi
  6
CUSTOM
 62
    18
420
        0
370
     9
100
AcDbLine
 10
1928.12734529825
 20
1215.652985420978
 30
0.0
 11
1928.593566045568
 21
1215.379288865419
 31
0.0
  0
LWPOLYLINE
  5
EB6
330
1F
100
AcDbEntity
  8
Hewi
  6
CUSTOM
 62
    18
420
        0
370
     9
100
AcDbPolyline
 90
        4
 70
     0
 43
0.0
 10
1934.270937399003
 20
1209.541633675191
 10
1934.357974004652
 20
1209.404251019152
 10
1934.463138698865
 20
1209.164688205268
 10
1934.564850990249
 20
1208.825553286027
  0
LWPOLYLINE
  5
EB7
330
1F
100
AcDbEntity
  8
Hewi
  6
CUSTOM
 62
    18
420
        0
370
     9
100
AcDbPolyline
 90
        3
 70
     0
 43
0.0
 10
1927.711506807358
 20
1215.83014325815
 10
1927.953442315548
 20
1215.727030873633
 10
1928.038573374706
 20
1215.682014938857
  0
LWPOLYLINE
  5
EB8
330
1F
100
AcDbEntity
  8
Hewi
  6
CUSTOM
 62
    18
420
        0
370
     9
100
AcDbPolyline
 90
        4
 70
     0
 43
0.0
 10
1923.829649067669
 20
1191.835305102955
 10
1924.21714618849
 20
1191.830321590198
 10
1924.89633103841
 20
1191.917256204791
 10
1924.909591880492
 20
1191.920374775145
  0
LWPOLYLINE
  5
EB9
330
1F
100
AcDbEntity
  8
Hewi
  6
CUSTOM
 62
    18
420
        0
370
     9
100
AcDbPolyline
 90
        3
 70
     0
 43
0.0
 10
1927.137063259811
 20
1192.520771243122
 10
1926.742345308604
 20
1192.351985529762
 10
1925.638135553275
 20
1192.080254512188
  0
LINE
  5
EBA
330
1F
100
AcDbEntity
  8
Hewi
  6
CUSTOM
 62
    18
420
        0
370
     9
100
AcDbLine
 10
1925.237593656351
 20
1191.981686593633
 30
0.0
 11
1925.14534532055
 21
1191.958985531595
 31
0.0
  0
LWPOLYLINE
  5
EBB
330
1F
100
AcDbEntity
  8
Hewi
  6
CUSTOM
 62
    18
420
        0
370
     9
100
AcDbPolyline
 90
        4
 70
     0
 43
0.0
 10
1927.312164506755
 20
1192.57167456066
 10
1926.98749667477
 20
1192.433057708382
 10
1926.737854814636
 20
1192.35032986777
 10
1926.687409545284
 20
1192.338466584839
  0
LINE
  5
EBC
330
1F
100
AcDbEntity
  8
Hewi
  6
CUSTOM
 62
    18
420
        0
370
     9
100
AcDbLine
 10
1935.449328375256
 20
1204.131587310852
 30
0.0
 11
1935.45734524343
 21
1203.925985475727
 31
0.0
  0
LWPOLYLINE
  5
EBD
330
1F
100
AcDbEntity
  8
Hewi
  6
CUSTOM
 62
    18
420
        0
370
     9
100
AcDbPolyline
 90
        4
 70
     0
 43
0.0
 10
1931.897655118936
 20
1195.565329291523
 10
1931.773585405982
 20
1195.401308130525
 10
1931.585826515383
 20
1195.217929960381
 10
1931.236023509496
 20
1194.953378554524
  0
LINE
  5
EBE
330
1F
100
AcDbEntity
  8
Hewi
  6
CUSTOM
 62
    18
420
        0
370
     9
100
AcDbLine
 10
1928.973345291921
 20
1193.305985525307
 30
0.0
 11
1929.084172388447
 21
1193.37633086821
 31
0.0
  0
LWPOLYLINE
  5
EBF
330
1F
100
AcDbEntity
  8
Hewi
  6
CUSTOM
 62
    18
420
        0
370
     9
100
AcDbPolyline
 90
        4
 70
     0
 43
0.0
 10
1933.852207394567
 20
1198.149263161005
 10
1933.893521288129
 20
1198.203880461442
 10
1934.018159022194
 20
1198.433913915367
 10
1934.058606311787
 20
1198.536890414902
  0
LINE
  5
EC0
330
1F
100
AcDbEntity
  8
Hewi
  6
CUSTOM
 62
    18
420
        0
370
     9
100
AcDbLine
 10
1934.866864777191
 20
1208.071149627594
 30
0.0
 11
1934.877345247769
 21
1208.046985456487
 31
0.0
  0
LINE
  5
EC1
330
1F
100
AcDbEntity
  8
Hewi
  6
CUSTOM
 62
    18
420
        0
370
     9
100
AcDbLine
 10
1932.328345266832
 20
1212.544985435488
 30
0.0
 11
1932.867239196158
 21
1211.785698603154
 31
0.0
  0
LINE
  5
EC2
330
1F
100
AcDbEntity
  8
Hewi
  6
CUSTOM
 62
    18
420
        0
370
     9
100
AcDbLine
 10
1925.543345317569
 20
1216.497985417034
 30
0.0
 11
1925.816226322069
 21
1216.408749948979
 31
0.0
  0
LWPOLYLINE
  5
EC3
330
1F
100
AcDbEntity
  8
Hewi
  6
CUSTOM
 62
    18
420
        0
370
     9
100
AcDbPolyline
 90
        3
 70
     0
 43
0.0
 10
1932.517810229615
 20
1212.3088517336
 10
1932.477349352717
 20
1212.372717077294
 10
1932.33283923064
 20
1212.539384524738
  0
LWPOLYLINE
  5
EC4
330
1F
100
AcDbEntity
  8
Hewi
  6
CUSTOM
 62
    18
420
        0
370
     9
100
AcDbPolyline
 90
        3
 70
     0
 43
0.0
 10
1932.123715125992
 20
1212.733750430674
 10
1932.305417486004
 20
1212.571010767366
 10
1932.326596713395
 20
1212.546584189369
  0
LWPOLYLINE
  5
EC5
330
1F
100
AcDbEntity
  8
Hewi
  6
CUSTOM
 62
    18
420
        0
370
     9
100
AcDbPolyline
 90
        3
 70
     0
 43
0.0
 10
1929.444903171897
 20
1214.938370362502
 10
1929.625250342047
 20
1214.843005679761
 10
1929.8979798924
 20
1214.660346006969
  0
LINE
  5
EC6
330
1F
100
AcDbEntity
  8
Hewi
  6
CUSTOM
 62
    18
420
        0
370
     9
100
AcDbLine
 10
1930.036051487284
 20
1214.567873033982
 30
0.0
 11
1930.193957457791
 21
1214.462116056538
 31
0.0
  0
LINE
  5
EC7
330
1F
100
AcDbEntity
  8
Hewi
  6
CUSTOM
 62
    18
420
        0
370
     9
100
AcDbLine
 10
1935.117614912407
 20
1201.405170135889
 30
0.0
 11
1934.872345247811
 21
1200.469985491862
 31
0.0
  0
LWPOLYLINE
  5
EC8
330
1F
100
AcDbEntity
  8
Hewi
  6
CUSTOM
 62
    18
420
        0
370
     9
100
AcDbPolyline
 90
        3
 70
     0
 43
0.0
 10
1935.273990743185
 20
1202.307769662377
 10
1935.451607743478
 20
1203.749085476553
 10
1935.447813550661
 20
1203.844542864553
  0
LWPOLYLINE
  5
EC9
330
1F
100
AcDbEntity
  8
Hewi
  6
CUSTOM
 62
    18
420
        0
370
     9
100
AcDbPolyline
 90
       41
 70
     0
 43
0.0
 10
2022.743303892716
 20
1023.246093490812
 10
1912.769452301607
 20
980.3188666046299
 10
1908.896165089587
 20
978.8094612833027
 10
1905.227863007857
 20
977.3799378890126
 10
1902.922712042611
 20
976.4816293095192
 10
1898.708404113822
 20
974.8393295095777
 10
1895.109983326521
 20
973.437038590413
 10
1892.215965986961
 20
972.3092510205203
 10
1890.095301638979
 20
971.4828361753607
 10
1889.046150472094
 20
971.0739859488002
 10
1888.476850860224
 20
970.8521320514373
 10
1888.367836040928
 20
970.8096493902413
 10
1887.500130068685
 20
970.527316623311
 10
1885.09894599963
 20
970.2720242732102
 10
1884.270129834668
 20
970.3525794432989
 10
1882.730803976857
 20
970.7443922214586
 10
1880.611855371262
 20
971.9020104361787
 10
1878.934477760467
 20
973.6395418706633
 10
1877.852874027546
 20
975.7981359750374
 10
1877.637016806893
 20
976.6026675374158
 10
1877.463903161221
 20
978.1815700133154
 10
1877.605028252746
 20
979.7637994756806
 10
1877.803134162397
 20
980.5718832722616
 10
1878.841153504752
 20
982.7526228234093
 10
1880.474549185779
 20
984.5182090318594
 10
1882.558241363673
 20
985.7176589082737
 10
1882.803291769439
 20
985.8131541210513
 10
1883.533784233769
 20
986.0978242610343
 10
1884.285706961723
 20
986.3908456933932
 10
1886.406371309705
 20
987.2172605385546
 10
1889.300388649258
 20
988.3450481084473
 10
1892.898809436567
 20
989.74733902761
 10
1897.113117365351
 20
991.3896388275516
 10
1900.615567841657
 20
992.7545304808734
 10
1904.357478220168
 20
994.2127387489636
 10
1906.959857624347
 20
995.2268761226623
 10
2017.26142448658
 20
1038.210977961464
 10
2022.613541420342
 20
1040.833302189225
 10
2026.729913327727
 20
1044.134243610195
 10
2028.485045856268
 20
1045.890388000634
 10
2030.004193157503
 20
1047.693018985137
  0
LWPOLYLINE
  5
ECA
330
1F
100
AcDbEntity
  8
Hewi
  6
CUSTOM
 62
    18
420
        0
370
     9
100
AcDbPolyline
 90
        3
 70
     0
 43
0.0
 10
1935.205771121455
 20
1201.754185154832
 10
1935.204221709323
 20
1201.741612077925
 10
1935.199244926337
 20
1201.720672721776
  0
LINE
  5
ECB
330
1F
100
AcDbEntity
  8
Hewi
  6
CUSTOM
 62
    18
420
        0
370
     9
100
AcDbLine
 10
1927.711506807358
 20
1215.83014325815
 30
0.0
 11
1926.217588055606
 21
1216.315056132456
 31
0.0
  0
LWPOLYLINE
  5
ECC
330
1F
100
AcDbEntity
  8
Hewi
  6
CUSTOM
 62
    18
420
        0
370
     9
100
AcDbPolyline
 90
        3
 70
     0
 43
0.0
 10
1924.429055035595
 20
1216.614120283528
 10
1925.242505316823
 20
1216.557062942758
 10
1925.496560485655
 20
1216.502861480612
  0
LWPOLYLINE
  5
ECD
330
1F
100
AcDbEntity
  8
Hewi
  6
CUSTOM
 62
    18
420
        0
370
     9
100
AcDbPolyline
 90
        3
 70
     0
 43
0.0
 10
1928.486098662938
 20
1193.072885464491
 10
1928.726755996762
 20
1193.175634054916
 10
1928.886853754982
 20
1193.264607747849
  0
LWPOLYLINE
  5
ECE
330
1F
100
AcDbEntity
  8
Hewi
  6
CUSTOM
 62
    18
420
        0
370
     9
100
AcDbPolyline
 90
        3
 70
     0
 43
0.0
 10
1926.000008451559
 20
1216.385680556353
 10
1925.912160806816
 20
1216.414195128425
 10
1925.886791527878
 20
1216.419607543445
  0
LWPOLYLINE
  5
ECF
330
1F
100
AcDbEntity
  8
Hewi
  6
CUSTOM
 62
    18
420
        0
370
     9
100
AcDbPolyline
 90
        7
 70
     0
 43
0.0
 10
2022.743303892716
 20
1023.246093490812
 10
2030.533697650877
 20
1027.05579300359
 10
2030.913105996699
 20
1027.307752163708
 10
2037.632789035408
 20
1032.435643660528
 10
2040.226241066161
 20
1035.031491075144
 10
2042.612894921548
 20
1037.844040042349
 10
2162.45970912788
 20
1191.266983609228
  0
LWPOLYLINE
  5
ED0
330
1F
100
AcDbEntity
  8
Hewi
  6
CUSTOM
 62
    18
420
        0
370
     9
100
AcDbPolyline
 90
        3
 70
     0
 43
0.0
 10
1929.401297727272
 20
1193.565799611882
 10
1929.32504556029
 20
1193.508131102364
 10
1929.229486713389
 20
1193.455024652929
  0
LINE
  5
ED1
330
1F
100
AcDbEntity
  8
Hewi
  6
CUSTOM
 62
    18
420
        0
370
     9
100
AcDbLine
 10
1927.895262165296
 20
1215.728879481543
 30
0.0
 11
1927.711506807358
 21
1215.83014325815
 31
0.0
  0
LINE
  5
ED2
330
1F
100
AcDbEntity
  8
Hewi
  6
CUSTOM
 62
    18
420
        0
370
     9
100
AcDbLine
 10
1930.234274032703
 20
1214.426006972284
 30
0.0
 11
1930.193957457791
 21
1214.462116056538
 31
0.0
  0
LWPOLYLINE
  5
ED3
330
1F
100
AcDbEntity
  8
Hewi
  6
CUSTOM
 62
    18
420
        0
370
     9
100
AcDbPolyline
 90
        3
 70
     0
 43
0.0
 10
1934.98177265784
 20
1200.887219442231
 10
1935.030850595623
 20
1201.012169081328
 10
1935.139165302589
 20
1201.467893237097
  0
LWPOLYLINE
  5
ED4
330
1F
100
AcDbEntity
  8
Hewi
  6
CUSTOM
 62
    18
420
        0
370
     9
100
AcDbPolyline
 90
        5
 70
     0
 43
0.0
 10
2030.135631643312
 20
1026.86112864095
 10
2029.9225985044
 20
1026.707105323144
 10
2026.721380423333
 20
1024.990592909118
 10
2026.070682490004
 20
1024.699454674435
 10
2023.395865327235
 20
1023.537957924833
  0
LINE
  5
ED5
330
1F
100
AcDbEntity
  8
Hewi
  6
CUSTOM
 62
    18
420
        0
370
     9
100
AcDbLine
 10
1929.058039751181
 20
1193.359743684979
 30
0.0
 11
1929.115764518457
 21
1193.391823995003
 31
0.0
  0
LINE
  5
ED6
330
1F
100
AcDbEntity
  8
Hewi
  6
CUSTOM
 62
    18
420
        0
370
     9
100
AcDbLine
 10
1930.193957457791
 20
1214.462116056538
 30
0.0
 11
1930.108773242696
 21
1214.509059315362
 31
0.0
  0
LINE
  5
ED7
330
1F
100
AcDbEntity
  8
Hewi
  6
CUSTOM
 62
    18
420
        0
370
     9
100
AcDbLine
 10
2023.395865327235
 20
1023.537957924833
 30
0.0
 11
2022.743303892716
 21
1023.246093490812
 31
0.0
  0
LINE
  5
ED8
330
1F
100
AcDbEntity
  8
Hewi
  6
CUSTOM
 62
    18
420
        0
370
     9
100
AcDbLine
 10
2267.035342763811
 20
1217.711985411364
 30
0.0
 11
2267.379342761244
 21
1217.958985410212
 31
0.0
  0
LINE
  5
ED9
330
1F
100
AcDbEntity
  8
Hewi
  6
CUSTOM
 62
    18
420
        0
370
     9
100
AcDbLine
 10
2267.770342758319
 20
1226.183985371812
 30
0.0
 11
2267.035342763811
 21
1226.821985368835
 31
0.0
  0
LWPOLYLINE
  5
EDA
330
1F
100
AcDbEntity
  8
Hewi
  6
CUSTOM
 62
    18
420
        0
370
     9
100
AcDbPolyline
 90
       53
 70
     0
 43
0.0
 10
2265.462342775577
 20
1217.266985413444
 10
2265.578342774711
 20
1217.266985413444
 10
2266.181342770204
 20
1217.266985413444
 10
2267.289342761916
 20
1217.266985413444
 10
2269.507342745328
 20
1217.266985413444
 10
2272.49134272301
 20
1217.266985413444
 10
2276.128342695815
 20
1217.266985413444
 10
2280.27834266478
 20
1217.266985413444
 10
2282.495342648198
 20
1217.266985413444
 10
2285.940342622442
 20
1217.266985413444
 10
2289.462342596099
 20
1217.266985413444
 10
2427.4623415641
 20
1217.266985413444
 10
2430.850341538768
 20
1217.266985413444
 10
2434.10734151441
 20
1217.266985413444
 10
2436.163341499033
 20
1217.266985413444
 10
2438.659341480372
 20
1217.266985413444
 10
2440.829341464142
 20
1217.266985413444
 10
2442.075341454827
 20
1217.266985413444
 10
2443.463341444444
 20
1217.266985413444
 10
2444.104341439647
 20
1217.266985413444
 10
2445.119341432063
 20
1217.266985413444
 10
2445.462341429495
 20
1217.266985413444
 10
2446.540341421435
 20
1217.466985412509
 10
2447.379341415159
 20
1217.958985410212
 10
2448.017341410389
 20
1218.69398540678
 10
2448.348341407914
 20
1219.449985403253
 10
2448.46234140706
 20
1220.266985399437
 10
2448.46234140706
 20
1224.266985380764
 10
2448.348341407914
 20
1225.083985376947
 10
2448.017341410389
 20
1225.839985373419
 10
2447.379341415159
 20
1226.574985369985
 10
2446.540341421435
 20
1227.066985367692
 10
2445.462341429495
 20
1227.266985366757
 10
2445.318341430571
 20
1227.266985366757
 10
2444.461341436982
 20
1227.266985366757
 10
2442.8813414488
 20
1227.266985366757
 10
2441.451341459488
 20
1227.266985366757
 10
2440.505341466564
 20
1227.266985366757
 10
2437.713341487445
 20
1227.266985366757
 10
2434.526341511279
 20
1227.266985366757
 10
2432.234341528415
 20
1227.266985366757
 10
2430.879341538548
 20
1227.266985366757
 10
2429.299341550362
 20
1227.266985366757
 10
2427.4623415641
 20
1227.266985366757
 10
2289.462342596099
 20
1227.266985366757
 10
2285.196342628002
 20
1227.266985366757
 10
2281.794342653443
 20
1227.266985366757
 10
2277.124342688367
 20
1227.266985366757
 10
2272.49134272301
 20
1227.266985366757
 10
2268.877342750039
 20
1227.266985366757
 10
2266.72034276617
 20
1227.266985366757
 10
2265.844342772722
 20
1227.266985366757
 10
2265.462342775577
 20
1227.266985366757
  0
LWPOLYLINE
  5
EDB
330
1F
100
AcDbEntity
  8
Hewi
  6
CUSTOM
 62
    18
420
        0
370
     9
100
AcDbPolyline
 90
       10
 70
     0
 43
0.0
 10
1909.962345434094
 20
1217.266985413444
 10
2247.462342910184
 20
1217.266985413444
 10
2250.662342886255
 20
1217.266985413444
 10
2253.213342867181
 20
1217.266985413444
 10
2256.716342840983
 20
1217.266985413444
 10
2260.190342815004
 20
1217.266985413444
 10
2262.901342794732
 20
1217.266985413444
 10
2264.519342782628
 20
1217.266985413444
 10
2265.175342777725
 20
1217.266985413444
 10
2265.462342775577
 20
1217.266985413444
  0
LWPOLYLINE
  5
EDC
330
1F
100
AcDbEntity
  8
Hewi
  6
CUSTOM
 62
    18
420
        0
370
     9
100
AcDbPolyline
 90
        3
 70
     0
 43
0.0
 10
2033.792237024274
 20
1029.504860482668
 10
2036.761913648566
 20
1031.651941677737
 10
2037.290423538271
 20
1032.174379383878
  0
LINE
  5
EDD
330
1F
100
AcDbEntity
  8
Hewi
  6
CUSTOM
 62
    18
420
        0
370
     9
100
AcDbLine
 10
2030.004193157503
 20
1047.693018985137
 30
0.0
 11
2026.727951025273
 21
1044.132670047682
 31
0.0
  0
LINE
  5
EDE
330
1F
100
AcDbEntity
  8
Hewi
  6
CUSTOM
 62
    18
420
        0
370
     9
100
AcDbLine
 10
2266.540342767516
 20
1227.066985367692
 30
0.0
 11
2266.279342769466
 21
1227.152985367291
 31
0.0
  0
LINE
  5
EDF
330
1F
100
AcDbEntity
  8
Hewi
  6
CUSTOM
 62
    18
420
        0
370
     9
100
AcDbLine
 10
2142.156506392686
 20
1191.266984864997
 30
0.0
 11
2030.004193157503
 21
1047.693018985137
 31
0.0
  0
LWPOLYLINE
  5
EE0
330
1F
100
AcDbEntity
  8
Hewi
  6
CUSTOM
 62
    18
420
        0
370
     9
100
AcDbPolyline
 90
        3
 70
     0
 43
0.0
 10
1911.045345425992
 20
1226.574985369985
 10
1911.389345423416
 20
1226.821985368835
 10
1911.694054109165
 20
1226.955396182677
  0
LWPOLYLINE
  5
EE1
330
1F
100
AcDbEntity
  8
Hewi
  6
CUSTOM
 62
    18
420
        0
370
     9
100
AcDbPolyline
 90
        6
 70
     0
 43
0.0
 10
2268.348342753994
 20
1219.449985403251
 10
2268.462342753144
 20
1220.266985399437
 10
2268.462342753144
 20
1224.266985380764
 10
2268.348342753994
 20
1225.083985376947
 10
2268.262342754638
 20
1225.34498537573
 10
2267.770342758319
 20
1226.183985371812
  0
LINE
  5
EE2
330
1F
100
AcDbEntity
  8
Hewi
  6
CUSTOM
 62
    18
420
        0
370
     9
100
AcDbLine
 10
2268.01734275647
 20
1218.69398540678
 30
0.0
 11
2268.348342753994
 21
1219.449985403251
 31
0.0
  0
LWPOLYLINE
  5
EE3
330
1F
100
AcDbEntity
  8
Hewi
  6
CUSTOM
 62
    18
420
        0
370
     9
100
AcDbPolyline
 90
        4
 70
     0
 43
0.0
 10
2265.462342775577
 20
1217.266985413444
 10
2266.279342769466
 20
1217.38098541291
 10
2266.540342767516
 20
1217.466985412509
 10
2267.379342761244
 20
1217.958985410212
  0
LINE
  5
EE4
330
1F
100
AcDbEntity
  8
Hewi
  6
CUSTOM
 62
    18
420
        0
370
     9
100
AcDbLine
 10
2021.699244033873
 20
1040.385332868016
 30
0.0
 11
2023.827096605495
 21
1041.806458824059
 31
0.0
  0
LINE
  5
EE5
330
1F
100
AcDbEntity
  8
Hewi
  6
CUSTOM
 62
    18
420
        0
370
     9
100
AcDbLine
 10
2267.035342763811
 20
1226.821985368835
 30
0.0
 11
2266.279342769466
 21
1227.152985367291
 31
0.0
  0
LINE
  5
EE6
330
1F
100
AcDbEntity
  8
Hewi
  6
CUSTOM
 62
    18
420
        0
370
     9
100
AcDbLine
 10
2267.770342758319
 20
1218.349985408387
 30
0.0
 11
2268.01734275647
 21
1218.69398540678
 31
0.0
  0
LINE
  5
EE7
330
1F
100
AcDbEntity
  8
Hewi
  6
CUSTOM
 62
    18
420
        0
370
     9
100
AcDbLine
 10
2267.379342761244
 20
1217.958985410212
 30
0.0
 11
2268.01734275647
 21
1218.69398540678
 31
0.0
  0
LINE
  5
EE8
330
1F
100
AcDbEntity
  8
Hewi
  6
CUSTOM
 62
    18
420
        0
370
     9
100
AcDbLine
 10
2266.279342769466
 20
1227.152985367291
 30
0.0
 11
2265.462342775577
 21
1227.266985366757
 31
0.0
  0
LINE
  5
EE9
330
1F
100
AcDbEntity
  8
Hewi
  6
CUSTOM
 62
    18
420
        0
370
     9
100
AcDbLine
 10
2267.770342758319
 20
1226.183985371812
 30
0.0
 11
2268.01734275647
 21
1225.839985373419
 31
0.0
  0
LINE
  5
EEA
330
1F
100
AcDbEntity
  8
Hewi
  6
CUSTOM
 62
    18
420
        0
370
     9
100
AcDbLine
 10
2267.035342763811
 20
1226.821985368835
 30
0.0
 11
2267.379342761244
 21
1226.574985369985
 31
0.0
  0
LINE
  5
EEB
330
1F
100
AcDbEntity
  8
Hewi
  6
CUSTOM
 62
    18
420
        0
370
     9
100
AcDbLine
 10
2268.262342754638
 20
1219.188985404471
 30
0.0
 11
2268.348342753994
 21
1219.449985403251
 31
0.0
  0
LINE
  5
EEC
330
1F
100
AcDbEntity
  8
Hewi
  6
CUSTOM
 62
    18
420
        0
370
     9
100
AcDbLine
 10
2023.395865327235
 20
1023.537957924833
 30
0.0
 11
2025.583030921568
 21
1024.634791805713
 31
0.0
  0
LWPOLYLINE
  5
EED
330
1F
100
AcDbEntity
  8
Hewi
  6
CUSTOM
 62
    18
420
        0
370
     9
100
AcDbPolyline
 90
       13
 70
     0
 43
0.0
 10
1911.045345425992
 20
1226.574985369985
 10
1911.884345419715
 20
1227.066985367692
 10
1912.145345417767
 20
1227.152985367291
 10
1912.962345411655
 20
1227.266985366757
 10
2247.462342910184
 20
1227.266985366757
 10
2250.974342883921
 20
1227.266985366757
 10
2254.350342858674
 20
1227.266985366757
 10
2257.462342835403
 20
1227.266985366757
 10
2260.190342815004
 20
1227.266985366757
 10
2262.428342798266
 20
1227.266985366757
 10
2264.092342785822
 20
1227.266985366757
 10
2265.116342778164
 20
1227.266985366757
 10
2265.462342775577
 20
1227.266985366757
  0
LINE
  5
EEE
330
1F
100
AcDbEntity
  8
Hewi
  6
CUSTOM
 62
    18
420
        0
370
     9
100
AcDbLine
 10
1911.045345425992
 20
1226.574985369985
 30
0.0
 11
1910.407345430762
 21
1225.839985373419
 31
0.0
  0
LWPOLYLINE
  5
EEF
330
1F
100
AcDbEntity
  8
Hewi
  6
CUSTOM
 62
    18
420
        0
370
     9
100
AcDbPolyline
 90
        3
 70
     0
 43
0.0
 10
1909.962345434094
 20
1217.266985413444
 10
1909.962345434094
 20
1224.266985380764
 10
1910.075345433244
 20
1225.083985376947
  0
LWPOLYLINE
  5
EF0
330
1F
100
AcDbEntity
  8
Hewi
  6
CUSTOM
 62
    18
420
        0
370
     9
100
AcDbPolyline
 90
        3
 70
     0
 43
0.0
 10
1910.407345430762
 20
1225.839985373419
 10
1910.654345428916
 20
1226.183985371812
 10
1910.863657147034
 20
1226.365673639208
  0
LWPOLYLINE
  5
EF1
330
1F
100
AcDbEntity
  8
Hewi
  6
CUSTOM
 62
    18
420
        0
370
     9
100
AcDbPolyline
 90
        6
 70
     0
 43
0.0
 10
1912.962345411655
 20
1220.266985399437
 10
1911.884345419715
 20
1219.188985404471
 10
1911.045345425992
 20
1218.349985408387
 10
1910.407345430762
 20
1217.711985411364
 10
1910.08434543318
 20
1217.387985412879
 10
1909.962345434094
 20
1217.266985413444
  0
LWPOLYLINE
  5
EF2
330
1F
100
AcDbEntity
  8
Hewi
  6
CUSTOM
 62
    18
420
        0
370
     9
100
AcDbPolyline
 90
        3
 70
     0
 43
0.0
 10
1910.075345433244
 20
1225.083985376947
 10
1910.162345432597
 20
1225.34498537573
 10
1910.272329579085
 20
1225.532539642319
  0
LINE
  5
EF3
330
1F
100
AcDbEntity
  8
Hewi
  6
CUSTOM
 62
    18
420
        0
370
     9
100
AcDbLine
 10
1910.407345430762
 20
1225.839985373419
 30
0.0
 11
1910.075345433244
 21
1225.083985376947
 31
0.0
  0
LWPOLYLINE
  5
EF4
330
1F
100
AcDbEntity
  8
Hewi
  6
CUSTOM
 62
    18
420
        0
370
     9
100
AcDbPolyline
 90
       11
 70
     0
 43
0.0
 10
1922.962345336873
 20
1191.266985534828
 10
2247.462342910184
 20
1191.266985534828
 10
2250.285342889073
 20
1191.266985534828
 10
2253.000342868775
 20
1191.266985534828
 10
2254.713342855965
 20
1191.266985534828
 10
2257.427342835665
 20
1191.266985534828
 10
2259.640342819116
 20
1191.266985534828
 10
2260.796342810467
 20
1191.266985534828
 10
2261.331342806473
 20
1191.266985534828
 10
2262.176342800151
 20
1191.266985534828
 10
2262.462342798015
 20
1191.266985534828
  0
LINE
  5
EF5
330
1F
100
AcDbEntity
  8
Hewi
  6
CUSTOM
 62
    18
420
        0
370
     9
100
AcDbLine
 10
1922.962345336873
 20
1191.266985534828
 30
0.0
 11
1921.174345350241
 21
1191.390985534248
 31
0.0
  0
LINE
  5
EF6
330
1F
100
AcDbEntity
  8
Hewi
  6
CUSTOM
 62
    18
420
        0
370
     9
100
AcDbLine
 10
1922.962345336873
 20
1191.266985534828
 30
0.0
 11
1921.583345347185
 21
1191.339985534487
 31
0.0
  0
LWPOLYLINE
  5
F5F
330
1F
100
AcDbEntity
  8
Hewi
  6
CUSTOM
 62
    18
420
        0
370
     9
100
AcDbPolyline
 90
       14
 70
     0
 43
0.0
 10
1680.805483526762
 20
644.5958050533844
 10
1650.805484954442
 20
644.5958050533844
 10
1649.443485019259
 20
644.5958050533844
 10
1648.183485079218
 20
644.5958050533844
 10
1646.959485137471
 20
644.5958050533844
 10
1646.139485176492
 20
644.5958050533844
 10
1645.805485192387
 20
644.5958050533844
 10
1645.805485192387
 20
639.5958052913282
 10
1645.939485186012
 20
639.5958052913282
 10
1646.408485163691
 20
639.5958052913282
 10
1647.182485126857
 20
639.5958052913282
 10
1648.834485048238
 20
639.5958052913282
 10
1650.805484954442
 20
639.5958052913282
 10
1680.805483526762
 20
639.5958052913282
  0
LWPOLYLINE
  5
F60
330
1F
100
AcDbEntity
  8
Hewi
  6
CUSTOM
 62
    18
420
        0
370
     9
100
AcDbPolyline
 90
        4
 70
     0
 43
0.0
 10
1690.805483050873
 20
634.5958055292757
 10
1690.805483050873
 20
589.0958076945842
 10
1690.805483050873
 20
586.9128077984713
 10
1690.805483050873
 20
585.3158078744727
  0
LWPOLYLINE
  5
F61
330
1F
100
AcDbEntity
  8
Hewi
  6
CUSTOM
 62
    18
420
        0
370
     9
100
AcDbPolyline
 90
       14
 70
     0
 43
0.0
 10
1690.805483050873
 20
577.7198082359591
 10
1690.805483050873
 20
577.1858082613724
 10
1690.805483050873
 20
576.8598082768857
 10
1690.805483050873
 20
576.6008082892112
 10
1685.805483288822
 20
576.6008082892112
 10
1685.805483288822
 20
576.6658082861193
 10
1685.805483288822
 20
577.1808082616097
 10
1685.805483288822
 20
578.1918082134997
 10
1685.805483288822
 20
579.7298081403059
 10
1685.805483288822
 20
581.6908080469837
 10
1685.805483288822
 20
583.9308079403836
 10
1685.805483288822
 20
586.5148078174114
 10
1685.805483288822
 20
589.0958076945842
 10
1685.805483288822
 20
634.5958055292757
  0
LWPOLYLINE
  5
F62
330
1F
100
AcDbEntity
  8
Hewi
  6
CUSTOM
 62
    18
420
        0
370
     9
100
AcDbPolyline
 90
        3
 70
     0
 43
0.0
 10
1687.881923810425
 20
641.6184113428407
 10
1687.698483198731
 20
641.8398051845379
 10
1686.418483259647
 20
642.8718051354262
  0
LINE
  5
F63
330
1F
100
AcDbEntity
  8
Hewi
  6
CUSTOM
 62
    18
420
        0
370
     9
100
AcDbLine
 10
1682.776483432964
 20
639.1908053106035
 30
0.0
 11
1680.805483526762
 21
639.5958052913282
 31
0.0
  0
LWPOLYLINE
  5
F64
330
1F
100
AcDbEntity
  8
Hewi
  6
CUSTOM
 62
    18
420
        0
370
     9
100
AcDbPolyline
 90
        4
 70
     0
 43
0.0
 10
1685.805483288822
 20
634.5958055292757
 10
1685.76548329072
 20
635.2278054991983
 10
1685.321483311854
 20
636.7418054271492
 10
1684.428483354349
 20
638.0418053652829
  0
LINE
  5
F65
330
1F
100
AcDbEntity
  8
Hewi
  6
CUSTOM
 62
    18
420
        0
370
     9
100
AcDbLine
 10
1684.428483354349
 20
638.0418053652829
 30
0.0
 11
1682.776483432964
 21
639.1908053106035
 31
0.0
  0
LINE
  5
F66
330
1F
100
AcDbEntity
  8
Hewi
  6
CUSTOM
 62
    18
420
        0
370
     9
100
AcDbLine
 10
1689.054483134205
 20
640.248805260253
 30
0.0
 11
1690.018483088326
 21
638.4848053442018
 31
0.0
  0
LWPOLYLINE
  5
F67
330
1F
100
AcDbEntity
  8
Hewi
  6
CUSTOM
 62
    18
420
        0
370
     9
100
AcDbPolyline
 90
        3
 70
     0
 43
0.0
 10
1690.406483069862
 20
637.3928053961699
 10
1690.170483081092
 20
638.1028053623793
 10
1690.018483088326
 20
638.4848053442018
  0
LINE
  5
F68
330
1F
100
AcDbEntity
  8
Hewi
  6
CUSTOM
 62
    18
420
        0
370
     9
100
AcDbLine
 10
1680.805483526762
 20
644.5958050533844
 30
0.0
 11
1684.416483354918
 21
643.9208050855068
 31
0.0
  0
LWPOLYLINE
  5
F69
330
1F
100
AcDbEntity
  8
Hewi
  6
CUSTOM
 62
    18
420
        0
370
     9
100
AcDbPolyline
 90
       16
 70
     0
 43
0.0
 10
1241.80550084924
 20
640.5958052437398
 10
1241.80550084924
 20
634.5958055292757
 10
1242.089500835728
 20
634.5958055292757
 10
1242.919500796228
 20
634.5958055292757
 10
1244.513500720374
 20
634.5958055292757
 10
1246.611500620531
 20
634.5958055292757
 10
1249.305500492325
 20
634.5958055292757
 10
1304.305497874915
 20
634.5958055292757
 10
1305.639497811432
 20
634.5958055292757
 10
1307.443497725583
 20
634.5958055292757
 10
1309.045497649344
 20
634.5958055292757
 10
1309.960497605798
 20
634.5958055292757
 10
1311.066497553164
 20
634.5958055292757
 10
1311.68549752371
 20
634.5958055292757
 10
1311.805497518
 20
634.5958055292757
 10
1311.805497518
 20
640.5958052437398
  0
LWPOLYLINE
  5
F6A
330
1F
100
AcDbEntity
  8
Hewi
  6
CUSTOM
 62
    18
420
        0
370
     9
100
AcDbPolyline
 90
        4
 70
     0
 43
0.0
 10
1686.418483259647
 20
642.8718051354262
 10
1685.805483288822
 20
643.2558051171525
 10
1684.582483347017
 20
643.8548050886473
 10
1684.416483354918
 20
643.9208050855068
  0
LWPOLYLINE
  5
F6B
330
1F
100
AcDbEntity
  8
Hewi
  6
CUSTOM
 62
    18
420
        0
370
     9
100
AcDbPolyline
 90
        3
 70
     0
 43
0.0
 10
1686.418483259647
 20
642.8718051354262
 10
1688.118483178743
 20
641.4158052047188
 10
1689.054483134205
 20
640.248805260253
  0
LWPOLYLINE
  5
F6C
330
1F
100
AcDbEntity
  8
Hewi
  6
CUSTOM
 62
    18
420
        0
370
     9
100
AcDbPolyline
 90
        3
 70
     0
 43
0.0
 10
1690.691483056297
 20
636.1028054575581
 10
1690.70248305577
 20
636.0238054613183
 10
1690.805483050873
 20
634.5958055292757
  0
LINE
  5
F6D
330
1F
100
AcDbEntity
  8
Hewi
  6
CUSTOM
 62
    18
420
        0
370
     9
100
AcDbLine
 10
1680.805483526762
 20
639.5958052913282
 30
0.0
 11
1683.035182612103
 21
639.0057233111673
 31
0.0
  0
LWPOLYLINE
  5
F6E
330
1F
100
AcDbEntity
  8
Hewi
  6
CUSTOM
 62
    18
420
        0
370
     9
100
AcDbPolyline
 90
        5
 70
     0
 43
0.0
 10
1684.347168109248
 20
643.9337621023114
 10
1683.372483404605
 20
644.2608050693252
 10
1682.318483454764
 20
644.4808050588562
 10
1681.211483507442
 20
644.5878050537629
 10
1680.805483526762
 20
644.5958050533844
  0
LWPOLYLINE
  5
F6F
330
1F
100
AcDbEntity
  8
Hewi
  6
CUSTOM
 62
    18
420
        0
370
     9
100
AcDbPolyline
 90
       16
 70
     0
 43
0.0
 10
1311.805497518
 20
610.5958066714156
 10
1311.805497518
 20
616.5958063858814
 10
1311.521497531512
 20
616.5958063858814
 10
1310.691497571011
 20
616.5958063858814
 10
1309.097497646874
 20
616.5958063858814
 10
1306.999497746709
 20
616.5958063858814
 10
1304.305497874915
 20
616.5958063858814
 10
1249.305500492325
 20
616.5958063858814
 10
1247.971500555809
 20
616.5958063858814
 10
1246.167500641658
 20
616.5958063858814
 10
1244.565500717896
 20
616.5958063858814
 10
1243.650500761442
 20
616.5958063858814
 10
1242.544500814076
 20
616.5958063858814
 10
1241.925500843531
 20
616.5958063858814
 10
1241.80550084924
 20
616.5958063858814
 10
1241.80550084924
 20
610.5958066714156
  0
LWPOLYLINE
  5
F70
330
1F
100
AcDbEntity
  8
Hewi
  6
CUSTOM
 62
    18
420
        0
370
     9
100
AcDbPolyline
 90
        3
 70
     0
 43
0.0
 10
1689.054483134205
 20
640.248805260253
 10
1689.206483126966
 20
640.0198052711512
 10
1690.018483088326
 20
638.4848053442018
  0
LINE
  5
F71
330
1F
100
AcDbEntity
  8
Hewi
  6
CUSTOM
 62
    18
420
        0
370
     9
100
AcDbLine
 10
1685.384682045747
 20
636.5263034316795
 30
0.0
 11
1684.428483354349
 21
638.0418053652829
 31
0.0
  0
LINE
  5
F72
330
1F
100
AcDbEntity
  8
Hewi
  6
CUSTOM
 62
    18
420
        0
370
     9
100
AcDbLine
 10
1690.018483088326
 20
638.4848053442018
 30
0.0
 11
1690.406483069862
 21
637.3928053961699
 31
0.0
  0
LINE
  5
F73
330
1F
100
AcDbEntity
  8
Hewi
  6
CUSTOM
 62
    18
420
        0
370
     9
100
AcDbLine
 10
1684.416483354918
 20
643.9208050855068
 30
0.0
 11
1686.418483259647
 21
642.8718051354262
 31
0.0
  0
LINE
  5
F74
330
1F
100
AcDbEntity
  8
Hewi
  6
CUSTOM
 62
    18
420
        0
370
     9
100
AcDbLine
 10
1690.406483069862
 20
637.3928053961699
 30
0.0
 11
1690.691483056297
 21
636.1028054575581
 31
0.0
  0
LINE
  5
F75
330
1F
100
AcDbEntity
  8
Hewi
  6
CUSTOM
 62
    18
420
        0
370
     9
100
AcDbLine
 10
1684.466316524296
 20
637.9818426801447
 30
0.0
 11
1682.776483432964
 21
639.1908053106035
 31
0.0
  0
LINE
  5
F76
330
1F
100
AcDbEntity
  8
Hewi
  6
CUSTOM
 62
    18
420
        0
370
     9
100
AcDbLine
 10
1685.805483288822
 20
634.5958055292757
 30
0.0
 11
1685.559602079167
 21
635.9298418795206
 31
0.0
  0
LINE
  5
F77
330
1F
100
AcDbEntity
  8
Hewi
  6
CUSTOM
 62
    18
420
        0
370
     9
100
AcDbLine
 10
1690.691483056297
 20
636.1028054575581
 30
0.0
 11
1690.805483050873
 21
634.5958055292757
 31
0.0
  0
LWPOLYLINE
  5
F78
330
1F
100
AcDbEntity
  8
Hewi
  6
CUSTOM
 62
    18
420
        0
370
     9
100
AcDbPolyline
 90
       19
 70
     0
 43
0.0
 10
1239.305500968216
 20
610.5958066714156
 10
1239.305500968216
 20
606.5958068617748
 10
1239.533500957363
 20
606.5958068617748
 10
1240.206500925337
 20
606.5958068617748
 10
1240.887500892934
 20
606.5958068617748
 10
1242.059500837155
 20
606.5958068617748
 10
1243.811500753777
 20
606.5958068617748
 10
1245.830500657694
 20
606.5958068617748
 10
1247.283500588552
 20
606.5958068617748
 10
1249.305500492325
 20
606.5958068617748
 10
1304.305497874915
 20
606.5958068617748
 10
1307.076497743047
 20
606.5958068617748
 10
1309.610497622458
 20
606.5958068617748
 10
1311.093497551885
 20
606.5958068617748
 10
1311.846497516045
 20
606.5958068617748
 10
1313.319497445945
 20
606.5958068617748
 10
1314.145497406639
 20
606.5958068617748
 10
1314.305497399024
 20
606.5958068617748
 10
1314.305497399024
 20
610.5958066714156
  0
LWPOLYLINE
  5
F79
330
1F
100
AcDbEntity
  8
Hewi
  6
CUSTOM
 62
    18
420
        0
370
     9
100
AcDbPolyline
 90
        7
 70
     0
 43
0.0
 10
1314.305497399024
 20
634.5942484176102
 10
1314.305497399024
 20
635.5958054816856
 10
1314.305497399024
 20
636.9578054168687
 10
1314.305497399024
 20
638.2178053569077
 10
1314.305497399024
 20
639.4418052986602
 10
1314.305497399024
 20
640.2618052596352
 10
1314.305497399024
 20
640.5958052437398
  0
LWPOLYLINE
  5
F7A
330
1F
100
AcDbEntity
  8
Hewi
  6
CUSTOM
 62
    18
420
        0
370
     9
100
AcDbPolyline
 90
        7
 70
     0
 43
0.0
 10
1239.305500968216
 20
640.5958052437398
 10
1239.305500968216
 20
640.2348052609212
 10
1239.305500968216
 20
639.3848053013697
 10
1239.305500968216
 20
638.1438053604288
 10
1239.305500968216
 20
636.6558054312426
 10
1239.305500968216
 20
635.5958054816856
 10
1239.305500968216
 20
634.5942480450812
  0
LWPOLYLINE
  5
F7B
330
1F
100
AcDbEntity
  8
Hewi
  6
CUSTOM
 62
    18
420
        0
370
     9
100
AcDbPolyline
 90
        7
 70
     0
 43
0.0
 10
1239.305500968216
 20
618.6539715997477
 10
1239.305500968216
 20
615.5958064334718
 10
1239.305500968216
 20
613.7708065203224
 10
1239.305500968216
 20
612.1968065952277
 10
1239.305500968216
 20
611.3238066367721
 10
1239.305500968216
 20
610.7348066648028
 10
1239.305500968216
 20
610.5958066714156
  0
LWPOLYLINE
  5
F7C
330
1F
100
AcDbEntity
  8
Hewi
  6
CUSTOM
 62
    18
420
        0
370
     9
100
AcDbPolyline
 90
        7
 70
     0
 43
0.0
 10
1314.305497399024
 20
610.5958066714156
 10
1314.305497399024
 20
610.784806662421
 10
1314.305497399024
 20
611.3378066361056
 10
1314.305497399024
 20
612.4008065855178
 10
1314.305497399024
 20
613.7998065189422
 10
1314.305497399024
 20
615.5958064334718
 10
1314.305497399024
 20
618.6539713017245
  0
LWPOLYLINE
  5
F7D
330
1F
100
AcDbEntity
  8
Hewi
  6
CUSTOM
 62
    18
420
        0
370
     9
100
AcDbPolyline
 90
       17
 70
     0
 43
0.0
 10
1314.305497399024
 20
640.5958052437398
 10
1314.305497399024
 20
644.5958050533844
 10
1314.077497409877
 20
644.5958050533844
 10
1313.404497441904
 20
644.5958050533844
 10
1312.723497474314
 20
644.5958050533844
 10
1311.551497530085
 20
644.5958050533844
 10
1309.799497613464
 20
644.5958050533844
 10
1307.780497709545
 20
644.5958050533844
 10
1306.327497778695
 20
644.5958050533844
 10
1304.305497874915
 20
644.5958050533844
 10
1249.305500492325
 20
644.5958050533844
 10
1246.580500622006
 20
644.5958050533844
 10
1244.062500741833
 20
644.5958050533844
 10
1241.613500858379
 20
644.5958050533844
 10
1239.973500936425
 20
644.5958050533844
 10
1239.305500968216
 20
644.5958050533844
 10
1239.305500968216
 20
640.5958052437398
  0
LWPOLYLINE
  5
F7E
330
1F
100
AcDbEntity
  8
Hewi
  6
CUSTOM
 62
    18
420
        0
370
     9
100
AcDbPolyline
 90
       15
 70
     0
 43
0.0
 10
1314.305497399024
 20
610.5958066714156
 10
1314.077497409877
 20
610.5958066714156
 10
1313.404497441904
 20
610.5958066714156
 10
1312.723497474314
 20
610.5958066714156
 10
1311.551497530085
 20
610.5958066714156
 10
1309.799497613464
 20
610.5958066714156
 10
1307.780497709545
 20
610.5958066714156
 10
1306.327497778695
 20
610.5958066714156
 10
1304.305497874915
 20
610.5958066714156
 10
1249.305500492325
 20
610.5958066714156
 10
1246.580500622006
 20
610.5958066714156
 10
1244.062500741833
 20
610.5958066714156
 10
1241.613500858379
 20
610.5958066714156
 10
1239.973500936425
 20
610.5958066714156
 10
1239.305500968216
 20
610.5958066714156
  0
LWPOLYLINE
  5
F7F
330
1F
100
AcDbEntity
  8
Hewi
  6
CUSTOM
 62
    18
420
        0
370
     9
100
AcDbPolyline
 90
       17
 70
     0
 43
0.0
 10
1239.305500968216
 20
640.5958052437398
 10
1239.533500957363
 20
640.5958052437398
 10
1240.206500925337
 20
640.5958052437398
 10
1240.887500892934
 20
640.5958052437398
 10
1242.059500837155
 20
640.5958052437398
 10
1243.811500753777
 20
640.5958052437398
 10
1245.830500657694
 20
640.5958052437398
 10
1247.283500588552
 20
640.5958052437398
 10
1249.305500492325
 20
640.5958052437398
 10
1304.305497874915
 20
640.5958052437398
 10
1307.076497743047
 20
640.5958052437398
 10
1309.610497622458
 20
640.5958052437398
 10
1311.093497551885
 20
640.5958052437398
 10
1311.846497516045
 20
640.5958052437398
 10
1313.319497445945
 20
640.5958052437398
 10
1314.145497406639
 20
640.5958052437398
 10
1314.305497399024
 20
640.5958052437398
  0
LWPOLYLINE
  5
F80
330
1F
100
AcDbEntity
  8
Hewi
  6
CUSTOM
 62
    18
420
        0
370
     9
100
AcDbPolyline
 90
       20
 70
     0
 43
0.0
 10
1690.805483050873
 20
601.5638071012435
 10
1695.805482812927
 20
601.5958070997202
 10
1697.805482717748
 20
599.5958071948989
 10
1697.805482717748
 20
599.4358072025134
 10
1697.805482717748
 20
598.7968072329204
 10
1697.805482717748
 20
597.6968072852704
 10
1697.805482717748
 20
596.1898073569864
 10
1697.805482717748
 20
594.3458074447407
 10
1697.805482717748
 20
592.2528075443442
 10
1697.805482717748
 20
590.0108076510405
 10
1697.805482717748
 20
587.7248077598306
 10
1697.805482717748
 20
585.5048078654781
 10
1697.805482717748
 20
583.4538079630837
 10
1697.805482717748
 20
581.6708080479347
 10
1697.805482717748
 20
580.3718081097522
 10
1697.805482717748
 20
579.3388081589126
 10
1697.805482717748
 20
578.7858081852282
 10
1697.805482717748
 20
578.5958081942717
 10
1695.805482812927
 20
576.5958082894521
 10
1690.805483050873
 20
576.6138082885936
  0
LWPOLYLINE
  5
F81
330
1F
100
AcDbEntity
  8
Hewi
  6
CUSTOM
 62
    18
420
        0
370
     9
100
AcDbPolyline
 90
        3
 70
     0
 43
0.0
 10
867.8055150784203
 20
601.085499124003
 10
868.3055150546243
 20
601.5850696002306
 10
873.1409615398661
 20
601.5850696002306
  0
LINE
  5
F82
330
1F
100
AcDbEntity
  8
Hewi
  6
CUSTOM
 62
    18
420
        0
370
     9
100
AcDbLine
 10
1695.805482812927
 20
601.0798071242752
 30
0.0
 11
1695.805482812927
 21
599.5758071958497
 31
0.0
  0
LWPOLYLINE
  5
F83
330
1F
100
AcDbEntity
  8
Hewi
  6
CUSTOM
 62
    18
420
        0
370
     9
100
AcDbPolyline
 90
        3
 70
     0
 43
0.0
 10
871.8055149476677
 20
576.6065457889399
 10
868.3055150546243
 20
576.6065457889399
 10
867.8055150784203
 20
577.1060748331673
  0
LINE
  5
F84
330
1F
100
AcDbEntity
  8
Hewi
  6
CUSTOM
 62
    18
420
        0
370
     9
100
AcDbLine
 10
1695.805482812927
 20
589.0958076945842
 30
0.0
 11
1695.805482812927
 21
586.6698078100362
 31
0.0
  0
LWPOLYLINE
  5
F85
330
1F
100
AcDbEntity
  8
Hewi
  6
CUSTOM
 62
    18
420
        0
370
     9
100
AcDbPolyline
 90
       29
 70
     0
 43
0.0
 10
862.8055153163657
 20
601.5638071012435
 10
857.8055155543077
 20
601.5958070997202
 10
855.8055156494882
 20
599.5958071948989
 10
855.8055156494882
 20
599.3468072067479
 10
855.8055156494882
 20
598.6118072417248
 10
855.8055156494882
 20
597.4258072981665
 10
855.8055156494882
 20
595.8448073734053
 10
855.8055156494882
 20
593.9438074638728
 10
855.8055156494882
 20
591.8138075652367
 10
855.8055156494882
 20
589.5538076727897
 10
855.8055156494882
 20
587.2728077813389
 10
855.8055156494882
 20
585.0778078857984
 10
855.8055156494882
 20
583.0728079812141
 10
855.8055156494882
 20
581.3548080629716
 10
855.8055156494882
 20
580.0028081273138
 10
855.8055156494882
 20
579.0818081711422
 10
855.8055156494882
 20
578.6358081923698
 10
855.8055156494882
 20
578.5958081942717
 10
857.8055155543077
 20
576.5958082894521
 10
862.8055153163657
 20
576.6138082878187
 10
862.8055153163657
 20
576.6008082892112
 10
867.8055150784203
 20
576.5958082894521
 10
867.8055150784203
 20
577.2078082603258
 10
867.8055150784203
 20
578.9828081758551
 10
867.8055150784203
 20
581.7488080442217
 10
867.8055150784203
 20
583.4208079646542
 10
867.8055150784203
 20
586.1778078334482
 10
867.8055150784203
 20
589.0958076945842
 10
867.8055150784203
 20
634.5958055292757
  0
LWPOLYLINE
  5
F86
330
1F
100
AcDbEntity
  8
Hewi
  6
CUSTOM
 62
    18
420
        0
370
     9
100
AcDbPolyline
 90
        3
 70
     0
 43
0.0
 10
1690.805483050873
 20
579.531808149728
 10
1690.805483050873
 20
578.3408082064068
 10
1690.805483050873
 20
577.7858082328183
  0
LWPOLYLINE
  5
F87
330
1F
100
AcDbEntity
  8
Hewi
  6
CUSTOM
 62
    18
420
        0
370
     9
100
AcDbPolyline
 90
        3
 70
     0
 43
0.0
 10
868.3055150546243
 20
596.8658020018174
 10
868.3055150546243
 20
599.4335648786182
 10
868.3055150546243
 20
600.663500162087
  0
LWPOLYLINE
  5
F88
330
1F
100
AcDbEntity
  8
Hewi
  6
CUSTOM
 62
    18
420
        0
370
     9
100
AcDbPolyline
 90
        3
 70
     0
 43
0.0
 10
868.3055150546243
 20
581.8641958637328
 10
868.3055150546243
 20
584.3466464145931
 10
868.3055150546243
 20
586.1459923429666
  0
LINE
  5
F89
330
1F
100
AcDbEntity
  8
Hewi
  6
CUSTOM
 62
    18
420
        0
370
     9
100
AcDbLine
 10
868.3055150546243
 20
589.9056688620438
 30
0.0
 11
868.3055150546243
 21
593.5903926386909
 31
0.0
  0
LINE
  5
F8A
330
1F
100
AcDbEntity
  8
Hewi
  6
CUSTOM
 62
    18
420
        0
370
     9
100
AcDbLine
 10
1695.805482812927
 20
584.3368079210612
 30
0.0
 11
1695.805482812927
 21
582.8768079905422
 31
0.0
  0
LINE
  5
F8B
330
1F
100
AcDbEntity
  8
Hewi
  6
CUSTOM
 62
    18
420
        0
370
     9
100
AcDbLine
 10
865.5595151853047
 20
641.4868052013371
 30
0.0
 11
867.3115151019265
 21
642.9518051316208
 31
0.0
  0
LWPOLYLINE
  5
F8C
330
1F
100
AcDbEntity
  8
Hewi
  6
CUSTOM
 62
    18
420
        0
370
     9
100
AcDbPolyline
 90
        3
 70
     0
 43
0.0
 10
864.560515232846
 20
640.2538052600156
 10
865.0865152078113
 20
640.9528052267504
 10
865.5595151853047
 20
641.4868052013371
  0
LINE
  5
F8D
330
1F
100
AcDbEntity
  8
Hewi
  6
CUSTOM
 62
    18
420
        0
370
     9
100
AcDbLine
 10
862.8055153163657
 20
576.8948082752229
 30
0.0
 11
862.8055153163657
 21
577.2078082603258
 31
0.0
  0
LWPOLYLINE
  5
F8E
330
1F
100
AcDbEntity
  8
Hewi
  6
CUSTOM
 62
    18
420
        0
370
     9
100
AcDbPolyline
 90
       14
 70
     0
 43
0.0
 10
872.8055148404747
 20
639.5958052913282
 10
902.8055134127935
 20
639.5958052913282
 10
904.3235133405541
 20
639.5958052913282
 10
905.6985132751179
 20
639.5958052913282
 10
906.9405132160099
 20
639.5958052913282
 10
907.6635131816074
 20
639.5958052913282
 10
907.8055131748477
 20
639.5958052913282
 10
907.8055131748477
 20
644.5958050533844
 10
907.6165131838424
 20
644.5958050533844
 10
907.0635132101598
 20
644.5958050533844
 10
906.0005132607473
 20
644.5958050533844
 10
904.6015133273249
 20
644.5958050533844
 10
902.8055134127935
 20
644.5958050533844
 10
872.8055148404747
 20
644.5958050533844
  0
LINE
  5
F8F
330
1F
100
AcDbEntity
  8
Hewi
  6
CUSTOM
 62
    18
420
        0
370
     9
100
AcDbLine
 10
857.8055155543077
 20
596.5258073409986
 30
0.0
 11
857.8055155543077
 21
598.5998072422971
 31
0.0
  0
LINE
  5
F90
330
1F
100
AcDbEntity
  8
Hewi
  6
CUSTOM
 62
    18
420
        0
370
     9
100
AcDbLine
 10
862.8055153163657
 20
578.1918082134997
 30
0.0
 11
862.8055153163657
 21
577.1808082616097
 31
0.0
  0
LWPOLYLINE
  5
F91
330
1F
100
AcDbEntity
  8
Hewi
  6
CUSTOM
 62
    18
420
        0
370
     9
100
AcDbPolyline
 90
        3
 70
     0
 43
0.0
 10
862.8055153163657
 20
580.4618081054703
 10
862.8055153163657
 20
582.0618080293278
 10
862.8055153163657
 20
583.0738079811652
  0
LINE
  5
F92
330
1F
100
AcDbEntity
  8
Hewi
  6
CUSTOM
 62
    18
420
        0
370
     9
100
AcDbLine
 10
857.8055155543077
 20
577.9228082262997
 30
0.0
 11
857.8055155543077
 21
580.1048081224599
 31
0.0
  0
LWPOLYLINE
  5
F93
330
1F
100
AcDbEntity
  8
Hewi
  6
CUSTOM
 62
    18
420
        0
370
     9
100
AcDbPolyline
 90
        5
 70
     0
 43
0.0
 10
872.8055148404747
 20
639.5958052913282
 10
871.0005149263707
 20
639.2588053073686
 10
869.3525150047971
 20
638.2118053571921
 10
868.2315150581453
 20
636.6158054331463
 10
867.8625150757071
 20
635.3498054933934
  0
LINE
  5
F94
330
1F
100
AcDbEntity
  8
Hewi
  6
CUSTOM
 62
    18
420
        0
370
     9
100
AcDbLine
 10
857.8055155543077
 20
589.0958076945842
 30
0.0
 11
857.8055155543077
 21
591.635807573708
 31
0.0
  0
LWPOLYLINE
  5
F95
330
1F
100
AcDbEntity
  8
Hewi
  6
CUSTOM
 62
    18
420
        0
370
     9
100
AcDbPolyline
 90
        5
 70
     0
 43
0.0
 10
862.8855153125586
 20
635.8598054691229
 10
862.8055153163657
 20
634.5958055292757
 10
862.8055153163657
 20
589.0958076945842
 10
862.8055153163657
 20
586.5148078174114
 10
862.8055153163657
 20
583.9308079403836
  0
LINE
  5
F96
330
1F
100
AcDbEntity
  8
Hewi
  6
CUSTOM
 62
    18
420
        0
370
     9
100
AcDbLine
 10
870.7835149366944
 20
644.388805063234
 30
0.0
 11
872.8055148404747
 21
644.5958050533844
 31
0.0
  0
LINE
  5
F97
330
1F
100
AcDbEntity
  8
Hewi
  6
CUSTOM
 62
    18
420
        0
370
     9
100
AcDbLine
 10
870.7835149366944
 20
644.388805063234
 30
0.0
 11
869.5705149944222
 21
644.0578050789862
 31
0.0
  0
LINE
  5
F98
330
1F
100
AcDbEntity
  8
Hewi
  6
CUSTOM
 62
    18
420
        0
370
     9
100
AcDbLine
 10
869.3305150058439
 20
643.9728050830307
 30
0.0
 11
870.7835149366944
 21
644.388805063234
 31
0.0
  0
LINE
  5
F99
330
1F
100
AcDbEntity
  8
Hewi
  6
CUSTOM
 62
    18
420
        0
370
     9
100
AcDbLine
 10
867.8625150757071
 20
635.3498054933934
 30
0.0
 11
867.8055150784203
 21
634.5958055292757
 31
0.0
  0
LWPOLYLINE
  5
F9A
330
1F
100
AcDbEntity
  8
Hewi
  6
CUSTOM
 62
    18
420
        0
370
     9
100
AcDbPolyline
 90
        4
 70
     0
 43
0.0
 10
869.3305150058439
 20
643.9728050830307
 10
868.2985150549574
 20
643.5228051044466
 10
867.8055150784203
 20
643.2558051171525
 10
867.3115151019265
 20
642.9518051316208
  0
LINE
  5
F9B
330
1F
100
AcDbEntity
  8
Hewi
  6
CUSTOM
 62
    18
420
        0
370
     9
100
AcDbLine
 10
867.3115151019265
 20
642.9518051316208
 30
0.0
 11
869.3305150058439
 21
643.9728050830307
 31
0.0
  0
LINE
  5
F9C
330
1F
100
AcDbEntity
  8
Hewi
  6
CUSTOM
 62
    18
420
        0
370
     9
100
AcDbLine
 10
864.560515232846
 20
640.2538052600156
 30
0.0
 11
865.5595151853047
 21
641.4868052013371
 31
0.0
  0
LWPOLYLINE
  5
F9D
330
1F
100
AcDbEntity
  8
Hewi
  6
CUSTOM
 62
    18
420
        0
370
     9
100
AcDbPolyline
 90
        3
 70
     0
 43
0.0
 10
867.3115151019265
 20
642.9518051316208
 10
866.6195151348583
 20
642.452805155368
 10
865.5595151853047
 20
641.4868052013371
  0
LWPOLYLINE
  5
F9E
330
1F
100
AcDbEntity
  8
Hewi
  6
CUSTOM
 62
    18
420
        0
370
     9
100
AcDbPolyline
 90
       14
 70
     0
 43
0.0
 10
1352.022431047639
 20
604.2318635077099
 10
1349.423495727789
 20
607.8894190600022
 10
1345.6324959082
 20
611.5744925045763
 10
1341.196496119303
 20
614.5719340396444
 10
1336.2584963543
 20
616.7839098569437
 10
1330.97549660571
 20
618.1405386648566
 10
1325.518496865409
 20
618.6539714103801
 10
1228.092501501831
 20
618.6539714103801
 10
1222.63550176153
 20
618.1405386648566
 10
1217.35250201294
 20
616.7839098569437
 10
1212.414502247937
 20
614.5719340396444
 10
1207.978502459048
 20
611.5744925045763
 10
1204.187502639451
 20
607.8894190600022
 10
1201.588567364676
 20
604.2318635711454
  0
LWPOLYLINE
  5
F9F
330
1F
100
AcDbEntity
  8
Hewi
  6
CUSTOM
 62
    18
420
        0
370
     9
100
AcDbPolyline
 90
       20
 70
     0
 43
0.0
 10
1183.523271609812
 20
602.0958071287221
 10
1184.371503582485
 20
604.5098294225661
 10
1187.620503427867
 20
611.559454120832
 10
1188.156503402357
 20
612.4016262475816
 10
1192.642503188873
 20
618.7142362569302
 10
1198.265502921278
 20
624.1798850118903
 10
1204.843502608239
 20
628.6243351586945
 10
1212.16650225974
 20
631.9040971118937
 10
1219.999501886973
 20
633.9157465598926
 10
1228.092501501831
 20
634.5942480452484
 10
1325.518496865409
 20
634.5942480452484
 10
1333.611496480268
 20
633.9157465598926
 10
1341.444496107501
 20
631.9040971118937
 10
1348.767495759001
 20
628.6243351586945
 10
1355.345495445962
 20
624.1798850118903
 10
1360.968495178366
 20
618.7142362569302
 10
1365.454494964883
 20
612.4016262475816
 10
1365.990494939374
 20
611.559454120832
 10
1369.239494784759
 20
604.5098294225661
 10
1370.087727045748
 20
602.0958063081907
  0
LWPOLYLINE
  5
FA0
330
1F
100
AcDbEntity
  8
Hewi
  6
CUSTOM
 62
    18
420
        0
370
     9
100
AcDbPolyline
 90
        3
 70
     0
 43
0.0
 10
870.7633573391577
 20
644.3833045127485
 10
870.7395149387885
 20
644.3798050636615
 10
869.5705149944222
 20
644.0578050789862
  0
LINE
  5
FA1
330
1F
100
AcDbEntity
  8
Hewi
  6
CUSTOM
 62
    18
420
        0
370
     9
100
AcDbLine
 10
872.8055148404747
 20
639.5958052913282
 30
0.0
 11
869.9272175230287
 21
638.5769227963718
 31
0.0
  0
LWPOLYLINE
  5
FA2
330
1F
100
AcDbEntity
  8
Hewi
  6
CUSTOM
 62
    18
420
        0
370
     9
100
AcDbPolyline
 90
       12
 70
     0
 43
0.0
 10
892.8055138886847
 20
243.5958241366606
 10
887.0835141609932
 20
244.3908240988276
 10
885.2615142477008
 20
244.9978240699402
 10
882.183514394179
 20
246.4798239994143
 10
881.7945144126934
 20
246.7138239882788
 10
879.3875145272394
 20
248.4418239060451
 10
879.0415145437037
 20
248.7358238920533
 10
876.945514643452
 20
250.8318237923049
 10
876.6515146574457
 20
251.177823775839
 10
874.9235147396792
 20
253.5848236612928
 10
874.6895147508148
 20
253.9738236427802
 10
873.2075148213409
 20
257.0518234963001
  0
LWPOLYLINE
  5
FA3
330
1F
100
AcDbEntity
  8
Hewi
  6
CUSTOM
 62
    18
420
        0
370
     9
100
AcDbPolyline
 90
        3
 70
     0
 43
0.0
 10
873.2075148213409
 20
257.0518234963001
 10
872.6005148502263
 20
258.8738234095927
 10
872.5367678287257
 20
259.3326415945448
  0
LINE
  5
FA4
330
1F
100
AcDbEntity
  8
Hewi
  6
CUSTOM
 62
    18
420
        0
370
     9
100
AcDbLine
 10
862.8855153125586
 20
635.8598054691229
 30
0.0
 11
863.4625152851002
 21
638.1618053595721
 31
0.0
  0
LWPOLYLINE
  5
FA5
330
1F
100
AcDbEntity
  8
Hewi
  6
CUSTOM
 62
    18
420
        0
370
     9
100
AcDbPolyline
 90
        3
 70
     0
 43
0.0
 10
862.8855153125586
 20
635.8598054691229
 10
863.0845153030895
 20
636.9438054175369
 10
863.4625152851002
 20
638.1618053595721
  0
LINE
  5
FA6
330
1F
100
AcDbEntity
  8
Hewi
  6
CUSTOM
 62
    18
420
        0
370
     9
100
AcDbLine
 10
867.9543404802714
 20
635.5784518209746
 30
0.0
 11
867.8055150784203
 21
634.5958055292757
 31
0.0
  0
LINE
  5
FA7
330
1F
100
AcDbEntity
  8
Hewi
  6
CUSTOM
 62
    18
420
        0
370
     9
100
AcDbLine
 10
1352.981751747679
 20
602.0958071283621
 30
0.0
 11
1351.913495609288
 21
604.4744229014813
 31
0.0
  0
LWPOLYLINE
  5
FA8
330
1F
100
AcDbEntity
  8
Hewi
  6
CUSTOM
 62
    18
420
        0
370
     9
100
AcDbPolyline
 90
        4
 70
     0
 43
0.0
 10
872.8055148404747
 20
644.5958050533844
 10
872.6695148469406
 20
644.5948050534297
 10
871.9795148797784
 20
644.5618050550002
 10
870.840765317822
 20
644.3946660063922
  0
LINE
  5
FA9
330
1F
100
AcDbEntity
  8
Hewi
  6
CUSTOM
 62
    18
420
        0
370
     9
100
AcDbLine
 10
869.5705149944222
 20
644.0578050789862
 30
0.0
 11
869.4492357268643
 21
644.0067953241558
 31
0.0
  0
LINE
  5
FAA
330
1F
100
AcDbEntity
  8
Hewi
  6
CUSTOM
 62
    18
420
        0
370
     9
100
AcDbLine
 10
1201.697502757952
 20
604.4744229014813
 30
0.0
 11
1200.629246619561
 21
602.0958071283621
 31
0.0
  0
LWPOLYLINE
  5
FAB
330
1F
100
AcDbEntity
  8
Hewi
  6
CUSTOM
 62
    18
420
        0
370
     9
100
AcDbPolyline
 90
        3
 70
     0
 43
0.0
 10
864.560515232846
 20
640.2538052600156
 10
863.9075152639197
 20
639.1598053120778
 10
863.7168023789163
 20
638.6462940688542
  0
LINE
  5
FAC
330
1F
100
AcDbEntity
  8
Hewi
  6
CUSTOM
 62
    18
420
        0
370
     9
100
AcDbLine
 10
867.8625150757071
 20
635.3498054933934
 30
0.0
 11
868.5571187575332
 21
637.0793768233489
 31
0.0
  0
LINE
  5
FAD
330
1F
100
AcDbEntity
  8
Hewi
  6
CUSTOM
 62
    18
420
        0
370
     9
100
AcDbLine
 10
869.4853905039927
 20
638.2962232231148
 30
0.0
 11
869.1875809425983
 21
637.9769839789896
 31
0.0
  0
LWPOLYLINE
  5
FAE
330
1F
100
AcDbEntity
  8
Hewi
  6
CUSTOM
 62
    18
420
        0
370
     9
100
AcDbPolyline
 90
       15
 70
     0
 43
0.0
 10
1676.95948370979
 20
71.17783234189847
 10
1678.687483627557
 20
73.58483222735049
 10
1678.92148361642
 20
73.97383220883965
 10
1680.403483545894
 20
77.05183206235961
 10
1681.01048351701
 20
78.87383197565212
 10
1681.367483500019
 20
80.32983190636333
 10
1681.787483480032
 20
83.71983174503474
 10
1681.805483479176
 20
84.59583170334552
 10
1681.805483479176
 20
599.0958072186931
 10
1681.605483488696
 20
600.1738071673917
 10
1681.113483512105
 20
601.012807127463
 10
1680.378483547087
 20
601.6508070971029
 10
1679.622483583064
 20
601.9828070813036
 10
1678.805483621946
 20
602.0958070759261
 10
874.8055147452907
 20
602.0958070759261
  0
LINE
  5
FAF
330
1F
100
AcDbEntity
  8
Hewi
  6
CUSTOM
 62
    18
420
        0
370
     9
100
AcDbLine
 10
863.4625152851002
 20
638.1618053595721
 30
0.0
 11
864.560515232846
 21
640.2538052600156
 31
0.0
  0
LWPOLYLINE
  5
FB0
330
1F
100
AcDbEntity
  8
Hewi
  6
CUSTOM
 62
    18
420
        0
370
     9
100
AcDbPolyline
 90
        4
 70
     0
 43
0.0
 10
887.5423322970673
 20
244.3270770902
 10
888.5395140917026
 20
244.0338241158151
 10
891.9295139303757
 20
243.6138241358039
 10
892.8055138886847
 20
243.5958241366606
  0
LWPOLYLINE
  5
FB1
330
1F
100
AcDbEntity
  8
Hewi
  6
CUSTOM
 62
    18
420
        0
370
     9
100
AcDbPolyline
 90
        7
 70
     0
 43
0.0
 10
872.2505148668858
 20
600.6688071438348
 10
871.9195148826365
 20
599.9128071798131
 10
871.805514888063
 20
599.0958072186931
 10
871.805514888063
 20
264.5958231372861
 10
871.8235148872045
 20
263.7198231789753
 10
872.2435148672158
 20
260.3298233403038
 10
873.2075148213409
 20
257.0518234963001
  0
LWPOLYLINE
  5
FB2
330
1F
100
AcDbEntity
  8
Hewi
  6
CUSTOM
 62
    18
420
        0
370
     9
100
AcDbPolyline
 90
        6
 70
     0
 43
0.0
 10
872.2505148668858
 20
600.6688071438348
 10
872.4975148551312
 20
601.012807127463
 10
872.8885148365225
 20
601.4038071088561
 10
873.2325148201487
 20
601.6508070971029
 10
873.7275147965956
 20
601.8958070854441
 10
874.8055147452905
 20
602.0958070759261
  0
LWPOLYLINE
  5
FB3
330
1F
100
AcDbEntity
  8
Hewi
  6
CUSTOM
 62
    18
420
        0
370
     9
100
AcDbPolyline
 90
       22
 70
     0
 43
0.0
 10
1676.95948370979
 20
71.17783234189847
 10
1674.569483823531
 20
68.73583245811096
 10
1674.223483839999
 20
68.44183247210276
 10
1671.816483954543
 20
66.7138325543383
 10
1671.427483973056
 20
66.47983256547195
 10
1668.349484119538
 20
64.99783263599965
 10
1666.527484206242
 20
64.39083266488522
 10
1665.071484275534
 20
64.03383268187645
 10
1661.68148443686
 20
63.61383270186343
 10
1660.80548447855
 20
63.59583270272015
 10
1372.805498184246
 20
63.59583270272015
 10
1367.083498456548
 20
64.39083266488522
 10
1361.794498708248
 20
66.7138325543383
 10
1359.041498839261
 20
68.73583245811096
 10
1356.651498953
 20
71.17783234189847
 10
1354.689499046369
 20
73.97383220883965
 10
1353.207499116895
 20
77.05183206235961
 10
1352.243499162773
 20
80.32983190636333
 10
1351.823499182762
 20
83.71983174503474
 10
1351.805499183617
 20
84.59583170334552
 10
1351.805499183617
 20
222.5958251360335
 10
1350.545242704381
 20
229.3771196291546
  0
LWPOLYLINE
  5
FB4
330
1F
100
AcDbEntity
  8
Hewi
  6
CUSTOM
 62
    18
420
        0
370
     9
100
AcDbPolyline
 90
        5
 70
     0
 43
0.0
 10
1341.427499677498
 20
240.7118242739088
 10
1344.223499544437
 20
238.749824367278
 10
1346.665499428225
 20
236.3598244810182
 10
1348.687499332001
 20
233.6068246120303
 10
1351.01049922145
 20
228.3178248637287
  0
LWPOLYLINE
  5
FB5
330
1F
100
AcDbEntity
  8
Hewi
  6
CUSTOM
 62
    18
420
        0
370
     9
100
AcDbPolyline
 90
        3
 70
     0
 43
0.0
 10
873.8258200368401
 20
601.914045538022
 10
873.9605147855073
 20
601.9738070817311
 10
874.8055147452905
 20
602.0958070759261
  0
LINE
  5
FB6
330
1F
100
AcDbEntity
  8
Hewi
  6
CUSTOM
 62
    18
420
        0
370
     9
100
AcDbLine
 10
1330.805500182992
 20
243.5958241366606
 30
0.0
 11
1331.681500141301
 21
243.5778241375174
 31
0.0
  0
LINE
  5
FB7
330
1F
100
AcDbEntity
  8
Hewi
  6
CUSTOM
 62
    18
420
        0
370
     9
100
AcDbLine
 10
892.8055138886847
 20
243.5958241366606
 30
0.0
 11
1330.805500182992
 21
243.5958241366606
 31
0.0
  0
LINE
  5
FB8
330
1F
100
AcDbEntity
  8
Hewi
  6
CUSTOM
 62
    18
420
        0
370
     9
100
AcDbLine
 10
1338.349499823977
 20
242.1938242033812
 30
0.0
 11
1330.805500182992
 21
243.5958241366606
 31
0.0
  0
LWPOLYLINE
  5
FB9
330
1F
100
AcDbEntity
  8
Hewi
  6
CUSTOM
 62
    18
420
        0
370
     9
100
AcDbPolyline
 90
        3
 70
     0
 43
0.0
 10
871.9847238972834
 20
600.0617437784185
 10
872.0055148785467
 20
600.1738071673917
 10
872.2505148668858
 20
600.6688071438348
  0
LINE
  5
FBA
330
1F
100
AcDbEntity
  8
Hewi
  6
CUSTOM
 62
    18
420
        0
370
     9
100
AcDbLine
 10
1344.38675602811
 20
238.59004427111
 30
0.0
 11
1343.00618395596
 21
239.6040350919884
 31
0.0
  0
LWPOLYLINE
  5
FBB
330
1F
100
AcDbEntity
  8
Hewi
  6
CUSTOM
 62
    18
420
        0
370
     9
100
AcDbPolyline
 90
        3
 70
     0
 43
0.0
 10
1675.606205641997
 20
69.79511056660522
 10
1676.665483723783
 20
70.83183235836258
 10
1676.95948370979
 20
71.17783234189847
  0
LINE
  5
FBC
330
1F
100
AcDbEntity
  8
Hewi
  6
CUSTOM
 62
    18
420
        0
370
     9
100
AcDbLine
 10
1348.752699232343
 20
233.4583776618947
 30
0.0
 11
1347.813710103539
 21
234.7965089585941
 31
0.0
  0
LINE
  5
FBD
330
1F
100
AcDbEntity
  8
Hewi
  6
CUSTOM
 62
    18
420
        0
370
     9
100
AcDbLine
 10
1346.799719323192
 20
236.1770809754434
 30
0.0
 11
1345.606221319733
 21
237.3965462994783
 31
0.0
  0
LWPOLYLINE
  5
FBE
330
1F
100
AcDbEntity
  8
Hewi
  6
CUSTOM
 62
    18
420
        0
370
     9
100
AcDbPolyline
 90
        3
 70
     0
 43
0.0
 10
1680.454215550031
 20
601.5850696002306
 10
1685.305483312611
 20
601.5850696002306
 10
1685.805483288822
 20
601.085499124003
  0
LWPOLYLINE
  5
FBF
330
1F
100
AcDbEntity
  8
Hewi
  6
CUSTOM
 62
    18
420
        0
370
     9
100
AcDbPolyline
 90
        3
 70
     0
 43
0.0
 10
1685.805483288822
 20
577.1061576971624
 10
1685.305483312611
 20
576.6065457889399
 10
1681.805483419568
 20
576.6065457889399
  0
LINE
  5
FC0
330
1F
100
AcDbEntity
  8
Hewi
  6
CUSTOM
 62
    18
420
        0
370
     9
100
AcDbLine
 10
1685.305483312611
 20
577.5950147938982
 30
0.0
 11
1685.305483312611
 21
576.7992612027682
 31
0.0
  0
LINE
  5
FC1
330
1F
100
AcDbEntity
  8
Hewi
  6
CUSTOM
 62
    18
420
        0
370
     9
100
AcDbLine
 10
1341.668052710846
 20
240.5430241830436
 30
0.0
 11
1337.586794707825
 21
242.3355676394694
 31
0.0
  0
LINE
  5
FC2
330
1F
100
AcDbEntity
  8
Hewi
  6
CUSTOM
 62
    18
420
        0
370
     9
100
AcDbLine
 10
1685.305483312611
 20
584.1047109161062
 30
0.0
 11
1685.305483312611
 21
582.4329029566687
 31
0.0
  0
LWPOLYLINE
  5
105A
330
1F
100
AcDbEntity
  8
Hewi
  6
CUSTOM
 62
    18
420
        0
370
     9
100
AcDbPolyline
 90
        3
 70
     0
 43
0.0
 10
1645.947507267119
 20
1160.582984236116
 10
1645.805507263215
 20
1161.76698425619
 10
1645.805507263215
 20
1191.266983445066
  0
LWPOLYLINE
  5
105B
330
1F
100
AcDbEntity
  8
Hewi
  6
CUSTOM
 62
    18
420
        0
370
     9
100
AcDbPolyline
 90
        3
 70
     0
 43
0.0
 10
1675.805508087665
 20
1156.766984171412
 10
1650.805507400625
 20
1156.766984171412
 10
1649.287507358905
 20
1157.002984175415
  0
LINE
  5
105C
330
1F
100
AcDbEntity
  8
Hewi
  6
CUSTOM
 62
    18
420
        0
370
     9
100
AcDbLine
 10
1649.287507358905
 20
1157.002984175415
 30
0.0
 11
1647.912507321117
 21
1157.688984187047
 31
0.0
  0
LWPOLYLINE
  5
105D
330
1F
100
AcDbEntity
  8
Hewi
  6
CUSTOM
 62
    18
420
        0
370
     9
100
AcDbPolyline
 90
        4
 70
     0
 43
0.0
 10
1645.947507267119
 20
1160.582984236116
 10
1645.994507268409
 20
1160.404984233097
 10
1646.547507283604
 20
1159.144984211734
 10
1646.670507286987
 20
1158.954984208512
  0
LWPOLYLINE
  5
105E
330
1F
100
AcDbEntity
  8
Hewi
  6
CUSTOM
 62
    18
420
        0
370
     9
100
AcDbPolyline
 90
        3
 70
     0
 43
0.0
 10
1648.542929459133
 20
1157.374460851501
 10
1649.009507351268
 20
1157.100984177077
 10
1649.287507358905
 20
1157.002984175415
  0
LINE
  5
105F
330
1F
100
AcDbEntity
  8
Hewi
  6
CUSTOM
 62
    18
420
        0
370
     9
100
AcDbLine
 10
1646.670507286987
 20
1158.954984208512
 30
0.0
 11
1645.947507267119
 21
1160.582984236116
 31
0.0
  0
LINE
  5
1060
330
1F
100
AcDbEntity
  8
Hewi
  6
CUSTOM
 62
    18
420
        0
370
     9
100
AcDbLine
 10
1679.428508187233
 20
1158.320984197762
 30
0.0
 11
1677.776508141832
 21
1157.171984178279
 31
0.0
  0
LWPOLYLINE
  5
1061
330
1F
100
AcDbEntity
  8
Hewi
  6
CUSTOM
 62
    18
420
        0
370
     9
100
AcDbPolyline
 90
        3
 70
     0
 43
0.0
 10
1647.03657870234
 20
1158.581838952817
 10
1647.610507312819
 20
1157.92098419098
 10
1647.912507321117
 20
1157.688984187047
  0
LINE
  5
1062
330
1F
100
AcDbEntity
  8
Hewi
  6
CUSTOM
 62
    18
420
        0
370
     9
100
AcDbLine
 10
1647.912507321117
 20
1157.688984187047
 30
0.0
 11
1646.670507286987
 21
1158.954984208512
 31
0.0
  0
LWPOLYLINE
  5
1063
330
1F
100
AcDbEntity
  8
Hewi
  6
CUSTOM
 62
    18
420
        0
370
     9
100
AcDbPolyline
 90
        3
 70
     0
 43
0.0
 10
1677.776508141832
 20
1157.171984178279
 10
1677.167508125097
 20
1156.955984174619
 10
1675.805508087665
 20
1156.766984171412
  0
LWPOLYLINE
  5
1064
330
1F
100
AcDbEntity
  8
Hewi
  6
CUSTOM
 62
    18
420
        0
370
     9
100
AcDbPolyline
 90
        3
 70
     0
 43
0.0
 10
1677.776508141832
 20
1157.171984178279
 10
1678.427508159722
 20
1157.508984183994
 10
1679.428508187233
 20
1158.320984197762
  0
LINE
  5
1065
330
1F
100
AcDbEntity
  8
Hewi
  6
CUSTOM
 62
    18
420
        0
370
     9
100
AcDbLine
 10
1677.776508141832
 20
1157.171984178279
 30
0.0
 11
1675.805508087665
 21
1156.766984171412
 31
0.0
  0
LWPOLYLINE
  5
1066
330
1F
100
AcDbEntity
  8
Hewi
  6
CUSTOM
 62
    18
420
        0
370
     9
100
AcDbPolyline
 90
        3
 70
     0
 43
0.0
 10
1679.428508187233
 20
1158.320984197762
 10
1679.651508193357
 20
1158.571984202017
 10
1680.202508208501
 20
1159.38598421582
  0
LWPOLYLINE
  5
1067
330
1F
100
AcDbEntity
  8
Hewi
  6
CUSTOM
 62
    18
420
        0
370
     9
100
AcDbPolyline
 90
        4
 70
     0
 43
0.0
 10
1681.193761400675
 20
1188.642266624261
 10
1680.805508225072
 20
1186.766984680071
 10
1680.805508225072
 20
1161.76698425619
 10
1680.671508221391
 20
1160.615984236674
  0
LINE
  5
1068
330
1F
100
AcDbEntity
  8
Hewi
  6
CUSTOM
 62
    18
420
        0
370
     9
100
AcDbLine
 10
1680.202508208501
 20
1159.38598421582
 30
0.0
 11
1679.428508187233
 21
1158.320984197762
 31
0.0
  0
LWPOLYLINE
  5
1069
330
1F
100
AcDbEntity
  8
Hewi
  6
CUSTOM
 62
    18
420
        0
370
     9
100
AcDbPolyline
 90
        3
 70
     0
 43
0.0
 10
1680.340052374791
 20
1159.746707738222
 10
1680.471508215894
 20
1159.970984225738
 10
1680.671508221391
 20
1160.615984236674
  0
LINE
  5
106A
330
1F
100
AcDbEntity
  8
Hewi
  6
CUSTOM
 62
    18
420
        0
370
     9
100
AcDbLine
 10
1680.671508221391
 20
1160.615984236674
 30
0.0
 11
1680.202508208501
 21
1159.38598421582
 31
0.0
  0
LINE
  5
106B
330
1F
100
AcDbEntity
  8
Hewi
  6
CUSTOM
 62
    18
420
        0
370
     9
100
AcDbLine
 10
1683.280508293089
 20
1191.081984753233
 30
0.0
 11
1682.047508259205
 21
1190.058984735888
 31
0.0
  0
LINE
  5
106C
330
1F
100
AcDbEntity
  8
Hewi
  6
CUSTOM
 62
    18
420
        0
370
     9
100
AcDbLine
 10
1682.047508259205
 20
1190.058984735888
 30
0.0
 11
1681.128508233949
 21
1188.533984710031
 31
0.0
  0
LWPOLYLINE
  5
106D
330
1F
100
AcDbEntity
  8
Hewi
  6
CUSTOM
 62
    18
420
        0
370
     9
100
AcDbPolyline
 90
        7
 70
     0
 43
0.0
 10
1685.805508362478
 20
1216.766985188729
 10
1685.765508361378
 20
1216.766985188729
 10
1685.321508349181
 20
1216.766985188729
 10
1684.428508324639
 20
1216.766985188729
 10
1682.77650827924
 20
1216.766985188729
 10
1680.805508225072
 20
1216.766985188729
 10
1675.805507491619
 20
1216.766985188729
  0
LINE
  5
106E
330
1F
100
AcDbEntity
  8
Hewi
  6
CUSTOM
 62
    18
420
        0
370
     9
100
AcDbLine
 10
1685.805508362478
 20
1191.766984764846
 30
0.0
 11
1683.280508293089
 21
1191.081984753233
 31
0.0
  0
LWPOLYLINE
  5
106F
330
1F
100
AcDbEntity
  8
Hewi
  6
CUSTOM
 62
    18
420
        0
370
     9
100
AcDbPolyline
 90
        4
 70
     0
 43
0.0
 10
1685.805508362478
 20
1191.766984764846
 10
1685.476508353436
 20
1191.757984764695
 10
1684.519508327143
 20
1191.596984761963
 10
1683.280508293089
 20
1191.081984753233
  0
LWPOLYLINE
  5
1070
330
1F
100
AcDbEntity
  8
Hewi
  6
CUSTOM
 62
    18
420
        0
370
     9
100
AcDbPolyline
 90
        3
 70
     0
 43
0.0
 10
1690.805508499892
 20
1191.766984764846
 10
1690.805508499892
 20
1192.035984769409
 10
1690.805508499892
 20
1192.880984783734
  0
LWPOLYLINE
  5
1071
330
1F
100
AcDbEntity
  8
Hewi
  6
CUSTOM
 62
    18
420
        0
370
     9
100
AcDbPolyline
 90
       18
 70
     0
 43
0.0
 10
1685.805508362478
 20
1216.766985188729
 10
1685.805508362478
 20
1216.497985184167
 10
1685.805508362478
 20
1215.652985169839
 10
1685.805508362478
 20
1214.337985147544
 10
1685.805508362478
 20
1212.544985117143
 10
1685.805508362478
 20
1210.377985080402
 10
1685.805508362478
 20
1208.046985040877
 10
1685.805508362478
 20
1205.592984999271
 10
1685.805508362478
 20
1203.925984971007
 10
1685.805508362478
 20
1201.712984933483
 10
1685.805508362478
 20
1200.469984912408
 10
1685.805508362478
 20
1199.08698488896
 10
1685.805508362478
 20
1196.667984847945
 10
1685.805508362478
 20
1194.635984813492
 10
1685.805508362478
 20
1193.305984790941
 10
1685.805508362478
 20
1192.351984774767
 10
1685.805508362478
 20
1191.958984768102
 10
1685.805508362478
 20
1191.766984764846
  0
LINE
  5
1072
330
1F
100
AcDbEntity
  8
Hewi
  6
CUSTOM
 62
    18
420
        0
370
     9
100
AcDbLine
 10
1690.805508499892
 20
1198.155984873174
 30
0.0
 11
1690.805508499892
 21
1200.486984912697
 31
0.0
  0
LWPOLYLINE
  5
1073
330
1F
100
AcDbEntity
  8
Hewi
  6
CUSTOM
 62
    18
420
        0
370
     9
100
AcDbPolyline
 90
        4
 70
     0
 43
0.0
 10
1690.805508499892
 20
1204.607984982569
 10
1690.805508499892
 20
1206.820985020091
 10
1690.805508499892
 20
1208.063985041168
 10
1690.805508499892
 20
1209.446985064615
  0
LWPOLYLINE
  5
1074
330
1F
100
AcDbEntity
  8
Hewi
  6
CUSTOM
 62
    18
420
        0
370
     9
100
AcDbPolyline
 90
        3
 70
     0
 43
0.0
 10
1690.805508499892
 20
1216.181985178809
 10
1690.805508499892
 20
1216.574985185472
 10
1690.805508499892
 20
1216.766985188729
  0
LINE
  5
1075
330
1F
100
AcDbEntity
  8
Hewi
  6
CUSTOM
 62
    18
420
        0
370
     9
100
AcDbLine
 10
1690.805508499892
 20
1216.766985188729
 30
0.0
 11
1685.805508362478
 21
1216.766985188729
 31
0.0
  0
LINE
  5
1076
330
1F
100
AcDbEntity
  8
Hewi
  6
CUSTOM
 62
    18
420
        0
370
     9
100
AcDbLine
 10
1685.805508362478
 20
1191.766984764846
 30
0.0
 11
1690.805508499892
 21
1191.766984764846
 31
0.0
  0
LINE
  5
1077
330
1F
100
AcDbEntity
  8
Hewi
  6
CUSTOM
 62
    18
420
        0
370
     9
100
AcDbLine
 10
1682.047508259205
 20
1190.058984735888
 30
0.0
 11
1683.336849613245
 21
1191.097269422891
 31
0.0
  0
LINE
  5
1078
330
1F
100
AcDbEntity
  8
Hewi
  6
CUSTOM
 62
    18
420
        0
370
     9
100
AcDbLine
 10
862.8054898673434
 20
1191.766984764846
 30
0.0
 11
857.8054897299368
 21
1191.766984764846
 31
0.0
  0
LWPOLYLINE
  5
1079
330
1F
100
AcDbEntity
  8
Hewi
  6
CUSTOM
 62
    18
420
        0
370
     9
100
AcDbPolyline
 90
        3
 70
     0
 43
0.0
 10
862.8054898673434
 20
1196.217984840314
 10
862.8054898673434
 20
1197.895984868764
 10
862.8054898673434
 20
1198.944984886551
  0
LWPOLYLINE
  5
107A
330
1F
100
AcDbEntity
  8
Hewi
  6
CUSTOM
 62
    18
420
        0
370
     9
100
AcDbPolyline
 90
       20
 70
     0
 43
0.0
 10
857.8054897299368
 20
1191.766984764846
 10
855.8054896749744
 20
1193.806984799434
 10
855.8054896749744
 20
1193.856984800284
 10
855.8054896749744
 20
1194.39998480949
 10
855.8054896749744
 20
1195.41098482663
 10
855.8054896749744
 20
1196.841984850893
 10
855.8054896749744
 20
1198.424984877736
 10
855.8054896749744
 20
1200.386984911001
 10
855.8054896749744
 20
1202.278984943079
 10
855.8054896749744
 20
1204.267984976804
 10
855.8054896749744
 20
1205.181984992301
 10
855.8054896749744
 20
1207.423985030313
 10
855.8054896749744
 20
1209.516985065802
 10
855.8054896749744
 20
1211.360985097068
 10
855.8054896749744
 20
1212.867985122619
 10
855.8054896749744
 20
1213.967985141271
 10
855.8054896749744
 20
1214.606985152104
 10
855.8054896749744
 20
1214.756985154647
 10
857.8054897299368
 20
1216.766985188729
 10
862.8054898673434
 20
1216.766985188729
  0
LINE
  5
107B
330
1F
100
AcDbEntity
  8
Hewi
  6
CUSTOM
 62
    18
420
        0
370
     9
100
AcDbLine
 10
1682.206880459482
 20
1190.187324461589
 30
0.0
 11
1681.502622270119
 21
1189.154794173151
 31
0.0
  0
LINE
  5
107C
330
1F
100
AcDbEntity
  8
Hewi
  6
CUSTOM
 62
    18
420
        0
370
     9
100
AcDbLine
 10
862.8054898673434
 20
1206.984985022871
 30
0.0
 11
862.8054898673434
 21
1208.129985042285
 31
0.0
  0
LWPOLYLINE
  5
107D
330
1F
100
AcDbEntity
  8
Hewi
  6
CUSTOM
 62
    18
420
        0
370
     9
100
AcDbPolyline
 90
        3
 70
     0
 43
0.0
 10
862.8054898673434
 20
1213.305985130046
 10
862.8054898673434
 20
1214.599985151984
 10
862.8054898673434
 20
1215.220985162514
  0
LINE
  5
107E
330
1F
100
AcDbEntity
  8
Hewi
  6
CUSTOM
 62
    18
420
        0
370
     9
100
AcDbLine
 10
857.8054897299368
 20
1191.766984764846
 30
0.0
 11
857.8054897299368
 21
1192.004984768882
 31
0.0
  0
LINE
  5
107F
330
1F
100
AcDbEntity
  8
Hewi
  6
CUSTOM
 62
    18
420
        0
370
     9
100
AcDbLine
 10
857.8054897299368
 20
1192.707984780802
 30
0.0
 11
857.8054897299368
 21
1193.423984792942
 31
0.0
  0
LWPOLYLINE
  5
1080
330
1F
100
AcDbEntity
  8
Hewi
  6
CUSTOM
 62
    18
420
        0
370
     9
100
AcDbPolyline
 90
        3
 70
     0
 43
0.0
 10
1239.533498159328
 20
1125.887983647853
 10
1239.973498171416
 20
1127.358983672795
 10
1240.206498177818
 20
1127.913983682207
  0
LWPOLYLINE
  5
1081
330
1F
100
AcDbEntity
  8
Hewi
  6
CUSTOM
 62
    18
420
        0
370
     9
100
AcDbPolyline
 90
        3
 70
     0
 43
0.0
 10
1245.830498332375
 20
1133.14398377088
 10
1246.580498352987
 20
1133.388983775035
 10
1247.28349837231
 20
1133.559983777933
  0
LWPOLYLINE
  5
1082
330
1F
100
AcDbEntity
  8
Hewi
  6
CUSTOM
 62
    18
420
        0
370
     9
100
AcDbPolyline
 90
        3
 70
     0
 43
0.0
 10
1311.846500146605
 20
1130.334983723253
 10
1312.723500170704
 20
1129.164983703415
 10
1313.319500187087
 20
1128.096983685307
  0
LWPOLYLINE
  5
1083
330
1F
100
AcDbEntity
  8
Hewi
  6
CUSTOM
 62
    18
420
        0
370
     9
100
AcDbPolyline
 90
        4
 70
     0
 43
0.0
 10
1314.145500209785
 20
1125.547983642089
 10
1314.077500207912
 20
1125.887983647853
 10
1313.404500189418
 20
1127.913983682207
 10
1313.319500187087
 20
1128.096983685307
  0
LWPOLYLINE
  5
1084
330
1F
100
AcDbEntity
  8
Hewi
  6
CUSTOM
 62
    18
420
        0
370
     9
100
AcDbPolyline
 90
        3
 70
     0
 43
0.0
 10
1243.811498276892
 20
1132.12298375357
 10
1244.062498283789
 20
1132.281983756265
 10
1244.547961756502
 20
1132.495410308544
  0
LINE
  5
1085
330
1F
100
AcDbEntity
  8
Hewi
  6
CUSTOM
 62
    18
420
        0
370
     9
100
AcDbLine
 10
1311.846500146605
 20
1130.334983723253
 30
0.0
 11
1313.319500187087
 21
1128.096983685307
 31
0.0
  0
LINE
  5
1086
330
1F
100
AcDbEntity
  8
Hewi
  6
CUSTOM
 62
    18
420
        0
370
     9
100
AcDbLine
 10
857.8054897299368
 20
1209.871985071822
 30
0.0
 11
857.8054897299368
 21
1212.950985124025
 31
0.0
  0
LINE
  5
1087
330
1F
100
AcDbEntity
  8
Hewi
  6
CUSTOM
 62
    18
420
        0
370
     9
100
AcDbLine
 10
1313.319500187087
 20
1128.096983685307
 30
0.0
 11
1314.145500209785
 21
1125.547983642089
 31
0.0
  0
LINE
  5
1088
330
1F
100
AcDbEntity
  8
Hewi
  6
CUSTOM
 62
    18
420
        0
370
     9
100
AcDbLine
 10
1240.887498196537
 20
1129.164983703415
 30
0.0
 11
1242.059498228742
 21
1130.657983728728
 31
0.0
  0
LINE
  5
1089
330
1F
100
AcDbEntity
  8
Hewi
  6
CUSTOM
 62
    18
420
        0
370
     9
100
AcDbLine
 10
1309.610500085155
 20
1132.243983755619
 30
0.0
 11
1311.093500125908
 21
1131.110983736413
 31
0.0
  0
LWPOLYLINE
  5
108A
330
1F
100
AcDbEntity
  8
Hewi
  6
CUSTOM
 62
    18
420
        0
370
     9
100
AcDbPolyline
 90
       18
 70
     0
 43
0.0
 10
1314.145500209785
 20
1125.547983642089
 10
1314.305500214183
 20
1123.766983611893
 10
1314.305500214183
 20
973.7669810686057
 10
1314.305500214183
 20
970.5339810137919
 10
1314.305500214183
 20
968.0159809710968
 10
1314.305500214183
 20
966.1029809386636
 10
1314.305500214183
 20
965.1079809217936
 10
1314.305500214183
 20
964.7669809160104
 10
1239.305498153057
 20
964.7669809160104
 10
1239.305498153057
 20
964.8179809168761
 10
1239.305498153057
 20
965.1529809225557
 10
1239.305498153057
 20
966.2139809405452
 10
1239.305498153057
 20
967.8939809690293
 10
1239.305498153057
 20
969.5339809968372
 10
1239.305498153057
 20
971.4659810295945
 10
1239.305498153057
 20
973.7669810686057
 10
1239.305498153057
 20
1123.766983611893
 10
1239.533498159328
 20
1125.887983647853
  0
LINE
  5
108B
330
1F
100
AcDbEntity
  8
Hewi
  6
CUSTOM
 62
    18
420
        0
370
     9
100
AcDbLine
 10
1245.830498332375
 20
1133.14398377088
 30
0.0
 11
1247.28349837231
 21
1133.559983777933
 31
0.0
  0
LINE
  5
108C
330
1F
100
AcDbEntity
  8
Hewi
  6
CUSTOM
 62
    18
420
        0
370
     9
100
AcDbLine
 10
1242.059498228742
 20
1130.657983728728
 30
0.0
 11
1243.811498276892
 21
1132.12298375357
 31
0.0
  0
LWPOLYLINE
  5
108D
330
1F
100
AcDbEntity
  8
Hewi
  6
CUSTOM
 62
    18
420
        0
370
     9
100
AcDbPolyline
 90
        3
 70
     0
 43
0.0
 10
1247.28349837231
 20
1133.559983777933
 10
1249.305498427873
 20
1133.766983781443
 10
1304.305499939367
 20
1133.766983781443
  0
LINE
  5
108E
330
1F
100
AcDbEntity
  8
Hewi
  6
CUSTOM
 62
    18
420
        0
370
     9
100
AcDbLine
 10
1239.533498159328
 20
1125.887983647853
 30
0.0
 11
1240.206498177818
 21
1127.913983682207
 31
0.0
  0
LINE
  5
108F
330
1F
100
AcDbEntity
  8
Hewi
  6
CUSTOM
 62
    18
420
        0
370
     9
100
AcDbLine
 10
1311.551500138498
 20
1130.657983728728
 30
0.0
 11
1311.093500125908
 21
1131.110983736413
 31
0.0
  0
LINE
  5
1090
330
1F
100
AcDbEntity
  8
Hewi
  6
CUSTOM
 62
    18
420
        0
370
     9
100
AcDbLine
 10
1243.811498276892
 20
1132.12298375357
 30
0.0
 11
1245.830498332375
 21
1133.14398377088
 31
0.0
  0
LWPOLYLINE
  5
1091
330
1F
100
AcDbEntity
  8
Hewi
  6
CUSTOM
 62
    18
420
        0
370
     9
100
AcDbPolyline
 90
        3
 70
     0
 43
0.0
 10
1242.059498228742
 20
1130.657983728728
 10
1241.613498216483
 20
1130.156983720235
 10
1240.887498196537
 20
1129.164983703415
  0
LINE
  5
1092
330
1F
100
AcDbEntity
  8
Hewi
  6
CUSTOM
 62
    18
420
        0
370
     9
100
AcDbLine
 10
1240.206498177818
 20
1127.913983682207
 30
0.0
 11
1240.887498196537
 21
1129.164983703415
 31
0.0
  0
LWPOLYLINE
  5
1093
330
1F
100
AcDbEntity
  8
Hewi
  6
CUSTOM
 62
    18
420
        0
370
     9
100
AcDbPolyline
 90
        3
 70
     0
 43
0.0
 10
1309.610500085155
 20
1132.243983755619
 10
1309.799500090349
 20
1132.12298375357
 10
1311.093500125908
 20
1131.110983736413
  0
LINE
  5
1094
330
1F
100
AcDbEntity
  8
Hewi
  6
CUSTOM
 62
    18
420
        0
370
     9
100
AcDbLine
 10
1307.076500015514
 20
1133.375983774815
 30
0.0
 11
1309.610500085155
 21
1132.243983755619
 31
0.0
  0
LINE
  5
1095
330
1F
100
AcDbEntity
  8
Hewi
  6
CUSTOM
 62
    18
420
        0
370
     9
100
AcDbLine
 10
1311.846500146605
 20
1130.334983723253
 30
0.0
 11
1311.551500138498
 21
1130.657983728728
 31
0.0
  0
LINE
  5
1096
330
1F
100
AcDbEntity
  8
Hewi
  6
CUSTOM
 62
    18
420
        0
370
     9
100
AcDbLine
 10
1311.093500125908
 20
1131.110983736413
 30
0.0
 11
1311.846500146605
 21
1130.334983723253
 31
0.0
  0
LWPOLYLINE
  5
1097
330
1F
100
AcDbEntity
  8
Hewi
  6
CUSTOM
 62
    18
420
        0
370
     9
100
AcDbPolyline
 90
        4
 70
     0
 43
0.0
 10
872.9474901460633
 20
1160.582984236116
 10
872.9944901473574
 20
1160.404984233097
 10
873.5474901625529
 20
1159.144984211734
 10
873.670490165936
 20
1158.954984208512
  0
LWPOLYLINE
  5
1098
330
1F
100
AcDbEntity
  8
Hewi
  6
CUSTOM
 62
    18
420
        0
370
     9
100
AcDbPolyline
 90
        7
 70
     0
 43
0.0
 10
877.8054904285816
 20
1216.766985188729
 10
872.8054901421637
 20
1216.766985188729
 10
871.0004900925596
 20
1216.766985188729
 10
869.3524900472658
 20
1216.766985188729
 10
868.2314900164637
 20
1216.766985188729
 10
867.8624900063223
 20
1216.766985188729
 10
867.8054900047573
 20
1216.766985188729
  0
LWPOLYLINE
  5
1099
330
1F
100
AcDbEntity
  8
Hewi
  6
CUSTOM
 62
    18
420
        0
370
     9
100
AcDbPolyline
 90
        3
 70
     0
 43
0.0
 10
1304.305499939367
 20
1133.766983781443
 10
1306.32749999493
 20
1133.559983777933
 10
1307.076500015514
 20
1133.375983774815
  0
LWPOLYLINE
  5
109A
330
1F
100
AcDbEntity
  8
Hewi
  6
CUSTOM
 62
    18
420
        0
370
     9
100
AcDbPolyline
 90
        3
 70
     0
 43
0.0
 10
1307.076500015514
 20
1133.375983774815
 10
1307.780500034866
 20
1133.14398377088
 10
1309.179384307675
 20
1132.436573752304
  0
LWPOLYLINE
  5
109B
330
1F
100
AcDbEntity
  8
Hewi
  6
CUSTOM
 62
    18
420
        0
370
     9
100
AcDbPolyline
 90
        5
 70
     0
 43
0.0
 10
872.9474901460633
 20
1160.582984236116
 10
872.8054901421637
 20
1161.76698425619
 10
872.8054901421637
 20
1186.766984680071
 10
872.4854901333674
 20
1188.525984709895
 10
871.574490108331
 20
1190.046984735683
  0
LWPOLYLINE
  5
109C
330
1F
100
AcDbEntity
  8
Hewi
  6
CUSTOM
 62
    18
420
        0
370
     9
100
AcDbPolyline
 90
        3
 70
     0
 43
0.0
 10
902.8054909666098
 20
1156.766984171412
 10
877.8054902795702
 20
1156.766984171412
 10
876.2874902378532
 20
1157.002984175415
  0
LINE
  5
109D
330
1F
100
AcDbEntity
  8
Hewi
  6
CUSTOM
 62
    18
420
        0
370
     9
100
AcDbLine
 10
873.670490165936
 20
1158.954984208512
 30
0.0
 11
872.9474901460633
 21
1160.582984236116
 31
0.0
  0
LINE
  5
109E
330
1F
100
AcDbEntity
  8
Hewi
  6
CUSTOM
 62
    18
420
        0
370
     9
100
AcDbLine
 10
1311.551500138498
 20
1130.657983728728
 30
0.0
 11
1311.453796685159
 21
1130.739682106374
 31
0.0
  0
LINE
  5
109F
330
1F
100
AcDbEntity
  8
Hewi
  6
CUSTOM
 62
    18
420
        0
370
     9
100
AcDbLine
 10
1304.305499939367
 20
1133.766983781443
 30
0.0
 11
1307.076500015514
 21
1133.375983774815
 31
0.0
  0
LINE
  5
10A0
330
1F
100
AcDbEntity
  8
Hewi
  6
CUSTOM
 62
    18
420
        0
370
     9
100
AcDbLine
 10
876.2874902378532
 20
1157.002984175415
 30
0.0
 11
874.9124902000657
 21
1157.688984187047
 31
0.0
  0
LWPOLYLINE
  5
10A1
330
1F
100
AcDbEntity
  8
Hewi
  6
CUSTOM
 62
    18
420
        0
370
     9
100
AcDbPolyline
 90
        3
 70
     0
 43
0.0
 10
875.5429123380817
 20
1157.374460851501
 10
876.0094902302153
 20
1157.100984177077
 10
876.2874902378532
 20
1157.002984175415
  0
LWPOLYLINE
  5
10A2
330
1F
100
AcDbEntity
  8
Hewi
  6
CUSTOM
 62
    18
420
        0
370
     9
100
AcDbPolyline
 90
        3
 70
     0
 43
0.0
 10
874.0365615812843
 20
1158.581838952817
 10
874.6104901917643
 20
1157.92098419098
 10
874.9124902000657
 20
1157.688984187047
  0
LWPOLYLINE
  5
10A3
330
1F
100
AcDbEntity
  8
Hewi
  6
CUSTOM
 62
    18
420
        0
370
     9
100
AcDbPolyline
 90
       13
 70
     0
 43
0.0
 10
867.8054900047573
 20
1191.766984764846
 10
867.8054900047573
 20
1191.920984767457
 10
867.8054900047573
 20
1192.718984780988
 10
867.8054900047573
 20
1194.153984805318
 10
867.8054900047573
 20
1196.919984852218
 10
867.8054900047573
 20
1200.40398491129
 10
867.8054900047573
 20
1204.266984976786
 10
867.8054900047573
 20
1208.129985042285
 10
867.8054900047573
 20
1211.613985101357
 10
867.8054900047573
 20
1214.379985148254
 10
867.8054900047573
 20
1215.404985165634
 10
867.8054900047573
 20
1216.421985182878
 10
867.8054900047573
 20
1216.766985188729
  0
LINE
  5
10A4
330
1F
100
AcDbEntity
  8
Hewi
  6
CUSTOM
 62
    18
420
        0
370
     9
100
AcDbLine
 10
907.2024910874498
 20
1159.38598421582
 30
0.0
 11
906.4284910661807
 21
1158.320984197762
 31
0.0
  0
LWPOLYLINE
  5
10A5
330
1F
100
AcDbEntity
  8
Hewi
  6
CUSTOM
 62
    18
420
        0
370
     9
100
AcDbPolyline
 90
        3
 70
     0
 43
0.0
 10
907.8054911040197
 20
1191.266984935182
 10
907.8054911040197
 20
1161.76698425619
 10
907.6714911003362
 20
1160.615984236674
  0
LINE
  5
10A6
330
1F
100
AcDbEntity
  8
Hewi
  6
CUSTOM
 62
    18
420
        0
370
     9
100
AcDbLine
 10
904.7764910207771
 20
1157.171984178279
 30
0.0
 11
902.8054909666098
 21
1156.766984171412
 31
0.0
  0
LWPOLYLINE
  5
10A7
330
1F
100
AcDbEntity
  8
Hewi
  6
CUSTOM
 62
    18
420
        0
370
     9
100
AcDbPolyline
 90
        5
 70
     0
 43
0.0
 10
870.7244900849762
 20
1190.823984748858
 10
869.6584900556773
 20
1191.408984758778
 10
868.713490029706
 20
1191.682984763422
 10
868.029490010911
 20
1191.763984764795
 10
867.8054900047573
 20
1191.766984764846
  0
LINE
  5
10A8
330
1F
100
AcDbEntity
  8
Hewi
  6
CUSTOM
 62
    18
420
        0
370
     9
100
AcDbLine
 10
907.6714911003362
 20
1160.615984236674
 30
0.0
 11
907.2024910874498
 21
1159.38598421582
 31
0.0
  0
LWPOLYLINE
  5
10A9
330
1F
100
AcDbEntity
  8
Hewi
  6
CUSTOM
 62
    18
420
        0
370
     9
100
AcDbPolyline
 90
        4
 70
     0
 43
0.0
 10
862.8054898673434
 20
1203.925984971007
 10
862.8054898673434
 20
1201.712984933483
 10
862.8054898673434
 20
1200.469984912408
 10
862.8054898673434
 20
1199.08698488896
  0
LWPOLYLINE
  5
10AA
330
1F
100
AcDbEntity
  8
Hewi
  6
CUSTOM
 62
    18
420
        0
370
     9
100
AcDbPolyline
 90
        3
 70
     0
 43
0.0
 10
904.7764910207771
 20
1157.171984178279
 10
904.1674910040383
 20
1156.955984174619
 10
902.8054909666098
 20
1156.766984171412
  0
LWPOLYLINE
  5
10AB
330
1F
100
AcDbEntity
  8
Hewi
  6
CUSTOM
 62
    18
420
        0
370
     9
100
AcDbPolyline
 90
        3
 70
     0
 43
0.0
 10
906.4284910661807
 20
1158.320984197762
 10
906.6514910723054
 20
1158.571984202017
 10
907.2024910874498
 20
1159.38598421582
  0
LINE
  5
10AC
330
1F
100
AcDbEntity
  8
Hewi
  6
CUSTOM
 62
    18
420
        0
370
     9
100
AcDbLine
 10
874.9124902000657
 20
1157.688984187047
 30
0.0
 11
873.670490165936
 21
1158.954984208512
 31
0.0
  0
LWPOLYLINE
  5
10AD
330
1F
100
AcDbEntity
  8
Hewi
  6
CUSTOM
 62
    18
420
        0
370
     9
100
AcDbPolyline
 90
        3
 70
     0
 43
0.0
 10
904.7764910207771
 20
1157.171984178279
 10
905.4274910386666
 20
1157.508984183994
 10
906.4284910661807
 20
1158.320984197762
  0
LINE
  5
10AE
330
1F
100
AcDbEntity
  8
Hewi
  6
CUSTOM
 62
    18
420
        0
370
     9
100
AcDbLine
 10
906.4284910661807
 20
1158.320984197762
 30
0.0
 11
904.7764910207771
 21
1157.171984178279
 31
0.0
  0
LWPOLYLINE
  5
10AF
330
1F
100
AcDbEntity
  8
Hewi
  6
CUSTOM
 62
    18
420
        0
370
     9
100
AcDbPolyline
 90
        3
 70
     0
 43
0.0
 10
907.3400352537392
 20
1159.746707738222
 10
907.4714910948422
 20
1159.970984225738
 10
907.6714911003362
 20
1160.615984236674
  0
LINE
  5
10B0
330
1F
100
AcDbEntity
  8
Hewi
  6
CUSTOM
 62
    18
420
        0
370
     9
100
AcDbLine
 10
871.574490108331
 20
1190.046984735683
 30
0.0
 11
870.7244900849762
 21
1190.823984748858
 31
0.0
  0
LINE
  5
10B1
330
1F
100
AcDbEntity
  8
Hewi
  6
CUSTOM
 62
    18
420
        0
370
     9
100
AcDbLine
 10
867.8054900047573
 20
1191.766984764846
 30
0.0
 11
870.7244900849762
 21
1190.823984748858
 31
0.0
  0
LWPOLYLINE
  5
10B2
330
1F
100
AcDbEntity
  8
Hewi
  6
CUSTOM
 62
    18
420
        0
370
     9
100
AcDbPolyline
 90
        3
 70
     0
 43
0.0
 10
877.3054902658294
 20
1193.508130372367
 10
877.3054902658294
 20
1192.350329112738
 10
877.3054902658294
 20
1191.917255440394
  0
LWPOLYLINE
  5
10B3
330
1F
100
AcDbEntity
  8
Hewi
  6
CUSTOM
 62
    18
420
        0
370
     9
100
AcDbPolyline
 90
       20
 70
     0
 43
0.0
 10
1695.805508637298
 20
1216.766985188729
 10
1697.805508692261
 20
1214.726985154138
 10
1697.805508692261
 20
1214.676985153292
 10
1697.805508692261
 20
1214.133985144086
 10
1697.805508692261
 20
1213.122985126942
 10
1697.805508692261
 20
1211.691985102679
 10
1697.805508692261
 20
1210.10898507584
 10
1697.805508692261
 20
1208.146985042575
 10
1697.805508692261
 20
1206.254985010493
 10
1697.805508692261
 20
1204.265984976771
 10
1697.805508692261
 20
1203.351984961273
 10
1697.805508692261
 20
1201.10998492326
 10
1697.805508692261
 20
1199.01698488777
 10
1697.805508692261
 20
1197.172984856506
 10
1697.805508692261
 20
1195.665984830955
 10
1697.805508692261
 20
1194.565984812305
 10
1697.805508692261
 20
1193.92698480147
 10
1697.805508692261
 20
1193.776984798925
 10
1695.805508637298
 20
1191.766984764846
 10
1690.805508499892
 20
1191.766984764846
  0
LINE
  5
10B4
330
1F
100
AcDbEntity
  8
Hewi
  6
CUSTOM
 62
    18
420
        0
370
     9
100
AcDbLine
 10
868.3054900184943
 20
1198.433913291885
 30
0.0
 11
868.3054900184943
 21
1201.0121685136
 31
0.0
  0
LINE
  5
10B5
330
1F
100
AcDbEntity
  8
Hewi
  6
CUSTOM
 62
    18
420
        0
370
     9
100
AcDbLine
 10
1695.805508637298
 20
1216.766985188729
 30
0.0
 11
1695.805508637298
 21
1216.528985184694
 31
0.0
  0
LINE
  5
10B6
330
1F
100
AcDbEntity
  8
Hewi
  6
CUSTOM
 62
    18
420
        0
370
     9
100
AcDbLine
 10
1695.805508637298
 20
1215.825985172774
 30
0.0
 11
1695.805508637298
 21
1215.109985160634
 31
0.0
  0
LWPOLYLINE
  5
10B7
330
1F
100
AcDbEntity
  8
Hewi
  6
CUSTOM
 62
    18
420
        0
370
     9
100
AcDbPolyline
 90
        4
 70
     0
 43
0.0
 10
877.8054902795702
 20
1192.309952261053
 10
877.3054902658294
 20
1191.902600969148
 10
868.3054900184943
 20
1191.830320823921
 10
867.8054900047573
 20
1192.315321785145
  0
LWPOLYLINE
  5
10B8
330
1F
100
AcDbEntity
  8
Hewi
  6
CUSTOM
 62
    18
420
        0
370
     9
100
AcDbPolyline
 90
        3
 70
     0
 43
0.0
 10
868.3054900184943
 20
1214.462115779646
 10
868.3054900184943
 20
1215.830143010844
 10
868.3054900184943
 20
1216.414194893747
  0
LWPOLYLINE
  5
10B9
330
1F
100
AcDbEntity
  8
Hewi
  6
CUSTOM
 62
    18
420
        0
370
     9
100
AcDbPolyline
 90
        4
 70
     0
 43
0.0
 10
877.8054902795702
 20
1216.254054566032
 10
877.3054902658294
 20
1216.755369991531
 10
868.3054900184943
 20
1216.74124665029
 10
867.8054900047573
 20
1216.267355565255
  0
LINE
  5
10BA
330
1F
100
AcDbEntity
  8
Hewi
  6
CUSTOM
 62
    18
420
        0
370
     9
100
AcDbLine
 10
867.8054900047573
 20
1216.766985188729
 30
0.0
 11
862.8054898673434
 21
1216.766985188729
 31
0.0
  0
LINE
  5
10BB
330
1F
100
AcDbEntity
  8
Hewi
  6
CUSTOM
 62
    18
420
        0
370
     9
100
AcDbLine
 10
868.3054900184943
 20
1192.43305695514
 30
0.0
 11
868.3054900184943
 21
1193.175633317731
 31
0.0
  0
LINE
  5
10BC
330
1F
100
AcDbEntity
  8
Hewi
  6
CUSTOM
 62
    18
420
        0
370
     9
100
AcDbLine
 10
862.8054898673434
 20
1191.766984764846
 30
0.0
 11
867.8054900047573
 21
1191.766984764846
 31
0.0
  0
LWPOLYLINE
  5
10BD
330
1F
100
AcDbEntity
  8
Hewi
  6
CUSTOM
 62
    18
420
        0
370
     9
100
AcDbPolyline
 90
        3
 70
     0
 43
0.0
 10
862.8054898673434
 20
1216.766985188729
 10
862.8054898673434
 20
1216.497985184167
 10
862.8054898673434
 20
1215.652985169839
  0
LINE
  5
10BE
330
1F
100
AcDbEntity
  8
Hewi
  6
CUSTOM
 62
    18
420
        0
370
     9
100
AcDbLine
 10
871.574490108331
 20
1190.046984735683
 30
0.0
 11
872.5566893568755
 21
1188.134611424402
 31
0.0
  0
LINE
  5
10BF
330
1F
100
AcDbEntity
  8
Hewi
  6
CUSTOM
 62
    18
420
        0
370
     9
100
AcDbLine
 10
870.734999427521
 20
1190.814377973478
 30
0.0
 11
870.7054028888412
 21
1190.830150978956
 31
0.0
  0
LINE
  5
10C0
330
1F
100
AcDbEntity
  8
Hewi
  6
CUSTOM
 62
    18
420
        0
370
     9
100
AcDbLine
 10
877.3054902658294
 20
1209.164687813829
 30
0.0
 11
877.3054902658294
 21
1206.511440670842
 31
0.0
  0
LWPOLYLINE
  5
10C1
330
1F
100
AcDbEntity
  8
Hewi
  6
CUSTOM
 62
    18
420
        0
370
     9
100
AcDbPolyline
 90
        3
 70
     0
 43
0.0
 10
1690.805508499892
 20
1195.22798482353
 10
1690.805508499892
 20
1193.933984801588
 10
1690.805508499892
 20
1193.31298479106
  0
LINE
  5
10C2
330
1F
100
AcDbEntity
  8
Hewi
  6
CUSTOM
 62
    18
420
        0
370
     9
100
AcDbLine
 10
871.6905176598338
 20
1189.821075383126
 30
0.0
 11
870.7528823124485
 21
1190.798030912214
 31
0.0
  0
LWPOLYLINE
  5
10C3
330
1F
100
AcDbEntity
  8
Hewi
  6
CUSTOM
 62
    18
420
        0
370
     9
100
AcDbPolyline
 90
        3
 70
     0
 43
0.0
 10
862.8054898673434
 20
1192.351984774767
 10
862.8054898673434
 20
1191.958984768102
 10
862.8054898673434
 20
1191.766984764846
  0
LINE
  5
10C4
330
1F
100
AcDbEntity
  8
Hewi
  6
CUSTOM
 62
    18
420
        0
370
     9
100
AcDbLine
 10
877.3054902658294
 20
1215.727030624095
 30
0.0
 11
877.3054902658294
 21
1214.843005411105
 31
0.0
  0
LWPOLYLINE
  5
10C5
330
1F
100
AcDbEntity
  8
Hewi
  6
CUSTOM
 62
    18
420
        0
370
     9
100
AcDbPolyline
 90
        3
 70
     0
 43
0.0
 10
1690.805508499892
 20
1212.315985113258
 10
1690.805508499892
 20
1210.63798508481
 10
1690.805508499892
 20
1209.588985067023
  0
LINE
  5
10C6
330
1F
100
AcDbEntity
  8
Hewi
  6
CUSTOM
 62
    18
420
        0
370
     9
100
AcDbLine
 10
1690.805508499892
 20
1216.766985188729
 30
0.0
 11
1695.805508637298
 21
1216.766985188729
 31
0.0
  0
LINE
  5
10C7
330
1F
100
AcDbEntity
  8
Hewi
  6
CUSTOM
 62
    18
420
        0
370
     9
100
AcDbLine
 10
862.8054898673434
 20
1210.377985080402
 30
0.0
 11
862.8054898673434
 21
1208.046985040877
 31
0.0
  0
LINE
  5
10C8
330
1F
100
AcDbEntity
  8
Hewi
  6
CUSTOM
 62
    18
420
        0
370
     9
100
AcDbLine
 10
1690.805508499892
 20
1201.548984930703
 30
0.0
 11
1690.805508499892
 21
1200.40398491129
 31
0.0
  0
LINE
  5
10C9
330
1F
100
AcDbEntity
  8
Hewi
  6
CUSTOM
 62
    18
420
        0
370
     9
100
AcDbLine
 10
1695.805508637298
 20
1198.661984881753
 30
0.0
 11
1695.805508637298
 21
1195.582984829547
 31
0.0
  0
LWPOLYLINE
  5
10CA
330
1F
100
AcDbEntity
  8
Hewi
  6
CUSTOM
 62
    18
420
        0
370
     9
100
AcDbPolyline
 90
        3
 70
     0
 43
0.0
 10
1141.78449547302
 20
1034.330737615399
 10
1141.307495459916
 20
1035.267228199245
 10
1140.934048387514
 20
1036.341926857669
  0
LWPOLYLINE
  5
10CB
330
1F
100
AcDbEntity
  8
Hewi
  6
CUSTOM
 62
    18
420
        0
370
     9
100
AcDbPolyline
 90
       13
 70
     0
 43
0.0
 10
1407.934502787257
 20
1027.446242427002
 10
1406.837502757111
 20
1026.102256680322
 10
1368.127501693298
 20
983.1203325100959
 10
1366.650501652707
 20
981.573834517134
 10
1363.928501577905
 20
979.2562049501103
 10
1359.613501459319
 20
976.8902474599872
 10
1357.586501403611
 20
975.863176468656
 10
1352.500501263838
 20
973.9365695867343
 10
1346.550501100328
 20
972.3697944839313
 10
1339.925500918262
 20
971.2133220152319
 10
1332.839500723525
 20
970.5041883476132
 10
1325.518500522331
 20
970.3525738878234
 10
1314.305500385081
 20
970.3433025934264
  0
LWPOLYLINE
  5
10CC
330
1F
100
AcDbEntity
  8
Hewi
  6
CUSTOM
 62
    18
420
        0
370
     9
100
AcDbPolyline
 90
        6
 70
     0
 43
0.0
 10
1407.934502787257
 20
1027.446242427002
 10
1409.024502817216
 20
1029.034538846217
 10
1411.49550288512
 20
1033.607715107819
 10
1413.074502928512
 20
1037.052445228221
 10
1414.343502963389
 20
1040.511769488272
 10
1468.099709721891
 20
1191.266980799974
  0
LWPOLYLINE
  5
10CD
330
1F
100
AcDbEntity
  8
Hewi
  6
CUSTOM
 62
    18
420
        0
370
     9
100
AcDbPolyline
 90
       14
 70
     0
 43
0.0
 10
1239.305495804516
 20
970.2812900085882
 10
1228.09249784491
 20
970.2720187159902
 10
1220.771497643715
 20
970.5041883476132
 10
1213.685497448978
 20
971.2133220152319
 10
1207.060497266912
 20
972.3697944839313
 10
1201.110497103402
 20
973.9365695867343
 10
1196.024496963628
 20
975.863176468656
 10
1193.997496907921
 20
976.8902474599872
 10
1189.682496789336
 20
979.2562049501103
 10
1187.581496731599
 20
981.1671235337254
 10
1185.483496673942
 20
983.1203325100959
 10
1146.773495610128
 20
1026.102256680322
 10
1144.240495540516
 20
1029.590709067741
 10
1141.78449547302
 20
1034.330737615399
  0
LWPOLYLINE
  5
10CE
330
1F
100
AcDbEntity
  8
Hewi
  6
CUSTOM
 62
    18
420
        0
370
     9
100
AcDbPolyline
 90
        7
 70
     0
 43
0.0
 10
1239.305497982159
 20
986.2459551274897
 10
1228.09249784491
 20
986.2459551274897
 10
1221.863497673725
 20
986.4650014880226
 10
1215.833497508009
 20
987.0684731498659
 10
1210.197497353124
 20
988.052473272368
 10
1205.133497213954
 20
989.3854121837012
 10
1201.304627253331
 20
990.8360778278602
  0
LWPOLYLINE
  5
10CF
330
1F
100
AcDbEntity
  8
Hewi
  6
CUSTOM
 62
    18
420
        0
370
     9
100
AcDbPolyline
 90
        5
 70
     0
 43
0.0
 10
1085.49300019317
 20
1191.266984992351
 10
1139.267495403851
 20
1040.511769488272
 10
1139.790495418226
 20
1039.324694625164
 10
1140.770495445157
 20
1036.728706849219
 10
1141.78449547302
 20
1034.330737615399
  0
LWPOLYLINE
  5
10D0
330
1F
100
AcDbEntity
  8
Hewi
  6
CUSTOM
 62
    18
420
        0
370
     9
100
AcDbPolyline
 90
        3
 70
     0
 43
0.0
 10
1404.738502699426
 20
1024.148684604277
 10
1406.50050274785
 20
1025.953058543728
 10
1407.934502787257
 20
1027.446242427002
  0
LWPOLYLINE
  5
10D1
330
1F
100
AcDbEntity
  8
Hewi
  6
CUSTOM
 62
    18
420
        0
370
     9
100
AcDbPolyline
 90
        4
 70
     0
 43
0.0
 10
1394.966502430876
 20
1036.360766033998
 10
1397.290502494741
 20
1040.87065090621
 10
1399.235502548194
 20
1045.651587811581
 10
1451.175597596254
 20
1191.266984581816
  0
LWPOLYLINE
  5
10D2
330
1F
100
AcDbEntity
  8
Hewi
  6
CUSTOM
 62
    18
420
        0
370
     9
100
AcDbPolyline
 90
        5
 70
     0
 43
0.0
 10
1156.320495872499
 20
1040.54756734733
 10
1155.470495849137
 20
1042.382158549018
 10
1155.10749583916
 20
1043.666565048463
 10
1154.307495817173
 20
1045.795017090211
 10
1102.433233533646
 20
1191.266981992803
  0
LWPOLYLINE
  5
10D3
330
1F
100
AcDbEntity
  8
Hewi
  6
CUSTOM
 62
    18
420
        0
370
     9
100
AcDbPolyline
 90
        3
 70
     0
 43
0.0
 10
1202.833497150752
 20
989.9977362304143
 10
1199.636497062888
 20
991.7507814671099
 10
1197.917982583885
 20
993.1272645941644
  0
LWPOLYLINE
  5
10D4
330
1F
100
AcDbEntity
  8
Hewi
  6
CUSTOM
 62
    18
420
        0
370
     9
100
AcDbPolyline
 90
        7
 70
     0
 43
0.0
 10
1352.306371242865
 20
990.8360778767182
 10
1348.477501153286
 20
989.3854121837012
 10
1343.413501014117
 20
988.052473272368
 10
1337.777500859231
 20
987.0684731498659
 10
1331.747500693515
 20
986.4650014880226
 10
1325.518500522331
 20
986.2459551274897
 10
1314.305502562724
 20
986.2459551274897
  0
LWPOLYLINE
  5
10D5
330
1F
100
AcDbEntity
  8
Hewi
  6
CUSTOM
 62
    18
420
        0
370
     9
100
AcDbPolyline
 90
        3
 70
     0
 43
0.0
 10
1355.921469845298
 20
993.3809346035722
 10
1353.974501304353
 20
991.7507814671099
 10
1350.777501216487
 20
989.9977362304143
  0
LWPOLYLINE
  5
10D6
330
1F
100
AcDbEntity
  8
Hewi
  6
CUSTOM
 62
    18
420
        0
370
     9
100
AcDbPolyline
 90
        4
 70
     0
 43
0.0
 10
1355.625501349723
 20
993.0522981618942
 10
1394.334502413508
 20
1036.033859232446
 10
1395.216502437749
 20
1037.113768125582
 10
1395.768000751786
 20
1037.916129657826
  0
LWPOLYLINE
  5
10D7
330
1F
100
AcDbEntity
  8
Hewi
  6
CUSTOM
 62
    18
420
        0
370
     9
100
AcDbPolyline
 90
        3
 70
     0
 43
0.0
 10
1197.985497017516
 20
993.0522981618942
 10
1159.276495953733
 20
1036.033859232446
 10
1157.760938615213
 20
1038.119825304895
  0
LINE
  5
10D8
330
1F
100
AcDbEntity
  8
Hewi
  6
CUSTOM
 62
    18
420
        0
370
     9
100
AcDbLine
 10
1158.103495921498
 20
1037.498269853367
 30
0.0
 11
1155.779969619196
 21
1041.714208147697
 31
0.0
  0
LWPOLYLINE
  5
10D9
330
1F
100
AcDbEntity
  8
Hewi
  6
CUSTOM
 62
    18
420
        0
370
     9
100
AcDbPolyline
 90
        3
 70
     0
 43
0.0
 10
873.822655122869
 20
1217.449329369674
 10
873.9604901739003
 20
1217.387985199257
 10
874.8054901971263
 20
1217.266985197204
  0
LWPOLYLINE
  5
10DA
330
1F
100
AcDbEntity
  8
Hewi
  6
CUSTOM
 62
    18
420
        0
370
     9
100
AcDbPolyline
 90
       31
 70
     0
 43
0.0
 10
874.8054901971263
 20
1217.266985197204
 10
873.7274901675007
 20
1217.466985200597
 10
873.2324901538996
 20
1217.711985204751
 10
872.8884901444432
 20
1217.958985208937
 10
872.4974901336972
 20
1218.349985215569
 10
872.2504901269093
 20
1218.6939852214
 10
871.9194901178125
 20
1219.449985234219
 10
871.8054901146825
 20
1220.266985248072
 10
871.8054901146825
 20
1224.266985315891
 10
872.0054901201764
 20
1225.34498533417
 10
872.4974901336972
 20
1226.183985348396
 10
873.2324901538996
 20
1226.821985359213
 10
873.9884901746735
 20
1227.152985364824
 10
874.8054901971263
 20
1227.266985366757
 10
875.1514902066338
 20
1227.266985366757
 10
876.1754902347748
 20
1227.266985366757
 10
877.8394902805048
 20
1227.266985366757
 10
880.0774903420094
 20
1227.266985366757
 10
882.8054904169803
 20
1227.266985366757
 10
885.9174905024993
 20
1227.266985366757
 10
889.2934905952788
 20
1227.266985366757
 10
892.8054906917967
 20
1227.266985366757
 10
1180.805498606503
 20
1227.266985366757
 10
1185.07149872374
 20
1227.266985366757
 10
1188.47349881723
 20
1227.266985366757
 10
1193.143498945573
 20
1227.266985366757
 10
1197.776499072897
 20
1227.266985366757
 10
1201.390499172215
 20
1227.266985366757
 10
1203.547499231488
 20
1227.266985366757
 10
1204.423499255564
 20
1227.266985366757
 10
1354.805499266061
 20
1227.266985366757
  0
LWPOLYLINE
  5
10DB
330
1F
100
AcDbEntity
  8
Hewi
  6
CUSTOM
 62
    18
420
        0
370
     9
100
AcDbPolyline
 90
       36
 70
     0
 43
0.0
 10
1678.805508170109
 20
1217.266985197204
 10
1679.883508199734
 20
1217.466985200597
 10
1680.378508213336
 20
1217.711985204751
 10
1680.722508222793
 20
1217.958985208937
 10
1681.113508233538
 20
1218.349985215569
 10
1681.360508240326
 20
1218.6939852214
 10
1681.691508249423
 20
1219.449985234219
 10
1681.805508252553
 20
1220.266985248072
 10
1681.805508252553
 20
1224.266985315891
 10
1681.691508249423
 20
1225.083985329745
 10
1681.360508240326
 20
1225.839985342563
 10
1680.722508222793
 20
1226.574985355022
 10
1679.883508199734
 20
1227.066985363366
 10
1678.805508170109
 20
1227.266985366757
 10
1678.483508161261
 20
1227.266985366757
 10
1677.533508135154
 20
1227.266985366757
 10
1676.562508108472
 20
1227.266985366757
 10
1674.899508062764
 20
1227.266985366757
 10
1672.860508006731
 20
1227.266985366757
 10
1671.31550796427
 20
1227.266985366757
 10
1669.05050790203
 20
1227.266985366757
 10
1667.663507863911
 20
1227.266985366757
 10
1664.300507771488
 20
1227.266985366757
 10
1660.805507675438
 20
1227.266985366757
 10
1372.805499760733
 20
1227.266985366757
 10
1370.530499698208
 20
1227.266985366757
 10
1366.887499598094
 20
1227.266985366757
 10
1363.518499505509
 20
1227.266985366757
 10
1361.477499449417
 20
1227.266985366757
 10
1360.400499419821
 20
1227.266985366757
 10
1358.009499354113
 20
1227.266985366757
 10
1356.249499305747
 20
1227.266985366757
 10
1355.44949928376
 20
1227.266985366757
 10
1355.132499275048
 20
1227.266985366757
 10
1354.899499268649
 20
1227.266985366757
 10
1354.805499266061
 20
1227.266985366757
  0
LWPOLYLINE
  5
10DC
330
1F
100
AcDbEntity
  8
Hewi
  6
CUSTOM
 62
    18
420
        0
370
     9
100
AcDbPolyline
 90
       20
 70
     0
 43
0.0
 10
874.8054901971263
 20
1217.266985197204
 10
1025.092490205014
 20
1217.266985197204
 10
1025.748490223039
 20
1217.266985197204
 10
1027.366490267508
 20
1217.266985197204
 10
1030.077490342009
 20
1217.266985197204
 10
1033.551490437479
 20
1217.266985197204
 10
1037.054490533748
 20
1217.266985197204
 10
1039.605490603851
 20
1217.266985197204
 10
1042.805490691797
 20
1217.266985197204
 10
1330.805498606503
 20
1217.266985197204
 10
1333.157498671141
 20
1217.266985197204
 10
1336.637498766772
 20
1217.266985197204
 10
1339.989498858892
 20
1217.266985197204
 10
1344.139498972944
 20
1217.266985197204
 10
1347.776499072897
 20
1217.266985197204
 10
1350.760499154902
 20
1217.266985197204
 10
1352.978499215852
 20
1217.266985197204
 10
1353.772499237674
 20
1217.266985197204
 10
1354.545499258918
 20
1217.266985197204
 10
1354.805499266061
 20
1217.266985197204
  0
LWPOLYLINE
  5
10DD
330
1F
100
AcDbEntity
  8
Hewi
  6
CUSTOM
 62
    18
420
        0
370
     9
100
AcDbPolyline
 90
       23
 70
     0
 43
0.0
 10
1354.805499266061
 20
1217.266985197204
 10
1355.127499274909
 20
1217.266985197204
 10
1356.077499301019
 20
1217.266985197204
 10
1357.048499327705
 20
1217.266985197204
 10
1358.711499373406
 20
1217.266985197204
 10
1360.750499429439
 20
1217.266985197204
 10
1362.295499471899
 20
1217.266985197204
 10
1364.560499534142
 20
1217.266985197204
 10
1365.947499572262
 20
1217.266985197204
 10
1369.310499664684
 20
1217.266985197204
 10
1372.805499760733
 20
1217.266985197204
 10
1660.805507675438
 20
1217.266985197204
 10
1663.080507737962
 20
1217.266985197204
 10
1666.723507838076
 20
1217.266985197204
 10
1670.092507930661
 20
1217.266985197204
 10
1672.133507986752
 20
1217.266985197204
 10
1673.209508016324
 20
1217.266985197204
 10
1675.601508082058
 20
1217.266985197204
 10
1677.361508130426
 20
1217.266985197204
 10
1678.161508152414
 20
1217.266985197204
 10
1678.478508161122
 20
1217.266985197204
 10
1678.711508167528
 20
1217.266985197204
 10
1678.805508170109
 20
1217.266985197204
  0
LWPOLYLINE
  5
10DE
330
1F
100
AcDbEntity
  8
Hewi
  6
CUSTOM
 62
    18
420
        0
370
     9
100
AcDbPolyline
 90
        3
 70
     0
 43
0.0
 10
1678.805508170109
 20
1217.266985197204
 10
1679.623508192587
 20
1217.380985199139
 10
1679.772836921733
 20
1217.446452495596
  0
LWPOLYLINE
  5
10DF
330
1F
100
AcDbEntity
  8
Hewi
  6
CUSTOM
 62
    18
420
        0
370
     9
100
AcDbPolyline
 90
       12
 70
     0
 43
0.0
 10
1354.805499266061
 20
1227.266985366757
 10
1353.727499236436
 20
1227.066985363366
 10
1352.888499213378
 20
1226.574985355022
 10
1352.250499195845
 20
1225.839985342563
 10
1351.918499186725
 20
1225.083985329745
 10
1351.805499183617
 20
1224.266985315891
 10
1351.805499183617
 20
1220.266985248072
 10
1352.005499189115
 20
1219.188985229793
 10
1352.497499202632
 20
1218.349985215569
 10
1353.232499222835
 20
1217.711985204751
 10
1353.988499243608
 20
1217.380985199139
 10
1354.805499266061
 20
1217.266985197204
  0
LWPOLYLINE
  5
10E0
330
1F
100
AcDbEntity
  8
Hewi
  6
CUSTOM
 62
    18
420
        0
370
     9
100
AcDbPolyline
 90
        3
 70
     0
 43
0.0
 10
871.9846991373596
 20
1219.301048626001
 10
872.0054901201764
 20
1219.188985229793
 10
872.1170793130077
 20
1218.998693904992
  0
LWPOLYLINE
  5
10E1
330
1F
100
AcDbEntity
  8
Hewi
  6
CUSTOM
 62
    18
420
        0
370
     9
100
AcDbPolyline
 90
       25
 70
     0
 43
0.0
 10
877.7850504266716
 20
1217.266985197204
 10
877.7850504266716
 20
1191.266984756368
 10
878.0530504340385
 20
1191.266984756368
 10
878.8450504558021
 20
1191.266984756368
 10
879.6540504780351
 20
1191.266984756368
 10
881.5740505307985
 20
1191.266984756368
 10
884.0270505982116
 20
1191.266984756368
 10
885.9140506500663
 20
1191.266984756368
 10
887.0700506818357
 20
1191.266984756368
 10
889.8720507588404
 20
1191.266984756368
 10
892.7850508388946
 20
1191.266984756368
 10
1183.785058836049
 20
1191.266984756368
 10
1186.818058919405
 20
1191.266984756368
 10
1191.085059036664
 20
1191.266984756368
 10
1195.087059146644
 20
1191.266984756368
 10
1197.559059214581
 20
1191.266984756368
 10
1198.889059251134
 20
1191.266984756368
 10
1200.324059290567
 20
1191.266984756368
 10
1203.160059368507
 20
1191.266984756368
 10
1205.355059428828
 20
1191.266984756368
 10
1206.444059458754
 20
1191.266984756368
 10
1206.926059472003
 20
1191.266984756368
 10
1207.349059483629
 20
1191.266984756368
 10
1207.660059492173
 20
1191.266984756368
 10
1357.80549934851
 20
1191.266984756368
  0
LWPOLYLINE
  5
10E2
330
1F
100
AcDbEntity
  8
Hewi
  6
CUSTOM
 62
    18
420
        0
370
     9
100
AcDbPolyline
 90
       23
 70
     0
 43
0.0
 10
1357.80549934851
 20
1191.266984756368
 10
1358.073499355872
 20
1191.266984756368
 10
1358.865499377636
 20
1191.266984756368
 10
1359.674499399868
 20
1191.266984756368
 10
1361.594499452633
 20
1191.266984756368
 10
1364.047499520045
 20
1191.266984756368
 10
1365.934499571907
 20
1191.266984756368
 10
1367.090499603677
 20
1191.266984756368
 10
1369.892499680682
 20
1191.266984756368
 10
1372.805499760733
 20
1191.266984756368
 10
1660.805507675438
 20
1191.266984756368
 10
1662.701507727546
 20
1191.266984756368
 10
1665.31550779938
 20
1191.266984756368
 10
1667.771507866876
 20
1191.266984756368
 10
1669.292507908678
 20
1191.266984756368
 10
1671.14250795952
 20
1191.266984756368
 10
1672.882508007337
 20
1191.266984756368
 10
1674.239508044629
 20
1191.266984756368
 10
1674.919508063315
 20
1191.266984756368
 10
1675.532508080162
 20
1191.266984756368
 10
1675.727508085521
 20
1191.266984756368
 10
1675.805508087661
 20
1191.266984756368
 10
1675.805508087661
 20
1217.266985197204
  0
LINE
  5
10E3
330
1F
100
AcDbEntity
  8
Hewi
  6
CUSTOM
 62
    18
420
        0
370
     9
100
AcDbLine
 10
1357.80549934851
 20
1191.266984756368
 30
0.0
 11
1357.80549934851
 21
1217.266985197204
 31
0.0
  0
LWPOLYLINE
  5
10E4
330
1F
100
AcDbEntity
  8
Hewi
  6
CUSTOM
 62
    18
420
        0
370
     9
100
AcDbPolyline
 90
        4
 70
     0
 43
0.0
 10
1675.805508087661
 20
1192.315321785145
 10
1676.305508101406
 20
1191.830320823921
 10
1685.305508348741
 20
1191.902600969148
 10
1685.805508362478
 20
1192.309952261053
  0
LWPOLYLINE
  5
10E5
330
1F
100
AcDbEntity
  8
Hewi
  6
CUSTOM
 62
    18
420
        0
370
     9
100
AcDbPolyline
 90
        3
 70
     0
 43
0.0
 10
1676.305508101406
 20
1214.462115779646
 10
1676.305508101406
 20
1215.830143010844
 10
1676.305508101406
 20
1216.414194893747
  0
LWPOLYLINE
  5
10E6
330
1F
100
AcDbEntity
  8
Hewi
  6
CUSTOM
 62
    18
420
        0
370
     9
100
AcDbPolyline
 90
        4
 70
     0
 43
0.0
 10
1675.805508087661
 20
1216.267355565255
 10
1676.305508101406
 20
1216.74124665029
 10
1685.305508348741
 20
1216.755369991531
 10
1685.805508362478
 20
1216.254054566032
  0
LINE
  5
10E7
330
1F
100
AcDbEntity
  8
Hewi
  6
CUSTOM
 62
    18
420
        0
370
     9
100
AcDbLine
 10
1685.305508348741
 20
1215.727030624095
 30
0.0
 11
1685.305508348741
 21
1214.843005411105
 31
0.0
  0
LINE
  5
10E8
330
1F
100
AcDbEntity
  8
Hewi
  6
CUSTOM
 62
    18
420
        0
370
     9
100
AcDbLine
 10
1685.305508348741
 20
1209.164687813829
 30
0.0
 11
1685.305508348741
 21
1206.511440670842
 31
0.0
  0
LWPOLYLINE
  5
10E9
330
1F
100
AcDbEntity
  8
Hewi
  6
CUSTOM
 62
    18
420
        0
370
     9
100
AcDbPolyline
 90
        3
 70
     0
 43
0.0
 10
1685.305508348741
 20
1193.508130372367
 10
1685.305508348741
 20
1192.350329112738
 10
1685.305508348741
 20
1191.917255440394
  0
LINE
  5
10EA
330
1F
100
AcDbEntity
  8
Hewi
  6
CUSTOM
 62
    18
420
        0
370
     9
100
AcDbLine
 10
1676.305508101406
 20
1198.433913291885
 30
0.0
 11
1676.305508101406
 21
1201.0121685136
 31
0.0
  0
LINE
  5
10EB
330
1F
100
AcDbEntity
  8
Hewi
  6
CUSTOM
 62
    18
420
        0
370
     9
100
AcDbLine
 10
1676.305508101406
 20
1192.43305695514
 30
0.0
 11
1676.305508101406
 21
1193.175633317731
 31
0.0
  0
LWPOLYLINE
  5
10EC
330
1F
100
AcDbEntity
  8
Hewi
  6
CUSTOM
 62
    18
420
        0
370
     9
100
AcDbPolyline
 90
        3
 70
     0
 43
0.0
 10
1681.626299229876
 20
1219.301048626001
 10
1681.605508247059
 20
1219.188985229793
 10
1681.49391905422
 20
1218.998693904992
  0
ENDSEC
  0
SECTION
  2
OBJECTS
  0
DICTIONARY
  5
C
330
0
100
AcDbDictionary
281
     1
  3
ACAD_CIP_PREVIOUS_PRODUCT_INFO
350
175
  3
ACAD_COLOR
350
16F
  3
ACAD_DETAILVIEWSTYLE
350
16A
  3
ACAD_GROUP
350
D
  3
ACAD_IMAGE_DICT
350
6E
  3
ACAD_LAYOUT
350
1A
  3
ACAD_MATERIAL
350
43
  3
ACAD_MLEADERSTYLE
350
6B
  3
ACAD_MLINESTYLE
350
17
  3
ACAD_PLOTSETTINGS
350
19
  3
ACAD_PLOTSTYLENAME
350
E
  3
ACAD_SCALELIST
350
47
  3
ACAD_SECTIONVIEWSTYLE
350
16B
  3
ACAD_TABLESTYLE
350
69
  3
ACAD_VISUALSTYLE
350
2A
  3
ACDB_RECOMPOSE_DATA
350
1120
  3
AcDbVariableDictionary
350
166
  0
SUN
  5
6D
330
29
100
AcDbSun
 90
        1
290
     1
 63
     7
421
 16777215
 40
1.0
291
     1
 91
  2455826
 92
 54000000
292
     0
 70
     0
 71
   256
280
     1
1001
ACAD
1000
AcDbSavedByObjectVersion
1070
     0
1000
AcDbSavedByObjectVersion
1070
     0
  0
DICTIONARY
  5
374
330
2
100
AcDbDictionary
280
     1
281
     1
  3
ACAD_LAYERSTATES
360
375
  0
DICTIONARY
  5
372
330
371
100
AcDbDictionary
280
     1
281
     1
  0
DICTIONARY
  5
5EE
330
1F
100
AcDbDictionary
280
     1
281
     1
  3
ACAD_SORTENTS
360
5EF
  0
XRECORD
  5
175
102
{ACAD_REACTORS
330
C
102
}
330
C
100
AcDbXrecord
280
     1
300
ACDLT
300
2021
300
ACDLT_F_S
  0
DICTIONARY
  5
16F
102
{ACAD_REACTORS
330
C
102
}
330
C
100
AcDbDictionary
281
     1
  0
DICTIONARY
  5
16A
102
{ACAD_REACTORS
330
C
102
}
330
C
100
AcDbDictionary
281
     1
  3
Metric50
350
171
  0
DICTIONARY
  5
D
102
{ACAD_REACTORS
330
C
102
}
330
C
100
AcDbDictionary
281
     1
  0
DICTIONARY
  5
6E
102
{ACAD_REACTORS
330
C
102
}
330
C
100
AcDbDictionary
281
     1
  0
DICTIONARY
  5
1A
102
{ACAD_REACTORS
330
C
102
}
330
C
100
AcDbDictionary
281
     1
  3
Layout1
350
1E
  3
Layout2
350
26
  3
Model
350
22
  0
DICTIONARY
  5
43
102
{ACAD_REACTORS
330
C
102
}
330
C
100
AcDbDictionary
281
     1
  3
ByBlock
350
45
  3
ByLayer
350
44
  3
Global
350
46
  0
DICTIONARY
  5
6B
102
{ACAD_REACTORS
330
C
102
}
330
C
100
AcDbDictionary
281
     1
  3
Standard
350
6C
  0
DICTIONARY
  5
17
102
{ACAD_REACTORS
330
C
102
}
330
C
100
AcDbDictionary
281
     1
  3
Standard
350
18
  0
DICTIONARY
  5
19
102
{ACAD_REACTORS
330
C
102
}
330
C
100
AcDbDictionary
281
     1
  0
ACDBDICTIONARYWDFLT
  5
E
102
{ACAD_REACTORS
330
C
102
}
330
C
100
AcDbDictionary
281
     1
  3
Normal
350
F
100
AcDbDictionaryWithDefault
340
F
  0
DICTIONARY
  5
47
102
{ACAD_REACTORS
330
C
102
}
330
C
100
AcDbDictionary
281
     1
  3
A0
350
48
  3
A1
350
49
  3
A2
350
4A
  3
A3
350
4B
  3
A4
350
4C
  3
A5
350
4D
  3
A6
350
4E
  3
A7
350
4F
  3
A8
350
50
  3
A9
350
51
  3
B0
350
52
  3
B1
350
53
  3
B2
350
54
  3
B3
350
55
  3
B4
350
56
  3
B5
350
57
  3
B6
350
58
  3
B7
350
59
  3
B8
350
5A
  3
B9
350
5B
  3
C0
350
5C
  3
C1
350
5D
  3
C2
350
5E
  3
C3
350
5F
  3
C4
350
60
  3
C5
350
61
  3
C6
350
62
  3
C7
350
63
  3
C8
350
64
  3
C9
350
65
  3
D0
350
66
  3
D1
350
67
  3
D2
350
68
  0
DICTIONARY
  5
16B
102
{ACAD_REACTORS
330
C
102
}
330
C
100
AcDbDictionary
281
     1
  3
Metric50
350
170
  0
DICTIONARY
  5
69
102
{ACAD_REACTORS
330
C
102
}
330
C
100
AcDbDictionary
281
     1
  3
Standard
350
6A
  0
DICTIONARY
  5
2A
102
{ACAD_REACTORS
330
C
102
}
330
C
100
AcDbDictionary
281
     1
  3
2dWireframe
350
2F
  3
Basic
350
32
  3
Brighten
350
36
  3
ColorChange
350
3A
  3
Conceptual
350
34
  3
Dim
350
35
  3
EdgeColorOff
350
3D
  3
Facepattern
350
39
  3
Flat
350
2B
  3
FlatWithEdges
350
2C
  3
Gouraud
350
2D
  3
GouraudWithEdges
350
2E
  3
Hidden
350
31
  3
JitterOff
350
3B
  3
Linepattern
350
38
  3
OverhangOff
350
3C
  3
Realistic
350
33
  3
Shaded
350
42
  3
Shaded with edges
350
41
  3
Shades of Gray
350
3E
  3
Sketchy
350
3F
  3
Thicken
350
37
  3
Wireframe
350
30
  3
X-Ray
350
40
  0
XRECORD
  5
1120
102
{ACAD_REACTORS
330
C
102
}
330
C
100
AcDbXrecord
280
     1
 90
        1
330
6A
  0
DICTIONARY
  5
166
102
{ACAD_REACTORS
330
C
102
}
330
C
100
AcDbDictionary
281
     1
  3
CANNOSCALE
350
167
  3
CENTEREXE
350
16C
  3
CENTERLTYPEFILE
350
16D
  3
CMLEADERSTYLE
350
169
  3
CTABLESTYLE
350
168
  3
CVIEWDETAILSTYLE
350
667
  3
CVIEWSECTIONSTYLE
350
668
  0
DICTIONARY
  5
375
102
{ACAD_REACTORS
330
374
102
}
330
374
100
AcDbDictionary
281
     1
  0
SORTENTSTABLE
  5
5EF
102
{ACAD_REACTORS
330
5EE
102
}
330
5EE
100
AcDbSortentsTable
330
1F
  0
ACDBDETAILVIEWSTYLE
  5
171
102
{ACAD_XDICTIONARY
360
1123
102
}
102
{ACAD_REACTORS
330
16A
102
}
330
16A
100
AcDbModelDocViewStyle
 70
     0
  3
Metric50
290
     0
100
AcDbDetailViewStyle
 70
     0
 71
     0
 90
        3
 71
     1
340
11
 62
   256
 40
5.0
340
0
 62
   256
 40
5.0
300

 40
0.0
280
     1
 71
     2
340
16
 90
       25
 62
   256
 71
     3
340
11
 62
   256
 40
5.0
 90
        0
 40
15.0
 90
        1
300
%<\AcVar ViewDetailId>% (%<\AcVar ViewScale \f "%sn">%)
 71
     4
340
16
 90
       25
 62
   256
340
16
 90
       25
 62
   256
280
     0
  0
LAYOUT
  5
1E
102
{ACAD_REACTORS
330
1A
102
}
330
1A
100
AcDbPlotSettings
  1

  2
none_device
  4

  6

 40
0.0
 41
0.0
 42
0.0
 43
0.0
 44
0.0
 45
0.0
 46
0.0
 47
0.0
 48
0.0
 49
0.0
140
0.0
141
0.0
142
1.0
143
1.0
 70
   688
 72
     1
 73
     0
 74
     5
  7

 75
    16
147
1.0
 76
     0
 77
     2
 78
   300
148
0.0
149
0.0
100
AcDbLayout
  1
Layout1
 70
     1
 71
     1
 10
0.0
 20
0.0
 11
420.0
 21
297.0
 12
0.0
 22
0.0
 32
0.0
 14
1.000000000000000E+20
 24
1.000000000000000E+20
 34
1.000000000000000E+20
 15
-1.000000000000000E+20
 25
-1.000000000000000E+20
 35
-1.000000000000000E+20
146
0.0
 13
0.0
 23
0.0
 33
0.0
 16
1.0
 26
0.0
 36
0.0
 17
0.0
 27
1.0
 37
0.0
 76
     0
330
1B
  0
LAYOUT
  5
26
102
{ACAD_REACTORS
330
1A
102
}
330
1A
100
AcDbPlotSettings
  1

  2
none_device
  4

  6

 40
0.0
 41
0.0
 42
0.0
 43
0.0
 44
0.0
 45
0.0
 46
0.0
 47
0.0
 48
0.0
 49
0.0
140
0.0
141
0.0
142
1.0
143
1.0
 70
   688
 72
     1
 73
     0
 74
     5
  7

 75
    16
147
1.0
 76
     0
 77
     2
 78
   300
148
0.0
149
0.0
100
AcDbLayout
  1
Layout2
 70
     1
 71
     2
 10
0.0
 20
0.0
 11
0.0
 21
0.0
 12
0.0
 22
0.0
 32
0.0
 14
0.0
 24
0.0
 34
0.0
 15
0.0
 25
0.0
 35
0.0
146
0.0
 13
0.0
 23
0.0
 33
0.0
 16
1.0
 26
0.0
 36
0.0
 17
0.0
 27
1.0
 37
0.0
 76
     0
330
23
  0
LAYOUT
  5
22
102
{ACAD_REACTORS
330
1A
102
}
330
1A
100
AcDbPlotSettings
  1

  2
none_device
  4
Letter_(8.50_x_11.00_Inches)
  6

 40
6.349999999999998
 41
6.349999999999998
 42
6.350005079999998
 43
6.350005079999998
 44
215.9
 45
279.4
 46
0.0
 47
0.0
 48
0.0
 49
0.0
140
0.0
141
0.0
142
1.0
143
1.0
 70
  1712
 72
     1
 73
     0
 74
     0
  7

 75
     0
147
1.0
 76
     0
 77
     2
 78
   300
148
0.0
149
0.0
100
AcDbLayout
  1
Model
 70
     1
 71
     0
 10
0.0
 20
0.0
 11
420.0
 21
297.0
 12
0.0
 22
0.0
 32
0.0
 14
-207.8283572922613
 24
-149.9999957938967
 34
0.0
 15
-155.2924570130382
 25
-104.8671957971767
 35
0.0
146
0.0
 13
0.0
 23
0.0
 33
0.0
 16
1.0
 26
0.0
 36
0.0
 17
0.0
 27
1.0
 37
0.0
 76
     0
330
1F
331
29
  0
MATERIAL
  5
45
102
{ACAD_REACTORS
330
43
102
}
330
43
100
AcDbMaterial
  1
ByBlock
 73
     1
 78
     1
172
     1
176
     1
270
     1
274
     1
  0
MATERIAL
  5
44
102
{ACAD_REACTORS
330
43
102
}
330
43
100
AcDbMaterial
  1
ByLayer
 73
     1
 78
     1
172
     1
176
     1
270
     1
274
     1
  0
MATERIAL
  5
46
102
{ACAD_REACTORS
330
43
102
}
330
43
100
AcDbMaterial
  1
Global
 73
     1
 78
     1
172
     1
176
     1
270
     1
274
     1
  0
MLEADERSTYLE
  5
6C
102
{ACAD_REACTORS
330
6B
102
}
330
6B
100
AcDbMLeaderStyle
179
     2
170
     2
171
     1
172
     0
 90
        2
 40
0.0
 41
0.0
173
     1
 91
-1056964608
340
14
 92
       -2
290
     1
 42
2.0
291
     1
 43
8.0
  3
Standard
 44
4.0
300

342
11
174
     1
178
     6
175
     1
176
     0
 93
-1056964608
 45
4.0
292
     0
297
     0
 46
4.0
 94
-1056964608
 47
1.0
 49
1.0
140
1.0
293
     1
141
0.0
294
     1
177
     0
142
1.0
295
     0
296
     0
143
3.75
271
     0
272
     9
273
     9
298
     0
  0
MLINESTYLE
  5
18
102
{ACAD_REACTORS
330
17
102
}
330
17
100
AcDbMlineStyle
  2
STANDARD
 70
     0
  3

 62
   256
 51
90.0
 52
90.0
 71
     2
 49
0.5
 62
   256
  6
BYLAYER
 49
-0.5
 62
   256
  6
BYLAYER
  0
ACDBPLACEHOLDER
  5
F
102
{ACAD_REACTORS
330
E
102
}
330
E
  0
SCALE
  5
48
102
{ACAD_REACTORS
330
47
102
}
330
47
100
AcDbScale
 70
     0
300
1:1
140
1.0
141
1.0
290
     1
  0
SCALE
  5
49
102
{ACAD_REACTORS
330
47
102
}
330
47
100
AcDbScale
 70
     0
300
1:2
140
1.0
141
2.0
290
     0
  0
SCALE
  5
4A
102
{ACAD_REACTORS
330
47
102
}
330
47
100
AcDbScale
 70
     0
300
1:4
140
1.0
141
4.0
290
     0
  0
SCALE
  5
4B
102
{ACAD_REACTORS
330
47
102
}
330
47
100
AcDbScale
 70
     0
300
1:5
140
1.0
141
5.0
290
     0
  0
SCALE
  5
4C
102
{ACAD_REACTORS
330
47
102
}
330
47
100
AcDbScale
 70
     0
300
1:8
140
1.0
141
8.0
290
     0
  0
SCALE
  5
4D
102
{ACAD_REACTORS
330
47
102
}
330
47
100
AcDbScale
 70
     0
300
1:10
140
1.0
141
10.0
290
     0
  0
SCALE
  5
4E
102
{ACAD_REACTORS
330
47
102
}
330
47
100
AcDbScale
 70
     0
300
1:16
140
1.0
141
16.0
290
     0
  0
SCALE
  5
4F
102
{ACAD_REACTORS
330
47
102
}
330
47
100
AcDbScale
 70
     0
300
1:20
140
1.0
141
20.0
290
     0
  0
SCALE
  5
50
102
{ACAD_REACTORS
330
47
102
}
330
47
100
AcDbScale
 70
     0
300
1:30
140
1.0
141
30.0
290
     0
  0
SCALE
  5
51
102
{ACAD_REACTORS
330
47
102
}
330
47
100
AcDbScale
 70
     0
300
1:40
140
1.0
141
40.0
290
     0
  0
SCALE
  5
52
102
{ACAD_REACTORS
330
47
102
}
330
47
100
AcDbScale
 70
     0
300
1:50
140
1.0
141
50.0
290
     0
  0
SCALE
  5
53
102
{ACAD_REACTORS
330
47
102
}
330
47
100
AcDbScale
 70
     0
300
1:100
140
1.0
141
100.0
290
     0
  0
SCALE
  5
54
102
{ACAD_REACTORS
330
47
102
}
330
47
100
AcDbScale
 70
     0
300
2:1
140
2.0
141
1.0
290
     0
  0
SCALE
  5
55
102
{ACAD_REACTORS
330
47
102
}
330
47
100
AcDbScale
 70
     0
300
4:1
140
4.0
141
1.0
290
     0
  0
SCALE
  5
56
102
{ACAD_REACTORS
330
47
102
}
330
47
100
AcDbScale
 70
     0
300
8:1
140
8.0
141
1.0
290
     0
  0
SCALE
  5
57
102
{ACAD_REACTORS
330
47
102
}
330
47
100
AcDbScale
 70
     0
300
10:1
140
10.0
141
1.0
290
     0
  0
SCALE
  5
58
102
{ACAD_REACTORS
330
47
102
}
330
47
100
AcDbScale
 70
     0
300
100:1
140
100.0
141
1.0
290
     0
  0
SCALE
  5
59
102
{ACAD_REACTORS
330
47
102
}
330
47
100
AcDbScale
 70
     0
300
1/128" = 1'-0"
140
0.0078125
141
12.0
290
     0
  0
SCALE
  5
5A
102
{ACAD_REACTORS
330
47
102
}
330
47
100
AcDbScale
 70
     0
300
1/64" = 1'-0"
140
0.015625
141
12.0
290
     0
  0
SCALE
  5
5B
102
{ACAD_REACTORS
330
47
102
}
330
47
100
AcDbScale
 70
     0
300
1/32" = 1'-0"
140
0.03125
141
12.0
290
     0
  0
SCALE
  5
5C
102
{ACAD_REACTORS
330
47
102
}
330
47
100
AcDbScale
 70
     0
300
1/16" = 1'-0"
140
0.0625
141
12.0
290
     0
  0
SCALE
  5
5D
102
{ACAD_REACTORS
330
47
102
}
330
47
100
AcDbScale
 70
     0
300
3/32" = 1'-0"
140
0.09375
141
12.0
290
     0
  0
SCALE
  5
5E
102
{ACAD_REACTORS
330
47
102
}
330
47
100
AcDbScale
 70
     0
300
1/8" = 1'-0"
140
0.125
141
12.0
290
     0
  0
SCALE
  5
5F
102
{ACAD_REACTORS
330
47
102
}
330
47
100
AcDbScale
 70
     0
300
3/16" = 1'-0"
140
0.1875
141
12.0
290
     0
  0
SCALE
  5
60
102
{ACAD_REACTORS
330
47
102
}
330
47
100
AcDbScale
 70
     0
300
1/4" = 1'-0"
140
0.25
141
12.0
290
     0
  0
SCALE
  5
61
102
{ACAD_REACTORS
330
47
102
}
330
47
100
AcDbScale
 70
     0
300
3/8" = 1'-0"
140
0.375
141
12.0
290
     0
  0
SCALE
  5
62
102
{ACAD_REACTORS
330
47
102
}
330
47
100
AcDbScale
 70
     0
300
1/2" = 1'-0"
140
0.5
141
12.0
290
     0
  0
SCALE
  5
63
102
{ACAD_REACTORS
330
47
102
}
330
47
100
AcDbScale
 70
     0
300
3/4" = 1'-0"
140
0.75
141
12.0
290
     0
  0
SCALE
  5
64
102
{ACAD_REACTORS
330
47
102
}
330
47
100
AcDbScale
 70
     0
300
1" = 1'-0"
140
1.0
141
12.0
290
     0
  0
SCALE
  5
65
102
{ACAD_REACTORS
330
47
102
}
330
47
100
AcDbScale
 70
     0
300
1-1/2" = 1'-0"
140
1.5
141
12.0
290
     0
  0
SCALE
  5
66
102
{ACAD_REACTORS
330
47
102
}
330
47
100
AcDbScale
 70
     0
300
3" = 1'-0"
140
3.0
141
12.0
290
     0
  0
SCALE
  5
67
102
{ACAD_REACTORS
330
47
102
}
330
47
100
AcDbScale
 70
     0
300
6" = 1'-0"
140
6.0
141
12.0
290
     0
  0
SCALE
  5
68
102
{ACAD_REACTORS
330
47
102
}
330
47
100
AcDbScale
 70
     0
300
1'-0" = 1'-0"
140
12.0
141
12.0
290
     0
  0
ACDBSECTIONVIEWSTYLE
  5
170
102
{ACAD_XDICTIONARY
360
1121
102
}
102
{ACAD_REACTORS
330
16B
102
}
330
16B
100
AcDbModelDocViewStyle
 70
     0
  3
Metric50
290
     0
100
AcDbSectionViewStyle
 70
     0
 71
     0
 90
      102
 71
     1
340
11
 62
   256
 40
5.0
340
0
340
0
 62
   256
 40
5.0
300
I, O, Q, S, X, Z
 40
10.0
 90
        0
 40
2.5
 90
        0
 71
     2
340
16
 90
       25
 62
   256
340
16
 90
       50
 62
   256
 40
5.0
 40
2.5
 40
5.0
 71
     3
340
11
 62
   256
 40
5.0
 90
        0
 40
15.0
 90
        1
300
%<\AcVar ViewSectionStartId>%-%<\AcVar ViewSectionEndId>% (%<\AcVar ViewScale \f "%sn">%)
 71
     4
 62
   256
 62
   257
300
ANSI31
 40
1.0
 90
        0
290
     0
290
     0
 90
        6
 40
0.0
 40
1.570796326794896
 40
0.2617993877991494
 40
1.308996938995747
 40
-0.2617993877991494
 40
1.832595714594045
  0
TABLESTYLE
  5
6A
102
{ACAD_XDICTIONARY
360
10F0
102
}
102
{ACAD_REACTORS
330
69
102
}
330
69
100
AcDbTableStyle
280
     0
  3
Standard
 70
     0
 71
     0
 40
1.5
 41
1.5
280
     0
281
     0
  7
Standard
140
4.5
170
     2
 62
     0
 63
     7
283
     0
 90
        4
 91
        0
  1

274
    -2
284
     1
 64
     0
275
    -2
285
     1
 65
     0
276
    -2
286
     1
 66
     0
277
    -2
287
     1
 67
     0
278
    -2
288
     1
 68
     0
279
    -2
289
     1
 69
     0
  7
Standard
140
6.0
170
     5
 62
     0
 63
     7
283
     0
 90
        4
 91
        0
  1

274
    -2
284
     1
 64
     0
275
    -2
285
     1
 65
     0
276
    -2
286
     1
 66
     0
277
    -2
287
     1
 67
     0
278
    -2
288
     1
 68
     0
279
    -2
289
     1
 69
     0
  7
Standard
140
4.5
170
     5
 62
     0
 63
     7
283
     0
 90
        4
 91
        0
  1

274
    -2
284
     1
 64
     0
275
    -2
285
     1
 65
     0
276
    -2
286
     1
 66
     0
277
    -2
287
     1
 67
     0
278
    -2
288
     1
 68
     0
279
    -2
289
     1
 69
     0
  0
VISUALSTYLE
  5
2F
102
{ACAD_REACTORS
330
2A
102
}
330
2A
100
AcDbVisualStyle
  2
2dWireframe
 70
     4
177
     3
291
     0
 70
    58
 90
        0
176
     1
 90
        2
176
     1
 90
        0
176
     1
 90
        0
176
     1
 40
0.6
176
     1
 40
30.0
176
     1
 62
     7
420
 16777215
176
     1
 90
        1
176
     1
 90
        4
176
     1
 62
     7
176
     1
 62
   257
176
     1
 90
        1
176
     1
 90
        1
176
     1
 40
1.0
176
     1
 90
        0
176
     1
 62
   257
176
     1
 40
1.0
176
     1
 90
        1
176
     1
 90
        6
176
     1
 90
        2
176
     1
 62
     7
176
     1
 90
        5
176
     1
 90
        0
176
     1
 90
        0
176
     1
290
     0
176
     1
 90
        1
176
     1
 40
0.0
176
     1
 90
        0
176
     1
290
     1
176
     1
290
     1
176
     1
290
     0
176
     1
290
     0
176
     1
290
     0
176
     1
290
     0
176
     1
290
     0
176
     1
290
     0
176
     1
290
     0
176
     1
 90
       50
176
     1
 40
0.0
176
     1
 40
1.0
176
     1
 90
        0
176
     1
 62
    18
176
     1
 90
       50
176
     1
 90
        3
176
     1
 62
     5
420
      255
176
     1
290
     0
176
     1
 90
       50
176
     1
 90
       50
176
     1
 90
       50
176
     1
290
     0
176
     1
 90
       50
176
     1
 62
   256
176
     0
 40
1.0
176
     0
 90
        2
176
     1
  1
strokes_ogs.tif
176
     1
290
     0
176
     1
 40
1.0
176
     1
 40
1.0
176
     1
1001
ACAD
1000
AcDbSavedByObjectVersion
1070
     0
  0
VISUALSTYLE
  5
32
102
{ACAD_REACTORS
330
2A
102
}
330
2A
100
AcDbVisualStyle
  2
Basic
 70
     7
177
     3
291
     1
 70
    58
 90
        1
176
     1
 90
        0
176
     1
 90
        1
176
     1
 90
        0
176
     1
 40
0.6
176
     1
 40
30.0
176
     1
 62
     7
420
 16777215
176
     1
 90
        0
176
     1
 90
        4
176
     1
 62
     7
176
     1
 62
   257
176
     1
 90
        1
176
     1
 90
        1
176
     1
 40
1.0
176
     1
 90
        8
176
     1
 62
     7
176
     1
 40
1.0
176
     1
 90
        1
176
     1
 90
        6
176
     1
 90
        2
176
     1
 62
     7
176
     1
 90
        5
176
     1
 90
        0
176
     1
 90
        0
176
     1
290
     0
176
     1
 90
        1
176
     1
 40
0.0
176
     1
 90
        0
176
     1
290
     0
176
     1
290
     1
176
     1
290
     1
176
     1
290
     0
176
     1
290
     0
176
     1
290
     0
176
     1
290
     0
176
     1
290
     0
176
     1
290
     0
176
     1
 90
       50
176
     1
 40
0.0
176
     1
 40
1.0
176
     1
 90
        0
176
     1
 62
    18
176
     1
 90
       50
176
     1
 90
        3
176
     1
 62
     5
420
      255
176
     1
290
     0
176
     1
 90
       50
176
     1
 90
       50
176
     1
 90
       50
176
     1
290
     0
176
     1
 90
       50
176
     1
 62
   256
176
     0
 40
1.0
176
     0
 90
        2
176
     1
  1
strokes_ogs.tif
176
     1
290
     0
176
     1
 40
1.0
176
     1
 40
1.0
176
     1
1001
ACAD
1000
AcDbSavedByObjectVersion
1070
     0
  0
VISUALSTYLE
  5
36
102
{ACAD_REACTORS
330
2A
102
}
330
2A
100
AcDbVisualStyle
  2
Brighten
 70
    12
177
     3
291
     1
 70
    58
 90
        2
176
     1
 90
        2
176
     1
 90
        0
176
     1
 90
        0
176
     1
 40
0.6
176
     1
 40
30.0
176
     1
 62
     7
420
 16777215
176
     1
 90
        1
176
     1
 90
        4
176
     1
 62
     7
176
     1
 62
   257
176
     1
 90
        1
176
     1
 90
        1
176
     1
 40
1.0
176
     1
 90
        8
176
     1
 62
     7
176
     1
 40
1.0
176
     1
 90
        1
176
     1
 90
        6
176
     1
 90
        2
176
     1
 62
     7
176
     1
 90
        5
176
     1
 90
        0
176
     1
 90
        0
176
     1
290
     0
176
     1
 90
        1
176
     1
 40
50.0
176
     1
 90
        0
176
     1
290
     0
176
     1
290
     1
176
     1
290
     1
176
     1
290
     0
176
     1
290
     0
176
     1
290
     0
176
     1
290
     0
176
     1
290
     0
176
     1
290
     0
176
     1
 90
       50
176
     1
 40
0.0
176
     1
 40
1.0
176
     1
 90
        0
176
     1
 62
    18
176
     1
 90
       50
176
     1
 90
        3
176
     1
 62
     5
420
      255
176
     1
290
     0
176
     1
 90
       50
176
     1
 90
       50
176
     1
 90
       50
176
     1
290
     0
176
     1
 90
       50
176
     1
 62
   256
176
     0
 40
1.0
176
     0
 90
        2
176
     1
  1
strokes_ogs.tif
176
     1
290
     0
176
     1
 40
1.0
176
     1
 40
1.0
176
     1
1001
ACAD
1000
AcDbSavedByObjectVersion
1070
     0
  0
VISUALSTYLE
  5
3A
102
{ACAD_REACTORS
330
2A
102
}
330
2A
100
AcDbVisualStyle
  2
ColorChange
 70
    16
177
     3
291
     1
 70
    58
 90
        2
176
     1
 90
        2
176
     1
 90
        3
176
     1
 90
        0
176
     1
 40
0.6
176
     1
 40
30.0
176
     1
 62
     8
420
  8421504
176
     1
 90
        1
176
     1
 90
        4
176
     1
 62
     7
176
     1
 62
   257
176
     1
 90
        1
176
     1
 90
        1
176
     1
 40
1.0
176
     1
 90
        8
176
     1
 62
     8
420
  8421504
176
     1
 40
1.0
176
     1
 90
        1
176
     1
 90
        6
176
     1
 90
        2
176
     1
 62
     7
176
     1
 90
        5
176
     1
 90
        0
176
     1
 90
        0
176
     1
290
     0
176
     1
 90
        1
176
     1
 40
0.0
176
     1
 90
        0
176
     1
290
     0
176
     1
290
     1
176
     1
290
     1
176
     1
290
     0
176
     1
290
     0
176
     1
290
     0
176
     1
290
     0
176
     1
290
     0
176
     1
290
     0
176
     1
 90
       50
176
     1
 40
0.0
176
     1
 40
1.0
176
     1
 90
        0
176
     1
 62
    18
176
     1
 90
       50
176
     1
 90
        3
176
     1
 62
     5
420
      255
176
     1
290
     0
176
     1
 90
       50
176
     1
 90
       50
176
     1
 90
       50
176
     1
290
     0
176
     1
 90
       50
176
     1
 62
   256
176
     0
 40
1.0
176
     0
 90
        2
176
     1
  1
strokes_ogs.tif
176
     1
290
     0
176
     1
 40
1.0
176
     1
 40
1.0
176
     1
1001
ACAD
1000
AcDbSavedByObjectVersion
1070
     0
  0
VISUALSTYLE
  5
34
102
{ACAD_REACTORS
330
2A
102
}
330
2A
100
AcDbVisualStyle
  2
Conceptual
 70
     9
177
     3
291
     0
 70
    58
 90
        3
176
     1
 90
        2
176
     1
 90
        0
176
     1
 90
        0
176
     1
 40
0.6
176
     1
 40
30.0
176
     1
 62
     7
420
 16777215
176
     1
 90
        2
176
     1
 90
        2
176
     1
 62
     7
176
     1
 62
   257
176
     1
 90
        1
176
     1
 90
        1
176
     1
 40
179.0
176
     1
 90
        8
176
     1
 62
     7
176
     1
 40
1.0
176
     1
 90
        1
176
     1
 90
        6
176
     1
 90
        2
176
     1
 62
     7
176
     1
 90
        3
176
     1
 90
        0
176
     1
 90
        0
176
     1
290
     0
176
     1
 90
        1
176
     1
 40
0.0
176
     1
 90
        0
176
     1
290
     0
176
     1
290
     1
176
     1
290
     1
176
     1
290
     0
176
     1
290
     0
176
     1
290
     0
176
     1
290
     0
176
     1
290
     0
176
     1
290
     0
176
     1
 90
       50
176
     1
 40
0.0
176
     1
 40
1.0
176
     1
 90
        0
176
     1
 62
    18
176
     1
 90
       50
176
     1
 90
        3
176
     1
 62
     5
420
      255
176
     1
290
     0
176
     1
 90
       50
176
     1
 90
       50
176
     1
 90
       50
176
     1
290
     0
176
     1
 90
       50
176
     1
 62
   256
176
     0
 40
1.0
176
     0
 90
        2
176
     1
  1
strokes_ogs.tif
176
     1
290
     0
176
     1
 40
1.0
176
     1
 40
1.0
176
     1
1001
ACAD
1000
AcDbSavedByObjectVersion
1070
     0
  0
VISUALSTYLE
  5
35
102
{ACAD_REACTORS
330
2A
102
}
330
2A
100
AcDbVisualStyle
  2
Dim
 70
    11
177
     3
291
     1
 70
    58
 90
        2
176
     1
 90
        2
176
     1
 90
        0
176
     1
 90
        0
176
     1
 40
0.6
176
     1
 40
30.0
176
     1
 62
     7
420
 16777215
176
     1
 90
        1
176
     1
 90
        4
176
     1
 62
     7
176
     1
 62
   257
176
     1
 90
        1
176
     1
 90
        1
176
     1
 40
1.0
176
     1
 90
        8
176
     1
 62
     7
176
     1
 40
1.0
176
     1
 90
        1
176
     1
 90
        6
176
     1
 90
        2
176
     1
 62
     7
176
     1
 90
        5
176
     1
 90
        0
176
     1
 90
        0
176
     1
290
     0
176
     1
 90
        1
176
     1
 40
-50.0
176
     1
 90
        0
176
     1
290
     0
176
     1
290
     1
176
     1
290
     1
176
     1
290
     0
176
     1
290
     0
176
     1
290
     0
176
     1
290
     0
176
     1
290
     0
176
     1
290
     0
176
     1
 90
       50
176
     1
 40
0.0
176
     1
 40
1.0
176
     1
 90
        0
176
     1
 62
    18
176
     1
 90
       50
176
     1
 90
        3
176
     1
 62
     5
420
      255
176
     1
290
     0
176
     1
 90
       50
176
     1
 90
       50
176
     1
 90
       50
176
     1
290
     0
176
     1
 90
       50
176
     1
 62
   256
176
     0
 40
1.0
176
     0
 90
        2
176
     1
  1
strokes_ogs.tif
176
     1
290
     0
176
     1
 40
1.0
176
     1
 40
1.0
176
     1
1001
ACAD
1000
AcDbSavedByObjectVersion
1070
     0
  0
VISUALSTYLE
  5
3D
102
{ACAD_REACTORS
330
2A
102
}
330
2A
100
AcDbVisualStyle
  2
EdgeColorOff
 70
    22
177
     3
291
     1
 70
    58
 90
        2
176
     0
 90
        2
176
     0
 90
        0
176
     0
 90
        0
176
     0
 40
0.6
176
     0
 40
30.0
176
     0
 62
     7
420
 16777215
176
     0
 90
        1
176
     0
 90
        4
176
     0
 62
     7
176
     0
 62
   257
176
     0
 90
        1
176
     0
 90
        1
176
     0
 40
1.0
176
     0
 90
        8
176
     2
 62
     7
176
     0
 40
1.0
176
     0
 90
        1
176
     0
 90
        6
176
     0
 90
        2
176
     0
 62
     7
176
     0
 90
        5
176
     0
 90
        0
176
     0
 90
        0
176
     0
290
     0
176
     0
 90
        1
176
     0
 40
0.0
176
     0
 90
        0
176
     0
290
     0
176
     0
290
     1
176
     0
290
     1
176
     0
290
     0
176
     0
290
     0
176
     0
290
     0
176
     0
290
     0
176
     0
290
     0
176
     0
290
     0
176
     0
 90
       50
176
     0
 40
0.0
176
     0
 40
1.0
176
     0
 90
        0
176
     0
 62
    18
176
     0
 90
       50
176
     0
 90
        3
176
     0
 62
     5
420
      255
176
     0
290
     0
176
     0
 90
       50
176
     0
 90
       50
176
     0
 90
       50
176
     0
290
     0
176
     0
 90
       50
176
     0
 62
   256
176
     0
 40
1.0
176
     0
 90
        2
176
     0
  1
strokes_ogs.tif
176
     0
290
     0
176
     0
 40
1.0
176
     0
 40
1.0
176
     0
1001
ACAD
1000
AcDbSavedByObjectVersion
1070
     0
  0
VISUALSTYLE
  5
39
102
{ACAD_REACTORS
330
2A
102
}
330
2A
100
AcDbVisualStyle
  2
Facepattern
 70
    15
177
     3
291
     1
 70
    58
 90
        2
176
     1
 90
        2
176
     1
 90
        0
176
     1
 90
        0
176
     1
 40
0.6
176
     1
 40
30.0
176
     1
 62
     7
420
 16777215
176
     1
 90
        1
176
     1
 90
        4
176
     1
 62
     7
176
     1
 62
   257
176
     1
 90
        1
176
     1
 90
        1
176
     1
 40
1.0
176
     1
 90
        8
176
     1
 62
     7
176
     1
 40
1.0
176
     1
 90
        1
176
     1
 90
        6
176
     1
 90
        2
176
     1
 62
     7
176
     1
 90
        5
176
     1
 90
        0
176
     1
 90
        0
176
     1
290
     0
176
     1
 90
        1
176
     1
 40
0.0
176
     1
 90
        0
176
     1
290
     0
176
     1
290
     1
176
     1
290
     1
176
     1
290
     0
176
     1
290
     0
176
     1
290
     0
176
     1
290
     0
176
     1
290
     0
176
     1
290
     0
176
     1
 90
       50
176
     1
 40
0.0
176
     1
 40
1.0
176
     1
 90
        0
176
     1
 62
    18
176
     1
 90
       50
176
     1
 90
        3
176
     1
 62
     5
420
      255
176
     1
290
     0
176
     1
 90
       50
176
     1
 90
       50
176
     1
 90
       50
176
     1
290
     0
176
     1
 90
       50
176
     1
 62
   256
176
     0
 40
1.0
176
     0
 90
        2
176
     1
  1
strokes_ogs.tif
176
     1
290
     0
176
     1
 40
1.0
176
     1
 40
1.0
176
     1
1001
ACAD
1000
AcDbSavedByObjectVersion
1070
     0
  0
VISUALSTYLE
  5
2B
102
{ACAD_REACTORS
330
2A
102
}
330
2A
100
AcDbVisualStyle
  2
Flat
 70
     0
177
     3
291
     1
 70
    58
 90
        2
176
     1
 90
        1
176
     1
 90
        1
176
     1
 90
        2
176
     1
 40
0.6
176
     1
 40
30.0
176
     1
 62
     7
420
 16777215
176
     1
 90
        0
176
     1
 90
        0
176
     1
 62
     7
176
     1
 62
   257
176
     1
 90
        1
176
     1
 90
        1
176
     1
 40
1.0
176
     1
 90
        8
176
     1
 62
     7
176
     1
 40
1.0
176
     1
 90
        1
176
     1
 90
        6
176
     1
 90
        2
176
     1
 62
     7
176
     1
 90
        5
176
     1
 90
        0
176
     1
 90
        0
176
     1
290
     0
176
     1
 90
       13
176
     1
 40
0.0
176
     1
 90
        0
176
     1
290
     0
176
     1
290
     1
176
     1
290
     1
176
     1
290
     0
176
     1
290
     0
176
     1
290
     0
176
     1
290
     0
176
     1
290
     0
176
     1
290
     0
176
     1
 90
       50
176
     1
 40
0.0
176
     1
 40
1.0
176
     1
 90
        0
176
     1
 62
    18
176
     1
 90
       50
176
     1
 90
        3
176
     1
 62
     5
420
      255
176
     1
290
     0
176
     1
 90
       50
176
     1
 90
       50
176
     1
 90
       50
176
     1
290
     0
176
     1
 90
       50
176
     1
 62
   256
176
     0
 40
1.0
176
     0
 90
        2
176
     1
  1
strokes_ogs.tif
176
     1
290
     0
176
     1
 40
1.0
176
     1
 40
1.0
176
     1
1001
ACAD
1000
AcDbSavedByObjectVersion
1070
     0
  0
VISUALSTYLE
  5
2C
102
{ACAD_REACTORS
330
2A
102
}
330
2A
100
AcDbVisualStyle
  2
FlatWithEdges
 70
     1
177
     3
291
     1
 70
    58
 90
        2
176
     1
 90
        1
176
     1
 90
        1
176
     1
 90
        2
176
     1
 40
0.6
176
     1
 40
30.0
176
     1
 62
     7
420
 16777215
176
     1
 90
        1
176
     1
 90
        0
176
     1
 62
     7
176
     1
 62
   257
176
     1
 90
        1
176
     1
 90
        1
176
     1
 40
1.0
176
     1
 90
        0
176
     1
 62
   257
176
     1
 40
1.0
176
     1
 90
        1
176
     1
 90
        6
176
     1
 90
        2
176
     1
 62
     7
176
     1
 90
        5
176
     1
 90
        0
176
     1
 90
        0
176
     1
290
     0
176
     1
 90
       13
176
     1
 40
0.0
176
     1
 90
        0
176
     1
290
     0
176
     1
290
     1
176
     1
290
     1
176
     1
290
     0
176
     1
290
     0
176
     1
290
     0
176
     1
290
     0
176
     1
290
     0
176
     1
290
     0
176
     1
 90
       50
176
     1
 40
0.0
176
     1
 40
1.0
176
     1
 90
        0
176
     1
 62
    18
176
     1
 90
       50
176
     1
 90
        3
176
     1
 62
     5
420
      255
176
     1
290
     0
176
     1
 90
       50
176
     1
 90
       50
176
     1
 90
       50
176
     1
290
     0
176
     1
 90
       50
176
     1
 62
   256
176
     0
 40
1.0
176
     0
 90
        2
176
     1
  1
strokes_ogs.tif
176
     1
290
     0
176
     1
 40
1.0
176
     1
 40
1.0
176
     1
1001
ACAD
1000
AcDbSavedByObjectVersion
1070
     0
  0
VISUALSTYLE
  5
2D
102
{ACAD_REACTORS
330
2A
102
}
330
2A
100
AcDbVisualStyle
  2
Gouraud
 70
     2
177
     3
291
     1
 70
    58
 90
        2
176
     1
 90
        2
176
     1
 90
        1
176
     1
 90
        2
176
     1
 40
0.6
176
     1
 40
30.0
176
     1
 62
     7
420
 16777215
176
     1
 90
        0
176
     1
 90
        0
176
     1
 62
     7
176
     1
 62
   257
176
     1
 90
        1
176
     1
 90
        1
176
     1
 40
1.0
176
     1
 90
        0
176
     1
 62
     7
176
     1
 40
1.0
176
     1
 90
        1
176
     1
 90
        6
176
     1
 90
        2
176
     1
 62
     7
176
     1
 90
        5
176
     1
 90
        0
176
     1
 90
        0
176
     1
290
     0
176
     1
 90
       13
176
     1
 40
0.0
176
     1
 90
        0
176
     1
290
     0
176
     1
290
     1
176
     1
290
     1
176
     1
290
     0
176
     1
290
     0
176
     1
290
     0
176
     1
290
     0
176
     1
290
     0
176
     1
290
     0
176
     1
 90
       50
176
     1
 40
0.0
176
     1
 40
1.0
176
     1
 90
        0
176
     1
 62
    18
176
     1
 90
       50
176
     1
 90
        3
176
     1
 62
     5
420
      255
176
     1
290
     0
176
     1
 90
       50
176
     1
 90
       50
176
     1
 90
       50
176
     1
290
     0
176
     1
 90
       50
176
     1
 62
   256
176
     0
 40
1.0
176
     0
 90
        2
176
     1
  1
strokes_ogs.tif
176
     1
290
     0
176
     1
 40
1.0
176
     1
 40
1.0
176
     1
1001
ACAD
1000
AcDbSavedByObjectVersion
1070
     0
  0
VISUALSTYLE
  5
2E
102
{ACAD_REACTORS
330
2A
102
}
330
2A
100
AcDbVisualStyle
  2
GouraudWithEdges
 70
     3
177
     3
291
     1
 70
    58
 90
        2
176
     1
 90
        2
176
     1
 90
        1
176
     1
 90
        2
176
     1
 40
0.6
176
     1
 40
30.0
176
     1
 62
     7
420
 16777215
176
     1
 90
        1
176
     1
 90
        0
176
     1
 62
     7
176
     1
 62
   257
176
     1
 90
        1
176
     1
 90
        1
176
     1
 40
1.0
176
     1
 90
        0
176
     1
 62
   257
176
     1
 40
1.0
176
     1
 90
        1
176
     1
 90
        6
176
     1
 90
        2
176
     1
 62
     7
176
     1
 90
        5
176
     1
 90
        0
176
     1
 90
        0
176
     1
290
     0
176
     1
 90
       13
176
     1
 40
0.0
176
     1
 90
        0
176
     1
290
     0
176
     1
290
     1
176
     1
290
     1
176
     1
290
     0
176
     1
290
     0
176
     1
290
     0
176
     1
290
     0
176
     1
290
     0
176
     1
290
     0
176
     1
 90
       50
176
     1
 40
0.0
176
     1
 40
1.0
176
     1
 90
        0
176
     1
 62
    18
176
     1
 90
       50
176
     1
 90
        3
176
     1
 62
     5
420
      255
176
     1
290
     0
176
     1
 90
       50
176
     1
 90
       50
176
     1
 90
       50
176
     1
290
     0
176
     1
 90
       50
176
     1
 62
   256
176
     0
 40
1.0
176
     0
 90
        2
176
     1
  1
strokes_ogs.tif
176
     1
290
     0
176
     1
 40
1.0
176
     1
 40
1.0
176
     1
1001
ACAD
1000
AcDbSavedByObjectVersion
1070
     0
  0
VISUALSTYLE
  5
31
102
{ACAD_REACTORS
330
2A
102
}
330
2A
100
AcDbVisualStyle
  2
Hidden
 70
     6
177
     3
291
     0
 70
    58
 90
        1
176
     1
 90
        2
176
     1
 90
        2
176
     1
 90
        0
176
     1
 40
0.6
176
     1
 40
30.0
176
     1
 62
     7
420
 16777215
176
     1
 90
        2
176
     1
 90
        2
176
     1
 62
     7
176
     1
 62
   257
176
     1
 90
        2
176
     1
 90
        1
176
     1
 40
40.0
176
     1
 90
        0
176
     1
 62
   257
176
     1
 40
1.0
176
     1
 90
        1
176
     1
 90
        6
176
     1
 90
        2
176
     1
 62
     7
176
     1
 90
        3
176
     1
 90
        0
176
     1
 90
        0
176
     1
290
     0
176
     1
 90
        1
176
     1
 40
0.0
176
     1
 90
        0
176
     1
290
     0
176
     1
290
     1
176
     1
290
     1
176
     1
290
     0
176
     1
290
     0
176
     1
290
     0
176
     1
290
     0
176
     1
290
     0
176
     1
290
     0
176
     1
 90
       50
176
     1
 40
0.0
176
     1
 40
1.0
176
     1
 90
        0
176
     1
 62
    18
176
     1
 90
       50
176
     1
 90
        3
176
     1
 62
     5
420
      255
176
     1
290
     0
176
     1
 90
       50
176
     1
 90
       50
176
     1
 90
       50
176
     1
290
     0
176
     1
 90
       50
176
     1
 62
   256
176
     0
 40
1.0
176
     0
 90
        2
176
     1
  1
strokes_ogs.tif
176
     1
290
     0
176
     1
 40
1.0
176
     1
 40
1.0
176
     1
1001
ACAD
1000
AcDbSavedByObjectVersion
1070
     0
  0
VISUALSTYLE
  5
3B
102
{ACAD_REACTORS
330
2A
102
}
330
2A
100
AcDbVisualStyle
  2
JitterOff
 70
    20
177
     3
291
     1
 70
    58
 90
        2
176
     0
 90
        2
176
     0
 90
        0
176
     0
 90
        0
176
     0
 40
0.6
176
     0
 40
30.0
176
     0
 62
     7
420
 16777215
176
     0
 90
        1
176
     0
 90
        4
176
     0
 62
     7
176
     0
 62
   257
176
     0
 90
        1
176
     0
 90
        1
176
     0
 40
1.0
176
     0
 90
       10
176
     2
 62
     7
176
     0
 40
1.0
176
     0
 90
        1
176
     0
 90
        6
176
     0
 90
        2
176
     0
 62
     7
176
     0
 90
        5
176
     0
 90
        0
176
     0
 90
        0
176
     0
290
     0
176
     0
 90
        1
176
     0
 40
0.0
176
     0
 90
        0
176
     0
290
     0
176
     0
290
     1
176
     0
290
     1
176
     0
290
     0
176
     0
290
     0
176
     0
290
     0
176
     0
290
     0
176
     0
290
     0
176
     0
290
     0
176
     0
 90
       50
176
     0
 40
0.0
176
     0
 40
1.0
176
     0
 90
        0
176
     0
 62
    18
176
     0
 90
       50
176
     0
 90
        3
176
     0
 62
     5
420
      255
176
     0
290
     0
176
     0
 90
       50
176
     0
 90
       50
176
     0
 90
       50
176
     0
290
     0
176
     0
 90
       50
176
     0
 62
   256
176
     0
 40
1.0
176
     0
 90
        2
176
     0
  1
strokes_ogs.tif
176
     0
290
     0
176
     0
 40
1.0
176
     0
 40
1.0
176
     0
1001
ACAD
1000
AcDbSavedByObjectVersion
1070
     0
  0
VISUALSTYLE
  5
38
102
{ACAD_REACTORS
330
2A
102
}
330
2A
100
AcDbVisualStyle
  2
Linepattern
 70
    14
177
     3
291
     1
 70
    58
 90
        2
176
     1
 90
        2
176
     1
 90
        0
176
     1
 90
        0
176
     1
 40
0.6
176
     1
 40
30.0
176
     1
 62
     7
420
 16777215
176
     1
 90
        1
176
     1
 90
        4
176
     1
 62
     7
176
     1
 62
   257
176
     1
 90
        7
176
     1
 90
        7
176
     1
 40
1.0
176
     1
 90
        8
176
     1
 62
     7
176
     1
 40
1.0
176
     1
 90
        1
176
     1
 90
        6
176
     1
 90
        2
176
     1
 62
     7
176
     1
 90
        5
176
     1
 90
        0
176
     1
 90
        0
176
     1
290
     0
176
     1
 90
        1
176
     1
 40
0.0
176
     1
 90
        0
176
     1
290
     0
176
     1
290
     1
176
     1
290
     1
176
     1
290
     0
176
     1
290
     0
176
     1
290
     0
176
     1
290
     0
176
     1
290
     0
176
     1
290
     0
176
     1
 90
       50
176
     1
 40
0.0
176
     1
 40
1.0
176
     1
 90
        0
176
     1
 62
    18
176
     1
 90
       50
176
     1
 90
        3
176
     1
 62
     5
420
      255
176
     1
290
     0
176
     1
 90
       50
176
     1
 90
       50
176
     1
 90
       50
176
     1
290
     0
176
     1
 90
       50
176
     1
 62
   256
176
     0
 40
1.0
176
     0
 90
        2
176
     1
  1
strokes_ogs.tif
176
     1
290
     0
176
     1
 40
1.0
176
     1
 40
1.0
176
     1
1001
ACAD
1000
AcDbSavedByObjectVersion
1070
     0
  0
VISUALSTYLE
  5
3C
102
{ACAD_REACTORS
330
2A
102
}
330
2A
100
AcDbVisualStyle
  2
OverhangOff
 70
    21
177
     3
291
     1
 70
    58
 90
        2
176
     0
 90
        2
176
     0
 90
        0
176
     0
 90
        0
176
     0
 40
0.6
176
     0
 40
30.0
176
     0
 62
     7
420
 16777215
176
     0
 90
        1
176
     0
 90
        4
176
     0
 62
     7
176
     0
 62
   257
176
     0
 90
        1
176
     0
 90
        1
176
     0
 40
1.0
176
     0
 90
        9
176
     2
 62
     7
176
     0
 40
1.0
176
     0
 90
        1
176
     0
 90
        6
176
     0
 90
        2
176
     0
 62
     7
176
     0
 90
        5
176
     0
 90
        0
176
     0
 90
        0
176
     0
290
     0
176
     0
 90
        1
176
     0
 40
0.0
176
     0
 90
        0
176
     0
290
     0
176
     0
290
     1
176
     0
290
     1
176
     0
290
     0
176
     0
290
     0
176
     0
290
     0
176
     0
290
     0
176
     0
290
     0
176
     0
290
     0
176
     0
 90
       50
176
     0
 40
0.0
176
     0
 40
1.0
176
     0
 90
        0
176
     0
 62
    18
176
     0
 90
       50
176
     0
 90
        3
176
     0
 62
     5
420
      255
176
     0
290
     0
176
     0
 90
       50
176
     0
 90
       50
176
     0
 90
       50
176
     0
290
     0
176
     0
 90
       50
176
     0
 62
   256
176
     0
 40
1.0
176
     0
 90
        2
176
     0
  1
strokes_ogs.tif
176
     0
290
     0
176
     0
 40
1.0
176
     0
 40
1.0
176
     0
1001
ACAD
1000
AcDbSavedByObjectVersion
1070
     0
  0
VISUALSTYLE
  5
33
102
{ACAD_REACTORS
330
2A
102
}
330
2A
100
AcDbVisualStyle
  2
Realistic
 70
     8
177
     3
291
     0
 70
    58
 90
        2
176
     1
 90
        3
176
     1
 90
        0
176
     1
 90
        2
176
     1
 40
0.6
176
     1
 40
30.0
176
     1
 62
     7
420
 16777215
176
     1
 90
        0
176
     1
 90
        0
176
     1
 62
     7
176
     1
 62
   257
176
     1
 90
        1
176
     1
 90
        1
176
     1
 40
1.0
176
     1
 90
        8
176
     1
 62
   257
176
     1
 40
1.0
176
     1
 90
        1
176
     1
 90
        6
176
     1
 90
        2
176
     1
 62
     7
176
     1
 90
        3
176
     1
 90
        0
176
     1
 90
        0
176
     1
290
     0
176
     1
 90
       13
176
     1
 40
0.0
176
     1
 90
        0
176
     1
290
     0
176
     1
290
     1
176
     1
290
     1
176
     1
290
     0
176
     1
290
     0
176
     1
290
     0
176
     1
290
     0
176
     1
290
     0
176
     1
290
     0
176
     1
 90
       50
176
     1
 40
0.0
176
     1
 40
1.0
176
     1
 90
        0
176
     1
 62
    18
176
     1
 90
       50
176
     1
 90
        3
176
     1
 62
     5
420
      255
176
     1
290
     0
176
     1
 90
       50
176
     1
 90
       50
176
     1
 90
       50
176
     1
290
     0
176
     1
 90
       50
176
     1
 62
   256
176
     0
 40
1.0
176
     0
 90
        2
176
     1
  1
strokes_ogs.tif
176
     1
290
     0
176
     1
 40
1.0
176
     1
 40
1.0
176
     1
1001
ACAD
1000
AcDbSavedByObjectVersion
1070
     0
  0
VISUALSTYLE
  5
42
102
{ACAD_REACTORS
330
2A
102
}
330
2A
100
AcDbVisualStyle
  2
Shaded
 70
    27
177
     3
291
     0
 70
    58
 90
        2
176
     1
 90
        2
176
     1
 90
        1
176
     1
 90
        2
176
     1
 40
0.6
176
     1
 40
30.0
176
     1
 62
     7
420
 16777215
176
     1
 90
        0
176
     1
 90
        4
176
     1
 62
     7
176
     1
 62
   257
176
     1
 90
        1
176
     1
 90
        1
176
     1
 40
1.0
176
     1
 90
        8
176
     1
 62
   257
176
     1
 40
1.0
176
     1
 90
        1
176
     1
 90
        6
176
     1
 90
        2
176
     1
 62
     8
420
  7895160
176
     1
 90
        3
176
     1
 90
        0
176
     1
 90
        0
176
     1
290
     0
176
     1
 90
        5
176
     1
 40
0.0
176
     1
 90
        0
176
     1
290
     0
176
     1
290
     1
176
     1
290
     1
176
     1
290
     0
176
     1
290
     0
176
     1
290
     0
176
     1
290
     0
176
     1
290
     0
176
     1
290
     0
176
     1
 90
       50
176
     1
 40
0.0
176
     1
 40
1.0
176
     1
 90
        0
176
     1
 62
    18
176
     1
 90
       50
176
     1
 90
        3
176
     1
 62
     5
420
      255
176
     1
290
     0
176
     1
 90
       50
176
     1
 90
       50
176
     1
 90
       50
176
     1
290
     0
176
     1
 90
       50
176
     1
 62
   256
176
     0
 40
1.0
176
     0
 90
        2
176
     1
  1
strokes_ogs.tif
176
     1
290
     0
176
     1
 40
1.0
176
     1
 40
1.0
176
     1
1001
ACAD
1000
AcDbSavedByObjectVersion
1070
     0
  0
VISUALSTYLE
  5
41
102
{ACAD_REACTORS
330
2A
102
}
330
2A
100
AcDbVisualStyle
  2
Shaded with edges
 70
    26
177
     3
291
     0
 70
    58
 90
        2
176
     1
 90
        2
176
     1
 90
        1
176
     1
 90
        2
176
     1
 40
0.6
176
     1
 40
30.0
176
     1
 62
     7
420
 16777215
176
     1
 90
        1
176
     1
 90
        2
176
     1
 62
     7
176
     1
 62
   257
176
     1
 90
        2
176
     1
 90
        1
176
     1
 40
1.0
176
     1
 90
        8
176
     1
 62
   257
176
     1
 40
1.0
176
     1
 90
        1
176
     1
 90
        6
176
     1
 90
        2
176
     1
 62
     7
176
     1
 90
        3
176
     1
 90
        0
176
     1
 90
        0
176
     1
290
     0
176
     1
 90
        5
176
     1
 40
0.0
176
     1
 90
        0
176
     1
290
     0
176
     1
290
     1
176
     1
290
     1
176
     1
290
     0
176
     1
290
     0
176
     1
290
     0
176
     1
290
     0
176
     1
290
     0
176
     1
290
     0
176
     1
 90
       50
176
     1
 40
0.0
176
     1
 40
1.0
176
     1
 90
        0
176
     1
 62
    18
176
     1
 90
       50
176
     1
 90
        3
176
     1
 62
     5
420
      255
176
     1
290
     0
176
     1
 90
       50
176
     1
 90
       50
176
     1
 90
       50
176
     1
290
     0
176
     1
 90
       50
176
     1
 62
   256
176
     0
 40
1.0
176
     0
 90
        2
176
     1
  1
strokes_ogs.tif
176
     1
290
     0
176
     1
 40
1.0
176
     1
 40
1.0
176
     1
1001
ACAD
1000
AcDbSavedByObjectVersion
1070
     0
  0
VISUALSTYLE
  5
3E
102
{ACAD_REACTORS
330
2A
102
}
330
2A
100
AcDbVisualStyle
  2
Shades of Gray
 70
    23
177
     3
291
     0
 70
    58
 90
        2
176
     1
 90
        2
176
     1
 90
        3
176
     1
 90
        0
176
     1
 40
0.6
176
     1
 40
30.0
176
     1
 62
     7
420
 16777215
176
     1
 90
        2
176
     1
 90
        2
176
     1
 62
     7
176
     1
 62
     7
176
     1
 90
        1
176
     1
 90
        1
176
     1
 40
40.0
176
     1
 90
        8
176
     1
 62
     7
176
     1
 40
1.0
176
     1
 90
        1
176
     1
 90
        6
176
     1
 90
        2
176
     1
 62
     7
176
     1
 90
        3
176
     1
 90
        0
176
     1
 90
        0
176
     1
290
     0
176
     1
 90
        1
176
     1
 40
0.0
176
     1
 90
        0
176
     1
290
     0
176
     1
290
     1
176
     1
290
     1
176
     1
290
     0
176
     1
290
     0
176
     1
290
     0
176
     1
290
     0
176
     1
290
     0
176
     1
290
     0
176
     1
 90
       50
176
     1
 40
0.0
176
     1
 40
1.0
176
     1
 90
        0
176
     1
 62
    18
176
     1
 90
       50
176
     1
 90
        3
176
     1
 62
     5
420
      255
176
     1
290
     0
176
     1
 90
       50
176
     1
 90
       50
176
     1
 90
       50
176
     1
290
     0
176
     1
 90
       50
176
     1
 62
   256
176
     0
 40
1.0
176
     0
 90
        2
176
     1
  1
strokes_ogs.tif
176
     1
290
     0
176
     1
 40
1.0
176
     1
 40
1.0
176
     1
1001
ACAD
1000
AcDbSavedByObjectVersion
1070
     0
  0
VISUALSTYLE
  5
3F
102
{ACAD_REACTORS
330
2A
102
}
330
2A
100
AcDbVisualStyle
  2
Sketchy
 70
    24
177
     3
291
     0
 70
    58
 90
        1
176
     1
 90
        2
176
     1
 90
        2
176
     1
 90
        0
176
     1
 40
0.6
176
     1
 40
30.0
176
     1
 62
     7
420
 16777215
176
     1
 90
        2
176
     1
 90
        2
176
     1
 62
     7
176
     1
 62
     7
176
     1
 90
        1
176
     1
 90
        1
176
     1
 40
40.0
176
     1
 90
       11
176
     1
 62
     7
176
     1
 40
1.0
176
     1
 90
        1
176
     1
 90
        6
176
     1
 90
        2
176
     1
 62
     7
176
     1
 90
        6
176
     1
 90
        0
176
     1
 90
        0
176
     1
290
     0
176
     1
 90
        1
176
     1
 40
0.0
176
     1
 90
        0
176
     1
290
     0
176
     1
290
     1
176
     1
290
     1
176
     1
290
     0
176
     1
290
     0
176
     1
290
     0
176
     1
290
     0
176
     1
290
     0
176
     1
290
     0
176
     1
 90
       50
176
     1
 40
0.0
176
     1
 40
1.0
176
     1
 90
        0
176
     1
 62
    18
176
     1
 90
       50
176
     1
 90
        3
176
     1
 62
     5
420
      255
176
     1
290
     0
176
     1
 90
       50
176
     1
 90
       50
176
     1
 90
       50
176
     1
290
     0
176
     1
 90
       50
176
     1
 62
   256
176
     0
 40
1.0
176
     0
 90
        2
176
     1
  1
strokes_ogs.tif
176
     1
290
     0
176
     1
 40
1.0
176
     1
 40
1.0
176
     1
1001
ACAD
1000
AcDbSavedByObjectVersion
1070
     0
  0
VISUALSTYLE
  5
37
102
{ACAD_REACTORS
330
2A
102
}
330
2A
100
AcDbVisualStyle
  2
Thicken
 70
    13
177
     3
291
     1
 70
    58
 90
        2
176
     1
 90
        2
176
     1
 90
        0
176
     1
 90
        0
176
     1
 40
0.6
176
     1
 40
30.0
176
     1
 62
     7
420
 16777215
176
     1
 90
        1
176
     1
 90
        4
176
     1
 62
     7
176
     1
 62
   257
176
     1
 90
        1
176
     1
 90
        1
176
     1
 40
1.0
176
     1
 90
       12
176
     1
 62
     7
176
     1
 40
1.0
176
     1
 90
        1
176
     1
 90
        6
176
     1
 90
        2
176
     1
 62
     7
176
     1
 90
        5
176
     1
 90
        0
176
     1
 90
        0
176
     1
290
     0
176
     1
 90
        1
176
     1
 40
0.0
176
     1
 90
        0
176
     1
290
     0
176
     1
290
     1
176
     1
290
     1
176
     1
290
     0
176
     1
290
     0
176
     1
290
     0
176
     1
290
     0
176
     1
290
     0
176
     1
290
     0
176
     1
 90
       50
176
     1
 40
0.0
176
     1
 40
1.0
176
     1
 90
        0
176
     1
 62
    18
176
     1
 90
       50
176
     1
 90
        3
176
     1
 62
     5
420
      255
176
     1
290
     0
176
     1
 90
       50
176
     1
 90
       50
176
     1
 90
       50
176
     1
290
     0
176
     1
 90
       50
176
     1
 62
   256
176
     0
 40
1.0
176
     0
 90
        2
176
     1
  1
strokes_ogs.tif
176
     1
290
     0
176
     1
 40
1.0
176
     1
 40
1.0
176
     1
1001
ACAD
1000
AcDbSavedByObjectVersion
1070
     0
  0
VISUALSTYLE
  5
30
102
{ACAD_REACTORS
330
2A
102
}
330
2A
100
AcDbVisualStyle
  2
Wireframe
 70
     5
177
     3
291
     0
 70
    58
 90
        0
176
     1
 90
        2
176
     1
 90
        0
176
     1
 90
        0
176
     1
 40
0.6
176
     1
 40
30.0
176
     1
 62
     7
420
 16777215
176
     1
 90
        1
176
     1
 90
        4
176
     1
 62
     7
176
     1
 62
   257
176
     1
 90
        1
176
     1
 90
        1
176
     1
 40
1.0
176
     1
 90
        0
176
     1
 62
   257
176
     1
 40
1.0
176
     1
 90
        1
176
     1
 90
        6
176
     1
 90
        2
176
     1
 62
     7
176
     1
 90
        3
176
     1
 90
        0
176
     1
 90
        0
176
     1
290
     0
176
     1
 90
        1
176
     1
 40
0.0
176
     1
 90
        0
176
     1
290
     0
176
     1
290
     1
176
     1
290
     1
176
     1
290
     0
176
     1
290
     0
176
     1
290
     0
176
     1
290
     0
176
     1
290
     0
176
     1
290
     0
176
     1
 90
       50
176
     1
 40
0.0
176
     1
 40
1.0
176
     1
 90
        0
176
     1
 62
    18
176
     1
 90
       50
176
     1
 90
        3
176
     1
 62
     5
420
      255
176
     1
290
     0
176
     1
 90
       50
176
     1
 90
       50
176
     1
 90
       50
176
     1
290
     0
176
     1
 90
       50
176
     1
 62
   256
176
     0
 40
1.0
176
     0
 90
        2
176
     1
  1
strokes_ogs.tif
176
     1
290
     0
176
     1
 40
1.0
176
     1
 40
1.0
176
     1
1001
ACAD
1000
AcDbSavedByObjectVersion
1070
     0
  0
VISUALSTYLE
  5
40
102
{ACAD_REACTORS
330
2A
102
}
330
2A
100
AcDbVisualStyle
  2
X-Ray
 70
    25
177
     3
291
     0
 70
    58
 90
        2
176
     1
 90
        2
176
     1
 90
        1
176
     1
 90
        1
176
     1
 40
0.5
176
     1
 40
30.0
176
     1
 62
     7
420
 16777215
176
     1
 90
        1
176
     1
 90
        0
176
     1
 62
     7
176
     1
 62
   257
176
     1
 90
        1
176
     1
 90
        1
176
     1
 40
1.0
176
     1
 90
        8
176
     1
 62
     7
176
     1
 40
1.0
176
     1
 90
        1
176
     1
 90
        6
176
     1
 90
        2
176
     1
 62
     7
176
     1
 90
        3
176
     1
 90
        0
176
     1
 90
        0
176
     1
290
     0
176
     1
 90
       13
176
     1
 40
0.0
176
     1
 90
        0
176
     1
290
     0
176
     1
290
     1
176
     1
290
     1
176
     1
290
     0
176
     1
290
     0
176
     1
290
     0
176
     1
290
     0
176
     1
290
     0
176
     1
290
     0
176
     1
 90
       50
176
     1
 40
0.0
176
     1
 40
1.0
176
     1
 90
        0
176
     1
 62
    18
176
     1
 90
       50
176
     1
 90
        3
176
     1
 62
     5
420
      255
176
     1
290
     0
176
     1
 90
       50
176
     1
 90
       50
176
     1
 90
       50
176
     1
290
     0
176
     1
 90
       50
176
     1
 62
   256
176
     0
 40
1.0
176
     0
 90
        2
176
     1
  1
strokes_ogs.tif
176
     1
290
     0
176
     1
 40
1.0
176
     1
 40
1.0
176
     1
1001
ACAD
1000
AcDbSavedByObjectVersion
1070
     0
  0
DICTIONARYVAR
  5
167
102
{ACAD_REACTORS
330
166
102
}
330
166
100
DictionaryVariables
280
     0
  1
1:1
  0
DICTIONARYVAR
  5
16C
102
{ACAD_REACTORS
330
166
102
}
330
166
100
DictionaryVariables
280
     0
  1
3.500000
  0
DICTIONARYVAR
  5
16D
102
{ACAD_REACTORS
330
166
102
}
330
166
100
DictionaryVariables
280
     0
  1
acadiso.lin
  0
DICTIONARYVAR
  5
169
102
{ACAD_REACTORS
330
166
102
}
330
166
100
DictionaryVariables
280
     0
  1
STANDARD
  0
DICTIONARYVAR
  5
168
102
{ACAD_REACTORS
330
166
102
}
330
166
100
DictionaryVariables
280
     0
  1
STANDARD
  0
DICTIONARYVAR
  5
667
102
{ACAD_REACTORS
330
166
102
}
330
166
100
DictionaryVariables
280
     0
  1
Metric50
  0
DICTIONARYVAR
  5
668
102
{ACAD_REACTORS
330
166
102
}
330
166
100
DictionaryVariables
280
     0
  1
Metric50
  0
DICTIONARY
  5
1123
330
171
100
AcDbDictionary
280
     1
281
     1
  3
ACAD_XREC_ROUNDTRIP
360
1124
  0
DICTIONARY
  5
1121
330
170
100
AcDbDictionary
280
     1
281
     1
  3
ACAD_XREC_ROUNDTRIP
360
1122
  0
DICTIONARY
  5
10F0
330
6A
100
AcDbDictionary
280
     1
281
     1
  3
ACAD_ROUNDTRIP_2008_TABLESTYLE_CELLSTYLEMAP
360
111F
  0
XRECORD
  5
1124
102
{ACAD_REACTORS
330
1123
102
}
330
1123
100
AcDbXrecord
280
     1
102
DISPLAYNAME
  1
Metric50
102
FLAGS
 90
        0
  0
XRECORD
  5
1122
102
{ACAD_REACTORS
330
1121
102
}
330
1121
100
AcDbXrecord
280
     1
102
DISPLAYNAME
  1
Metric50
102
FLAGS
 90
        0
  0
CELLSTYLEMAP
  5
111F
102
{ACAD_REACTORS
330
10F0
102
}
330
10F0
100
AcDbCellStyleMap
 90
        3
300
CELLSTYLE
  1
TABLEFORMAT_BEGIN
 90
        5
170
     1
 91
        0
 92
    32768
 62
   257
 93
        1
300
CONTENTFORMAT
  1
CONTENTFORMAT_BEGIN
 90
        0
 91
        0
 92
        4
 93
        0
300

 40
0.0
140
1.0
 94
        5
 62
     0
340
11
144
6.0
309
CONTENTFORMAT_END
171
     1
301
MARGIN
  1
CELLMARGIN_BEGIN
 40
1.5
 40
1.5
 40
1.5
 40
1.5
 40
0.18
 40
0.18
309
CELLMARGIN_END
 94
        6
 95
        1
302
GRIDFORMAT
  1
GRIDFORMAT_BEGIN
 90
        0
 91
        1
 62
     0
 92
       -2
340
14
 93
        0
 40
0.045
309
GRIDFORMAT_END
 95
        2
302
GRIDFORMAT
  1
GRIDFORMAT_BEGIN
 90
        0
 91
        1
 62
     0
 92
       -2
340
14
 93
        0
 40
0.045
309
GRIDFORMAT_END
 95
        4
302
GRIDFORMAT
  1
GRIDFORMAT_BEGIN
 90
        0
 91
        1
 62
     0
 92
       -2
340
14
 93
        0
 40
0.045
309
GRIDFORMAT_END
 95
        8
302
GRIDFORMAT
  1
GRIDFORMAT_BEGIN
 90
        0
 91
        1
 62
     0
 92
       -2
340
14
 93
        0
 40
0.045
309
GRIDFORMAT_END
 95
       16
302
GRIDFORMAT
  1
GRIDFORMAT_BEGIN
 90
        0
 91
        1
 62
     0
 92
       -2
340
14
 93
        0
 40
0.045
309
GRIDFORMAT_END
 95
       32
302
GRIDFORMAT
  1
GRIDFORMAT_BEGIN
 90
        0
 91
        1
 62
     0
 92
       -2
340
14
 93
        0
 40
0.045
309
GRIDFORMAT_END
309
TABLEFORMAT_END
  1
CELLSTYLE_BEGIN
 90
        1
 91
        1
300
_TITLE
309
CELLSTYLE_END
300
CELLSTYLE
  1
TABLEFORMAT_BEGIN
 90
        5
170
     1
 91
        0
 92
        0
 62
   257
 93
        1
300
CONTENTFORMAT
  1
CONTENTFORMAT_BEGIN
 90
        0
 91
        0
 92
        4
 93
        0
300

 40
0.0
140
1.0
 94
        5
 62
     0
340
11
144
4.5
309
CONTENTFORMAT_END
171
     1
301
MARGIN
  1
CELLMARGIN_BEGIN
 40
1.5
 40
1.5
 40
1.5
 40
1.5
 40
0.18
 40
0.18
309
CELLMARGIN_END
 94
        6
 95
        1
302
GRIDFORMAT
  1
GRIDFORMAT_BEGIN
 90
        0
 91
        1
 62
     0
 92
       -2
340
14
 93
        0
 40
0.045
309
GRIDFORMAT_END
 95
        2
302
GRIDFORMAT
  1
GRIDFORMAT_BEGIN
 90
        0
 91
        1
 62
     0
 92
       -2
340
14
 93
        0
 40
0.045
309
GRIDFORMAT_END
 95
        4
302
GRIDFORMAT
  1
GRIDFORMAT_BEGIN
 90
        0
 91
        1
 62
     0
 92
       -2
340
14
 93
        0
 40
0.045
309
GRIDFORMAT_END
 95
        8
302
GRIDFORMAT
  1
GRIDFORMAT_BEGIN
 90
        0
 91
        1
 62
     0
 92
       -2
340
14
 93
        0
 40
0.045
309
GRIDFORMAT_END
 95
       16
302
GRIDFORMAT
  1
GRIDFORMAT_BEGIN
 90
        0
 91
        1
 62
     0
 92
       -2
340
14
 93
        0
 40
0.045
309
GRIDFORMAT_END
 95
       32
302
GRIDFORMAT
  1
GRIDFORMAT_BEGIN
 90
        0
 91
        1
 62
     0
 92
       -2
340
14
 93
        0
 40
0.045
309
GRIDFORMAT_END
309
TABLEFORMAT_END
  1
CELLSTYLE_BEGIN
 90
        2
 91
        1
300
_HEADER
309
CELLSTYLE_END
300
CELLSTYLE
  1
TABLEFORMAT_BEGIN
 90
        5
170
     1
 91
        0
 92
        0
 62
   257
 93
        1
300
CONTENTFORMAT
  1
CONTENTFORMAT_BEGIN
 90
        0
 91
        0
 92
        4
 93
        0
300

 40
0.0
140
1.0
 94
        2
 62
     0
340
11
144
4.5
309
CONTENTFORMAT_END
171
     1
301
MARGIN
  1
CELLMARGIN_BEGIN
 40
1.5
 40
1.5
 40
1.5
 40
1.5
 40
0.18
 40
0.18
309
CELLMARGIN_END
 94
        6
 95
        1
302
GRIDFORMAT
  1
GRIDFORMAT_BEGIN
 90
        0
 91
        1
 62
     0
 92
       -2
340
14
 93
        0
 40
0.045
309
GRIDFORMAT_END
 95
        2
302
GRIDFORMAT
  1
GRIDFORMAT_BEGIN
 90
        0
 91
        1
 62
     0
 92
       -2
340
14
 93
        0
 40
0.045
309
GRIDFORMAT_END
 95
        4
302
GRIDFORMAT
  1
GRIDFORMAT_BEGIN
 90
        0
 91
        1
 62
     0
 92
       -2
340
14
 93
        0
 40
0.045
309
GRIDFORMAT_END
 95
        8
302
GRIDFORMAT
  1
GRIDFORMAT_BEGIN
 90
        0
 91
        1
 62
     0
 92
       -2
340
14
 93
        0
 40
0.045
309
GRIDFORMAT_END
 95
       16
302
GRIDFORMAT
  1
GRIDFORMAT_BEGIN
 90
        0
 91
        1
 62
     0
 92
       -2
340
14
 93
        0
 40
0.045
309
GRIDFORMAT_END
 95
       32
302
GRIDFORMAT
  1
GRIDFORMAT_BEGIN
 90
        0
 91
        1
 62
     0
 92
       -2
340
14
 93
        0
 40
0.045
309
GRIDFORMAT_END
309
TABLEFORMAT_END
  1
CELLSTYLE_BEGIN
 90
        3
 91
        2
300
_DATA
309
CELLSTYLE_END
  0
ENDSEC
  0
EOF
