  0
SECTION
  2
HEADER
  9
$ACADVER
  1
AC1032
  9
$ACADMAINTVER
 90
      174
  9
$DWGCODEPAGE
  3
ANSI_1252
  9
$LASTSAVEDBY
  1
kaschu
  9
$REQUIREDVERSIONS
160
                 0
  9
$INSBASE
 10
0.0
 20
0.0
 30
0.0
  9
$EXTMIN
 10
96.82250467806809
 20
69.08813789111809
 30
0.0
  9
$EXTMAX
 10
1480.87538941549
 20
1117.032773801989
 30
0.0
  9
$LIMMIN
 10
0.0
 20
0.0
  9
$LIMMAX
 10
420.0
 20
297.0
  9
$ORTHOMODE
 70
     0
  9
$REGENMODE
 70
     1
  9
$FILLMODE
 70
     1
  9
$QTEXTMODE
 70
     0
  9
$MIRRTEXT
 70
     1
  9
$LTSCALE
 40
1.0
  9
$ATTMODE
 70
     1
  9
$TEXTSIZE
 40
2.5
  9
$TRACEWID
 40
1.0
  9
$TEXTSTYLE
  7
Standard
  9
$CLAYER
  8
0
  9
$CELTYPE
  6
ByLayer
  9
$CECOLOR
 62
   256
  9
$CELTSCALE
 40
1.0
  9
$DISPSILH
 70
     0
  9
$DIMSCALE
 40
1.0
  9
$DIMASZ
 40
2.5
  9
$DIMEXO
 40
0.625
  9
$DIMDLI
 40
3.75
  9
$DIMRND
 40
0.0
  9
$DIMDLE
 40
0.0
  9
$DIMEXE
 40
1.25
  9
$DIMTP
 40
0.0
  9
$DIMTM
 40
0.0
  9
$DIMTXT
 40
2.5
  9
$DIMCEN
 40
2.5
  9
$DIMTSZ
 40
0.0
  9
$DIMTOL
 70
     0
  9
$DIMLIM
 70
     0
  9
$DIMTIH
 70
     0
  9
$DIMTOH
 70
     0
  9
$DIMSE1
 70
     0
  9
$DIMSE2
 70
     0
  9
$DIMTAD
 70
     1
  9
$DIMZIN
 70
     8
  9
$DIMBLK
  1

  9
$DIMASO
 70
     1
  9
$DIMSHO
 70
     1
  9
$DIMPOST
  1

  9
$DIMAPOST
  1

  9
$DIMALT
 70
     0
  9
$DIMALTD
 70
     3
  9
$DIMALTF
 40
0.03937007874016
  9
$DIMLFAC
 40
1.0
  9
$DIMTOFL
 70
     1
  9
$DIMTVP
 40
0.0
  9
$DIMTIX
 70
     0
  9
$DIMSOXD
 70
     0
  9
$DIMSAH
 70
     0
  9
$DIMBLK1
  1

  9
$DIMBLK2
  1

  9
$DIMSTYLE
  2
ISO-25
  9
$DIMCLRD
 70
     0
  9
$DIMCLRE
 70
     0
  9
$DIMCLRT
 70
     0
  9
$DIMTFAC
 40
1.0
  9
$DIMGAP
 40
0.625
  9
$DIMJUST
 70
     0
  9
$DIMSD1
 70
     0
  9
$DIMSD2
 70
     0
  9
$DIMTOLJ
 70
     0
  9
$DIMTZIN
 70
     8
  9
$DIMALTZ
 70
     0
  9
$DIMALTTZ
 70
     0
  9
$DIMUPT
 70
     0
  9
$DIMDEC
 70
     2
  9
$DIMTDEC
 70
     2
  9
$DIMALTU
 70
     2
  9
$DIMALTTD
 70
     3
  9
$DIMTXSTY
  7
Standard
  9
$DIMAUNIT
 70
     0
  9
$DIMADEC
 70
     0
  9
$DIMALTRND
 40
0.0
  9
$DIMAZIN
 70
     0
  9
$DIMDSEP
 70
    44
  9
$DIMATFIT
 70
     3
  9
$DIMFRAC
 70
     0
  9
$DIMLDRBLK
  1

  9
$DIMLUNIT
 70
     2
  9
$DIMLWD
 70
    -2
  9
$DIMLWE
 70
    -2
  9
$DIMTMOVE
 70
     0
  9
$DIMFXL
 40
1.0
  9
$DIMFXLON
 70
     0
  9
$DIMJOGANG
 40
0.7853981633974483
  9
$DIMTFILL
 70
     0
  9
$DIMTFILLCLR
 70
     0
  9
$DIMARCSYM
 70
     0
  9
$DIMLTYPE
  6

  9
$DIMLTEX1
  6

  9
$DIMLTEX2
  6

  9
$DIMTXTDIRECTION
 70
     0
  9
$LUNITS
 70
     2
  9
$LUPREC
 70
     4
  9
$SKETCHINC
 40
1.0
  9
$FILLETRAD
 40
10.0
  9
$AUNITS
 70
     0
  9
$AUPREC
 70
     0
  9
$MENU
  1
.
  9
$ELEVATION
 40
0.0
  9
$PELEVATION
 40
0.0
  9
$THICKNESS
 40
0.0
  9
$LIMCHECK
 70
     0
  9
$CHAMFERA
 40
0.0
  9
$CHAMFERB
 40
0.0
  9
$CHAMFERC
 40
0.0
  9
$CHAMFERD
 40
0.0
  9
$SKPOLY
 70
     0
  9
$TDCREATE
 40
2459124.429664352
  9
$TDUCREATE
 40
2459124.346339595
  9
$TDUPDATE
 40
2459124.515659722
  9
$TDUUPDATE
 40
2459124.432326389
  9
$TDINDWG
 40
0.0248495486
  9
$TDUSRTIMER
 40
0.0248495486
  9
$USRTIMER
 70
     1
  9
$ANGBASE
 50
0.0
  9
$ANGDIR
 70
     0
  9
$PDMODE
 70
     0
  9
$PDSIZE
 40
0.0
  9
$PLINEWID
 40
0.0
  9
$SPLFRAME
 70
     0
  9
$SPLINETYPE
 70
     6
  9
$SPLINESEGS
 70
     8
  9
$HANDSEED
  5
182A
  9
$SURFTAB1
 70
     6
  9
$SURFTAB2
 70
     6
  9
$SURFTYPE
 70
     6
  9
$SURFU
 70
     6
  9
$SURFV
 70
     6
  9
$UCSBASE
  2

  9
$UCSNAME
  2

  9
$UCSORG
 10
0.0
 20
0.0
 30
0.0
  9
$UCSXDIR
 10
1.0
 20
0.0
 30
0.0
  9
$UCSYDIR
 10
0.0
 20
1.0
 30
0.0
  9
$UCSORTHOREF
  2

  9
$UCSORTHOVIEW
 70
     0
  9
$UCSORGTOP
 10
0.0
 20
0.0
 30
0.0
  9
$UCSORGBOTTOM
 10
0.0
 20
0.0
 30
0.0
  9
$UCSORGLEFT
 10
0.0
 20
0.0
 30
0.0
  9
$UCSORGRIGHT
 10
0.0
 20
0.0
 30
0.0
  9
$UCSORGFRONT
 10
0.0
 20
0.0
 30
0.0
  9
$UCSORGBACK
 10
0.0
 20
0.0
 30
0.0
  9
$PUCSBASE
  2

  9
$PUCSNAME
  2

  9
$PUCSORG
 10
0.0
 20
0.0
 30
0.0
  9
$PUCSXDIR
 10
1.0
 20
0.0
 30
0.0
  9
$PUCSYDIR
 10
0.0
 20
1.0
 30
0.0
  9
$PUCSORTHOREF
  2

  9
$PUCSORTHOVIEW
 70
     0
  9
$PUCSORGTOP
 10
0.0
 20
0.0
 30
0.0
  9
$PUCSORGBOTTOM
 10
0.0
 20
0.0
 30
0.0
  9
$PUCSORGLEFT
 10
0.0
 20
0.0
 30
0.0
  9
$PUCSORGRIGHT
 10
0.0
 20
0.0
 30
0.0
  9
$PUCSORGFRONT
 10
0.0
 20
0.0
 30
0.0
  9
$PUCSORGBACK
 10
0.0
 20
0.0
 30
0.0
  9
$USERI1
 70
     0
  9
$USERI2
 70
     0
  9
$USERI3
 70
     0
  9
$USERI4
 70
     0
  9
$USERI5
 70
     0
  9
$USERR1
 40
0.0
  9
$USERR2
 40
0.0
  9
$USERR3
 40
0.0
  9
$USERR4
 40
0.0
  9
$USERR5
 40
0.0
  9
$WORLDVIEW
 70
     1
  9
$SHADEDGE
 70
     3
  9
$SHADEDIF
 70
    70
  9
$TILEMODE
 70
     1
  9
$MAXACTVP
 70
    64
  9
$PINSBASE
 10
0.0
 20
0.0
 30
0.0
  9
$PLIMCHECK
 70
     0
  9
$PEXTMIN
 10
1.000000000000000E+20
 20
1.000000000000000E+20
 30
1.000000000000000E+20
  9
$PEXTMAX
 10
-1.000000000000000E+20
 20
-1.000000000000000E+20
 30
-1.000000000000000E+20
  9
$PLIMMIN
 10
0.0
 20
0.0
  9
$PLIMMAX
 10
420.0
 20
297.0
  9
$UNITMODE
 70
     0
  9
$VISRETAIN
 70
     1
  9
$PLINEGEN
 70
     0
  9
$PSLTSCALE
 70
     1
  9
$TREEDEPTH
 70
  3020
  9
$CMLSTYLE
  2
Standard
  9
$CMLJUST
 70
     0
  9
$CMLSCALE
 40
20.0
  9
$PROXYGRAPHICS
 70
     1
  9
$MEASUREMENT
 70
     1
  9
$CELWEIGHT
370
    -1
  9
$ENDCAPS
280
     0
  9
$JOINSTYLE
280
     0
  9
$LWDISPLAY
290
     0
  9
$INSUNITS
 70
     5
  9
$HYPERLINKBASE
  1

  9
$STYLESHEET
  1

  9
$XEDIT
290
     1
  9
$CEPSNTYPE
380
     0
  9
$PSTYLEMODE
290
     1
  9
$FINGERPRINTGUID
  2
{D65F844E-A70C-446A-BAFE-CE0D367131DF}
  9
$VERSIONGUID
  2
{BD642F12-EBE5-7E47-ABC7-10B2BC8BC42C}
  9
$EXTNAMES
290
     1
  9
$PSVPSCALE
 40
0.0
  9
$OLESTARTUP
290
     0
  9
$SORTENTS
280
   127
  9
$INDEXCTL
280
     0
  9
$HIDETEXT
280
     1
  9
$XCLIPFRAME
280
     2
  9
$HALOGAP
280
     0
  9
$OBSCOLOR
 70
   257
  9
$OBSLTYPE
280
     0
  9
$INTERSECTIONDISPLAY
280
     0
  9
$INTERSECTIONCOLOR
 70
   257
  9
$DIMASSOC
280
     2
  9
$PROJECTNAME
  1

  9
$CAMERADISPLAY
290
     0
  9
$LENSLENGTH
 40
50.0
  9
$CAMERAHEIGHT
 40
0.0
  9
$STEPSPERSEC
 40
2.0
  9
$STEPSIZE
 40
6.0
  9
$3DDWFPREC
 40
2.0
  9
$PSOLWIDTH
 40
5.0
  9
$PSOLHEIGHT
 40
80.0
  9
$LOFTANG1
 40
1.570796326794896
  9
$LOFTANG2
 40
1.570796326794896
  9
$LOFTMAG1
 40
0.0
  9
$LOFTMAG2
 40
0.0
  9
$LOFTPARAM
 70
     7
  9
$LOFTNORMALS
280
     1
  9
$LATITUDE
 40
37.795
  9
$LONGITUDE
 40
-122.394
  9
$NORTHDIRECTION
 40
0.0
  9
$TIMEZONE
 70
 -8000
  9
$LIGHTGLYPHDISPLAY
280
     1
  9
$TILEMODELIGHTSYNCH
280
     1
  9
$CMATERIAL
347
44
  9
$SOLIDHIST
280
     0
  9
$SHOWHIST
280
     1
  9
$DWFFRAME
280
     2
  9
$DGNFRAME
280
     2
  9
$REALWORLDSCALE
290
     1
  9
$INTERFERECOLOR
 62
   256
  9
$INTERFEREOBJVS
345
33
  9
$INTERFEREVPVS
346
30
  9
$CSHADOW
280
     0
  9
$SHADOWPLANELOCATION
 40
0.0
  0
ENDSEC
  0
SECTION
  2
CLASSES
  0
CLASS
  1
ACDBDICTIONARYWDFLT
  2
AcDbDictionaryWithDefault
  3
ObjectDBX Classes
 90
        0
 91
        1
280
     0
281
     0
  0
CLASS
  1
VISUALSTYLE
  2
AcDbVisualStyle
  3
ObjectDBX Classes
 90
     4095
 91
       24
280
     0
281
     0
  0
CLASS
  1
MATERIAL
  2
AcDbMaterial
  3
ObjectDBX Classes
 90
     1153
 91
        3
280
     0
281
     0
  0
CLASS
  1
SCALE
  2
AcDbScale
  3
ObjectDBX Classes
 90
     1153
 91
       33
280
     0
281
     0
  0
CLASS
  1
TABLESTYLE
  2
AcDbTableStyle
  3
ObjectDBX Classes
 90
     4095
 91
        1
280
     0
281
     0
  0
CLASS
  1
MLEADERSTYLE
  2
AcDbMLeaderStyle
  3
ACDB_MLEADERSTYLE_CLASS
 90
     4095
 91
        1
280
     0
281
     0
  0
CLASS
  1
SUN
  2
AcDbSun
  3
SCENEOE
 90
     1153
 91
        1
280
     0
281
     0
  0
CLASS
  1
DICTIONARYVAR
  2
AcDbDictionaryVar
  3
ObjectDBX Classes
 90
        0
 91
        7
280
     0
281
     0
  0
CLASS
  1
ACDBSECTIONVIEWSTYLE
  2
AcDbSectionViewStyle
  3
ObjectDBX Classes
 90
     1025
 91
        1
280
     0
281
     0
  0
CLASS
  1
ACDBDETAILVIEWSTYLE
  2
AcDbDetailViewStyle
  3
ObjectDBX Classes
 90
     1025
 91
        1
280
     0
281
     0
  0
CLASS
  1
SORTENTSTABLE
  2
AcDbSortentsTable
  3
ObjectDBX Classes
 90
        0
 91
        1
280
     0
281
     0
  0
CLASS
  1
DIMASSOC
  2
AcDbDimAssoc
  3
"AcDbDimAssoc|Product Desc:     AcDim ARX App For Dimension|Company:          Autodesk, Inc.|WEB Address:      www.autodesk.com"
 90
        0
 91
        0
280
     0
281
     0
  0
CLASS
  1
CELLSTYLEMAP
  2
AcDbCellStyleMap
  3
ObjectDBX Classes
 90
     1152
 91
        2
280
     0
281
     0
  0
ENDSEC
  0
SECTION
  2
TABLES
  0
TABLE
  2
VPORT
  5
8
330
0
100
AcDbSymbolTable
 70
     1
1001
ACAD
1000
DbSaveVer
1071
      224
  0
VPORT
  5
29
330
8
100
AcDbSymbolTableRecord
100
AcDbViewportTableRecord
  2
*Active
 70
     0
 10
0.0
 20
0.0
 11
1.0
 21
1.0
 12
971.0928726804631
 22
404.1207151979524
 13
0.0
 23
0.0
 14
10.0
 24
10.0
 15
10.0
 25
10.0
 16
0.0
 26
0.0
 36
1.0
 17
0.0
 27
0.0
 37
0.0
 40
2777.460991246226
 41
2.046436285097192
 42
50.0
 43
0.0
 44
0.0
 50
0.0
 51
0.0
 71
     0
 72
   100
 73
     1
 74
     3
 75
     0
 76
     0
 77
     0
 78
     0
281
     0
 65
     1
110
0.0
120
0.0
130
0.0
111
1.0
121
0.0
131
0.0
112
0.0
122
1.0
132
0.0
 79
     0
146
0.0
348
2F
 60
     3
 61
     5
292
     1
282
     1
141
0.0
142
0.0
 63
   250
421
  3355443
361
6D
1001
ACAD_NAV_VCDISPLAY
1070
     3
  0
ENDTAB
  0
TABLE
  2
LTYPE
  5
5
330
0
100
AcDbSymbolTable
 70
    11
  0
LTYPE
  5
14
330
5
100
AcDbSymbolTableRecord
100
AcDbLinetypeTableRecord
  2
ByBlock
 70
     0
  3

 72
    65
 73
     0
 40
0.0
  0
LTYPE
  5
15
330
5
100
AcDbSymbolTableRecord
100
AcDbLinetypeTableRecord
  2
ByLayer
 70
     0
  3

 72
    65
 73
     0
 40
0.0
  0
LTYPE
  5
16
330
5
100
AcDbSymbolTableRecord
100
AcDbLinetypeTableRecord
  2
Continuous
 70
     0
  3
Solid line
 72
    65
 73
     0
 40
0.0
  0
LTYPE
  5
6F
330
5
100
AcDbSymbolTableRecord
100
AcDbLinetypeTableRecord
  2
CUSTOM
 70
     0
  3

 72
    65
 73
     0
 40
0.0
  0
LTYPE
  5
70
330
5
100
AcDbSymbolTableRecord
100
AcDbLinetypeTableRecord
  2
SOLID
 70
     0
  3

 72
    65
 73
     0
 40
0.0
  0
LTYPE
  5
71
330
5
100
AcDbSymbolTableRecord
100
AcDbLinetypeTableRecord
  2
DASHED
 70
     0
  3

 72
    65
 73
     2
 40
2.62679501396115
 49
1.313397506980575
 74
     0
 49
-1.313397506980575
 74
     0
  0
LTYPE
  5
72
330
5
100
AcDbSymbolTableRecord
100
AcDbLinetypeTableRecord
  2
LONG_DASH
 70
     0
  3

 72
    65
 73
     2
 40
2.62679501396115
 49
1.970096260470862
 74
     0
 49
-0.656698753490288
 74
     0
  0
LTYPE
  5
73
330
5
100
AcDbSymbolTableRecord
100
AcDbLinetypeTableRecord
  2
SHORT_DASH
 70
     0
  3

 72
    65
 73
     4
 40
2.62679501396115
 49
0.5253590027922303
 74
     0
 49
-0.7880385041883456
 74
     0
 49
0.5253590027922303
 74
     0
 49
-0.7880385041883456
 74
     0
  0
LTYPE
  5
74
330
5
100
AcDbSymbolTableRecord
100
AcDbLinetypeTableRecord
  2
DOTTED
 70
     0
  3

 72
    65
 73
     8
 40
2.62679501396115
 49
0.1313397506980576
 74
     0
 49
-0.5253590027922303
 74
     0
 49
0.1313397506980576
 74
     0
 49
-0.5253590027922303
 74
     0
 49
0.1313397506980576
 74
     0
 49
-0.5253590027922303
 74
     0
 49
0.1313397506980576
 74
     0
 49
-0.5253590027922303
 74
     0
  0
LTYPE
  5
75
330
5
100
AcDbSymbolTableRecord
100
AcDbLinetypeTableRecord
  2
DOTDASH
 70
     0
  3

 72
    65
 73
     4
 40
2.62679501396115
 49
0.1313397506980576
 74
     0
 49
-0.656698753490288
 74
     0
 49
1.182057756282518
 74
     0
 49
-0.656698753490288
 74
     0
  0
LTYPE
  5
76
330
5
100
AcDbSymbolTableRecord
100
AcDbLinetypeTableRecord
  2
DOTDOTDASH
 70
     0
  3

 72
    65
 73
     6
 40
2.62679501396115
 49
0.1313397506980576
 74
     0
 49
-0.3940192520941727
 74
     0
 49
0.1313397506980576
 74
     0
 49
-0.3940192520941727
 74
     0
 49
1.182057756282518
 74
     0
 49
-0.3940192520941727
 74
     0
  0
LTYPE
  5
77
330
5
100
AcDbSymbolTableRecord
100
AcDbLinetypeTableRecord
  2
DASHDASHDOT
 70
     0
  3

 72
    65
 73
     6
 40
2.62679501396115
 49
0.1313397506980576
 74
     0
 49
-0.3940192520941727
 74
     0
 49
0.1313397506980576
 74
     0
 49
-0.3940192520941727
 74
     0
 49
1.182057756282518
 74
     0
 49
-0.3940192520941727
 74
     0
  0
ENDTAB
  0
TABLE
  2
LAYER
  5
2
102
{ACAD_XDICTIONARY
360
374
102
}
330
0
100
AcDbSymbolTable
 70
     3
  0
LAYER
  5
10
330
2
100
AcDbSymbolTableRecord
100
AcDbLayerTableRecord
  2
0
 70
     0
 62
     7
  6
Continuous
370
    -3
390
F
347
46
348
0
  0
LAYER
  5
371
102
{ACAD_XDICTIONARY
360
372
102
}
330
2
100
AcDbSymbolTableRecord
100
AcDbLayerTableRecord
  2
Hewi
 70
     0
 62
     7
  6
Continuous
370
    -3
390
F
347
46
348
0
  0
LAYER
  5
475
330
2
100
AcDbSymbolTableRecord
100
AcDbLayerTableRecord
  2
Defpoints
 70
     0
 62
     7
  6
Continuous
290
     0
370
    -3
390
F
347
46
348
0
  0
ENDTAB
  0
TABLE
  2
STYLE
  5
3
330
0
100
AcDbSymbolTable
 70
     1
  0
STYLE
  5
11
330
3
100
AcDbSymbolTableRecord
100
AcDbTextStyleTableRecord
  2
Standard
 70
     0
 40
0.0
 41
1.0
 50
0.0
 71
     0
 42
2.5
  3
txt
  4

  0
ENDTAB
  0
TABLE
  2
VIEW
  5
6
330
0
100
AcDbSymbolTable
 70
     0
  0
ENDTAB
  0
TABLE
  2
UCS
  5
7
330
0
100
AcDbSymbolTable
 70
     0
  0
ENDTAB
  0
TABLE
  2
APPID
  5
9
330
0
100
AcDbSymbolTable
 70
     4
  0
APPID
  5
12
330
9
100
AcDbSymbolTableRecord
100
AcDbRegAppTableRecord
  2
ACAD
 70
     0
  0
APPID
  5
176
330
9
100
AcDbSymbolTableRecord
100
AcDbRegAppTableRecord
  2
ACAD_NAV_VCDISPLAY
 70
     0
  0
APPID
  5
373
330
9
100
AcDbSymbolTableRecord
100
AcDbRegAppTableRecord
  2
ACAD_PSEXT
 70
     0
  0
APPID
  5
5CB
330
9
100
AcDbSymbolTableRecord
100
AcDbRegAppTableRecord
  2
ACAD_EXEMPT_FROM_CAD_STANDARDS
 70
     0
  0
ENDTAB
  0
TABLE
  2
DIMSTYLE
  5
A
330
0
100
AcDbSymbolTable
 70
     3
100
AcDbDimStyleTable
 71
     2
340
27
340
615
  0
DIMSTYLE
105
27
330
A
100
AcDbSymbolTableRecord
100
AcDbDimStyleTableRecord
  2
ISO-25
 70
     0
 41
2.5
 42
0.625
 43
3.75
 44
1.25
 73
     0
 74
     0
 77
     1
 78
     8
140
2.5
141
2.5
143
0.03937007874016
147
0.625
171
     3
172
     1
271
     2
272
     2
274
     3
278
    44
283
     0
284
     8
340
11
  0
DIMSTYLE
105
615
330
A
100
AcDbSymbolTableRecord
100
AcDbDimStyleTableRecord
  2
Standard
 70
     0
340
11
  0
ENDTAB
  0
TABLE
  2
BLOCK_RECORD
  5
1
330
0
100
AcDbSymbolTable
 70
     9
  0
BLOCK_RECORD
  5
1F
102
{ACAD_XDICTIONARY
360
5EE
102
}
330
1
100
AcDbSymbolTableRecord
100
AcDbBlockTableRecord
  2
*Model_Space
340
22
 70
     0
280
     1
281
     0
  0
BLOCK_RECORD
  5
1B
330
1
100
AcDbSymbolTableRecord
100
AcDbBlockTableRecord
  2
*Paper_Space
340
1E
 70
     0
280
     1
281
     0
  0
BLOCK_RECORD
  5
23
330
1
100
AcDbSymbolTableRecord
100
AcDbBlockTableRecord
  2
*Paper_Space0
340
26
 70
     0
280
     1
281
     0
  0
BLOCK_RECORD
  5
476
330
1
100
AcDbSymbolTableRecord
100
AcDbBlockTableRecord
  2
*D1
340
0
 70
     0
280
     1
281
     0
  0
BLOCK_RECORD
  5
48E
330
1
100
AcDbSymbolTableRecord
100
AcDbBlockTableRecord
  2
*D2
340
0
 70
     0
280
     1
281
     0
  0
BLOCK_RECORD
  5
5D5
330
1
100
AcDbSymbolTableRecord
100
AcDbBlockTableRecord
  2
*D3
340
0
 70
     0
280
     1
281
     0
  0
BLOCK_RECORD
  5
5F1
330
1
100
AcDbSymbolTableRecord
100
AcDbBlockTableRecord
  2
*D4
340
0
 70
     0
280
     1
281
     0
  0
BLOCK_RECORD
  5
608
330
1
100
AcDbSymbolTableRecord
100
AcDbBlockTableRecord
  2
*D5
340
0
 70
     0
280
     1
281
     0
  0
BLOCK_RECORD
  5
61E
330
1
100
AcDbSymbolTableRecord
100
AcDbBlockTableRecord
  2
*D6
340
0
 70
     0
280
     1
281
     0
  0
BLOCK_RECORD
  5
147B
330
1
100
AcDbSymbolTableRecord
100
AcDbBlockTableRecord
  2
*D7
340
0
 70
     0
280
     1
281
     0
  0
ENDTAB
  0
ENDSEC
  0
SECTION
  2
BLOCKS
  0
BLOCK
  5
20
330
1F
100
AcDbEntity
  8
0
100
AcDbBlockBegin
  2
*Model_Space
 70
     0
 10
0.0
 20
0.0
 30
0.0
  3
*Model_Space
  1

  0
ENDBLK
  5
21
330
1F
100
AcDbEntity
  8
0
100
AcDbBlockEnd
  0
BLOCK
  5
1C
330
1B
100
AcDbEntity
 67
     1
  8
0
100
AcDbBlockBegin
  2
*Paper_Space
 70
     0
 10
0.0
 20
0.0
 30
0.0
  3
*Paper_Space
  1

  0
ENDBLK
  5
1D
330
1B
100
AcDbEntity
 67
     1
  8
0
100
AcDbBlockEnd
  0
BLOCK
  5
24
330
23
100
AcDbEntity
 67
     1
  8
0
100
AcDbBlockBegin
  2
*Paper_Space0
 70
     0
 10
0.0
 20
0.0
 30
0.0
  3
*Paper_Space0
  1

  0
ENDBLK
  5
25
330
23
100
AcDbEntity
 67
     1
  8
0
100
AcDbBlockEnd
  0
BLOCK
  5
477
330
476
100
AcDbEntity
  8
0
100
AcDbBlockBegin
  2
*D1
 70
     1
 10
0.0
 20
0.0
 30
0.0
  3
*D1
  1

  0
LINE
  5
483
330
476
100
AcDbEntity
  8
0
 62
     0
440
 16777216
370
    -2
100
AcDbLine
 10
-800.7192584712061
 20
354.7344635462159
 30
0.0
 11
-800.7192584712061
 21
-43.13625633940501
 31
0.0
  0
LINE
  5
484
330
476
100
AcDbEntity
  8
0
 62
     0
440
 16777216
370
    -2
100
AcDbLine
 10
-349.3131849181895
 20
354.2972717940668
 30
0.0
 11
-349.3131849181895
 21
-43.13625633940501
 31
0.0
  0
LINE
  5
485
330
476
100
AcDbEntity
  8
0
 62
     0
440
 16777216
370
    -2
100
AcDbLine
 10
-798.2192584712061
 20
-41.88625633940501
 30
0.0
 11
-351.8131849181894
 21
-41.88625633940501
 31
0.0
  0
SOLID
  5
486
330
476
100
AcDbEntity
  8
0
 62
     0
440
 16777216
100
AcDbTrace
 10
-798.2192584712061
 20
-41.46958967273834
 30
0.0
 11
-798.2192584712061
 21
-42.30292300607167
 31
0.0
 12
-800.7192584712061
 22
-41.88625633940501
 32
0.0
 13
-800.7192584712061
 23
-41.88625633940501
 33
0.0
  0
SOLID
  5
487
330
476
100
AcDbEntity
  8
0
 62
     0
440
 16777216
100
AcDbTrace
 10
-351.8131849181894
 20
-41.46958967273834
 30
0.0
 11
-351.8131849181894
 21
-42.30292300607167
 31
0.0
 12
-349.3131849181895
 22
-41.88625633940501
 32
0.0
 13
-349.3131849181895
 23
-41.88625633940501
 33
0.0
  0
MTEXT
  5
488
330
476
100
AcDbEntity
  8
0
 62
     0
440
 16777216
100
AcDbMText
 10
-575.0162216946977
 20
-39.80292300607167
 30
0.0
 40
2.5
 41
0.0
 46
0.0
 71
     5
 72
     1
  1
451,41
 73
     1
 44
1.0
  0
POINT
  5
489
330
476
100
AcDbEntity
  8
Defpoints
 62
     0
440
 16777216
100
AcDbPoint
 10
-800.7192584712061
 20
355.3594635462159
 30
0.0
  0
POINT
  5
48A
330
476
100
AcDbEntity
  8
Defpoints
 62
     0
440
 16777216
100
AcDbPoint
 10
-349.3131849181895
 20
354.9222717940669
 30
0.0
  0
POINT
  5
48B
330
476
100
AcDbEntity
  8
Defpoints
 62
     0
440
 16777216
100
AcDbPoint
 10
-349.3131849181895
 20
-41.88625633940501
 30
0.0
  0
ENDBLK
  5
478
330
476
100
AcDbEntity
  8
0
100
AcDbBlockEnd
  0
BLOCK
  5
48F
330
48E
100
AcDbEntity
  8
0
100
AcDbBlockBegin
  2
*D2
 70
     1
 10
0.0
 20
0.0
 30
0.0
  3
*D2
  1

  0
LINE
  5
49B
330
48E
100
AcDbEntity
  8
0
 62
     0
440
 16777216
370
    -2
100
AcDbLine
 10
558.9797251066081
 20
268.0084426498826
 30
0.0
 11
558.9797251066081
 21
-29.98344755254766
 31
0.0
  0
LINE
  5
49C
330
48E
100
AcDbEntity
  8
0
 62
     0
440
 16777216
370
    -2
100
AcDbLine
 10
910.3485060788294
 20
268.0084424956772
 30
0.0
 11
910.3485060788294
 21
-29.98344755254766
 31
0.0
  0
LINE
  5
49D
330
48E
100
AcDbEntity
  8
0
 62
     0
440
 16777216
370
    -2
100
AcDbLine
 10
561.4797251066081
 20
-28.73344755254766
 30
0.0
 11
907.8485060788294
 21
-28.73344755254766
 31
0.0
  0
SOLID
  5
49E
330
48E
100
AcDbEntity
  8
0
 62
     0
440
 16777216
100
AcDbTrace
 10
561.4797251066081
 20
-28.31678088588099
 30
0.0
 11
561.4797251066081
 21
-29.15011421921433
 31
0.0
 12
558.9797251066081
 22
-28.73344755254766
 32
0.0
 13
558.9797251066081
 23
-28.73344755254766
 33
0.0
  0
SOLID
  5
49F
330
48E
100
AcDbEntity
  8
0
 62
     0
440
 16777216
100
AcDbTrace
 10
907.8485060788294
 20
-28.31678088588099
 30
0.0
 11
907.8485060788294
 21
-29.15011421921433
 31
0.0
 12
910.3485060788294
 22
-28.73344755254766
 32
0.0
 13
910.3485060788294
 23
-28.73344755254766
 33
0.0
  0
MTEXT
  5
4A0
330
48E
100
AcDbEntity
  8
0
 62
     0
440
 16777216
100
AcDbMText
 10
734.6641155927187
 20
-26.65011421921433
 30
0.0
 40
2.5
 41
0.0
 46
0.0
 71
     5
 72
     1
  1
351,37
 73
     1
 44
1.0
  0
POINT
  5
4A1
330
48E
100
AcDbEntity
  8
Defpoints
 62
     0
440
 16777216
100
AcDbPoint
 10
558.9797251066081
 20
268.6334426498826
 30
0.0
  0
POINT
  5
4A2
330
48E
100
AcDbEntity
  8
Defpoints
 62
     0
440
 16777216
100
AcDbPoint
 10
910.3485060788294
 20
268.6334424956772
 30
0.0
  0
POINT
  5
4A3
330
48E
100
AcDbEntity
  8
Defpoints
 62
     0
440
 16777216
100
AcDbPoint
 10
910.3485060788294
 20
-28.73344755254766
 30
0.0
  0
ENDBLK
  5
490
330
48E
100
AcDbEntity
  8
0
100
AcDbBlockEnd
  0
BLOCK
  5
5D6
330
5D5
100
AcDbEntity
  8
0
100
AcDbBlockBegin
  2
*D3
 70
     1
 10
0.0
 20
0.0
 30
0.0
  3
*D3
  1

  0
LINE
  5
5E2
330
5D5
100
AcDbEntity
  8
0
 62
     0
440
 16777216
370
    -2
100
AcDbLine
 10
253.7974772608703
 20
1375.497280960956
 30
0.0
 11
698.9585352098552
 21
1375.497280960957
 31
0.0
  0
LINE
  5
5E3
330
5D5
100
AcDbEntity
  8
0
 62
     0
440
 16777216
370
    -2
100
AcDbLine
 10
251.8719772506362
 20
931.355280993235
 30
0.0
 11
698.9585352098552
 21
931.3552809932353
 31
0.0
  0
LINE
  5
5E4
330
5D5
100
AcDbEntity
  8
0
 62
     0
440
 16777216
370
    -2
100
AcDbLine
 10
697.708535209855
 20
1372.997280960956
 30
0.0
 11
697.7085352098551
 21
933.8552809932352
 31
0.0
  0
SOLID
  5
5E5
330
5D5
100
AcDbEntity
  8
0
 62
     0
440
 16777216
100
AcDbTrace
 10
697.2918685431883
 20
1372.997280960956
 30
0.0
 11
698.1252018765217
 21
1372.997280960956
 31
0.0
 12
697.708535209855
 22
1375.497280960957
 32
0.0
 13
697.708535209855
 23
1375.497280960957
 33
0.0
  0
SOLID
  5
5E6
330
5D5
100
AcDbEntity
  8
0
 62
     0
440
 16777216
100
AcDbTrace
 10
697.2918685431884
 20
933.8552809932352
 30
0.0
 11
698.1252018765217
 21
933.8552809932352
 31
0.0
 12
697.7085352098551
 22
931.3552809932353
 32
0.0
 13
697.7085352098551
 23
931.3552809932353
 33
0.0
  0
MTEXT
  5
5E7
330
5D5
100
AcDbEntity
  8
0
 62
     0
440
 16777216
100
AcDbMText
 10
695.625201876522
 20
1153.426280977095
 30
0.0
 40
2.5
 41
0.0
 46
0.0
 71
     5
 72
     1
  1
444,14
 11
0.0000000000000001
 21
1.0
 31
0.0
 73
     1
 44
1.0
  0
POINT
  5
5E8
330
5D5
100
AcDbEntity
  8
Defpoints
 62
     0
440
 16777216
100
AcDbPoint
 10
253.1724772608703
 20
1375.497280960956
 30
0.0
  0
POINT
  5
5E9
330
5D5
100
AcDbEntity
  8
Defpoints
 62
     0
440
 16777216
100
AcDbPoint
 10
251.2469772506362
 20
931.355280993235
 30
0.0
  0
POINT
  5
5EA
330
5D5
100
AcDbEntity
  8
Defpoints
 62
     0
440
 16777216
100
AcDbPoint
 10
697.7085352098551
 20
931.3552809932353
 30
0.0
  0
ENDBLK
  5
5D7
330
5D5
100
AcDbEntity
  8
0
100
AcDbBlockEnd
  0
BLOCK
  5
5F2
330
5F1
100
AcDbEntity
  8
0
100
AcDbBlockBegin
  2
*D4
 70
     1
 10
0.0
 20
0.0
 30
0.0
  3
*D4
  1

  0
LINE
  5
B71
330
5F1
100
AcDbEntity
  8
0
 62
     0
440
 16777216
370
    -2
100
AcDbLine
 10
1303.942935917601
 20
1385.436893062689
 30
0.0
 11
1392.283879461031
 21
1385.436893062689
 31
0.0
  0
LINE
  5
B72
330
5F1
100
AcDbEntity
  8
0
 62
     0
440
 16777216
370
    -2
100
AcDbLine
 10
1303.942935917601
 20
935.4368930626886
 30
0.0
 11
1392.283879461031
 21
935.4368930626886
 31
0.0
  0
LINE
  5
B73
330
5F1
100
AcDbEntity
  8
0
 62
     0
440
 16777216
370
    -2
100
AcDbLine
 10
1392.103879461031
 20
1365.436893062688
 30
0.0
 11
1392.103879461031
 21
1252.103559729355
 31
0.0
  0
LINE
  5
B74
330
5F1
100
AcDbEntity
  8
0
 62
     0
440
 16777216
370
    -2
100
AcDbLine
 10
1392.103879461031
 20
955.4368930626884
 30
0.0
 11
1392.103879461031
 21
1068.770226396022
 31
0.0
  0
SOLID
  5
B75
330
5F1
100
AcDbEntity
  8
0
 62
     0
440
 16777216
100
AcDbTrace
 10
1388.770546127698
 20
1365.436893062688
 30
0.0
 11
1395.437212794364
 21
1365.436893062688
 31
0.0
 12
1392.103879461031
 22
1385.436893062689
 32
0.0
 13
1392.103879461031
 23
1385.436893062689
 33
0.0
  0
SOLID
  5
B76
330
5F1
100
AcDbEntity
  8
0
 62
     0
440
 16777216
100
AcDbTrace
 10
1388.770546127698
 20
955.4368930626884
 30
0.0
 11
1395.437212794364
 21
955.4368930626884
 31
0.0
 12
1392.103879461031
 22
935.4368930626886
 32
0.0
 13
1392.103879461031
 23
935.4368930626886
 33
0.0
  0
MTEXT
  5
B77
330
5F1
100
AcDbEntity
  8
0
 62
     0
440
 16777216
100
AcDbMText
 10
1392.103879461031
 20
1160.436893062688
 30
0.0
 40
20.0
 41
0.0
 46
0.0
 71
     5
 72
     1
  1
\A1;450 - 500
 11
0.0000000000000001
 21
1.0
 31
0.0
 73
     1
 44
1.0
  0
POINT
  5
B78
330
5F1
100
AcDbEntity
  8
Defpoints
 62
     0
440
 16777216
100
AcDbPoint
 10
1303.880435917601
 20
1385.436893062689
 30
0.0
  0
POINT
  5
B79
330
5F1
100
AcDbEntity
  8
Defpoints
 62
     0
440
 16777216
100
AcDbPoint
 10
1303.880435917601
 20
935.4368930626886
 30
0.0
  0
POINT
  5
B7A
330
5F1
100
AcDbEntity
  8
Defpoints
 62
     0
440
 16777216
100
AcDbPoint
 10
1392.103879461031
 20
935.4368930626886
 30
0.0
  0
ENDBLK
  5
5F3
330
5F1
100
AcDbEntity
  8
0
100
AcDbBlockEnd
  0
BLOCK
  5
609
330
608
100
AcDbEntity
  8
0
100
AcDbBlockBegin
  2
*D5
 70
     1
 10
0.0
 20
0.0
 30
0.0
  3
*D5
  1

  0
LINE
  5
60A
330
608
100
AcDbEntity
  8
0
 62
     0
440
 16777216
370
    -2
100
AcDbLine
 10
8827.271211518562
 20
3629.287160529622
 30
0.0
 11
8933.579193293446
 21
3629.287160529622
 31
0.0
  0
LINE
  5
60B
330
608
100
AcDbEntity
  8
0
 62
     0
440
 16777216
370
    -2
100
AcDbLine
 10
8827.271211518562
 20
4394.208989478697
 30
0.0
 11
8933.579193293448
 21
4394.208989478697
 31
0.0
  0
LINE
  5
60C
330
608
100
AcDbEntity
  8
0
 62
     0
440
 16777216
370
    -2
100
AcDbLine
 10
8933.399193293446
 20
3649.287160529623
 30
0.0
 11
8933.399193293446
 21
3985.081408337494
 31
0.0
  0
LINE
  5
60D
330
608
100
AcDbEntity
  8
0
 62
     0
440
 16777216
370
    -2
100
AcDbLine
 10
8933.399193293448
 20
4374.208989478697
 30
0.0
 11
8933.399193293446
 21
4038.414741670826
 31
0.0
  0
SOLID
  5
60E
330
608
100
AcDbEntity
  8
0
 62
     0
440
 16777216
100
AcDbTrace
 10
8930.065859960112
 20
3649.287160529623
 30
0.0
 11
8936.73252662678
 21
3649.287160529623
 31
0.0
 12
8933.399193293446
 22
3629.287160529622
 32
0.0
 13
8933.399193293446
 23
3629.287160529622
 33
0.0
  0
SOLID
  5
60F
330
608
100
AcDbEntity
  8
0
 62
     0
440
 16777216
100
AcDbTrace
 10
8930.065859960114
 20
4374.208989478697
 30
0.0
 11
8936.732526626782
 21
4374.208989478697
 31
0.0
 12
8933.399193293448
 22
4394.208989478697
 32
0.0
 13
8933.399193293448
 23
4394.208989478697
 33
0.0
  0
MTEXT
  5
610
330
608
100
AcDbEntity
  8
0
 62
     0
440
 16777216
100
AcDbMText
 10
8933.399193293446
 20
4011.74807500416
 30
0.0
 40
20.0
 41
0.0
 46
0.0
 71
     5
 72
     1
  1
\A1;W1
 11
0.0000000000000001
 21
1.0
 31
0.0
 73
     1
 44
1.0
  0
POINT
  5
611
330
608
100
AcDbEntity
  8
Defpoints
 62
     0
440
 16777216
100
AcDbPoint
 10
8827.208711518563
 20
3629.287160529622
 30
0.0
  0
POINT
  5
612
330
608
100
AcDbEntity
  8
Defpoints
 62
     0
440
 16777216
100
AcDbPoint
 10
8827.208711518563
 20
4394.208989478697
 30
0.0
  0
POINT
  5
613
330
608
100
AcDbEntity
  8
Defpoints
 62
     0
440
 16777216
100
AcDbPoint
 10
8933.399193293448
 20
4394.208989478697
 30
0.0
  0
ENDBLK
  5
614
330
608
100
AcDbEntity
  8
0
100
AcDbBlockEnd
  0
BLOCK
  5
61F
330
61E
100
AcDbEntity
  8
0
100
AcDbBlockBegin
  2
*D6
 70
     1
 10
0.0
 20
0.0
 30
0.0
  3
*D6
  1

  0
LINE
  5
62B
330
61E
100
AcDbEntity
  8
0
 62
     0
440
 16777216
370
    -2
100
AcDbLine
 10
1889.478745376819
 20
886.172568930961
 30
0.0
 11
1995.786727151705
 21
886.172568930961
 31
0.0
  0
LINE
  5
62C
330
61E
100
AcDbEntity
  8
0
 62
     0
440
 16777216
370
    -2
100
AcDbLine
 10
1889.478745376819
 20
1651.094397880036
 30
0.0
 11
1995.786727151705
 21
1651.094397880036
 31
0.0
  0
LINE
  5
62D
330
61E
100
AcDbEntity
  8
0
 62
     0
440
 16777216
370
    -2
100
AcDbLine
 10
1995.606727151705
 20
906.1725689309607
 30
0.0
 11
1995.606727151705
 21
1241.966816738832
 31
0.0
  0
LINE
  5
62E
330
61E
100
AcDbEntity
  8
0
 62
     0
440
 16777216
370
    -2
100
AcDbLine
 10
1995.606727151705
 20
1631.094397880036
 30
0.0
 11
1995.606727151705
 21
1295.300150072165
 31
0.0
  0
SOLID
  5
62F
330
61E
100
AcDbEntity
  8
0
 62
     0
440
 16777216
100
AcDbTrace
 10
1992.273393818372
 20
906.1725689309607
 30
0.0
 11
1998.940060485038
 21
906.1725689309607
 31
0.0
 12
1995.606727151705
 22
886.172568930961
 32
0.0
 13
1995.606727151705
 23
886.172568930961
 33
0.0
  0
SOLID
  5
630
330
61E
100
AcDbEntity
  8
0
 62
     0
440
 16777216
100
AcDbTrace
 10
1992.273393818372
 20
1631.094397880036
 30
0.0
 11
1998.940060485038
 21
1631.094397880036
 31
0.0
 12
1995.606727151705
 22
1651.094397880036
 32
0.0
 13
1995.606727151705
 23
1651.094397880036
 33
0.0
  0
MTEXT
  5
631
330
61E
100
AcDbEntity
  8
0
 62
     0
440
 16777216
100
AcDbMText
 10
1995.606727151705
 20
1268.633483405497
 30
0.0
 40
20.0
 41
0.0
 46
0.0
 71
     5
 72
     1
  1
\A1;W1
 11
0.0000000000000001
 21
1.0
 31
0.0
 73
     1
 44
1.0
  0
POINT
  5
632
330
61E
100
AcDbEntity
  8
Defpoints
 62
     0
440
 16777216
100
AcDbPoint
 10
1889.416245376819
 20
886.172568930961
 30
0.0
  0
POINT
  5
633
330
61E
100
AcDbEntity
  8
Defpoints
 62
     0
440
 16777216
100
AcDbPoint
 10
1889.416245376819
 20
1651.094397880036
 30
0.0
  0
POINT
  5
634
330
61E
100
AcDbEntity
  8
Defpoints
 62
     0
440
 16777216
100
AcDbPoint
 10
1995.606727151705
 20
1651.094397880036
 30
0.0
  0
ENDBLK
  5
620
330
61E
100
AcDbEntity
  8
0
100
AcDbBlockEnd
  0
BLOCK
  5
147C
330
147B
100
AcDbEntity
  8
0
100
AcDbBlockBegin
  2
*D7
 70
     1
 10
0.0
 20
0.0
 30
0.0
  3
*D7
  1

  0
LINE
  5
1488
330
147B
100
AcDbEntity
  8
0
 62
     0
440
 16777216
370
    -2
100
AcDbLine
 10
220.76882241782
 20
418.1447982849967
 30
0.0
 11
220.76882241782
 21
97.18705887703073
 31
0.0
  0
LINE
  5
1489
330
147B
100
AcDbEntity
  8
0
 62
     0
440
 16777216
370
    -2
100
AcDbLine
 10
1030.768783870553
 20
418.1447982849967
 30
0.0
 11
1030.768783870553
 21
97.18705887703073
 31
0.0
  0
LINE
  5
148A
330
147B
100
AcDbEntity
  8
0
 62
     0
440
 16777216
370
    -2
100
AcDbLine
 10
223.26882241782
 20
98.43705887703073
 30
0.0
 11
1028.268783870553
 21
98.43705887703073
 31
0.0
  0
SOLID
  5
148B
330
147B
100
AcDbEntity
  8
0
 62
     0
440
 16777216
100
AcDbTrace
 10
223.26882241782
 20
98.85372554369741
 30
0.0
 11
223.26882241782
 21
98.02039221036405
 31
0.0
 12
220.76882241782
 22
98.43705887703073
 32
0.0
 13
220.76882241782
 23
98.43705887703073
 33
0.0
  0
SOLID
  5
148C
330
147B
100
AcDbEntity
  8
0
 62
     0
440
 16777216
100
AcDbTrace
 10
1028.268783870553
 20
98.85372554369741
 30
0.0
 11
1028.268783870553
 21
98.02039221036405
 31
0.0
 12
1030.768783870553
 22
98.43705887703073
 32
0.0
 13
1030.768783870553
 23
98.43705887703073
 33
0.0
  0
MTEXT
  5
148D
330
147B
100
AcDbEntity
  8
0
 62
     0
440
 16777216
100
AcDbMText
 10
625.7688031441866
 20
100.3120588770307
 30
0.0
 40
2.5
 41
0.0
 46
0.0
 71
     5
 72
     1
  1
810
 73
     1
 44
1.0
  0
POINT
  5
148E
330
147B
100
AcDbEntity
  8
Defpoints
 62
     0
440
 16777216
100
AcDbPoint
 10
220.76882241782
 20
418.7697982849967
 30
0.0
  0
POINT
  5
148F
330
147B
100
AcDbEntity
  8
Defpoints
 62
     0
440
 16777216
100
AcDbPoint
 10
1030.768783870553
 20
418.7697982849967
 30
0.0
  0
POINT
  5
1490
330
147B
100
AcDbEntity
  8
Defpoints
 62
     0
440
 16777216
100
AcDbPoint
 10
1030.768783870553
 20
98.43705887703073
 30
0.0
  0
ENDBLK
  5
147D
330
147B
100
AcDbEntity
  8
0
100
AcDbBlockEnd
  0
ENDSEC
  0
SECTION
  2
ENTITIES
  0
LWPOLYLINE
  5
115A
330
1F
100
AcDbEntity
  8
Hewi
  6
CUSTOM
 62
    18
420
        0
370
     9
100
AcDbPolyline
 90
       20
 70
     0
 43
0.0
 10
536.1049370591172
 20
434.7440025146534
 10
535.2564995177781
 20
437.1586129571396
 10
532.0074996723961
 20
444.2082466688797
 10
531.4714996979055
 20
445.0504126590285
 10
526.9854999113886
 20
451.3630307395241
 10
521.3625001789806
 20
456.828686482725
 10
514.7845004920236
 20
461.2731423120931
 10
507.4615008405197
 20
464.5529084587113
 10
499.6285012132902
 20
466.564560478756
 10
491.5355015984241
 20
467.2430633807024
 10
394.1095062348541
 20
467.2430633807024
 10
386.0165066199952
 20
466.564560478756
 10
378.1835069927583
 20
464.5529084587113
 10
370.8605073412547
 20
461.2731423120931
 10
364.2825076542977
 20
456.828686482725
 10
358.6595079218897
 20
451.3630307395241
 10
354.17350813538
 20
445.0504126590285
 10
353.6375081608821
 20
444.2082466688797
 10
350.3885083155001
 20
437.1586129571396
 10
349.5400717832636
 20
434.7440053865093
  0
LWPOLYLINE
  5
115B
330
1F
100
AcDbEntity
  8
Hewi
  6
CUSTOM
 62
    18
420
        0
370
     9
100
AcDbPolyline
 90
       14
 70
     0
 43
0.0
 10
518.0394272612939
 20
436.8806658898257
 10
515.4405004608052
 20
440.5382141290183
 10
511.6495006412151
 20
444.2232922852345
 10
507.2135008523217
 20
447.2207376527548
 10
502.2755010873152
 20
449.4327162982298
 10
496.9925013387328
 20
450.7893468406964
 10
491.5355015984241
 20
451.3027776905454
 10
394.1095062348541
 20
451.3027776905454
 10
388.6525064945454
 20
450.7893468406964
 10
383.369506745963
 20
449.4327162982298
 10
378.4315069809563
 20
447.2207376527548
 10
373.9955071920631
 20
444.2232922852345
 10
370.204507372473
 20
440.5382141290183
 10
367.6055805719843
 20
436.8806658898257
  0
LINE
  5
115C
330
1F
100
AcDbEntity
  8
Hewi
  6
CUSTOM
 62
    18
420
        0
370
     9
100
AcDbLine
 10
518.9990188302326
 20
434.744005534123
 30
0.0
 11
517.9305003423104
 21
437.1232063907846
 31
0.0
  0
LWPOLYLINE
  5
115E
330
1F
100
AcDbEntity
  8
Hewi
  6
CUSTOM
 62
    18
420
        0
370
     9
100
AcDbPolyline
 90
        3
 70
     0
 43
0.0
 10
189.7445038251771
 20
434.5440054727378
 10
190.6975037798238
 20
434.7410054633619
 10
190.822503773872
 20
434.7440054632206
  0
LINE
  5
115F
330
1F
100
AcDbEntity
  8
Hewi
  6
CUSTOM
 62
    18
420
        0
370
     9
100
AcDbLine
 10
367.7145074909677
 20
437.1232063907846
 30
0.0
 11
366.6459890030457
 21
434.744005534123
 31
0.0
  0
LWPOLYLINE
  5
1160
330
1F
100
AcDbEntity
  8
Hewi
  6
CUSTOM
 62
    18
420
        0
370
     9
100
AcDbPolyline
 90
       11
 70
     0
 43
0.0
 10
189.5531266650705
 20
434.4317796621253
 10
184.8485520581689
 20
434.6268624687946
 10
184.3282660829299
 20
434.1480074915835
 10
184.3164996794894
 20
433.8642514610874
 10
184.2816976411468
 20
433.0249730610275
 10
184.2255172078203
 20
431.6701379295027
 10
184.1506513943842
 20
429.8646902284234
 10
184.0606632666622
 20
427.6945560796985
 10
183.959778786464
 20
425.2616478604776
 10
183.8527625185579
 20
422.680866780296
 10
183.8225041057213
 20
421.9511614664496
  0
LWPOLYLINE
  5
1161
330
1F
100
AcDbEntity
  8
Hewi
  6
CUSTOM
 62
    18
420
        0
370
     9
100
AcDbPolyline
 90
        3
 70
     0
 43
0.0
 10
184.0488095032288
 20
415.3404446636203
 10
184.153919945229
 20
417.8752652599896
 10
184.2294072236309
 20
419.6957000753573
  0
LWPOLYLINE
  5
1162
330
1F
100
AcDbEntity
  8
Hewi
  6
CUSTOM
 62
    18
420
        0
370
     9
100
AcDbPolyline
 90
       14
 70
     0
 43
0.0
 10
696.8225039642292
 20
477.2440034406773
 10
666.8225053919069
 20
477.2440034406773
 10
665.4605054567236
 20
477.2440034406773
 10
664.2005055166863
 20
477.2440034406773
 10
662.9765055749357
 20
477.2440034406773
 10
662.156505613957
 20
477.2440034406773
 10
661.8225056298524
 20
477.2440034406773
 10
661.8225056298524
 20
472.2440036786236
 10
661.9565056234768
 20
472.2440036786236
 10
662.4255056011552
 20
472.2440036786236
 10
663.1995055643218
 20
472.2440036786236
 10
664.8515054857035
 20
472.2440036786236
 10
666.8225053919069
 20
472.2440036786236
 10
696.8225039642292
 20
472.2440036786236
  0
LWPOLYLINE
  5
1163
330
1F
100
AcDbEntity
  8
Hewi
  6
CUSTOM
 62
    18
420
        0
370
     9
100
AcDbPolyline
 90
        3
 70
     0
 43
0.0
 10
184.6691144057094
 20
430.2995830037271
 10
184.7706617818748
 20
432.7484774781851
 10
184.8176445336412
 20
433.8815033182654
  0
LINE
  5
1164
330
1F
100
AcDbEntity
  8
Hewi
  6
CUSTOM
 62
    18
420
        0
370
     9
100
AcDbLine
 10
187.8225038357941
 20
409.4820688436519
 30
0.0
 11
183.8225040901761
 21
409.6479353124085
 31
0.0
  0
LINE
  5
1165
330
1F
100
AcDbEntity
  8
Hewi
  6
CUSTOM
 62
    18
420
        0
370
     9
100
AcDbLine
 10
184.3856020862022
 20
423.4624614660996
 30
0.0
 11
184.5367423670086
 21
427.1073276606438
 31
0.0
  0
LWPOLYLINE
  5
1166
330
1F
100
AcDbEntity
  8
Hewi
  6
CUSTOM
 62
    18
420
        0
370
     9
100
AcDbPolyline
 90
        4
 70
     0
 43
0.0
 10
706.8225034883414
 20
467.2440039165693
 10
706.8225034883414
 20
421.7440060818788
 10
706.8225034883414
 20
419.5610061857669
 10
706.8225034883414
 20
417.9640062617671
  0
LINE
  5
1167
330
1F
100
AcDbEntity
  8
Hewi
  6
CUSTOM
 62
    18
420
        0
370
     9
100
AcDbLine
 10
190.822503773872
 20
434.7440054632206
 30
0.0
 11
189.7445038251771
 21
434.5440054727378
 31
0.0
  0
LINE
  5
1168
330
1F
100
AcDbEntity
  8
Hewi
  6
CUSTOM
 62
    18
420
        0
370
     9
100
AcDbLine
 10
701.8225037262872
 20
421.7440060818788
 30
0.0
 11
701.8225037262872
 21
467.2440039165693
 31
0.0
  0
LWPOLYLINE
  5
1169
330
1F
100
AcDbEntity
  8
Hewi
  6
CUSTOM
 62
    18
420
        0
370
     9
100
AcDbPolyline
 90
       29
 70
     0
 43
0.0
 10
183.8225041070018
 20
467.2440039165693
 10
183.8225041070018
 20
421.7440060818788
 10
183.8225041070018
 20
418.8260062207453
 10
183.8225041070018
 20
416.0690063519478
 10
183.8225041070018
 20
414.3970064315181
 10
183.8225041070018
 20
411.6310065631496
 10
183.8225041070018
 20
409.8560066476193
 10
183.8225041070018
 20
409.244006676744
 10
178.8225043449474
 20
409.2490066765076
 10
178.8225043449474
 20
409.2620066758882
 10
173.8225045828895
 20
409.2440066767448
 10
171.8225046780699
 20
411.2440065815671
 10
171.8225046780699
 20
411.2840065796635
 10
171.8225046780699
 20
411.7300065584394
 10
171.8225046780699
 20
412.6510065146093
 10
171.8225046780699
 20
414.0030064502687
 10
171.8225046780699
 20
415.7210063685106
 10
171.8225046780699
 20
417.7260062730928
 10
171.8225046780699
 20
419.9210061686353
 10
171.8225046780699
 20
422.2020060600835
 10
171.8225046780699
 20
424.4620059525321
 10
171.8225046780699
 20
426.5920058511673
 10
171.8225046780699
 20
428.4930057606998
 10
171.8225046780699
 20
430.0740056854627
 10
171.8225046780699
 20
431.2600056290212
 10
171.8225046780699
 20
431.9950055940433
 10
171.8225046780699
 20
432.2440055821934
 10
173.8225045828895
 20
434.2440054870149
 10
178.8225043449474
 20
434.2120054885372
  0
LINE
  5
116A
330
1F
100
AcDbEntity
  8
Hewi
  6
CUSTOM
 62
    18
420
        0
370
     9
100
AcDbLine
 10
698.793503870429
 20
471.8390036978981
 30
0.0
 11
696.8225039642292
 21
472.2440036786236
 31
0.0
  0
LWPOLYLINE
  5
116B
330
1F
100
AcDbEntity
  8
Hewi
  6
CUSTOM
 62
    18
420
        0
370
     9
100
AcDbPolyline
 90
        4
 70
     0
 43
0.0
 10
701.8225037262872
 20
467.2440039165693
 10
701.7825037281891
 20
467.8760038864939
 10
701.338503749319
 20
469.3900038144446
 10
700.445503791814
 20
470.6900037525773
  0
LINE
  5
116C
330
1F
100
AcDbEntity
  8
Hewi
  6
CUSTOM
 62
    18
420
        0
370
     9
100
AcDbLine
 10
178.8225043449474
 20
421.7430060819277
 30
0.0
 11
178.8225043449474
 21
421.7440060818798
 31
0.0
  0
LWPOLYLINE
  5
116D
330
1F
100
AcDbEntity
  8
Hewi
  6
CUSTOM
 62
    18
420
        0
370
     9
100
AcDbPolyline
 90
       13
 70
     0
 43
0.0
 10
701.8225037262872
 20
421.7440060818788
 10
701.8225037262872
 20
419.1630062047078
 10
701.8225037262872
 20
416.5790063276771
 10
701.8225037262872
 20
414.3390064342784
 10
701.8225037262872
 20
412.3780065276005
 10
701.8225037262872
 20
410.8400066007924
 10
701.8225037262872
 20
409.8290066489052
 10
701.8225037262872
 20
409.3140066734139
 10
701.8225037262872
 20
409.2490066765076
 10
706.8225034883414
 20
409.2490066765076
 10
706.8225034883414
 20
409.5080066641822
 10
706.8225034883414
 20
409.8340066486671
 10
706.8225034883414
 20
410.3680066232546
  0
LINE
  5
116E
330
1F
100
AcDbEntity
  8
Hewi
  6
CUSTOM
 62
    18
420
        0
370
     9
100
AcDbLine
 10
700.445503791814
 20
470.6900037525773
 30
0.0
 11
698.793503870429
 21
471.8390036978981
 31
0.0
  0
LWPOLYLINE
  5
116F
330
1F
100
AcDbEntity
  8
Hewi
  6
CUSTOM
 62
    18
420
        0
370
     9
100
AcDbPolyline
 90
       14
 70
     0
 43
0.0
 10
188.8225038690561
 20
472.2440036786236
 10
218.822502441375
 20
472.2440036786236
 10
220.3405023691357
 20
472.2440036786236
 10
221.7155023036994
 20
472.2440036786236
 10
222.9575022445915
 20
472.2440036786236
 10
223.680502210189
 20
472.2440036786236
 10
223.8225022034295
 20
472.2440036786236
 10
223.8225022034295
 20
477.2440034406773
 10
223.6335022124239
 20
477.2440034406773
 10
223.0805022387413
 20
477.2440034406773
 10
222.017502289329
 20
477.2440034406773
 10
220.6185023559064
 20
477.2440034406773
 10
218.822502441375
 20
477.2440034406773
 10
188.8225038690561
 20
477.2440034406773
  0
LWPOLYLINE
  5
1170
330
1F
100
AcDbEntity
  8
Hewi
  6
CUSTOM
 62
    18
420
        0
370
     9
100
AcDbPolyline
 90
        3
 70
     0
 43
0.0
 10
706.8225034883414
 20
467.2440039165693
 10
706.7195034932391
 20
468.6720038486128
 10
706.7085034937609
 20
468.7510038448535
  0
LWPOLYLINE
  5
1171
330
1F
100
AcDbEntity
  8
Hewi
  6
CUSTOM
 62
    18
420
        0
370
     9
100
AcDbPolyline
 90
        3
 70
     0
 43
0.0
 10
706.4235035073271
 20
470.0410037834625
 10
706.1875035185567
 20
470.751003749674
 10
706.0355035257944
 20
471.1330037314955
  0
LINE
  5
1172
330
1F
100
AcDbEntity
  8
Hewi
  6
CUSTOM
 62
    18
420
        0
370
     9
100
AcDbLine
 10
700.4335037923866
 20
476.5690034728003
 30
0.0
 11
702.4355036971119
 21
475.5200035227225
 31
0.0
  0
LINE
  5
1173
330
1F
100
AcDbEntity
  8
Hewi
  6
CUSTOM
 62
    18
420
        0
370
     9
100
AcDbLine
 10
696.8225039642292
 20
477.2440034406773
 30
0.0
 11
700.4335037923866
 21
476.5690034728003
 31
0.0
  0
LINE
  5
1174
330
1F
100
AcDbEntity
  8
Hewi
  6
CUSTOM
 62
    18
420
        0
370
     9
100
AcDbLine
 10
706.0355035257944
 20
471.1330037314955
 30
0.0
 11
706.4235035073271
 21
470.0410037834625
 31
0.0
  0
LINE
  5
1175
330
1F
100
AcDbEntity
  8
Hewi
  6
CUSTOM
 62
    18
420
        0
370
     9
100
AcDbLine
 10
701.4017024832156
 20
469.1745018189731
 30
0.0
 11
700.445503791814
 21
470.6900037525773
 31
0.0
  0
LINE
  5
1176
330
1F
100
AcDbEntity
  8
Hewi
  6
CUSTOM
 62
    18
420
        0
370
     9
100
AcDbLine
 10
700.4833369617609
 20
470.6300410674393
 30
0.0
 11
698.793503870429
 21
471.8390036978981
 31
0.0
  0
LWPOLYLINE
  5
1177
330
1F
100
AcDbEntity
  8
Hewi
  6
CUSTOM
 62
    18
420
        0
370
     9
100
AcDbPolyline
 90
        4
 70
     0
 43
0.0
 10
702.4355036971119
 20
475.5200035227225
 10
701.8225037262872
 20
475.9040035044471
 10
700.5995037844859
 20
476.5030034759411
 10
700.4335037923866
 20
476.5690034728003
  0
LWPOLYLINE
  5
1178
330
1F
100
AcDbEntity
  8
Hewi
  6
CUSTOM
 62
    18
420
        0
370
     9
100
AcDbPolyline
 90
        3
 70
     0
 43
0.0
 10
703.8989442478906
 20
474.2666097301353
 10
703.7155036361964
 20
474.4880035718343
 10
702.4355036971119
 20
475.5200035227225
  0
LWPOLYLINE
  5
1179
330
1F
100
AcDbEntity
  8
Hewi
  6
CUSTOM
 62
    18
420
        0
370
     9
100
AcDbPolyline
 90
        5
 70
     0
 43
0.0
 10
188.8225038690561
 20
472.2440036786236
 10
187.0175039549522
 20
471.9070036946614
 10
185.3695040333786
 20
470.8600037444876
 10
184.2485040867268
 20
469.2640038204399
 10
183.8795041042885
 20
467.9980038806871
  0
LWPOLYLINE
  5
117A
330
1F
100
AcDbEntity
  8
Hewi
  6
CUSTOM
 62
    18
420
        0
370
     9
100
AcDbPolyline
 90
        5
 70
     0
 43
0.0
 10
700.3641885467204
 20
476.5819604896051
 10
699.3895038420686
 20
476.9090034566197
 10
698.335503892229
 20
477.1290034461507
 10
697.2285039449105
 20
477.2360034410576
 10
696.8225039642292
 20
477.2440034406773
  0
LWPOLYLINE
  5
117B
330
1F
100
AcDbEntity
  8
Hewi
  6
CUSTOM
 62
    18
420
        0
370
     9
100
AcDbPolyline
 90
        3
 70
     0
 43
0.0
 10
702.4355036971119
 20
475.5200035227225
 10
704.1355036162112
 20
474.0640035920113
 10
705.0715035716694
 20
472.8970036475475
  0
LINE
  5
117C
330
1F
100
AcDbEntity
  8
Hewi
  6
CUSTOM
 62
    18
420
        0
370
     9
100
AcDbLine
 10
183.8795041042885
 20
467.9980038806871
 30
0.0
 11
183.8225041070018
 21
467.2440039165693
 31
0.0
  0
LINE
  5
117D
330
1F
100
AcDbEntity
  8
Hewi
  6
CUSTOM
 62
    18
420
        0
370
     9
100
AcDbLine
 10
696.8225039642292
 20
472.2440036786236
 30
0.0
 11
699.0522030495687
 21
471.653921698462
 31
0.0
  0
LINE
  5
117E
330
1F
100
AcDbEntity
  8
Hewi
  6
CUSTOM
 62
    18
420
        0
370
     9
100
AcDbLine
 10
701.8225037262872
 20
467.2440039165693
 30
0.0
 11
701.5766225166353
 21
468.5780402668132
 31
0.0
  0
LINE
  5
117F
330
1F
100
AcDbEntity
  8
Hewi
  6
CUSTOM
 62
    18
420
        0
370
     9
100
AcDbLine
 10
706.4235035073271
 20
470.0410037834625
 30
0.0
 11
706.7085034937609
 21
468.7510038448535
 31
0.0
  0
LWPOLYLINE
  5
1180
330
1F
100
AcDbEntity
  8
Hewi
  6
CUSTOM
 62
    18
420
        0
370
     9
100
AcDbPolyline
 90
        3
 70
     0
 43
0.0
 10
706.0355035257944
 20
471.1330037314955
 10
705.2235035644315
 20
472.6680036584457
 10
705.0715035716694
 20
472.8970036475475
  0
LINE
  5
1181
330
1F
100
AcDbEntity
  8
Hewi
  6
CUSTOM
 62
    18
420
        0
370
     9
100
AcDbLine
 10
705.0715035716694
 20
472.8970036475475
 30
0.0
 11
706.0355035257944
 21
471.1330037314955
 31
0.0
  0
LINE
  5
1182
330
1F
100
AcDbEntity
  8
Hewi
  6
CUSTOM
 62
    18
420
        0
370
     9
100
AcDbLine
 10
706.7085034937609
 20
468.7510038448535
 30
0.0
 11
706.8225034883414
 21
467.2440039165693
 31
0.0
  0
LWPOLYLINE
  5
1183
330
1F
100
AcDbEntity
  8
Hewi
  6
CUSTOM
 62
    18
420
        0
370
     9
100
AcDbPolyline
 90
        3
 70
     0
 43
0.0
 10
178.8225043449474
 20
421.7440060818788
 10
178.8225043449474
 20
467.2440039165693
 10
178.9025043411402
 20
468.5080038564173
  0
LINE
  5
1184
330
1F
100
AcDbEntity
  8
Hewi
  6
CUSTOM
 62
    18
420
        0
370
     9
100
AcDbLine
 10
188.8225038690561
 20
472.2440036786236
 30
0.0
 11
185.9442065516104
 21
471.2251211836672
 31
0.0
  0
LINE
  5
1185
330
1F
100
AcDbEntity
  8
Hewi
  6
CUSTOM
 62
    18
420
        0
370
     9
100
AcDbLine
 10
186.8005039652762
 20
477.0370034505285
 30
0.0
 11
188.8225038690561
 21
477.2440034406773
 31
0.0
  0
LWPOLYLINE
  5
1186
330
1F
100
AcDbEntity
  8
Hewi
  6
CUSTOM
 62
    18
420
        0
370
     9
100
AcDbPolyline
 90
        4
 70
     0
 43
0.0
 10
183.3285041305081
 20
475.6000035189145
 10
183.8225041070018
 20
475.9040035044471
 10
184.315504083539
 20
476.1710034917414
 10
185.3475040344255
 20
476.6210034703253
  0
LWPOLYLINE
  5
1187
330
1F
100
AcDbEntity
  8
Hewi
  6
CUSTOM
 62
    18
420
        0
370
     9
100
AcDbPolyline
 90
        3
 70
     0
 43
0.0
 10
186.7803463677391
 20
477.0315029000438
 10
186.75650396737
 20
477.0280034509577
 10
185.5875040230039
 20
476.7060034662809
  0
LWPOLYLINE
  5
1188
330
1F
100
AcDbEntity
  8
Hewi
  6
CUSTOM
 62
    18
420
        0
370
     9
100
AcDbPolyline
 90
        4
 70
     0
 43
0.0
 10
188.8225038690561
 20
477.2440034406773
 10
188.6865038755222
 20
477.2430034407251
 10
187.9965039083599
 20
477.2100034422956
 10
186.8577543464034
 20
477.0428643936866
  0
LWPOLYLINE
  5
1189
330
1F
100
AcDbEntity
  8
Hewi
  6
CUSTOM
 62
    18
420
        0
370
     9
100
AcDbPolyline
 90
        3
 70
     0
 43
0.0
 10
179.7337914074978
 20
471.294492456148
 10
179.9245042925013
 20
471.8080036993724
 10
180.5775042614277
 20
472.9020036473101
  0
LWPOLYLINE
  5
118A
330
1F
100
AcDbEntity
  8
Hewi
  6
CUSTOM
 62
    18
420
        0
370
     9
100
AcDbPolyline
 90
        3
 70
     0
 43
0.0
 10
178.8225043449474
 20
413.1100064927649
 10
178.8225043449474
 20
414.7100064166225
 10
178.8225043449474
 20
415.7220063684626
  0
LINE
  5
118B
330
1F
100
AcDbEntity
  8
Hewi
  6
CUSTOM
 62
    18
420
        0
370
     9
100
AcDbLine
 10
178.9025043411402
 20
468.5080038564173
 30
0.0
 11
179.4795043136819
 21
470.8100037468675
 31
0.0
  0
LINE
  5
118C
330
1F
100
AcDbEntity
  8
Hewi
  6
CUSTOM
 62
    18
420
        0
370
     9
100
AcDbLine
 10
185.3475040344255
 20
476.6210034703253
 30
0.0
 11
186.8005039652762
 21
477.0370034505285
 31
0.0
  0
LWPOLYLINE
  5
118D
330
1F
100
AcDbEntity
  8
Hewi
  6
CUSTOM
 62
    18
420
        0
370
     9
100
AcDbPolyline
 90
        3
 70
     0
 43
0.0
 10
178.8225043449474
 20
421.7440060818788
 10
178.8225043449474
 20
419.1630062047078
 10
178.8225043449474
 20
416.5790063276771
  0
LWPOLYLINE
  5
118E
330
1F
100
AcDbEntity
  8
Hewi
  6
CUSTOM
 62
    18
420
        0
370
     9
100
AcDbPolyline
 90
        3
 70
     0
 43
0.0
 10
183.3285041305081
 20
475.6000035189145
 10
182.6365041634399
 20
475.1010035426616
 10
181.5765042138864
 20
474.1350035886333
  0
LINE
  5
118F
330
1F
100
AcDbEntity
  8
Hewi
  6
CUSTOM
 62
    18
420
        0
370
     9
100
AcDbLine
 10
186.8005039652762
 20
477.0370034505285
 30
0.0
 11
185.5875040230039
 21
476.7060034662809
 31
0.0
  0
LINE
  5
1190
330
1F
100
AcDbEntity
  8
Hewi
  6
CUSTOM
 62
    18
420
        0
370
     9
100
AcDbLine
 10
183.9713295088531
 20
468.2266502082693
 30
0.0
 11
183.8225041070018
 21
467.2440039165693
 31
0.0
  0
LWPOLYLINE
  5
1191
330
1F
100
AcDbEntity
  8
Hewi
  6
CUSTOM
 62
    18
420
        0
370
     9
100
AcDbPolyline
 90
        3
 70
     0
 43
0.0
 10
181.5765042138864
 20
474.1350035886333
 10
181.1035042363928
 20
473.601003614045
 10
180.5775042614277
 20
472.9020036473101
  0
LWPOLYLINE
  5
1192
330
1F
100
AcDbEntity
  8
Hewi
  6
CUSTOM
 62
    18
420
        0
370
     9
100
AcDbPolyline
 90
        3
 70
     0
 43
0.0
 10
179.4795043136819
 20
470.8100037468675
 10
179.101504331671
 20
469.5920038048306
 10
178.9025043411402
 20
468.5080038564173
  0
LINE
  5
1193
330
1F
100
AcDbEntity
  8
Hewi
  6
CUSTOM
 62
    18
420
        0
370
     9
100
AcDbLine
 10
179.4795043136819
 20
470.8100037468675
 30
0.0
 11
180.5775042614277
 21
472.9020036473101
 31
0.0
  0
LINE
  5
1194
330
1F
100
AcDbEntity
  8
Hewi
  6
CUSTOM
 62
    18
420
        0
370
     9
100
AcDbLine
 10
185.5023795325742
 20
470.9444216104101
 30
0.0
 11
185.2045699711798
 21
470.625182366286
 31
0.0
  0
LINE
  5
1195
330
1F
100
AcDbEntity
  8
Hewi
  6
CUSTOM
 62
    18
420
        0
370
     9
100
AcDbLine
 10
185.5875040230039
 20
476.7060034662809
 30
0.0
 11
185.466224755446
 21
476.6549937114505
 31
0.0
  0
LINE
  5
1196
330
1F
100
AcDbEntity
  8
Hewi
  6
CUSTOM
 62
    18
420
        0
370
     9
100
AcDbLine
 10
183.8795041042885
 20
467.9980038806871
 30
0.0
 11
184.5741077861148
 21
469.7275752106443
 31
0.0
  0
LINE
  5
1197
330
1F
100
AcDbEntity
  8
Hewi
  6
CUSTOM
 62
    18
420
        0
370
     9
100
AcDbLine
 10
180.5775042614277
 20
472.9020036473101
 30
0.0
 11
181.5765042138864
 21
474.1350035886333
 31
0.0
  0
LINE
  5
1198
330
1F
100
AcDbEntity
  8
Hewi
  6
CUSTOM
 62
    18
420
        0
370
     9
100
AcDbLine
 10
178.8225043449474
 20
409.5430066625158
 30
0.0
 11
178.8225043449474
 21
409.8560066476201
 31
0.0
  0
LINE
  5
1199
330
1F
100
AcDbEntity
  8
Hewi
  6
CUSTOM
 62
    18
420
        0
370
     9
100
AcDbLine
 10
173.8225045828895
 20
410.5710066135944
 30
0.0
 11
173.8225045828895
 21
412.7530065097553
 31
0.0
  0
LINE
  5
119A
330
1F
100
AcDbEntity
  8
Hewi
  6
CUSTOM
 62
    18
420
        0
370
     9
100
AcDbLine
 10
183.3285041305081
 20
475.6000035189145
 30
0.0
 11
185.3475040344255
 21
476.6210034703253
 31
0.0
  0
LINE
  5
119B
330
1F
100
AcDbEntity
  8
Hewi
  6
CUSTOM
 62
    18
420
        0
370
     9
100
AcDbLine
 10
181.5765042138864
 20
474.1350035886333
 30
0.0
 11
183.3285041305081
 21
475.6000035189145
 31
0.0
  0
LINE
  5
119C
330
1F
100
AcDbEntity
  8
Hewi
  6
CUSTOM
 62
    18
420
        0
370
     9
100
AcDbLine
 10
173.8225045828895
 20
429.1740057282914
 30
0.0
 11
173.8225045828895
 21
431.2480056295917
 31
0.0
  0
LINE
  5
119D
330
1F
100
AcDbEntity
  8
Hewi
  6
CUSTOM
 62
    18
420
        0
370
     9
100
AcDbLine
 10
178.8225043449474
 20
410.8400066007924
 30
0.0
 11
178.8225043449474
 21
409.8290066489052
 31
0.0
  0
LINE
  5
119E
330
1F
100
AcDbEntity
  8
Hewi
  6
CUSTOM
 62
    18
420
        0
370
     9
100
AcDbLine
 10
173.8225045828895
 20
421.7440060818798
 30
0.0
 11
173.8225045828895
 21
424.2840059610033
 31
0.0
  0
LWPOLYLINE
  5
119F
330
1F
100
AcDbEntity
  8
Hewi
  6
CUSTOM
 62
    18
420
        0
370
     9
100
AcDbPolyline
 90
       16
 70
     0
 43
0.0
 10
407.8225055822621
 20
473.2440036310344
 10
407.8225055822621
 20
467.2440039165693
 10
408.1065055687467
 20
467.2440039165693
 10
408.9365055292472
 20
467.2440039165693
 10
410.5305054533891
 20
467.2440039165693
 10
412.6285053535466
 20
467.2440039165693
 10
415.3225052253437
 20
467.2440039165693
 10
470.3225026079381
 20
467.2440039165693
 10
471.6565025444542
 20
467.2440039165693
 10
473.4605024586016
 20
467.2440039165693
 10
475.0625023823631
 20
467.2440039165693
 10
475.9775023388209
 20
467.2440039165693
 10
477.0835022861866
 20
467.2440039165693
 10
477.702502256725
 20
467.2440039165693
 10
477.8225022510159
 20
467.2440039165693
 10
477.8225022510159
 20
473.2440036310344
  0
LWPOLYLINE
  5
11A0
330
1F
100
AcDbEntity
  8
Hewi
  6
CUSTOM
 62
    18
420
        0
370
     9
100
AcDbPolyline
 90
       16
 70
     0
 43
0.0
 10
477.8225022510159
 20
443.2440050587119
 10
477.8225022510159
 20
449.244004773176
 10
477.538502264535
 20
449.244004773176
 10
476.7085023040308
 20
449.244004773176
 10
475.114502379889
 20
449.244004773176
 10
473.0165024797314
 20
449.244004773176
 10
470.3225026079381
 20
449.244004773176
 10
415.3225052253437
 20
449.244004773176
 10
413.9885052888275
 20
449.244004773176
 10
412.1845053746765
 20
449.244004773176
 10
410.582505450915
 20
449.244004773176
 10
409.6675054944608
 20
449.244004773176
 10
408.5615055470952
 20
449.244004773176
 10
407.9425055765531
 20
449.244004773176
 10
407.8225055822621
 20
449.244004773176
 10
407.8225055822621
 20
443.2440050587119
  0
LWPOLYLINE
  5
11A1
330
1F
100
AcDbEntity
  8
Hewi
  6
CUSTOM
 62
    18
420
        0
370
     9
100
AcDbPolyline
 90
       20
 70
     0
 43
0.0
 10
706.8225034883414
 20
409.2620066758882
 10
711.8225032503923
 20
409.2440066767448
 10
713.8225031552119
 20
411.2440065815671
 10
713.8225031552119
 20
411.4340065725254
 10
713.8225031552119
 20
411.9870065462081
 10
713.8225031552119
 20
413.0200064970486
 10
713.8225031552119
 20
414.31900643523
 10
713.8225031552119
 20
416.1020063503783
 10
713.8225031552119
 20
418.1530062527725
 10
713.8225031552119
 20
420.373006147125
 10
713.8225031552119
 20
422.659006038335
 10
713.8225031552119
 20
424.9010059316406
 10
713.8225031552119
 20
426.9940058320353
 10
713.8225031552119
 20
428.8380057442818
 10
713.8225031552119
 20
430.345005672564
 10
713.8225031552119
 20
431.4450056202168
 10
713.8225031552119
 20
432.0840055898069
 10
713.8225031552119
 20
432.2440055821934
 10
711.8225032503923
 20
434.2440054870149
 10
706.8225034883414
 20
434.2120054885372
  0
LWPOLYLINE
  5
11A2
330
1F
100
AcDbEntity
  8
Hewi
  6
CUSTOM
 62
    18
420
        0
370
     9
100
AcDbPolyline
 90
       15
 70
     0
 43
0.0
 10
480.3225021320431
 20
443.2440050587119
 10
480.0945021428923
 20
443.2440050587119
 10
479.4215021749223
 20
443.2440050587119
 10
478.7405022073288
 20
443.2440050587119
 10
477.5685022631042
 20
443.2440050587119
 10
475.816502346479
 20
443.2440050587119
 10
473.797502442565
 20
443.2440050587119
 10
472.3445025117107
 20
443.2440050587119
 10
470.3225026079381
 20
443.2440050587119
 10
415.3225052253437
 20
443.2440050587119
 10
412.5975053550246
 20
443.2440050587119
 10
410.079505474856
 20
443.2440050587119
 10
407.6305055914017
 20
443.2440050587119
 10
405.9905056694478
 20
443.2440050587119
 10
405.3225057012349
 20
443.2440050587119
  0
LWPOLYLINE
  5
11A3
330
1F
100
AcDbEntity
  8
Hewi
  6
CUSTOM
 62
    18
420
        0
370
     9
100
AcDbPolyline
 90
       19
 70
     0
 43
0.0
 10
405.3225057012349
 20
443.2440050587119
 10
405.3225057012349
 20
439.2440052490683
 10
405.5505056903856
 20
439.2440052490683
 10
406.2235056583594
 20
439.2440052490683
 10
406.9045056259492
 20
439.2440052490683
 10
408.076505570174
 20
439.2440052490683
 10
409.8285054867991
 20
439.2440052490683
 10
411.8475053907167
 20
439.2440052490683
 10
413.3005053215673
 20
439.2440052490683
 10
415.3225052253437
 20
439.2440052490683
 10
470.3225026079381
 20
439.2440052490683
 10
473.0935024760691
 20
439.2440052490683
 10
475.6275023554734
 20
439.2440052490683
 10
477.1105022849005
 20
439.2440052490683
 10
477.8635022490671
 20
439.2440052490683
 10
479.3365021789687
 20
439.2440052490683
 10
480.1625021396575
 20
439.2440052490683
 10
480.3225021320431
 20
439.2440052490683
 10
480.3225021320431
 20
443.2440050587119
  0
LINE
  5
11A4
330
1F
100
AcDbEntity
  8
Hewi
  6
CUSTOM
 62
    18
420
        0
370
     9
100
AcDbLine
 10
711.8225032503923
 20
416.9850063083567
 30
0.0
 11
711.8225032503923
 21
415.5250063778376
 31
0.0
  0
LINE
  5
11A5
330
1F
100
AcDbEntity
  8
Hewi
  6
CUSTOM
 62
    18
420
        0
370
     9
100
AcDbLine
 10
711.8225032503923
 20
421.7440060818798
 30
0.0
 11
711.8225032503923
 21
419.3180061973317
 31
0.0
  0
LINE
  5
11A6
330
1F
100
AcDbEntity
  8
Hewi
  6
CUSTOM
 62
    18
420
        0
370
     9
100
AcDbLine
 10
711.8225032503923
 20
433.7280055115706
 30
0.0
 11
711.8225032503923
 21
432.2240055831444
 31
0.0
  0
LWPOLYLINE
  5
11A7
330
1F
100
AcDbEntity
  8
Hewi
  6
CUSTOM
 62
    18
420
        0
370
     9
100
AcDbPolyline
 90
        3
 70
     0
 43
0.0
 10
706.8225034883414
 20
412.1800065370234
 10
706.8225034883414
 20
410.9890065937023
 10
706.8225034883414
 20
410.4340066201139
  0
LWPOLYLINE
  5
11A8
330
1F
100
AcDbEntity
  8
Hewi
  6
CUSTOM
 62
    18
420
        0
370
     9
100
AcDbPolyline
 90
        7
 70
     0
 43
0.0
 10
405.3225057012349
 20
451.3027779543908
 10
405.3225057012349
 20
448.2440048207654
 10
405.3225057012349
 20
446.4190049076149
 10
405.3225057012349
 20
444.8450049825213
 10
405.3225057012349
 20
443.9720050240667
 10
405.3225057012349
 20
443.3830050520963
 10
405.3225057012349
 20
443.2440050587119
  0
LWPOLYLINE
  5
11A9
330
1F
100
AcDbEntity
  8
Hewi
  6
CUSTOM
 62
    18
420
        0
370
     9
100
AcDbPolyline
 90
        7
 70
     0
 43
0.0
 10
480.3225021320431
 20
443.2440050587119
 10
480.3225021320431
 20
443.4330050497173
 10
480.3225021320431
 20
443.986005023401
 10
480.3225021320431
 20
445.0490049728123
 10
480.3225021320431
 20
446.4480049062358
 10
480.3225021320431
 20
448.2440048207654
 10
480.3225021320431
 20
451.3027776563676
  0
LWPOLYLINE
  5
11AA
330
1F
100
AcDbEntity
  8
Hewi
  6
CUSTOM
 62
    18
420
        0
370
     9
100
AcDbPolyline
 90
        7
 70
     0
 43
0.0
 10
480.3225021320431
 20
467.2430631169016
 10
480.3225021320431
 20
468.2440038689811
 10
480.3225021320431
 20
469.6060038041641
 10
480.3225021320431
 20
470.8660037442021
 10
480.3225021320431
 20
472.0900036859529
 10
480.3225021320431
 20
472.9100036469298
 10
480.3225021320431
 20
473.2440036310344
  0
LWPOLYLINE
  5
11AB
330
1F
100
AcDbEntity
  8
Hewi
  6
CUSTOM
 62
    18
420
        0
370
     9
100
AcDbPolyline
 90
       11
 70
     0
 43
0.0
 10
697.8225038037798
 20
409.3991356092728
 10
700.8050457747031
 20
409.2754596752484
 10
701.3253317499454
 20
409.7543146524595
 10
701.3349023104874
 20
409.9851162124759
 10
701.3631582511425
 20
410.6665303420486
 10
701.40910522796
 20
411.7745776583178
 10
701.4709617080133
 20
413.2662951003275
 10
701.5553566509969
 20
415.3015452204718
 10
701.6524709103777
 20
417.6435316130191
 10
701.7576227833725
 20
420.1793513503398
 10
701.8225037272913
 20
421.7440061061778
  0
LINE
  5
11AC
330
1F
100
AcDbEntity
  8
Hewi
  6
CUSTOM
 62
    18
420
        0
370
     9
100
AcDbLine
 10
701.1359965869542
 20
417.2565976034319
 30
0.0
 11
701.0652738733206
 21
415.5510639975963
 31
0.0
  0
LWPOLYLINE
  5
11AD
330
1F
100
AcDbEntity
  8
Hewi
  6
CUSTOM
 62
    18
420
        0
370
     9
100
AcDbPolyline
 90
        7
 70
     0
 43
0.0
 10
405.3225057012349
 20
473.2440036310344
 10
405.3225057012349
 20
472.883003648215
 10
405.3225057012349
 20
472.0330036886653
 10
405.3225057012349
 20
470.7920037477233
 10
405.3225057012349
 20
469.3040038185372
 10
405.3225057012349
 20
468.2440038689811
 10
405.3225057012349
 20
467.2430634149248
  0
LINE
  5
11AE
330
1F
100
AcDbEntity
  8
Hewi
  6
CUSTOM
 62
    18
420
        0
370
     9
100
AcDbLine
 10
700.8552601443135
 20
410.4864185096203
 30
0.0
 11
700.8177650911001
 21
409.5821959476507
 31
0.0
  0
LINE
  5
11AF
330
1F
100
AcDbEntity
  8
Hewi
  6
CUSTOM
 62
    18
420
        0
370
     9
100
AcDbLine
 10
695.940932973257
 20
434.4986318889778
 30
0.0
 11
701.8225035756277
 21
434.2547430368266
 31
0.0
  0
LWPOLYLINE
  5
11B0
330
1F
100
AcDbEntity
  8
Hewi
  6
CUSTOM
 62
    18
420
        0
370
     9
100
AcDbPolyline
 90
       17
 70
     0
 43
0.0
 10
405.3225057012349
 20
473.2440036310344
 10
405.5505056903856
 20
473.2440036310344
 10
406.2235056583594
 20
473.2440036310344
 10
406.9045056259492
 20
473.2440036310344
 10
408.076505570174
 20
473.2440036310344
 10
409.8285054867991
 20
473.2440036310344
 10
411.8475053907167
 20
473.2440036310344
 10
413.3005053215673
 20
473.2440036310344
 10
415.3225052253437
 20
473.2440036310344
 10
470.3225026079381
 20
473.2440036310344
 10
473.0935024760691
 20
473.2440036310344
 10
475.6275023554734
 20
473.2440036310344
 10
477.1105022849005
 20
473.2440036310344
 10
477.8635022490671
 20
473.2440036310344
 10
479.3365021789687
 20
473.2440036310344
 10
480.1625021396575
 20
473.2440036310344
 10
480.3225021320431
 20
473.2440036310344
  0
LWPOLYLINE
  5
11B1
330
1F
100
AcDbEntity
  8
Hewi
  6
CUSTOM
 62
    18
420
        0
370
     9
100
AcDbPolyline
 90
       17
 70
     0
 43
0.0
 10
480.3225021320431
 20
473.2440036310344
 10
480.3225021320431
 20
477.2440034406773
 10
480.0945021428923
 20
477.2440034406773
 10
479.4215021749223
 20
477.2440034406773
 10
478.7405022073288
 20
477.2440034406773
 10
477.5685022631042
 20
477.2440034406773
 10
475.816502346479
 20
477.2440034406773
 10
473.797502442565
 20
477.2440034406773
 10
472.3445025117107
 20
477.2440034406773
 10
470.3225026079381
 20
477.2440034406773
 10
415.3225052253437
 20
477.2440034406773
 10
412.5975053550246
 20
477.2440034406773
 10
410.079505474856
 20
477.2440034406773
 10
407.6305055914017
 20
477.2440034406773
 10
405.9905056694478
 20
477.2440034406773
 10
405.3225057012349
 20
477.2440034406773
 10
405.3225057012349
 20
473.2440036310344
  0
LINE
  5
139B
330
1F
100
AcDbEntity
  8
Hewi
  6
CUSTOM
 62
    18
420
        0
370
     9
100
AcDbLine
 10
1076.943479703104
 20
944.2707737854744
 30
0.0
 11
1079.276479746497
 21
944.9737737854237
 31
0.0
  0
LINE
  5
139C
330
1F
100
AcDbEntity
  8
Hewi
  6
CUSTOM
 62
    18
420
        0
370
     9
100
AcDbLine
 10
1074.517479657983
 20
944.0327737854911
 30
0.0
 11
1076.943479703104
 21
944.2707737854744
 31
0.0
  0
LINE
  5
139D
330
1F
100
AcDbEntity
  8
Hewi
  6
CUSTOM
 62
    18
420
        0
370
     9
100
AcDbLine
 10
1078.108479724773
 20
946.6657737852999
 30
0.0
 11
1075.888479683481
 21
946.1227737853404
 31
0.0
  0
LWPOLYLINE
  5
139E
330
1F
100
AcDbEntity
  8
Hewi
  6
CUSTOM
 62
    18
420
        0
370
     9
100
AcDbPolyline
 90
       14
 70
     0
 43
0.0
 10
1073.477479638639
 20
943.5747737855251
 10
1074.517479657979
 20
943.5327737855287
 10
1399.017485693517
 20
943.5327737855287
 10
1401.685485743141
 20
943.5327737855287
 10
1404.823485801508
 20
943.5327737855287
 10
1407.677485854589
 20
943.5327737855287
 10
1409.36948588606
 20
943.5327737855287
 10
1410.247485902391
 20
943.5327737855287
 10
1411.156485919297
 20
943.5327737855287
 10
1412.054485936
 20
943.5327737855287
 10
1412.88648595147
 20
943.5327737855287
 10
1413.731485967191
 20
943.5327737855287
 10
1414.017485972506
 20
943.5327737855287
 10
1414.017485972506
 20
969.5327737836377
  0
LWPOLYLINE
  5
139F
330
1F
100
AcDbEntity
  8
Hewi
  6
CUSTOM
 62
    18
420
        0
370
     9
100
AcDbPolyline
 90
        3
 70
     0
 43
0.0
 10
1071.010236943135
 20
944.0327737812603
 10
1072.142479613807
 20
943.7517737855124
 10
1073.477479638639
 20
943.5747737855251
  0
LWPOLYLINE
  5
13A0
330
1F
100
AcDbEntity
  8
Hewi
  6
CUSTOM
 62
    18
420
        0
370
     9
100
AcDbPolyline
 90
       11
 70
     0
 43
0.0
 10
1064.03747946306
 20
949.7187737850779
 10
1064.818479477586
 20
948.6467737851562
 10
1065.842479496632
 20
947.5327737852376
 10
1066.244479504106
 20
947.1627737852641
 10
1067.170479521331
 20
946.4197737853174
 10
1068.093479538497
 20
945.8097737853632
 10
1069.737479569075
 20
944.982773785423
 10
1069.785479569969
 20
944.9627737854243
 10
1072.106479613138
 20
944.2677737854747
 10
1072.556479621509
 20
944.1877737854802
 10
1074.517479657983
 20
944.0327737854911
  0
LWPOLYLINE
  5
13A1
330
1F
100
AcDbEntity
  8
Hewi
  6
CUSTOM
 62
    18
420
        0
370
     9
100
AcDbPolyline
 90
        6
 70
     0
 43
0.0
 10
1079.276479746497
 20
944.9737737854237
 10
1080.736479773653
 20
945.6897737853715
 10
1081.831479794016
 20
946.3957737853204
 10
1083.688479828555
 20
948.0397737852008
 10
1084.081479835868
 20
948.4837737851686
 10
1084.284312791455
 20
948.7695451479885
  0
LINE
  5
13A2
330
1F
100
AcDbEntity
  8
Hewi
  6
CUSTOM
 62
    18
420
        0
370
     9
100
AcDbLine
 10
1073.477479638639
 20
943.5747737855251
 30
0.0
 11
1071.116124576341
 21
944.0327737750012
 31
0.0
  0
LINE
  5
13A3
330
1F
100
AcDbEntity
  8
Hewi
  6
CUSTOM
 62
    18
420
        0
370
     9
100
AcDbLine
 10
1073.001062856934
 20
943.6379391545552
 30
0.0
 11
1072.729479624728
 21
943.6567737855192
 31
0.0
  0
LWPOLYLINE
  5
13A4
330
1F
100
AcDbEntity
  8
Hewi
  6
CUSTOM
 62
    18
420
        0
370
     9
100
AcDbPolyline
 90
        3
 70
     0
 43
0.0
 10
1083.492316888272
 20
947.8661109912781
 10
1083.480041055683
 20
947.8487737852136
 10
1083.373998675461
 20
947.7613639810034
  0
LWPOLYLINE
  5
13A5
330
1F
100
AcDbEntity
  8
Hewi
  6
CUSTOM
 62
    18
420
        0
370
     9
100
AcDbPolyline
 90
        3
 70
     0
 43
0.0
 10
1081.307339494558
 20
946.0578349391143
 10
1081.29392050702
 20
946.0467737853448
 10
1081.277429306161
 20
946.0385503724001
  0
LWPOLYLINE
  5
13A6
330
1F
100
AcDbEntity
  8
Hewi
  6
CUSTOM
 62
    18
420
        0
370
     9
100
AcDbPolyline
 90
        4
 70
     0
 43
0.0
 10
1064.816479477549
 20
952.5147737848747
 10
1064.177479465661
 20
954.709773784716
 10
1064.017479462685
 20
956.5327737845835
 10
1064.26647946732
 20
958.8057737844192
  0
LWPOLYLINE
  5
13A7
330
1F
100
AcDbEntity
  8
Hewi
  6
CUSTOM
 62
    18
420
        0
370
     9
100
AcDbPolyline
 90
        3
 70
     0
 43
0.0
 10
1078.870833481616
 20
944.8384903267243
 10
1078.759099742876
 20
944.7827737854376
 10
1078.540233929145
 20
944.7215781354378
  0
LWPOLYLINE
  5
13A8
330
1F
100
AcDbEntity
  8
Hewi
  6
CUSTOM
 62
    18
420
        0
370
     9
100
AcDbPolyline
 90
        3
 70
     0
 43
0.0
 10
1075.52286642201
 20
968.9279891954647
 10
1076.264244619471
 20
968.9067737836838
 10
1076.620378342237
 20
968.8136030192444
  0
LINE
  5
13A9
330
1F
100
AcDbEntity
  8
Hewi
  6
CUSTOM
 62
    18
420
        0
370
     9
100
AcDbLine
 10
1070.948216992047
 20
944.0327737855087
 30
0.0
 11
1071.363168094563
 21
943.9451833248547
 31
0.0
  0
LWPOLYLINE
  5
13AA
330
1F
100
AcDbEntity
  8
Hewi
  6
CUSTOM
 62
    18
420
        0
370
     9
100
AcDbPolyline
 90
        3
 70
     0
 43
0.0
 10
1078.292391964065
 20
968.3761752292303
 10
1079.004888433444
 20
968.189773783737
 10
1079.333785326294
 20
968.0328011787278
  0
LWPOLYLINE
  5
13AB
330
1F
100
AcDbEntity
  8
Hewi
  6
CUSTOM
 62
    18
420
        0
370
     9
100
AcDbPolyline
 90
        3
 70
     0
 43
0.0
 10
1083.655589492138
 20
965.0291973972763
 10
1083.659886439026
 20
965.0257737839655
 10
1083.670092346938
 20
965.0107050771604
  0
LINE
  5
13AC
330
1F
100
AcDbEntity
  8
Hewi
  6
CUSTOM
 62
    18
420
        0
370
     9
100
AcDbLine
 10
1061.517479416188
 20
969.0327734260472
 30
0.0
 11
1061.517479416188
 21
969.5327737836377
 31
0.0
  0
LWPOLYLINE
  5
13AD
330
1F
100
AcDbEntity
  8
Hewi
  6
CUSTOM
 62
    18
420
        0
370
     9
100
AcDbPolyline
 90
        7
 70
     0
 43
0.0
 10
1081.750865626259
 20
966.7045204908072
 10
1081.551479788808
 20
966.865773783833
 10
1080.539479769986
 20
967.4867737837868
 10
1080.507479769394
 20
967.5037737837863
 10
1077.615479715603
 20
968.6427737837041
 10
1077.608479715474
 20
968.6447737837033
 10
1074.517479657983
 20
969.0327737836751
  0
LWPOLYLINE
  5
13AE
330
1F
100
AcDbEntity
  8
Hewi
  6
CUSTOM
 62
    18
420
        0
370
     9
100
AcDbPolyline
 90
        7
 70
     0
 43
0.0
 10
1065.013479481213
 20
964.6527737839932
 10
1064.646479474386
 20
964.201773784026
 10
1063.963479461681
 20
963.2307737840966
 10
1063.897479460456
 20
963.1247737841039
 10
1062.641479437092
 20
960.4347737842999
 10
1062.496479434399
 20
959.9607737843344
 10
1062.017479425491
 20
956.5327737845835
  0
LINE
  5
13AF
330
1F
100
AcDbEntity
  8
Hewi
  6
CUSTOM
 62
    18
420
        0
370
     9
100
AcDbLine
 10
1072.729479624728
 20
943.6567737855192
 30
0.0
 11
1072.578283761466
 21
943.6939930118988
 31
0.0
  0
LINE
  5
13B0
330
1F
100
AcDbEntity
  8
Hewi
  6
CUSTOM
 62
    18
420
        0
370
     9
100
AcDbLine
 10
1077.225506950259
 20
944.3539758558836
 30
0.0
 11
1077.143535481713
 21
944.3310563454604
 31
0.0
  0
LINE
  5
13B1
330
1F
100
AcDbEntity
  8
Hewi
  6
CUSTOM
 62
    18
420
        0
370
     9
100
AcDbLine
 10
1072.51072027179
 20
943.7029508709157
 30
0.0
 11
1072.729479624728
 21
943.6567737855192
 31
0.0
  0
LWPOLYLINE
  5
13B2
330
1F
100
AcDbEntity
  8
Hewi
  6
CUSTOM
 62
    18
420
        0
370
     9
100
AcDbPolyline
 90
        4
 70
     0
 43
0.0
 10
1084.97747985253
 20
957.4477737845164
 10
1085.017479853277
 20
956.533773784583
 10
1085.017479853277
 20
956.5327737845835
 10
1084.827479849742
 20
954.5447737847279
  0
LWPOLYLINE
  5
13B3
330
1F
100
AcDbEntity
  8
Hewi
  6
CUSTOM
 62
    18
420
        0
370
     9
100
AcDbPolyline
 90
        3
 70
     0
 43
0.0
 10
1086.405479879095
 20
960.395773784303
 10
1085.690479865794
 20
962.1377737841756
 10
1083.508479825208
 20
965.2167737839516
  0
LINE
  5
13B4
330
1F
100
AcDbEntity
  8
Hewi
  6
CUSTOM
 62
    18
420
        0
370
     9
100
AcDbLine
 10
1082.258479801961
 20
963.6267737840679
 30
0.0
 11
1083.610479827106
 21
961.7827737842016
 31
0.0
  0
LWPOLYLINE
  5
13B5
330
1F
100
AcDbEntity
  8
Hewi
  6
CUSTOM
 62
    18
420
        0
370
     9
100
AcDbPolyline
 90
        4
 70
     0
 43
0.0
 10
1062.017479425491
 20
956.5327737845835
 10
1062.072479426509
 20
955.365773784668
 10
1062.238479429599
 20
954.1907737847539
 10
1062.533479435087
 20
952.978773784841
  0
LINE
  5
13B6
330
1F
100
AcDbEntity
  8
Hewi
  6
CUSTOM
 62
    18
420
        0
370
     9
100
AcDbLine
 10
1081.942479796083
 20
949.1077737851227
 30
0.0
 11
1080.15947976292
 21
947.6767737852279
 31
0.0
  0
LWPOLYLINE
  5
13B7
330
1F
100
AcDbEntity
  8
Hewi
  6
CUSTOM
 62
    18
420
        0
370
     9
100
AcDbPolyline
 90
        7
 70
     0
 43
0.0
 10
1087.017479890475
 20
956.5327737845835
 10
1086.788479886219
 20
954.150773784756
 10
1086.710479884763
 20
953.7807737847833
 10
1085.827479868343
 20
951.2107737849699
 10
1085.805479867931
 20
951.162773784973
 10
1085.272479858022
 20
950.1617737850464
 10
1084.669462878615
 20
949.3121831279934
  0
LWPOLYLINE
  5
13B8
330
1F
100
AcDbEntity
  8
Hewi
  6
CUSTOM
 62
    18
420
        0
370
     9
100
AcDbPolyline
 90
        7
 70
     0
 43
0.0
 10
1065.013479481213
 20
964.6527737839932
 10
1067.087479519787
 20
966.5847737838532
 10
1068.531479546646
 20
967.5057737837851
 10
1069.543479565467
 20
968.0007737837497
 10
1071.408479600161
 20
968.6397737837033
 10
1071.977479610743
 20
968.7717737836937
 10
1074.517479657983
 20
969.0327737836751
  0
LINE
  5
13B9
330
1F
100
AcDbEntity
  8
Hewi
  6
CUSTOM
 62
    18
420
        0
370
     9
100
AcDbLine
 10
1062.533479435087
 20
952.978773784841
 30
0.0
 11
1064.03747946306
 21
949.7187737850779
 31
0.0
  0
LWPOLYLINE
  5
13BA
330
1F
100
AcDbEntity
  8
Hewi
  6
CUSTOM
 62
    18
420
        0
370
     9
100
AcDbPolyline
 90
        4
 70
     0
 43
0.0
 10
1086.405479879095
 20
960.395773784303
 10
1086.681479884229
 20
959.4127737843747
 10
1086.718479884917
 20
959.2507737843853
 10
1086.83922746781
 20
958.3746018380423
  0
LWPOLYLINE
  5
13BB
330
1F
100
AcDbEntity
  8
Hewi
  6
CUSTOM
 62
    18
420
        0
370
     9
100
AcDbPolyline
 90
        3
 70
     0
 43
0.0
 10
1076.943479703104
 20
944.2707737854744
 10
1076.859479701545
 20
944.2537737854763
 10
1074.517479657983
 20
944.0327737854911
  0
LWPOLYLINE
  5
13BC
330
1F
100
AcDbEntity
  8
Hewi
  6
CUSTOM
 62
    18
420
        0
370
     9
100
AcDbPolyline
 90
        3
 70
     0
 43
0.0
 10
1062.368992806832
 20
959.0484060224307
 10
1062.049479426083
 20
957.4227737845175
 10
1062.017479425491
 20
956.5327737845835
  0
LINE
  5
13BD
330
1F
100
AcDbEntity
  8
Hewi
  6
CUSTOM
 62
    18
420
        0
370
     9
100
AcDbLine
 10
1077.642059064781
 20
944.4812758350543
 30
0.0
 11
1078.692197596565
 21
944.786559464479
 31
0.0
  0
LWPOLYLINE
  5
13BE
330
1F
100
AcDbEntity
  8
Hewi
  6
CUSTOM
 62
    18
420
        0
370
     9
100
AcDbPolyline
 90
        3
 70
     0
 43
0.0
 10
1087.017479890475
 20
956.5327737845835
 10
1086.999479890141
 20
957.2117737845346
 10
1086.96214423076
 20
957.482689827424
  0
LWPOLYLINE
  5
13BF
330
1F
100
AcDbEntity
  8
Hewi
  6
CUSTOM
 62
    18
420
        0
370
     9
100
AcDbPolyline
 90
        3
 70
     0
 43
0.0
 10
1083.508479825208
 20
965.2167737839516
 10
1083.151479818572
 20
965.5717737839266
 10
1082.282836518569
 20
966.2742890396847
  0
LINE
  5
13C0
330
1F
100
AcDbEntity
  8
Hewi
  6
CUSTOM
 62
    18
420
        0
370
     9
100
AcDbLine
 10
1084.284312791455
 20
948.7695451479885
 30
0.0
 11
1084.669462878615
 21
949.3121831279934
 31
0.0
  0
LWPOLYLINE
  5
13C1
330
1F
100
AcDbEntity
  8
Hewi
  6
CUSTOM
 62
    18
420
        0
370
     9
100
AcDbPolyline
 90
        3
 70
     0
 43
0.0
 10
1079.276479746497
 20
944.9737737854237
 10
1079.119479743576
 20
944.9107737854284
 10
1078.692197596565
 20
944.786559464479
  0
LWPOLYLINE
  5
13C2
330
1F
100
AcDbEntity
  8
Hewi
  6
CUSTOM
 62
    18
420
        0
370
     9
100
AcDbPolyline
 90
        3
 70
     0
 43
0.0
 10
1066.548840279398
 20
966.0830134216221
 10
1066.038479500273
 20
965.7167737839163
 10
1065.013479481213
 20
964.6527737839932
  0
LINE
  5
13C3
330
1F
100
AcDbEntity
  8
Hewi
  6
CUSTOM
 62
    18
420
        0
370
     9
100
AcDbLine
 10
1082.282836518569
 20
966.2742890396847
 30
0.0
 11
1081.750865626259
 21
966.7045204908072
 31
0.0
  0
LWPOLYLINE
  5
13C4
330
1F
100
AcDbEntity
  8
Hewi
  6
CUSTOM
 62
    18
420
        0
370
     9
100
AcDbPolyline
 90
        3
 70
     0
 43
0.0
 10
1064.03747946306
 20
949.7187737850779
 10
1063.189479447288
 20
951.2477737849676
 10
1062.533479435087
 20
952.978773784841
  0
LINE
  5
13C5
330
1F
100
AcDbEntity
  8
Hewi
  6
CUSTOM
 62
    18
420
        0
370
     9
100
AcDbLine
 10
1086.96214423076
 20
957.482689827424
 30
0.0
 11
1086.83922746781
 21
958.3746018380423
 31
0.0
  0
LWPOLYLINE
  5
13C6
330
1F
100
AcDbEntity
  8
Hewi
  6
CUSTOM
 62
    18
420
        0
370
     9
100
AcDbPolyline
 90
        3
 70
     0
 43
0.0
 10
1083.508479825208
 20
965.2167737839516
 10
1085.093479854689
 20
963.1957737840984
 10
1085.217390823867
 20
962.9313296474991
  0
LINE
  5
13C7
330
1F
100
AcDbEntity
  8
Hewi
  6
CUSTOM
 62
    18
420
        0
370
     9
100
AcDbLine
 10
1085.391629566124
 20
962.5594786801185
 30
0.0
 11
1085.217390823867
 21
962.9313296474991
 31
0.0
  0
LINE
  5
13C8
330
1F
100
AcDbEntity
  8
Hewi
  6
CUSTOM
 62
    18
420
        0
370
     9
100
AcDbLine
 10
1071.799479607429
 20
966.6747737838466
 30
0.0
 11
1074.059479649464
 21
967.0227737838203
 31
0.0
  0
LINE
  5
13C9
330
1F
100
AcDbEntity
  8
Hewi
  6
CUSTOM
 62
    18
420
        0
370
     9
100
AcDbLine
 10
1024.604718029999
 20
943.2085786134212
 30
0.0
 11
1024.182200368081
 21
942.3406357217073
 31
0.0
  0
LWPOLYLINE
  5
13CA
330
1F
100
AcDbEntity
  8
Hewi
  6
CUSTOM
 62
    18
420
        0
370
     9
100
AcDbPolyline
 90
       12
 70
     0
 43
0.0
 10
1019.01747862571
 20
939.0327737858553
 10
1019.018478625729
 20
940.1807737857724
 10
1019.051478626343
 20
941.7857737856557
 10
1019.233478629727
 20
943.0777737855603
 10
1019.555478635715
 20
943.7007737855164
 10
1020.090478645665
 20
944.0057737854939
 10
1020.357478650634
 20
944.0327737854911
 10
1021.160478665571
 20
944.0327737854911
 10
1022.660478693468
 20
944.0327737854911
 10
1024.453478726818
 20
944.0327737854911
 10
1026.669478768037
 20
944.0327737854911
 10
1029.017478811705
 20
944.0327737854911
  0
LWPOLYLINE
  5
13CB
330
1F
100
AcDbEntity
  8
Hewi
  6
CUSTOM
 62
    18
420
        0
370
     9
100
AcDbPolyline
 90
       21
 70
     0
 43
0.0
 10
1029.017478811705
 20
944.0327737854911
 10
1027.538478784196
 20
944.0297737854926
 10
1026.144478758271
 20
943.9487737854978
 10
1025.131478739427
 20
943.6747737855183
 10
1024.470478727135
 20
943.0897737855602
 10
1024.171478721573
 20
942.3127737856166
 10
1024.027478718895
 20
940.7917737857276
 10
1024.017478718704
 20
939.0327737858553
 10
1024.017478718704
 20
914.0327737876724
 10
1024.017478718704
 20
912.8487737877586
 10
1024.017478718704
 20
911.2207737878772
 10
1024.017478718704
 20
909.9547737879683
 10
1024.017478718704
 20
909.2687737880186
 10
1024.017478718704
 20
909.0327737880352
 10
1019.01747862571
 20
909.0327737880352
 10
1019.01747862571
 20
909.3667737880112
 10
1019.01747862571
 20
910.186773787951
 10
1019.01747862571
 20
911.4107737878619
 10
1019.01747862571
 20
912.6707737877712
 10
1019.01747862571
 20
914.0327737876724
 10
1019.01747862571
 20
939.0327737858553
  0
LINE
  5
13CC
330
1F
100
AcDbEntity
  8
Hewi
  6
CUSTOM
 62
    18
420
        0
370
     9
100
AcDbLine
 10
1086.432479879595
 20
960.3127737843088
 30
0.0
 11
1086.405479879095
 21
960.395773784303
 31
0.0
  0
LINE
  5
13CD
330
1F
100
AcDbEntity
  8
Hewi
  6
CUSTOM
 62
    18
420
        0
370
     9
100
AcDbLine
 10
1080.52847976978
 20
945.5717737853792
 30
0.0
 11
1080.639306869203
 21
945.6421191286072
 31
0.0
  0
LWPOLYLINE
  5
13CE
330
1F
100
AcDbEntity
  8
Hewi
  6
CUSTOM
 62
    18
420
        0
370
     9
100
AcDbPolyline
 90
        3
 70
     0
 43
0.0
 10
1081.843667623738
 20
946.4065636651183
 10
1081.864479794631
 20
946.4197737853174
 10
1082.485479806184
 20
946.9017737852828
  0
LINE
  5
13CF
330
1F
100
AcDbEntity
  8
Hewi
  6
CUSTOM
 62
    18
420
        0
370
     9
100
AcDbLine
 10
1024.1739380464
 20
942.3191647400026
 30
0.0
 11
1024.069952761323
 21
941.2404058503353
 31
0.0
  0
LINE
  5
13D0
330
1F
100
AcDbEntity
  8
Hewi
  6
CUSTOM
 62
    18
420
        0
370
     9
100
AcDbLine
 10
1029.017478811705
 20
944.0327737854911
 30
0.0
 11
1027.454483450752
 21
944.0248931367603
 31
0.0
  0
LINE
  5
13D1
330
1F
100
AcDbEntity
  8
Hewi
  6
CUSTOM
 62
    18
420
        0
370
     9
100
AcDbLine
 10
1025.496843052942
 20
943.7735988787499
 30
0.0
 11
1024.8874888191
 21
943.4588371690534
 31
0.0
  0
LINE
  5
13D2
330
1F
100
AcDbEntity
  8
Hewi
  6
CUSTOM
 62
    18
420
        0
370
     9
100
AcDbLine
 10
1074.517479657983
 20
944.0327737854911
 30
0.0
 11
1029.017478811705
 21
944.0327737854911
 31
0.0
  0
LWPOLYLINE
  5
13D3
330
1F
100
AcDbEntity
  8
Hewi
  6
CUSTOM
 62
    18
420
        0
370
     9
100
AcDbPolyline
 90
       11
 70
     0
 43
0.0
 10
1074.517479657983
 20
969.0327737836751
 10
1029.017478811705
 20
969.0327737836751
 10
1027.753478788194
 20
969.0327737836751
 10
1025.451478745379
 20
969.0327737836751
 10
1023.35947870647
 20
969.0327737836751
 10
1022.126478683536
 20
969.0327737836751
 10
1020.661478656287
 20
969.0327737836751
 10
1019.640478637297
 20
969.0327737836751
 10
1019.224478629561
 20
969.0327737836751
 10
1019.01747862571
 20
969.0327737836751
 10
1019.01747862571
 20
939.0327737858553
  0
LWPOLYLINE
  5
13D4
330
1F
100
AcDbEntity
  8
Hewi
  6
CUSTOM
 62
    18
420
        0
370
     9
100
AcDbPolyline
 90
        3
 70
     0
 43
0.0
 10
1079.295430449101
 20
944.9830674087516
 10
1079.301479746963
 20
944.9847737854224
 10
1080.52847976978
 20
945.5717737853792
  0
LWPOLYLINE
  5
13D5
330
1F
100
AcDbEntity
  8
Hewi
  6
CUSTOM
 62
    18
420
        0
370
     9
100
AcDbPolyline
 90
        3
 70
     0
 43
0.0
 10
1083.883479832182
 20
964.810773783981
 10
1084.630479846079
 20
963.8797737840505
 10
1084.766634148587
 20
963.6125278228799
  0
LINE
  5
13D6
330
1F
100
AcDbEntity
  8
Hewi
  6
CUSTOM
 62
    18
420
        0
370
     9
100
AcDbLine
 10
1026.970112170829
 20
943.9967481789372
 30
0.0
 11
1025.92312457298
 21
943.8889010899366
 31
0.0
  0
LINE
  5
13D7
330
1F
100
AcDbEntity
  8
Hewi
  6
CUSTOM
 62
    18
420
        0
370
     9
100
AcDbLine
 10
1086.427479879503
 20
952.7357737848587
 30
0.0
 11
1085.893479869568
 21
951.3527737849599
 31
0.0
  0
LWPOLYLINE
  5
13D8
330
1F
100
AcDbEntity
  8
Hewi
  6
CUSTOM
 62
    18
420
        0
370
     9
100
AcDbPolyline
 90
        3
 70
     0
 43
0.0
 10
1076.700479698584
 20
944.2247737854778
 10
1076.472479694343
 20
944.1867737854808
 10
1074.517479657983
 20
944.0327737854911
  0
LINE
  5
13D9
330
1F
100
AcDbEntity
  8
Hewi
  6
CUSTOM
 62
    18
420
        0
370
     9
100
AcDbLine
 10
1076.700479698584
 20
944.2247737854778
 30
0.0
 11
1074.517479657983
 21
944.0327737854911
 31
0.0
  0
LWPOLYLINE
  5
13DA
330
1F
100
AcDbEntity
  8
Hewi
  6
CUSTOM
 62
    18
420
        0
370
     9
100
AcDbPolyline
 90
        3
 70
     0
 43
0.0
 10
1077.098479705988
 20
968.7637737836947
 10
1077.435479712256
 20
968.6877737837004
 10
1077.522941237117
 20
968.6555110455335
  0
LWPOLYLINE
  5
13DB
330
1F
100
AcDbEntity
  8
Hewi
  6
CUSTOM
 62
    18
420
        0
370
     9
100
AcDbPolyline
 90
        3
 70
     0
 43
0.0
 10
1079.682479754045
 20
967.9187737837557
 10
1080.192479763534
 20
967.670773783773
 10
1080.388374513482
 20
967.5506828059353
  0
LWPOLYLINE
  5
13DC
330
1F
100
AcDbEntity
  8
Hewi
  6
CUSTOM
 62
    18
420
        0
370
     9
100
AcDbPolyline
 90
        3
 70
     0
 43
0.0
 10
1086.427479879503
 20
952.7357737848587
 10
1086.405479879095
 20
952.6697737848643
 10
1085.893479869568
 20
951.3527737849599
  0
LWPOLYLINE
  5
13DD
330
1F
100
AcDbEntity
  8
Hewi
  6
CUSTOM
 62
    18
420
        0
370
     9
100
AcDbPolyline
 90
        3
 70
     0
 43
0.0
 10
1081.922479795712
 20
966.6037737838513
 10
1081.864479794631
 20
966.6457737838484
 10
1081.695155495845
 20
966.7495760583806
  0
LINE
  5
13DE
330
1F
100
AcDbEntity
  8
Hewi
  6
CUSTOM
 62
    18
420
        0
370
     9
100
AcDbLine
 10
1087.012479890383
 20
956.1917737846076
 30
0.0
 11
1087.017479890475
 21
956.5327737845835
 31
0.0
  0
LWPOLYLINE
  5
13DF
330
1F
100
AcDbEntity
  8
Hewi
  6
CUSTOM
 62
    18
420
        0
370
     9
100
AcDbPolyline
 90
        3
 70
     0
 43
0.0
 10
1084.44247984258
 20
948.9337737851355
 10
1084.630479846079
 20
949.1857737851166
 10
1084.863442948817
 20
949.5854816506843
  0
LINE
  5
13E0
330
1F
100
AcDbEntity
  8
Hewi
  6
CUSTOM
 62
    18
420
        0
370
     9
100
AcDbLine
 10
1024.421767229278
 20
722.607947248538
 30
0.0
 11
1024.100819095443
 21
722.9792857829261
 31
0.0
  0
LINE
  5
13E1
330
1F
100
AcDbEntity
  8
Hewi
  6
CUSTOM
 62
    18
420
        0
370
     9
100
AcDbLine
 10
1025.915640962301
 20
721.5556671263347
 30
0.0
 11
1025.042216311512
 21
722.0884898763277
 31
0.0
  0
LWPOLYLINE
  5
13E2
330
1F
100
AcDbEntity
  8
Hewi
  6
CUSTOM
 62
    18
420
        0
370
     9
100
AcDbPolyline
 90
       10
 70
     0
 43
0.0
 10
1053.017479258093
 20
883.5327737898888
 10
1047.017479146498
 20
883.5327737898888
 10
1047.017479146498
 20
883.4127737898969
 10
1047.017479146498
 20
882.8447737899386
 10
1047.017479146498
 20
881.8457737900116
 10
1047.017479146498
 20
880.9587737900764
 10
1047.017479146498
 20
879.2797737901981
 10
1047.017479146498
 20
877.3687737903365
 10
1047.017479146498
 20
876.0327737904345
 10
1047.017479146498
 20
743.0128526165151
  0
LINE
  5
13E3
330
1F
100
AcDbEntity
  8
Hewi
  6
CUSTOM
 62
    18
420
        0
370
     9
100
AcDbLine
 10
1082.962430746904
 20
947.3970033680334
 30
0.0
 11
1082.485479806184
 21
946.9017737852828
 31
0.0
  0
LINE
  5
13E4
330
1F
100
AcDbEntity
  8
Hewi
  6
CUSTOM
 62
    18
420
        0
370
     9
100
AcDbLine
 10
1081.922479795712
 20
966.6037737838513
 30
0.0
 11
1082.28283646883
 21
966.2742890807221
 31
0.0
  0
LWPOLYLINE
  5
13E5
330
1F
100
AcDbEntity
  8
Hewi
  6
CUSTOM
 62
    18
420
        0
370
     9
100
AcDbPolyline
 90
        8
 70
     0
 43
0.0
 10
1029.017478811705
 20
721.0327738016993
 10
1029.017478811705
 20
876.0327737904345
 10
1029.017478811705
 20
878.0767737902852
 10
1029.017478811705
 20
879.9647737901487
 10
1029.017478811705
 20
881.8017737900154
 10
1029.017478811705
 20
883.0317737899259
 10
1029.017478811705
 20
883.5327737898888
 10
1023.017478700107
 20
883.5327737898888
  0
LINE
  5
13E6
330
1F
100
AcDbEntity
  8
Hewi
  6
CUSTOM
 62
    18
420
        0
370
     9
100
AcDbLine
 10
1078.334669543788
 20
968.3595244054297
 30
0.0
 11
1079.682479754045
 21
967.9187737837557
 31
0.0
  0
LWPOLYLINE
  5
13E7
330
1F
100
AcDbEntity
  8
Hewi
  6
CUSTOM
 62
    18
420
        0
370
     9
100
AcDbPolyline
 90
        3
 70
     0
 43
0.0
 10
1078.692197689788
 20
944.7865594995864
 10
1078.297479728289
 20
944.6177737854496
 10
1077.193269944166
 20
944.3460427666266
  0
LINE
  5
13E8
330
1F
100
AcDbEntity
  8
Hewi
  6
CUSTOM
 62
    18
420
        0
370
     9
100
AcDbLine
 10
1077.098479705988
 20
968.7637737836947
 30
0.0
 11
1077.371360717601
 21
968.674538315232
 31
0.0
  0
LINE
  5
13E9
330
1F
100
AcDbEntity
  8
Hewi
  6
CUSTOM
 62
    18
420
        0
370
     9
100
AcDbLine
 10
1086.421999408745
 20
960.3369379555259
 30
0.0
 11
1086.432479879595
 21
960.3127737843088
 31
0.0
  0
LINE
  5
13EA
330
1F
100
AcDbEntity
  8
Hewi
  6
CUSTOM
 62
    18
420
        0
370
     9
100
AcDbLine
 10
1086.432479879595
 20
960.3127737843088
 30
0.0
 11
1086.443417597116
 21
960.2606550303498
 31
0.0
  0
LINE
  5
13EB
330
1F
100
AcDbEntity
  8
Hewi
  6
CUSTOM
 62
    18
420
        0
370
     9
100
AcDbLine
 10
1080.52847976978
 20
945.5717737853792
 30
0.0
 11
1080.273790032244
 21
945.4628656701496
 31
0.0
  0
LINE
  5
13EC
330
1F
100
AcDbEntity
  8
Hewi
  6
CUSTOM
 62
    18
420
        0
370
     9
100
AcDbLine
 10
1082.485479806184
 20
946.9017737852828
 30
0.0
 11
1082.130642689944
 21
946.6606223515643
 31
0.0
  0
LINE
  5
13ED
330
1F
100
AcDbEntity
  8
Hewi
  6
CUSTOM
 62
    18
420
        0
370
     9
100
AcDbLine
 10
1087.004463021998
 20
956.3973756206788
 30
0.0
 11
1087.012479890383
 21
956.1917737846076
 31
0.0
  0
LINE
  5
13EE
330
1F
100
AcDbEntity
  8
Hewi
  6
CUSTOM
 62
    18
420
        0
370
     9
100
AcDbLine
 10
1086.839227464354
 20
958.374601834109
 30
0.0
 11
1086.947479889173
 21
957.8587737844873
 31
0.0
  0
LINE
  5
13EF
330
1F
100
AcDbEntity
  8
Hewi
  6
CUSTOM
 62
    18
420
        0
370
     9
100
AcDbLine
 10
1083.683466832326
 20
964.993651551472
 30
0.0
 11
1083.883479832182
 21
964.810773783981
 31
0.0
  0
LINE
  5
13F0
330
1F
100
AcDbEntity
  8
Hewi
  6
CUSTOM
 62
    18
420
        0
370
     9
100
AcDbLine
 10
1080.613017070273
 20
945.6292263186206
 30
0.0
 11
1080.52847976978
 21
945.5717737853792
 31
0.0
  0
LWPOLYLINE
  5
13F1
330
1F
100
AcDbEntity
  8
Hewi
  6
CUSTOM
 62
    18
420
        0
370
     9
100
AcDbPolyline
 90
        3
 70
     0
 43
0.0
 10
1086.755051742328
 20
953.9922043598998
 10
1086.753479885565
 20
953.978773784769
 10
1086.7470607185
 20
953.9542982494559
  0
LINE
  5
13F2
330
1F
100
AcDbEntity
  8
Hewi
  6
CUSTOM
 62
    18
420
        0
370
     9
100
AcDbLine
 10
1085.217390792158
 20
962.9313297031696
 30
0.0
 11
1085.421479860792
 21
962.6437737841396
 31
0.0
  0
LINE
  5
13F3
330
1F
100
AcDbEntity
  8
Hewi
  6
CUSTOM
 62
    18
420
        0
370
     9
100
AcDbLine
 10
1084.669462899057
 20
949.3121831602984
 30
0.0
 11
1084.44247984258
 21
948.9337737851355
 31
0.0
  0
LINE
  5
13F4
330
1F
100
AcDbEntity
  8
Hewi
  6
CUSTOM
 62
    18
420
        0
370
     9
100
AcDbLine
 10
1086.947479889173
 20
957.8587737844873
 30
0.0
 11
1086.962144230658
 21
957.4826898337558
 31
0.0
  0
LINE
  5
13F5
330
1F
100
AcDbEntity
  8
Hewi
  6
CUSTOM
 62
    18
420
        0
370
     9
100
AcDbLine
 10
1087.012479890383
 20
956.1917737846076
 30
0.0
 11
1086.856886154832
 21
954.8623184551081
 31
0.0
  0
LINE
  5
13F6
330
1F
100
AcDbEntity
  8
Hewi
  6
CUSTOM
 62
    18
420
        0
370
     9
100
AcDbLine
 10
1085.893479869568
 20
951.3527737849599
 30
0.0
 11
1085.851551403002
 21
951.2808347625087
 31
0.0
  0
LINE
  5
13F7
330
1F
100
AcDbEntity
  8
Hewi
  6
CUSTOM
 62
    18
420
        0
370
     9
100
AcDbLine
 10
1076.792728036793
 20
944.2474748476197
 30
0.0
 11
1076.700479698584
 21
944.2247737854778
 31
0.0
  0
LINE
  5
13F8
330
1F
100
AcDbEntity
  8
Hewi
  6
CUSTOM
 62
    18
420
        0
370
     9
100
AcDbLine
 10
1084.44247984258
 20
948.9337737851355
 30
0.0
 11
1084.284312792622
 21
948.7695451497174
 31
0.0
  0
LINE
  5
13F9
330
1F
100
AcDbEntity
  8
Hewi
  6
CUSTOM
 62
    18
420
        0
370
     9
100
AcDbLine
 10
1023.469669213546
 20
724.0151140920297
 30
0.0
 11
1023.369516337452
 21
724.2111497566911
 31
0.0
  0
LINE
  5
13FA
330
1F
100
AcDbEntity
  8
Hewi
  6
CUSTOM
 62
    18
420
        0
370
     9
100
AcDbLine
 10
1085.893479869568
 20
951.3527737849599
 30
0.0
 11
1085.853191239961
 21
951.2856075594608
 31
0.0
  0
LINE
  5
13FB
330
1F
100
AcDbEntity
  8
Hewi
  6
CUSTOM
 62
    18
420
        0
370
     9
100
AcDbLine
 10
1083.883479832182
 20
964.810773783981
 30
0.0
 11
1084.422373775565
 21
964.0514869481576
 31
0.0
  0
LINE
  5
13FC
330
1F
100
AcDbEntity
  8
Hewi
  6
CUSTOM
 62
    18
420
        0
370
     9
100
AcDbLine
 10
1085.421479860792
 20
962.6437737841396
 30
0.0
 11
1085.56279893471
 21
962.3179431657815
 31
0.0
  0
LINE
  5
13FD
330
1F
100
AcDbEntity
  8
Hewi
  6
CUSTOM
 62
    18
420
        0
370
     9
100
AcDbLine
 10
1085.566210341296
 20
962.3131293592487
 30
0.0
 11
1085.421479860792
 21
962.6437737841396
 31
0.0
  0
LINE
  5
13FE
330
1F
100
AcDbEntity
  8
Hewi
  6
CUSTOM
 62
    18
420
        0
370
     9
100
AcDbLine
 10
1081.750865584299
 20
966.7045205176885
 30
0.0
 11
1081.922479795712
 21
966.6037737838513
 31
0.0
  0
LINE
  5
13FF
330
1F
100
AcDbEntity
  8
Hewi
  6
CUSTOM
 62
    18
420
        0
370
     9
100
AcDbLine
 10
1079.682479754045
 20
967.9187737837557
 30
0.0
 11
1080.148700513526
 21
967.6450772269399
 31
0.0
  0
LINE
  5
1400
330
1F
100
AcDbEntity
  8
Hewi
  6
CUSTOM
 62
    18
420
        0
370
     9
100
AcDbLine
 10
1074.52328142971
 20
969.0321691046491
 30
0.0
 11
1077.098479705988
 21
968.7637737836947
 31
0.0
  0
LINE
  5
1401
330
1F
100
AcDbEntity
  8
Hewi
  6
CUSTOM
 62
    18
420
        0
370
     9
100
AcDbLine
 10
1086.947479889173
 20
957.8587737844873
 30
0.0
 11
1086.970555503279
 21
957.4216557311419
 31
0.0
  0
LINE
  5
1402
330
1F
100
AcDbEntity
  8
Hewi
  6
CUSTOM
 62
    18
420
        0
370
     9
100
AcDbLine
 10
1028.017478793108
 20
721.0327738016993
 30
0.0
 11
1026.565843671944
 21
721.3004800494262
 31
0.0
  0
LINE
  5
1403
330
1F
100
AcDbEntity
  8
Hewi
  6
CUSTOM
 62
    18
420
        0
370
     9
100
AcDbLine
 10
1086.672749550498
 20
953.6709584331866
 30
0.0
 11
1086.427479879503
 21
952.7357737848587
 31
0.0
  0
LWPOLYLINE
  5
1404
330
1F
100
AcDbEntity
  8
Hewi
  6
CUSTOM
 62
    18
420
        0
370
     9
100
AcDbPolyline
 90
        8
 70
     0
 43
0.0
 10
1028.017478793108
 20
721.0327738016993
 10
1048.017479165095
 20
721.0327738016993
 10
1049.842479199042
 20
721.3777738016741
 10
1051.416479228313
 20
722.3657738016028
 10
1052.289479244556
 20
723.4347738015238
 10
1052.878479255507
 20
724.8597738014214
 10
1053.017479258093
 20
726.0327738013358
 10
1053.017479258093
 20
728.1790321926201
  0
LWPOLYLINE
  5
1405
330
1F
100
AcDbEntity
  8
Hewi
  6
CUSTOM
 62
    18
420
        0
370
     9
100
AcDbPolyline
 90
       23
 70
     0
 43
0.0
 10
1028.017478793108
 20
721.0327738016993
 10
1026.957478773393
 20
721.1467738016906
 10
1025.469478745714
 20
721.7307738016479
 10
1024.228478722636
 20
722.7697738015722
 10
1023.378478706823
 20
724.1647738014717
 10
1023.017478700107
 20
726.0327738013358
 10
1023.017478700107
 20
876.0327737904345
 10
1023.017478700107
 20
878.15377379028
 10
1023.017478700107
 20
880.1797737901324
 10
1023.017478700107
 20
881.4307737900419
 10
1023.017478700107
 20
882.923773789933
 10
1023.017478700107
 20
884.3887737898276
 10
1023.017478700107
 20
885.4097737897527
 10
1023.017478700107
 20
885.825773789722
 10
1023.017478700107
 20
886.0327737897069
 10
1019.01747862571
 20
886.0327737897069
 10
1019.01747862571
 20
885.6547737897344
 10
1019.01747862571
 20
884.5477737898145
 10
1019.01747862571
 20
882.4227737899692
 10
1019.01747862571
 20
879.6247737901721
 10
1019.01747862571
 20
876.0327737904345
 10
1019.01747862571
 20
726.0327738013358
 10
1019.265478630323
 20
723.9347738014885
  0
LWPOLYLINE
  5
1406
330
1F
100
AcDbEntity
  8
Hewi
  6
CUSTOM
 62
    18
420
        0
370
     9
100
AcDbPolyline
 90
       17
 70
     0
 43
0.0
 10
1057.017479332489
 20
746.9097834300209
 10
1057.017479332489
 20
876.0327737904345
 10
1057.017479332489
 20
878.15377379028
 10
1057.017479332489
 20
880.1797737901324
 10
1057.017479332489
 20
881.4307737900419
 10
1057.017479332489
 20
882.923773789933
 10
1057.017479332489
 20
884.3887737898276
 10
1057.017479332489
 20
885.4097737897527
 10
1057.017479332489
 20
885.825773789722
 10
1057.017479332489
 20
886.0327737897069
 10
1053.017479258093
 20
886.0327737897069
 10
1053.017479258093
 20
885.6547737897344
 10
1053.017479258093
 20
884.5477737898145
 10
1053.017479258093
 20
882.4227737899692
 10
1053.017479258093
 20
879.6247737901721
 10
1053.017479258093
 20
876.0327737904345
 10
1053.017479258093
 20
745.3510109556073
  0
LINE
  5
1407
330
1F
100
AcDbEntity
  8
Hewi
  6
CUSTOM
 62
    18
420
        0
370
     9
100
AcDbLine
 10
1055.959479312814
 20
721.7997738016436
 30
0.0
 11
1054.837479291947
 21
720.1597738017626
 31
0.0
  0
LWPOLYLINE
  5
1408
330
1F
100
AcDbEntity
  8
Hewi
  6
CUSTOM
 62
    18
420
        0
370
     9
100
AcDbPolyline
 90
        3
 70
     0
 43
0.0
 10
1055.959479312814
 20
721.7997738016436
 10
1054.94047929386
 20
720.2817738017537
 10
1054.837479291947
 20
720.1597738017626
  0
LINE
  5
1409
330
1F
100
AcDbEntity
  8
Hewi
  6
CUSTOM
 62
    18
420
        0
370
     9
100
AcDbLine
 10
1051.617598777904
 20
722.6120473346908
 30
0.0
 11
1051.038745679563
 21
722.1286704137865
 31
0.0
  0
LINE
  5
140A
330
1F
100
AcDbEntity
  8
Hewi
  6
CUSTOM
 62
    18
420
        0
370
     9
100
AcDbLine
 10
1054.837479291947
 20
720.1597738017626
 30
0.0
 11
1052.911479256121
 21
718.4797738018843
 31
0.0
  0
LWPOLYLINE
  5
140B
330
1F
100
AcDbEntity
  8
Hewi
  6
CUSTOM
 62
    18
420
        0
370
     9
100
AcDbPolyline
 90
        3
 70
     0
 43
0.0
 10
1051.53377716625
 20
717.8409005977299
 10
1052.736479252866
 20
718.3687738018925
 10
1052.911479256121
 20
718.4797738018843
  0
LINE
  5
140C
330
1F
100
AcDbEntity
  8
Hewi
  6
CUSTOM
 62
    18
420
        0
370
     9
100
AcDbLine
 10
1052.911479256121
 20
718.4797738018843
 30
0.0
 11
1050.623479213564
 21
717.4187738019618
 31
0.0
  0
LINE
  5
140D
330
1F
100
AcDbEntity
  8
Hewi
  6
CUSTOM
 62
    18
420
        0
370
     9
100
AcDbLine
 10
1052.362416980291
 20
723.611236066139
 30
0.0
 11
1052.060944212202
 21
723.1549296531474
 31
0.0
  0
LWPOLYLINE
  5
140E
330
1F
100
AcDbEntity
  8
Hewi
  6
CUSTOM
 62
    18
420
        0
370
     9
100
AcDbPolyline
 90
        3
 70
     0
 43
0.0
 10
1048.978479182971
 20
717.0837738019853
 10
1050.469479210702
 20
717.3737738019653
 10
1050.623479213564
 20
717.4187738019618
  0
LINE
  5
140F
330
1F
100
AcDbEntity
  8
Hewi
  6
CUSTOM
 62
    18
420
        0
370
     9
100
AcDbLine
 10
1050.623479213564
 20
717.4187738019618
 30
0.0
 11
1048.978479182971
 21
717.0837738019853
 31
0.0
  0
LWPOLYLINE
  5
1410
330
1F
100
AcDbEntity
  8
Hewi
  6
CUSTOM
 62
    18
420
        0
370
     9
100
AcDbPolyline
 90
        4
 70
     0
 43
0.0
 10
1048.978479182971
 20
717.0837738019853
 10
1048.017479165095
 20
717.0327738019896
 10
1028.017478793108
 20
717.0327738019896
 10
1025.982478755255
 20
717.2657738019734
  0
LWPOLYLINE
  5
1411
330
1F
100
AcDbEntity
  8
Hewi
  6
CUSTOM
 62
    18
420
        0
370
     9
100
AcDbPolyline
 90
        3
 70
     0
 43
0.0
 10
1056.718479326928
 20
723.7317738015026
 10
1056.416479321315
 20
722.799773801571
 10
1056.221989503172
 20
722.4679815570416
  0
LINE
  5
1412
330
1F
100
AcDbEntity
  8
Hewi
  6
CUSTOM
 62
    18
420
        0
370
     9
100
AcDbLine
 10
1050.127119596995
 20
721.5564426109549
 30
0.0
 11
1049.504563999433
 21
721.3138939458076
 31
0.0
  0
LINE
  5
1413
330
1F
100
AcDbEntity
  8
Hewi
  6
CUSTOM
 62
    18
420
        0
370
     9
100
AcDbLine
 10
1052.314982336602
 20
723.4964748303426
 30
0.0
 11
1052.255769088557
 21
723.393495270453
 31
0.0
  0
LINE
  5
1414
330
1F
100
AcDbEntity
  8
Hewi
  6
CUSTOM
 62
    18
420
        0
370
     9
100
AcDbLine
 10
1052.905571974404
 20
725.0884051604152
 30
0.0
 11
1052.797852826237
 21
724.6647098522079
 31
0.0
  0
LINE
  5
1415
330
1F
100
AcDbEntity
  8
Hewi
  6
CUSTOM
 62
    18
420
        0
370
     9
100
AcDbLine
 10
1047.017479146498
 20
725.8408715811001
 30
0.0
 11
1047.017479146498
 21
721.0327738016993
 31
0.0
  0
LINE
  5
1416
330
1F
100
AcDbEntity
  8
Hewi
  6
CUSTOM
 62
    18
420
        0
370
     9
100
AcDbLine
 10
1052.913895747673
 20
725.1586482306247
 30
0.0
 11
1052.659876865918
 21
724.3308970624338
 31
0.0
  0
LINE
  5
1417
330
1F
100
AcDbEntity
  8
Hewi
  6
CUSTOM
 62
    18
420
        0
370
     9
100
AcDbLine
 10
1056.718479326928
 20
723.7317738015026
 30
0.0
 11
1055.959479312814
 21
721.7997738016436
 31
0.0
  0
LWPOLYLINE
  5
1418
330
1F
100
AcDbEntity
  8
Hewi
  6
CUSTOM
 62
    18
420
        0
370
     9
100
AcDbPolyline
 90
        7
 70
     0
 43
0.0
 10
1314.014828898207
 20
943.5327762877513
 10
1194.167616260163
 20
790.1100203598225
 10
1191.780955157648
 20
787.2974754306206
 10
1189.187496262721
 20
784.7016326007198
 10
1182.467798947558
 20
779.5737536661462
 10
1182.088389878152
 20
779.3217952313844
 10
1174.297984257167
 20
775.5121111953668
  0
LWPOLYLINE
  5
1419
330
1F
100
AcDbEntity
  8
Hewi
  6
CUSTOM
 62
    18
420
        0
370
     9
100
AcDbPolyline
 90
        5
 70
     0
 43
0.0
 10
1181.690323264434
 20
779.127131659562
 10
1181.477289691682
 20
778.9731087436702
 10
1178.276066404329
 20
777.2566026247623
 10
1177.625367539584
 20
776.9654656943567
 10
1174.950546625534
 20
775.8039743213283
  0
LINE
  5
141A
330
1F
100
AcDbEntity
  8
Hewi
  6
CUSTOM
 62
    18
420
        0
370
     9
100
AcDbLine
 10
1052.863431728687
 20
724.9226535308062
 30
0.0
 11
1052.842691146374
 21
724.7731896546891
 31
0.0
  0
LINE
  5
141B
330
1F
100
AcDbEntity
  8
Hewi
  6
CUSTOM
 62
    18
420
        0
370
     9
100
AcDbLine
 10
1022.206478685026
 20
719.1597738018352
 30
0.0
 11
1020.703478657071
 21
720.7877738017169
 31
0.0
  0
LWPOLYLINE
  5
141C
330
1F
100
AcDbEntity
  8
Hewi
  6
CUSTOM
 62
    18
420
        0
370
     9
100
AcDbPolyline
 90
       41
 70
     0
 43
0.0
 10
1174.297984257167
 20
775.5121111953668
 10
1064.323989032842
 20
732.5851074280343
 10
1060.450696767524
 20
731.0757099660366
 10
1056.782389899939
 20
729.6461940151385
 10
1054.47723592727
 20
728.7478901130507
 10
1050.262922500273
 20
727.1055988644064
 10
1046.664497018277
 20
725.7033152468384
 10
1043.770475903033
 20
724.5755335492285
 10
1041.649808788321
 20
723.7491230071299
 10
1040.600656252658
 20
723.3402749094128
 10
1040.03135589805
 20
723.1184221672237
 10
1039.922340936527
 20
723.0759397272302
 10
1039.054633954763
 20
722.7936087448288
 10
1036.65344824705
 20
722.5383215578923
 10
1035.824631886835
 20
722.6188785822613
 10
1034.285306198186
 20
723.010694907839
 10
1032.166359182991
 20
724.168318270049
 10
1030.488984634185
 20
725.9058541303828
 10
1029.407385155273
 20
728.0644515324683
 10
1029.191529604221
 20
728.868983912751
 10
1029.018419347636
 20
730.4478874437582
 10
1029.159547976642
 20
732.0301172726739
 10
1029.35765574956
 20
732.8382009797369
 10
1030.395680346248
 20
735.0189391839839
 10
1032.029080637376
 20
736.7845225607781
 10
1034.112776384476
 20
737.9839683747866
 10
1034.357827109945
 20
738.0794630903293
 10
1035.088320527315
 20
738.3641317480631
 10
1035.840244236266
 20
738.6571516546864
 10
1037.960911350978
 20
739.483562196785
 10
1040.854932466221
 20
740.6113438943947
 10
1044.453357948218
 20
742.0136275119638
 10
1048.667671375215
 20
743.6559187606071
 10
1052.170126420997
 20
745.0208033070712
 10
1055.912041681402
 20
746.4790039824091
 10
1058.514424480787
 20
747.4931360755907
 10
1168.816135248258
 20
790.4770141002891
 10
1174.168260342945
 20
793.0993276974257
 10
1178.284641346463
 20
796.4002614912232
 10
1180.039778519034
 20
798.1564027786717
 10
1181.558930460405
 20
799.959031198211
  0
LINE
  5
141D
330
1F
100
AcDbEntity
  8
Hewi
  6
CUSTOM
 62
    18
420
        0
370
     9
100
AcDbLine
 10
1023.39001215025
 20
724.1710319879903
 30
0.0
 11
1023.371001122081
 21
724.2034666561702
 31
0.0
  0
LWPOLYLINE
  5
141E
330
1F
100
AcDbEntity
  8
Hewi
  6
CUSTOM
 62
    18
420
        0
370
     9
100
AcDbPolyline
 90
        3
 70
     0
 43
0.0
 10
1057.017479332489
 20
729.7378074610015
 10
1057.017479332489
 20
726.0327738013358
 10
1056.718479326928
 20
723.7317738015026
  0
LWPOLYLINE
  5
141F
330
1F
100
AcDbEntity
  8
Hewi
  6
CUSTOM
 62
    18
420
        0
370
     9
100
AcDbPolyline
 90
        3
 70
     0
 43
0.0
 10
1020.703478657071
 20
720.7877738017169
 10
1020.353478650561
 20
721.3137738016794
 10
1019.922478642542
 20
722.0987738016218
  0
LINE
  5
1420
330
1F
100
AcDbEntity
  8
Hewi
  6
CUSTOM
 62
    18
420
        0
370
     9
100
AcDbLine
 10
1019.922478642542
 20
722.0987738016218
 30
0.0
 11
1019.265478630323
 21
723.9347738014885
 31
0.0
  0
LWPOLYLINE
  5
1421
330
1F
100
AcDbEntity
  8
Hewi
  6
CUSTOM
 62
    18
420
        0
370
     9
100
AcDbPolyline
 90
        3
 70
     0
 43
0.0
 10
1022.206478685026
 20
719.1597738018352
 10
1022.26647868614
 20
719.1097738018386
 10
1024.053478719381
 20
717.9527738019222
  0
LWPOLYLINE
  5
1422
330
1F
100
AcDbEntity
  8
Hewi
  6
CUSTOM
 62
    18
420
        0
370
     9
100
AcDbPolyline
 90
        3
 70
     0
 43
0.0
 10
1019.265478630323
 20
723.9347738014885
 10
1019.358478632051
 20
723.5807738015138
 10
1019.922478642542
 20
722.0987738016218
  0
LINE
  5
1423
330
1F
100
AcDbEntity
  8
Hewi
  6
CUSTOM
 62
    18
420
        0
370
     9
100
AcDbLine
 10
1052.306998619488
 20
723.4825900980977
 30
0.0
 11
1052.281984961575
 21
723.4255969545436
 31
0.0
  0
LINE
  5
1424
330
1F
100
AcDbEntity
  8
Hewi
  6
CUSTOM
 62
    18
420
        0
370
     9
100
AcDbLine
 10
1020.703478657071
 20
720.7877738017169
 30
0.0
 11
1019.922478642542
 21
722.0987738016218
 31
0.0
  0
LWPOLYLINE
  5
1425
330
1F
100
AcDbEntity
  8
Hewi
  6
CUSTOM
 62
    18
420
        0
370
     9
100
AcDbPolyline
 90
        3
 70
     0
 43
0.0
 10
1025.982478755255
 20
717.2657738019734
 10
1024.784478732972
 20
717.6337738019456
 10
1024.529478266411
 20
717.7832498470669
  0
LINE
  5
1426
330
1F
100
AcDbEntity
  8
Hewi
  6
CUSTOM
 62
    18
420
        0
370
     9
100
AcDbLine
 10
1025.982478755255
 20
717.2657738019734
 30
0.0
 11
1024.053478719381
 21
717.9527738019222
 31
0.0
  0
LINE
  5
1427
330
1F
100
AcDbEntity
  8
Hewi
  6
CUSTOM
 62
    18
420
        0
370
     9
100
AcDbLine
 10
1024.053478719381
 20
717.9527738019222
 30
0.0
 11
1022.206478685026
 21
719.1597738018352
 31
0.0
  0
LINE
  5
1428
330
1F
100
AcDbEntity
  8
Hewi
  6
CUSTOM
 62
    18
420
        0
370
     9
100
AcDbLine
 10
1174.950546625534
 20
775.8039743213283
 30
0.0
 11
1174.297984257167
 21
775.5121111953668
 31
0.0
  0
LINE
  5
1429
330
1F
100
AcDbEntity
  8
Hewi
  6
CUSTOM
 62
    18
420
        0
370
     9
100
AcDbLine
 10
1062.600479436331
 20
978.840773782962
 30
0.0
 11
1061.962479424464
 21
978.1057737830153
 31
0.0
  0
LWPOLYLINE
  5
142A
330
1F
100
AcDbEntity
  8
Hewi
  6
CUSTOM
 62
    18
420
        0
370
     9
100
AcDbPolyline
 90
        5
 70
     0
 43
0.0
 10
1061.962479424464
 20
978.1057737830153
 10
1061.717479419907
 20
977.6107737830516
 10
1061.630479418292
 20
977.3497737830693
 10
1061.517479416188
 20
976.5327737831293
 10
1061.517479416188
 20
969.5327737836377
  0
LWPOLYLINE
  5
142B
330
1F
100
AcDbEntity
  8
Hewi
  6
CUSTOM
 62
    18
420
        0
370
     9
100
AcDbPolyline
 90
       37
 70
     0
 43
0.0
 10
1061.517479416188
 20
969.5327737836377
 10
1399.017485693517
 20
969.5327737836377
 10
1402.218485753057
 20
969.5327737836377
 10
1405.110485806845
 20
969.5327737836377
 10
1407.818485857211
 20
969.5327737836377
 10
1409.493485888366
 20
969.5327737836377
 10
1411.535485926348
 20
969.5327737836377
 10
1412.590485945968
 20
969.5327737836377
 10
1414.327485978274
 20
969.5327737836377
 10
1415.659486003051
 20
969.5327737836377
 10
1416.674486021931
 20
969.5327737836377
 10
1417.017486028306
 20
969.5327737836377
 10
1418.09548604836
 20
969.7327737836239
 10
1418.934486063963
 20
970.2247737835888
 10
1419.572486075833
 20
970.9597737835347
 10
1419.903486081986
 20
971.7157737834803
 10
1420.017486084105
 20
972.5327737834204
 10
1420.017486084105
 20
976.5327737831293
 10
1419.817486080386
 20
977.6107737830516
 10
1419.325486071235
 20
978.4497737829907
 10
1418.590486057566
 20
979.0877737829442
 10
1417.834486043501
 20
979.4187737829195
 10
1417.017486028306
 20
979.5327737829119
 10
1416.669486021839
 20
979.5327737829119
 10
1415.640486002698
 20
979.5327737829119
 10
1414.095485973963
 20
979.5327737829119
 10
1412.06048593611
 20
979.5327737829119
 10
1409.26848588418
 20
979.5327737829119
 10
1406.081485824901
 20
979.5327737829119
 10
1403.789485782274
 20
979.5327737829119
 10
1402.43448575707
 20
979.5327737829119
 10
1400.854485727685
 20
979.5327737829119
 10
1399.017485693517
 20
979.5327737829119
 10
1064.517479471988
 20
979.5327737829119
 10
1063.700479456793
 20
979.4187737829195
 10
1063.439479451937
 20
979.3327737829267
 10
1062.600479436331
 20
978.840773782962
  0
LWPOLYLINE
  5
142C
330
1F
100
AcDbEntity
  8
Hewi
  6
CUSTOM
 62
    18
420
        0
370
     9
100
AcDbPolyline
 90
        3
 70
     0
 43
0.0
 10
1061.717479419907
 20
969.7327737836239
 10
1061.520479416244
 20
969.5357737836383
 10
1061.517479416188
 20
969.5327737836377
  0
LINE
  5
142D
330
1F
100
AcDbEntity
  8
Hewi
  6
CUSTOM
 62
    18
420
        0
370
     9
100
AcDbLine
 10
1174.950546625534
 20
775.8039743213283
 30
0.0
 11
1177.137715610219
 21
776.9008038687334
 31
0.0
  0
LINE
  5
142E
330
1F
100
AcDbEntity
  8
Hewi
  6
CUSTOM
 62
    18
420
        0
370
     9
100
AcDbLine
 10
1293.711580239242
 20
943.5327750035719
 30
0.0
 11
1181.558930460405
 21
799.959031198211
 31
0.0
  0
LWPOLYLINE
  5
142F
330
1F
100
AcDbEntity
  8
Hewi
  6
CUSTOM
 62
    18
420
        0
370
     9
100
AcDbPolyline
 90
        3
 70
     0
 43
0.0
 10
1185.346936092055
 20
781.7708566026595
 10
1188.31661876408
 20
783.9179321950796
 10
1188.845130038202
 20
784.4403689641129
  0
LINE
  5
1430
330
1F
100
AcDbEntity
  8
Hewi
  6
CUSTOM
 62
    18
420
        0
370
     9
100
AcDbLine
 10
1173.253961562355
 20
792.651360192235
 30
0.0
 11
1175.381818209747
 21
794.0724820836793
 31
0.0
  0
LWPOLYLINE
  5
1431
330
1F
100
AcDbEntity
  8
Hewi
  6
CUSTOM
 62
    18
420
        0
370
     9
100
AcDbPolyline
 90
        3
 70
     0
 43
0.0
 10
1063.24918813642
 20
979.2211845973977
 10
1062.944479442731
 20
979.0877737829442
 10
1062.600479436331
 20
978.840773782962
  0
LWPOLYLINE
  5
1432
330
1F
100
AcDbEntity
  8
Hewi
  6
CUSTOM
 62
    18
420
        0
370
     9
100
AcDbPolyline
 90
        3
 70
     0
 43
0.0
 10
1061.717479419907
 20
969.7327737836239
 10
1062.209479429062
 20
970.2247737835888
 10
1063.24247944827
 20
971.2577737835136
  0
LINE
  5
1433
330
1F
100
AcDbEntity
  8
Hewi
  6
CUSTOM
 62
    18
420
        0
370
     9
100
AcDbLine
 10
1181.558930460405
 20
799.959031198211
 30
0.0
 11
1178.282679039677
 21
796.3986879323456
 31
0.0
  0
LWPOLYLINE
  5
1434
330
1F
100
AcDbEntity
  8
Hewi
  6
CUSTOM
 62
    18
420
        0
370
     9
100
AcDbPolyline
 90
        3
 70
     0
 43
0.0
 10
1062.41879115264
 20
978.6314620512222
 10
1062.209479429062
 20
978.4497737829907
 10
1061.962479424464
 20
978.1057737830153
  0
LINE
  5
1435
330
1F
100
AcDbEntity
  8
Hewi
  6
CUSTOM
 62
    18
420
        0
370
     9
100
AcDbLine
 10
1061.517479416188
 20
969.5327737836377
 30
0.0
 11
1061.717479419907
 21
969.7327737836239
 31
0.0
  0
LINE
  5
1493
330
1F
100
AcDbEntity
  8
Hewi
  6
CUSTOM
 62
    18
420
        0
370
     9
100
AcDbLine
 10
178.8225043449474
 20
434.7440054632206
 30
0.0
 11
706.8225034883414
 21
434.7440054632206
 31
0.0
  0
LINE
  5
1494
330
1F
100
AcDbEntity
  8
Hewi
  6
CUSTOM
 62
    18
420
        0
370
     9
100
AcDbLine
 10
694.8225040594096
 20
434.7440054632206
 30
0.0
 11
695.6395040205296
 21
434.6310054685981
 31
0.0
  0
LINE
  5
1495
330
1F
100
AcDbEntity
  8
Hewi
  6
CUSTOM
 62
    18
420
        0
370
     9
100
AcDbLine
 10
695.6395040205296
 20
434.6310054685981
 30
0.0
 11
696.3955039845513
 21
434.2990054843967
 31
0.0
  0
LINE
  5
1496
330
1F
100
AcDbEntity
  8
Hewi
  6
CUSTOM
 62
    18
420
        0
370
     9
100
AcDbLine
 10
696.3955039845513
 20
434.2990054843967
 30
0.0
 11
697.1305039495726
 21
433.6610055147583
 31
0.0
  0
LINE
  5
1497
330
1F
100
AcDbEntity
  8
Hewi
  6
CUSTOM
 62
    18
420
        0
370
     9
100
AcDbLine
 10
697.1305039495726
 20
433.6610055147583
 30
0.0
 11
697.6225039261606
 21
432.8220055546863
 31
0.0
  0
LINE
  5
1498
330
1F
100
AcDbEntity
  8
Hewi
  6
CUSTOM
 62
    18
420
        0
370
     9
100
AcDbLine
 10
697.6225039261606
 20
432.8220055546863
 30
0.0
 11
697.8225039166409
 21
431.7440056059877
 31
0.0
  0
LINE
  5
1499
330
1F
100
AcDbEntity
  8
Hewi
  6
CUSTOM
 62
    18
420
        0
370
     9
100
AcDbLine
 10
697.8225039166409
 20
431.7440056059877
 30
0.0
 11
697.8225039166409
 21
97.24402152458242
 31
0.0
  0
LINE
  5
149A
330
1F
100
AcDbEntity
  8
Hewi
  6
CUSTOM
 62
    18
420
        0
370
     9
100
AcDbLine
 10
697.8225039166409
 20
97.24402152458242
 30
0.0
 11
697.0275039544739
 21
91.52202179688719
 31
0.0
  0
LINE
  5
149B
330
1F
100
AcDbEntity
  8
Hewi
  6
CUSTOM
 62
    18
420
        0
370
     9
100
AcDbLine
 10
697.0275039544739
 20
91.52202179688719
 30
0.0
 11
694.7045040650245
 21
86.23302204858644
 31
0.0
  0
LINE
  5
149C
330
1F
100
AcDbEntity
  8
Hewi
  6
CUSTOM
 62
    18
420
        0
370
     9
100
AcDbLine
 10
694.7045040650245
 20
86.23302204858644
 30
0.0
 11
692.6825041612519
 21
83.48002217959949
 31
0.0
  0
LINE
  5
149D
330
1F
100
AcDbEntity
  8
Hewi
  6
CUSTOM
 62
    18
420
        0
370
     9
100
AcDbLine
 10
692.6825041612519
 20
83.48002217959949
 30
0.0
 11
690.2405042774644
 21
81.0900222933378
 31
0.0
  0
LINE
  5
149E
330
1F
100
AcDbEntity
  8
Hewi
  6
CUSTOM
 62
    18
420
        0
370
     9
100
AcDbLine
 10
690.2405042774644
 20
81.0900222933378
 30
0.0
 11
687.4445044105214
 21
79.12802238670792
 31
0.0
  0
LINE
  5
149F
330
1F
100
AcDbEntity
  8
Hewi
  6
CUSTOM
 62
    18
420
        0
370
     9
100
AcDbLine
 10
687.4445044105214
 20
79.12802238670792
 30
0.0
 11
684.3665045570031
 21
77.64602245723472
 31
0.0
  0
LINE
  5
14A0
330
1F
100
AcDbEntity
  8
Hewi
  6
CUSTOM
 62
    18
420
        0
370
     9
100
AcDbLine
 10
684.3665045570031
 20
77.64602245723472
 30
0.0
 11
681.0885047129977
 21
76.68202250311058
 31
0.0
  0
LINE
  5
14A1
330
1F
100
AcDbEntity
  8
Hewi
  6
CUSTOM
 62
    18
420
        0
370
     9
100
AcDbLine
 10
681.0885047129977
 20
76.68202250311058
 30
0.0
 11
677.6985048743281
 21
76.26202252309849
 31
0.0
  0
LINE
  5
14A2
330
1F
100
AcDbEntity
  8
Hewi
  6
CUSTOM
 62
    18
420
        0
370
     9
100
AcDbLine
 10
677.6985048743281
 20
76.26202252309849
 30
0.0
 11
676.8225049160156
 21
76.24402252395521
 31
0.0
  0
LINE
  5
14A3
330
1F
100
AcDbEntity
  8
Hewi
  6
CUSTOM
 62
    18
420
        0
370
     9
100
AcDbLine
 10
676.8225049160151
 20
76.24402252395521
 30
0.0
 11
208.8225029172663
 21
76.24402252395521
 31
0.0
  0
LINE
  5
14A4
330
1F
100
AcDbEntity
  8
Hewi
  6
CUSTOM
 62
    18
420
        0
370
     9
100
AcDbLine
 10
208.8225029172663
 20
76.24402252395521
 30
0.0
 11
203.1005031895748
 21
77.03902248612212
 31
0.0
  0
LINE
  5
14A5
330
1F
100
AcDbEntity
  8
Hewi
  6
CUSTOM
 62
    18
420
        0
370
     9
100
AcDbLine
 10
203.1005031895748
 20
77.03902248612212
 30
0.0
 11
197.8115034412749
 21
79.36202237557245
 31
0.0
  0
LINE
  5
14A6
330
1F
100
AcDbEntity
  8
Hewi
  6
CUSTOM
 62
    18
420
        0
370
     9
100
AcDbLine
 10
197.8115034412749
 20
79.36202237557245
 30
0.0
 11
195.0585035722852
 21
81.38402227934694
 31
0.0
  0
LINE
  5
14A7
330
1F
100
AcDbEntity
  8
Hewi
  6
CUSTOM
 62
    18
420
        0
370
     9
100
AcDbLine
 10
195.0585035722852
 20
81.38402227934694
 30
0.0
 11
192.6685036860271
 21
83.82602216313353
 31
0.0
  0
LINE
  5
14A8
330
1F
100
AcDbEntity
  8
Hewi
  6
CUSTOM
 62
    18
420
        0
370
     9
100
AcDbLine
 10
192.6685036860271
 20
83.82602216313353
 30
0.0
 11
190.7065037793963
 21
86.6220220300738
 31
0.0
  0
LINE
  5
14A9
330
1F
100
AcDbEntity
  8
Hewi
  6
CUSTOM
 62
    18
420
        0
370
     9
100
AcDbLine
 10
190.7065037793963
 20
86.6220220300738
 30
0.0
 11
189.2245038499222
 21
89.70002188359467
 31
0.0
  0
LINE
  5
14AA
330
1F
100
AcDbEntity
  8
Hewi
  6
CUSTOM
 62
    18
420
        0
370
     9
100
AcDbLine
 10
189.2245038499222
 20
89.70002188359467
 30
0.0
 11
188.2605038957972
 21
92.97802172759748
 31
0.0
  0
LINE
  5
14AB
330
1F
100
AcDbEntity
  8
Hewi
  6
CUSTOM
 62
    18
420
        0
370
     9
100
AcDbLine
 10
188.2605038957972
 20
92.97802172759748
 30
0.0
 11
187.840503915786
 21
96.36802156626982
 31
0.0
  0
LINE
  5
14AC
330
1F
100
AcDbEntity
  8
Hewi
  6
CUSTOM
 62
    18
420
        0
370
     9
100
AcDbLine
 10
187.840503915786
 20
96.36802156626982
 30
0.0
 11
187.8225039166409
 21
97.24402152458242
 31
0.0
  0
LINE
  5
14AD
330
1F
100
AcDbEntity
  8
Hewi
  6
CUSTOM
 62
    18
420
        0
370
     9
100
AcDbLine
 10
187.8225039166409
 20
97.24402152458242
 30
0.0
 11
187.8225039166409
 21
431.7440056059877
 31
0.0
  0
LINE
  5
14AE
330
1F
100
AcDbEntity
  8
Hewi
  6
CUSTOM
 62
    18
420
        0
370
     9
100
AcDbLine
 10
187.8225039166409
 20
431.7440056059877
 30
0.0
 11
187.9365039112181
 21
432.5610055671075
 31
0.0
  0
LINE
  5
14AF
330
1F
100
AcDbEntity
  8
Hewi
  6
CUSTOM
 62
    18
420
        0
370
     9
100
AcDbLine
 10
187.9365039112181
 20
432.5610055671075
 30
0.0
 11
188.1065039031254
 21
433.0190055453113
 31
0.0
  0
LINE
  5
14B0
330
1F
100
AcDbEntity
  8
Hewi
  6
CUSTOM
 62
    18
420
        0
370
     9
100
AcDbLine
 10
188.1065039031254
 20
433.0190055453113
 30
0.0
 11
188.2675038954676
 21
433.3170055311293
 31
0.0
  0
LINE
  5
14B1
330
1F
100
AcDbEntity
  8
Hewi
  6
CUSTOM
 62
    18
420
        0
370
     9
100
AcDbLine
 10
188.2675038954676
 20
433.3170055311293
 30
0.0
 11
188.905503865104
 21
434.0520054961507
 31
0.0
  0
LINE
  5
14B2
330
1F
100
AcDbEntity
  8
Hewi
  6
CUSTOM
 62
    18
420
        0
370
     9
100
AcDbLine
 10
188.905503865104
 20
434.0520054961507
 30
0.0
 11
189.7445038251771
 21
434.5440054727378
 31
0.0
  0
LWPOLYLINE
  5
14B3
330
1F
100
AcDbEntity
  8
Hewi
100
AcDbPolyline
 90
        2
 70
     0
 43
0.0
 10
208.8225029172663
 20
76.24402252395521
 10
676.8225049160156
 20
76.24402252395521
  0
LWPOLYLINE
  5
1598
330
1F
100
AcDbEntity
  8
Hewi
  6
CUSTOM
 62
    18
420
        0
370
     9
100
AcDbPolyline
 90
       12
 70
     0
 43
0.0
 10
697.1305028447477
 20
978.4497737829907
 10
697.6225028538955
 20
977.6107737830516
 10
697.7815028568564
 20
977.0257737830938
 10
697.8225028576142
 20
976.5327737831293
 10
697.8225028576142
 20
972.5327737834204
 10
697.7085028554991
 20
971.7157737834796
 10
697.3775028493419
 20
970.9597737835347
 10
697.1305028447477
 20
970.6157737835596
 10
696.7395028374721
 20
970.2247737835888
 10
696.3955028310755
 20
969.9777737836059
 10
695.9005028218689
 20
969.7327737836239
 10
694.822502801815
 20
969.5327737836382
  0
LWPOLYLINE
  5
159B
330
1F
100
AcDbEntity
  8
Hewi
  6
CUSTOM
 62
    18
420
        0
370
     9
100
AcDbPolyline
 90
        3
 70
     0
 43
0.0
 10
697.5278188346875
 20
977.7722369781551
 10
697.4685028510339
 20
977.9467737830268
 10
697.1305028447477
 20
978.4497737829907
  0
LWPOLYLINE
  5
159C
330
1F
100
AcDbEntity
  8
Hewi
  6
CUSTOM
 62
    18
420
        0
370
     9
100
AcDbPolyline
 90
        3
 70
     0
 43
0.0
 10
696.3955028310755
 20
979.0877737829442
 10
696.8765028400248
 20
978.7187737829707
 10
696.9877829066772
 20
978.5736585636268
  0
LINE
  5
159D
330
1F
100
AcDbEntity
  8
Hewi
  6
CUSTOM
 62
    18
420
        0
370
     9
100
AcDbLine
 10
696.3955028310755
 20
979.0877737829442
 30
0.0
 11
697.1305028447477
 21
978.4497737829907
 31
0.0
  0
LWPOLYLINE
  5
159E
330
1F
100
AcDbEntity
  8
Hewi
  6
CUSTOM
 62
    18
420
        0
370
     9
100
AcDbPolyline
 90
        3
 70
     0
 43
0.0
 10
696.0747645510146
 20
979.2282028443468
 10
695.927502822369
 20
979.3217737829273
 10
695.6395028170171
 20
979.4187737829195
  0
LWPOLYLINE
  5
159F
330
1F
100
AcDbEntity
  8
Hewi
  6
CUSTOM
 62
    18
420
        0
370
     9
100
AcDbPolyline
 90
        3
 70
     0
 43
0.0
 10
189.7445050114129
 20
969.7327737836239
 10
190.6975050291348
 20
969.5357737836379
 10
190.8225050314595
 20
969.5327737836382
  0
LINE
  5
15A0
330
1F
100
AcDbEntity
  8
Hewi
  6
CUSTOM
 62
    18
420
        0
370
     9
100
AcDbLine
 10
190.8225050314595
 20
969.5327737836382
 30
0.0
 11
189.7445050114129
 21
969.7327737836239
 31
0.0
  0
LWPOLYLINE
  5
15A1
330
1F
100
AcDbEntity
  8
Hewi
  6
CUSTOM
 62
    18
420
        0
370
     9
100
AcDbPolyline
 90
        3
 70
     0
 43
0.0
 10
695.7898315448528
 20
969.7122410789743
 10
695.640502817032
 20
969.64677378363
 10
694.822502801815
 20
969.5327737836382
  0
LINE
  5
15A2
330
1F
100
AcDbEntity
  8
Hewi
  6
CUSTOM
 62
    18
420
        0
370
     9
100
AcDbLine
 10
695.3791281898171
 20
979.5327737829119
 30
0.0
 11
696.3955028310755
 21
979.0877737829442
 31
0.0
  0
LWPOLYLINE
  5
15A4
330
1F
100
AcDbEntity
  8
Hewi
  6
CUSTOM
 62
    18
420
        0
370
     9
100
AcDbPolyline
 90
        3
 70
     0
 43
0.0
 10
184.0488103124716
 20
967.0187737838213
 10
184.1539207614278
 20
968.2827737837293
 10
184.2294080448318
 20
968.7917737836922
  0
LINE
  5
15A5
330
1F
100
AcDbEntity
  8
Hewi
  6
CUSTOM
 62
    18
420
        0
370
     9
100
AcDbLine
 10
192.8552614412674
 20
961.9027737841923
 30
0.0
 11
192.8177663855731
 21
959.2847737843833
 31
0.0
  0
LWPOLYLINE
  5
15A6
330
1F
100
AcDbEntity
  8
Hewi
  6
CUSTOM
 62
    18
420
        0
370
     9
100
AcDbPolyline
 90
        5
 70
     0
 43
0.0
 10
193.8225050870951
 20
968.5302995916361
 10
193.3670171627873
 20
968.9877737836786
 10
184.385602917735
 20
968.9627737836799
 10
183.8527633148241
 20
968.5217737837119
 10
183.8225048999902
 20
968.473869337054
  0
LWPOLYLINE
  5
15A7
330
1F
100
AcDbEntity
  8
Hewi
  6
CUSTOM
 62
    18
420
        0
370
     9
100
AcDbPolyline
 90
        5
 70
     0
 43
0.0
 10
193.8225050864475
 20
944.5232810947922
 10
193.3778720849859
 20
944.1027737854865
 10
184.3747479955327
 20
944.0777737854887
 10
184.257373970353
 20
944.1587737854824
 10
183.8225049041557
 20
944.5811056890287
  0
LWPOLYLINE
  5
15A8
330
1F
100
AcDbEntity
  8
Hewi
  6
CUSTOM
 62
    18
420
        0
370
     9
100
AcDbPolyline
 90
        3
 70
     0
 43
0.0
 10
697.6432938365306
 20
971.5668371777988
 10
697.6225028538955
 20
971.454773783499
 10
697.510913662054
 20
971.2644824619369
  0
LINE
  5
15A9
330
1F
100
AcDbEntity
  8
Hewi
  6
CUSTOM
 62
    18
420
        0
370
     9
100
AcDbLine
 10
193.47096304572
 20
965.0177737839667
 30
0.0
 11
193.5553579942916
 21
966.6537737838476
 31
0.0
  0
LINE
  5
15AA
330
1F
100
AcDbEntity
  8
Hewi
  6
CUSTOM
 62
    18
420
        0
370
     9
100
AcDbLine
 10
193.4559650234386
 20
948.4257737851722
 30
0.0
 11
193.3919541272498
 21
950.5327737850192
 31
0.0
  0
LINE
  5
15AB
330
1F
100
AcDbEntity
  8
Hewi
  6
CUSTOM
 62
    18
420
        0
370
     9
100
AcDbLine
 10
193.6322539317243
 20
945.4457737853893
 30
0.0
 11
193.5373355089524
 21
946.7027737852976
 31
0.0
  0
LINE
  5
15AC
330
1F
100
AcDbEntity
  8
Hewi
  6
CUSTOM
 62
    18
420
        0
370
     9
100
AcDbLine
 10
184.1437287352364
 20
944.8757737854302
 30
0.0
 11
184.0730060169244
 21
945.6897737853715
 31
0.0
  0
LWPOLYLINE
  5
15AD
330
1F
100
AcDbEntity
  8
Hewi
  6
CUSTOM
 62
    18
420
        0
370
     9
100
AcDbPolyline
 90
       11
 70
     0
 43
0.0
 10
178.8225048082658
 20
969.0327737836751
 10
173.8225047152646
 20
969.0327737836751
 10
171.8225046780699
 20
967.0227737838207
 10
171.8225046780699
 20
966.8727737838317
 10
171.8225046780699
 20
966.2337737838781
 10
171.8225046780699
 20
965.1337737839579
 10
171.8225046780699
 20
963.6267737840677
 10
171.8225046780699
 20
961.7827737842016
 10
171.8225046780699
 20
959.6897737843535
 10
171.8225046780699
 20
957.4477737845167
 10
171.8225046780699
 20
956.533773784583
  0
LINE
  5
15AE
330
1F
100
AcDbEntity
  8
Hewi
  6
CUSTOM
 62
    18
420
        0
370
     9
100
AcDbLine
 10
178.8225048082658
 20
959.2507737843853
 30
0.0
 11
178.8225048082658
 21
960.395773784303
 31
0.0
  0
LINE
  5
15AF
330
1F
100
AcDbEntity
  8
Hewi
  6
CUSTOM
 62
    18
420
        0
370
     9
100
AcDbLine
 10
193.135997902491
 20
968.1897737837363
 30
0.0
 11
193.0652751841753
 21
967.3757737837954
 31
0.0
  0
LWPOLYLINE
  5
15B0
330
1F
100
AcDbEntity
  8
Hewi
  6
CUSTOM
 62
    18
420
        0
370
     9
100
AcDbPolyline
 90
        3
 70
     0
 43
0.0
 10
193.3253330780116
 20
956.5327737845835
 10
193.3349036391937
 20
958.8737737844128
 10
193.3631595817187
 20
961.1247737842495
  0
LWPOLYLINE
  5
15B1
330
1F
100
AcDbEntity
  8
Hewi
  6
CUSTOM
 62
    18
420
        0
370
     9
100
AcDbPolyline
 90
        3
 70
     0
 43
0.0
 10
193.0410794797262
 20
946.0467737853456
 10
193.1461899286787
 20
944.7827737854373
 10
193.2216772120864
 20
944.2737737854743
  0
LINE
  5
15B2
330
1F
100
AcDbEntity
  8
Hewi
  6
CUSTOM
 62
    18
420
        0
370
     9
100
AcDbLine
 10
183.8629922740165
 20
951.1627737849735
 30
0.0
 11
183.8254972183222
 21
953.7807737847833
 31
0.0
  0
LINE
  5
15B3
330
1F
100
AcDbEntity
  8
Hewi
  6
CUSTOM
 62
    18
420
        0
370
     9
100
AcDbLine
 10
193.8225050867349
 20
944.578078734497
 30
0.0
 11
193.7361628816561
 21
944.714773785442
 31
0.0
  0
LWPOLYLINE
  5
15B4
330
1F
100
AcDbEntity
  8
Hewi
  6
CUSTOM
 62
    18
420
        0
370
     9
100
AcDbPolyline
 90
        3
 70
     0
 43
0.0
 10
178.8225048082658
 20
948.4837737851679
 10
178.8225048082658
 20
950.1617737850464
 10
178.8225048082658
 20
951.2107737849699
  0
LWPOLYLINE
  5
15B5
330
1F
100
AcDbEntity
  8
Hewi
  6
CUSTOM
 62
    18
420
        0
370
     9
100
AcDbPolyline
 90
        3
 70
     0
 43
0.0
 10
178.8225048082658
 20
965.5717737839266
 10
178.8225048082658
 20
966.8657737838325
 10
178.8225048082658
 20
967.4867737837868
  0
LINE
  5
15B6
330
1F
100
AcDbEntity
  8
Hewi
  6
CUSTOM
 62
    18
420
        0
370
     9
100
AcDbLine
 10
193.3272389040485
 20
955.4867737846596
 30
0.0
 11
193.3253330780116
 21
956.5317737845829
 31
0.0
  0
LINE
  5
15B7
330
1F
100
AcDbEntity
  8
Hewi
  6
CUSTOM
 62
    18
420
        0
370
     9
100
AcDbLine
 10
173.8225047152646
 20
962.1377737841756
 30
0.0
 11
173.8225047152646
 21
965.2167737839516
 31
0.0
  0
LINE
  5
15B8
330
1F
100
AcDbEntity
  8
Hewi
  6
CUSTOM
 62
    18
420
        0
370
     9
100
AcDbLine
 10
173.8225047152646
 20
944.9737737854233
 30
0.0
 11
173.8225047152646
 21
945.6897737853715
 31
0.0
  0
LWPOLYLINE
  5
15B9
330
1F
100
AcDbEntity
  8
Hewi
  6
CUSTOM
 62
    18
420
        0
370
     9
100
AcDbPolyline
 90
       21
 70
     0
 43
0.0
 10
706.8225030250123
 20
944.0327737854918
 10
711.82250311801
 20
944.0327737854918
 10
713.8225031552119
 20
946.0427737853452
 10
713.8225031552119
 20
946.1927737853347
 10
713.8225031552119
 20
946.8317737852883
 10
713.8225031552119
 20
947.9317737852083
 10
713.8225031552119
 20
949.4387737850987
 10
713.8225031552119
 20
951.2827737849647
 10
713.8225031552119
 20
953.3757737848127
 10
713.8225031552119
 20
955.6177737846493
 10
713.8225031552119
 20
956.5317737845829
 10
713.8225031552119
 20
956.5327737845835
 10
713.8225031552119
 20
958.5207737844383
 10
713.8225031552119
 20
960.4127737843013
 10
713.8225031552119
 20
962.374773784159
 10
713.8225031552119
 20
963.9577737840435
 10
713.8225031552119
 20
965.3887737839395
 10
713.8225031552119
 20
966.3997737838665
 10
713.8225031552119
 20
966.9427737838267
 10
713.8225031552119
 20
966.9927737838229
 10
711.82250311801
 20
969.0327737836751
  0
LINE
  5
15BA
330
1F
100
AcDbEntity
  8
Hewi
  6
CUSTOM
 62
    18
420
        0
370
     9
100
AcDbLine
 10
665.3045022527966
 20
909.2687737880183
 30
0.0
 11
663.9295022272254
 21
909.9547737879683
 31
0.0
  0
LWPOLYLINE
  5
15BB
330
1F
100
AcDbEntity
  8
Hewi
  6
CUSTOM
 62
    18
420
        0
370
     9
100
AcDbPolyline
 90
        4
 70
     0
 43
0.0
 10
662.6875022041258
 20
911.2207737878762
 10
662.5645022018342
 20
911.4107737878626
 10
662.0115021915499
 20
912.6707737877707
 10
661.9645021906781
 20
912.8487737877579
  0
LWPOLYLINE
  5
15BC
330
1F
100
AcDbEntity
  8
Hewi
  6
CUSTOM
 62
    18
420
        0
370
     9
100
AcDbPolyline
 90
        3
 70
     0
 43
0.0
 10
693.793502782677
 20
909.4377737880057
 10
693.1845027713551
 20
909.2217737880217
 10
691.8225027460231
 20
909.0327737880356
  0
LINE
  5
15BD
330
1F
100
AcDbEntity
  8
Hewi
  6
CUSTOM
 62
    18
420
        0
370
     9
100
AcDbLine
 10
711.82250311801
 20
968.0917737837432
 30
0.0
 11
711.82250311801
 21
967.3757737837954
 31
0.0
  0
LWPOLYLINE
  5
15BE
330
1F
100
AcDbEntity
  8
Hewi
  6
CUSTOM
 62
    18
420
        0
370
     9
100
AcDbPolyline
 90
       10
 70
     0
 43
0.0
 10
171.8225046780699
 20
956.5327737845835
 10
171.8225046780699
 20
954.5447737847279
 10
171.8225046780699
 20
952.6527737848653
 10
171.8225046780699
 20
950.6907737850079
 10
171.8225046780699
 20
949.1077737851227
 10
171.8225046780699
 20
947.6767737852267
 10
171.8225046780699
 20
946.6657737852999
 10
171.8225046780699
 20
946.12277378534
 10
171.8225046780699
 20
946.0727737853437
 10
173.8225047152646
 20
944.0327737854918
  0
LINE
  5
15BF
330
1F
100
AcDbEntity
  8
Hewi
  6
CUSTOM
 62
    18
420
        0
370
     9
100
AcDbLine
 10
663.9295022272254
 20
909.9547737879683
 30
0.0
 11
662.6875022041258
 21
911.2207737878762
 31
0.0
  0
LWPOLYLINE
  5
15C0
330
1F
100
AcDbEntity
  8
Hewi
  6
CUSTOM
 62
    18
420
        0
370
     9
100
AcDbPolyline
 90
        3
 70
     0
 43
0.0
 10
696.822502839017
 20
939.0327737858553
 10
696.822502839017
 20
914.0327737876724
 10
696.6885028365268
 20
912.8817737877552
  0
LWPOLYLINE
  5
15C1
330
1F
100
AcDbEntity
  8
Hewi
  6
CUSTOM
 62
    18
420
        0
370
     9
100
AcDbPolyline
 90
        3
 70
     0
 43
0.0
 10
693.793502782677
 20
909.4377737880057
 10
694.4445027947893
 20
909.7747737879815
 10
695.4455028134051
 20
910.5867737879226
  0
LINE
  5
15C2
330
1F
100
AcDbEntity
  8
Hewi
  6
CUSTOM
 62
    18
420
        0
370
     9
100
AcDbLine
 10
695.4455028134051
 20
910.5867737879226
 30
0.0
 11
693.793502782677
 21
909.4377737880057
 31
0.0
  0
LINE
  5
15C3
330
1F
100
AcDbEntity
  8
Hewi
  6
CUSTOM
 62
    18
420
        0
370
     9
100
AcDbLine
 10
711.82250311801
 20
969.0327737836751
 30
0.0
 11
711.82250311801
 21
968.7947737836919
 31
0.0
  0
LWPOLYLINE
  5
15C4
330
1F
100
AcDbEntity
  8
Hewi
  6
CUSTOM
 62
    18
420
        0
370
     9
100
AcDbPolyline
 90
        3
 70
     0
 43
0.0
 10
706.8225030250123
 20
964.5817737839983
 10
706.8225030250123
 20
962.9037737841199
 10
706.8225030250123
 20
961.8547737841968
  0
LINE
  5
15C5
330
1F
100
AcDbEntity
  8
Hewi
  6
CUSTOM
 62
    18
420
        0
370
     9
100
AcDbLine
 10
706.8225030250123
 20
953.8147737847808
 30
0.0
 11
706.8225030250123
 21
952.6697737848643
 31
0.0
  0
LWPOLYLINE
  5
15C6
330
1F
100
AcDbEntity
  8
Hewi
  6
CUSTOM
 62
    18
420
        0
370
     9
100
AcDbPolyline
 90
        3
 70
     0
 43
0.0
 10
663.0535736162255
 20
910.8476285385366
 10
663.6275022216085
 20
910.1867737879516
 10
663.9295022272254
 20
909.9547737879683
  0
LINE
  5
15C7
330
1F
100
AcDbEntity
  8
Hewi
  6
CUSTOM
 62
    18
420
        0
370
     9
100
AcDbLine
 10
706.8225030250123
 20
969.0327737836751
 30
0.0
 11
711.82250311801
 21
969.0327737836751
 31
0.0
  0
LWPOLYLINE
  5
15C8
330
1F
100
AcDbEntity
  8
Hewi
  6
CUSTOM
 62
    18
420
        0
370
     9
100
AcDbPolyline
 90
        3
 70
     0
 43
0.0
 10
661.9645021906781
 20
912.8487737877579
 10
661.8225021880334
 20
914.0327737876724
 10
661.8225021880334
 20
943.532772474226
  0
LWPOLYLINE
  5
15C9
330
1F
100
AcDbEntity
  8
Hewi
  6
CUSTOM
 62
    18
420
        0
370
     9
100
AcDbPolyline
 90
        3
 70
     0
 43
0.0
 10
691.8225027460231
 20
909.0327737880356
 10
666.8225022810347
 20
909.0327737880356
 10
665.3045022527966
 20
909.2687737880183
  0
LINE
  5
15CA
330
1F
100
AcDbEntity
  8
Hewi
  6
CUSTOM
 62
    18
420
        0
370
     9
100
AcDbLine
 10
693.793502782677
 20
909.4377737880057
 30
0.0
 11
691.8225027460231
 21
909.0327737880356
 31
0.0
  0
LINE
  5
15CB
330
1F
100
AcDbEntity
  8
Hewi
  6
CUSTOM
 62
    18
420
        0
370
     9
100
AcDbLine
 10
173.8225047152646
 20
944.0327737854918
 30
0.0
 11
173.8225047152646
 21
944.2707737854746
 31
0.0
  0
LWPOLYLINE
  5
15CC
330
1F
100
AcDbEntity
  8
Hewi
  6
CUSTOM
 62
    18
420
        0
370
     9
100
AcDbPolyline
 90
        3
 70
     0
 43
0.0
 10
706.8225030250123
 20
947.4937737852403
 10
706.8225030250123
 20
946.1997737853343
 10
706.8225030250123
 20
945.5787737853793
  0
LWPOLYLINE
  5
15CD
330
1F
100
AcDbEntity
  8
Hewi
  6
CUSTOM
 62
    18
420
        0
370
     9
100
AcDbPolyline
 90
        3
 70
     0
 43
0.0
 10
664.5599243596426
 20
909.6402504577795
 10
665.0265022476286
 20
909.3667737880112
 10
665.3045022527966
 20
909.2687737880183
  0
LINE
  5
15CE
330
1F
100
AcDbEntity
  8
Hewi
  6
CUSTOM
 62
    18
420
        0
370
     9
100
AcDbLine
 10
662.6875022041258
 20
911.2207737878762
 30
0.0
 11
661.9645021906781
 21
912.8487737877579
 31
0.0
  0
LINE
  5
15CF
330
1F
100
AcDbEntity
  8
Hewi
  6
CUSTOM
 62
    18
420
        0
370
     9
100
AcDbLine
 10
711.82250311801
 20
950.9277737849906
 30
0.0
 11
711.82250311801
 21
947.8487737852143
 31
0.0
  0
LWPOLYLINE
  5
15D0
330
1F
100
AcDbEntity
  8
Hewi
  6
CUSTOM
 62
    18
420
        0
370
     9
100
AcDbPolyline
 90
        3
 70
     0
 43
0.0
 10
695.4455028134051
 20
910.5867737879226
 10
695.6685028175504
 20
910.837773787904
 10
696.219502827802
 20
911.6517737878448
  0
LWPOLYLINE
  5
15D1
330
1F
100
AcDbEntity
  8
Hewi
  6
CUSTOM
 62
    18
420
        0
370
     9
100
AcDbPolyline
 90
        7
 70
     0
 43
0.0
 10
691.8225021499766
 20
969.0327737836751
 10
696.822502839017
 20
969.0327737836751
 10
698.7935028756784
 20
969.0327737836751
 10
700.4455029064065
 20
969.0327737836751
 10
701.3385029230139
 20
969.0327737836751
 10
701.7825029312752
 20
969.0327737836751
 10
701.8225029320145
 20
969.0327737836751
  0
LINE
  5
15D2
330
1F
100
AcDbEntity
  8
Hewi
  6
CUSTOM
 62
    18
420
        0
370
     9
100
AcDbLine
 10
696.6885028365268
 20
912.8817737877552
 30
0.0
 11
696.219502827802
 21
911.6517737878448
 31
0.0
  0
LINE
  5
15D3
330
1F
100
AcDbEntity
  8
Hewi
  6
CUSTOM
 62
    18
420
        0
370
     9
100
AcDbLine
 10
699.2975028850504
 20
943.3477737855412
 30
0.0
 11
698.0645028621165
 21
942.3247737856156
 31
0.0
  0
LWPOLYLINE
  5
15D4
330
1F
100
AcDbEntity
  8
Hewi
  6
CUSTOM
 62
    18
420
        0
370
     9
100
AcDbPolyline
 90
       18
 70
     0
 43
0.0
 10
701.8225029320145
 20
969.0327737836751
 10
701.8225029320145
 20
968.7637737836944
 10
701.8225029320145
 20
967.9187737837557
 10
701.8225029320145
 20
966.6037737838513
 10
701.8225029320145
 20
964.810773783982
 10
701.8225029320145
 20
962.6437737841392
 10
701.8225029320145
 20
960.3127737843088
 10
701.8225029320145
 20
957.8587737844873
 10
701.8225029320145
 20
956.1917737846084
 10
701.8225029320145
 20
953.9787737847687
 10
701.8225029320145
 20
952.7357737848587
 10
701.8225029320145
 20
951.3527737849594
 10
701.8225029320145
 20
948.9337737851352
 10
701.8225029320145
 20
946.9017737852832
 10
701.8225029320145
 20
945.5717737853799
 10
701.8225029320145
 20
944.6177737854496
 10
701.8225029320145
 20
944.2247737854778
 10
701.8225029320145
 20
944.0327737854918
  0
LINE
  5
15D5
330
1F
100
AcDbEntity
  8
Hewi
  6
CUSTOM
 62
    18
420
        0
370
     9
100
AcDbLine
 10
696.219502827802
 20
911.6517737878448
 30
0.0
 11
695.4455028134051
 21
910.5867737879226
 31
0.0
  0
LINE
  5
15D6
330
1F
100
AcDbEntity
  8
Hewi
  6
CUSTOM
 62
    18
420
        0
370
     9
100
AcDbLine
 10
706.8225030250123
 20
969.0327737836751
 30
0.0
 11
701.8225029320145
 21
969.0327737836751
 31
0.0
  0
LINE
  5
15D7
330
1F
100
AcDbEntity
  8
Hewi
  6
CUSTOM
 62
    18
420
        0
370
     9
100
AcDbLine
 10
706.8225030250123
 20
950.4217737850273
 30
0.0
 11
706.8225030250123
 21
952.7527737848579
 31
0.0
  0
LWPOLYLINE
  5
15D8
330
1F
100
AcDbEntity
  8
Hewi
  6
CUSTOM
 62
    18
420
        0
370
     9
100
AcDbPolyline
 90
        3
 70
     0
 43
0.0
 10
698.0645028621165
 20
942.3247737856156
 10
697.1455028450236
 20
940.7997737857268
 10
696.822502839017
 20
939.0327737858553
  0
LWPOLYLINE
  5
15D9
330
1F
100
AcDbEntity
  8
Hewi
  6
CUSTOM
 62
    18
420
        0
370
     9
100
AcDbPolyline
 90
        3
 70
     0
 43
0.0
 10
696.357046992869
 20
912.0124973041042
 10
696.4885028328044
 20
912.2367737878024
 10
696.6885028365268
 20
912.8817737877552
  0
LWPOLYLINE
  5
15DA
330
1F
100
AcDbEntity
  8
Hewi
  6
CUSTOM
 62
    18
420
        0
370
     9
100
AcDbPolyline
 90
        3
 70
     0
 43
0.0
 10
706.8225030250123
 20
968.4477737837172
 10
706.8225030250123
 20
968.8407737836888
 10
706.8225030250123
 20
969.0327737836751
  0
LINE
  5
15DB
330
1F
100
AcDbEntity
  8
Hewi
  6
CUSTOM
 62
    18
420
        0
370
     9
100
AcDbLine
 10
697.2107560111705
 20
940.9080556981129
 30
0.0
 11
696.822502839017
 21
939.0327737858553
 31
0.0
  0
LWPOLYLINE
  5
15DC
330
1F
100
AcDbEntity
  8
Hewi
  6
CUSTOM
 62
    18
420
        0
370
     9
100
AcDbPolyline
 90
        7
 70
     0
 43
0.0
 10
193.8225052362704
 20
969.0327737836751
 10
188.8225049942611
 20
969.0327737836751
 10
187.0175049606896
 20
969.0327737836751
 10
185.3695049300349
 20
969.0327737836751
 10
184.2485049091865
 20
969.0327737836751
 10
183.8795049023228
 20
969.0327737836751
 10
183.8225049012635
 20
969.0327737836751
  0
LWPOLYLINE
  5
15DD
330
1F
100
AcDbEntity
  8
Hewi
  6
CUSTOM
 62
    18
420
        0
370
     9
100
AcDbPolyline
 90
        5
 70
     0
 43
0.0
 10
188.9645049969021
 20
912.8487737877579
 10
188.8225049942611
 20
914.0327737876724
 10
188.8225049942611
 20
939.0327737858553
 10
188.5025049883097
 20
940.7917737857273
 10
187.5915049713639
 20
942.3127737856166
  0
LINE
  5
15DE
330
1F
100
AcDbEntity
  8
Hewi
  6
CUSTOM
 62
    18
420
        0
370
     9
100
AcDbLine
 10
192.3045050590208
 20
909.2687737880183
 30
0.0
 11
190.9295050334494
 21
909.9547737879683
 31
0.0
  0
LWPOLYLINE
  5
15DF
330
1F
100
AcDbEntity
  8
Hewi
  6
CUSTOM
 62
    18
420
        0
370
     9
100
AcDbPolyline
 90
        4
 70
     0
 43
0.0
 10
188.9645049969021
 20
912.8487737877579
 10
189.0115049977775
 20
912.6707737877707
 10
189.564505008062
 20
911.4107737878626
 10
189.6875050103499
 20
911.2207737878762
  0
LWPOLYLINE
  5
15E0
330
1F
100
AcDbEntity
  8
Hewi
  6
CUSTOM
 62
    18
420
        0
370
     9
100
AcDbPolyline
 90
        4
 70
     0
 43
0.0
 10
706.8225030250123
 20
956.8737737845586
 10
706.8225030250123
 20
959.0867737843975
 10
706.8225030250123
 20
960.3297737843073
 10
706.8225030250123
 20
961.712773784207
  0
LINE
  5
15E1
330
1F
100
AcDbEntity
  8
Hewi
  6
CUSTOM
 62
    18
420
        0
370
     9
100
AcDbLine
 10
701.8225029320145
 20
944.0327737854918
 30
0.0
 11
706.8225030250123
 21
944.0327737854918
 31
0.0
  0
LWPOLYLINE
  5
15E2
330
1F
100
AcDbEntity
  8
Hewi
  6
CUSTOM
 62
    18
420
        0
370
     9
100
AcDbPolyline
 90
        3
 70
     0
 43
0.0
 10
706.8225030250123
 20
944.0327737854918
 10
706.8225030250123
 20
944.3017737854718
 10
706.8225030250123
 20
945.1467737854107
  0
LWPOLYLINE
  5
15E3
330
1F
100
AcDbEntity
  8
Hewi
  6
CUSTOM
 62
    18
420
        0
370
     9
100
AcDbPolyline
 90
        4
 70
     0
 43
0.0
 10
701.8225029320145
 20
944.0327737854918
 10
701.4935029258939
 20
944.0237737854923
 10
700.5365029080985
 20
943.8627737855041
 10
699.2975028850504
 20
943.3477737855412
  0
LINE
  5
15E4
330
1F
100
AcDbEntity
  8
Hewi
  6
CUSTOM
 62
    18
420
        0
370
     9
100
AcDbLine
 10
699.2975028850504
 20
943.3477737855412
 30
0.0
 11
701.8225029320145
 21
944.0327737854918
 31
0.0
  0
LINE
  5
15E5
330
1F
100
AcDbEntity
  8
Hewi
  6
CUSTOM
 62
    18
420
        0
370
     9
100
AcDbLine
 10
698.2238750609813
 20
942.4531135091338
 30
0.0
 11
697.5196168778766
 21
941.420583238275
 31
0.0
  0
LWPOLYLINE
  5
15E6
330
1F
100
AcDbEntity
  8
Hewi
  6
CUSTOM
 62
    18
420
        0
370
     9
100
AcDbPolyline
 90
        3
 70
     0
 43
0.0
 10
218.822505552247
 20
909.0327737880356
 10
193.8225050872588
 20
909.0327737880356
 10
192.3045050590208
 20
909.2687737880183
  0
LWPOLYLINE
  5
15E7
330
1F
100
AcDbEntity
  8
Hewi
  6
CUSTOM
 62
    18
420
        0
370
     9
100
AcDbPolyline
 90
        3
 70
     0
 43
0.0
 10
191.5599271658666
 20
909.6402504577795
 10
192.0265050538528
 20
909.3667737880112
 10
192.3045050590208
 20
909.2687737880183
  0
LINE
  5
15E8
330
1F
100
AcDbEntity
  8
Hewi
  6
CUSTOM
 62
    18
420
        0
370
     9
100
AcDbLine
 10
699.3538442145781
 20
943.363058462889
 30
0.0
 11
698.0645028621165
 21
942.3247737856156
 31
0.0
  0
LINE
  5
15E9
330
1F
100
AcDbEntity
  8
Hewi
  6
CUSTOM
 62
    18
420
        0
370
     9
100
AcDbLine
 10
189.6875050103499
 20
911.2207737878762
 30
0.0
 11
188.9645049969021
 21
912.8487737877579
 31
0.0
  0
LWPOLYLINE
  5
15EA
330
1F
100
AcDbEntity
  8
Hewi
  6
CUSTOM
 62
    18
420
        0
370
     9
100
AcDbPolyline
 90
       13
 70
     0
 43
0.0
 10
183.8225049012635
 20
944.0327737854918
 10
183.8225049012635
 20
944.1867737854803
 10
183.8225049012635
 20
944.9847737854227
 10
183.8225049012635
 20
946.4197737853183
 10
183.8225049012635
 20
949.1857737851166
 10
183.8225049012635
 20
952.6697737848643
 10
183.8225049012635
 20
956.5327737845835
 10
183.8225049012635
 20
960.395773784303
 10
183.8225049012635
 20
963.8797737840496
 10
183.8225049012635
 20
966.6457737838484
 10
183.8225049012635
 20
967.6707737837736
 10
183.8225049012635
 20
968.6877737836999
 10
183.8225049012635
 20
969.0327737836751
  0
LWPOLYLINE
  5
15EB
330
1F
100
AcDbEntity
  8
Hewi
  6
CUSTOM
 62
    18
420
        0
370
     9
100
AcDbPolyline
 90
        3
 70
     0
 43
0.0
 10
178.8225048082658
 20
944.6177737854496
 10
178.8225048082658
 20
944.2247737854778
 10
178.8225048082658
 20
944.0327737854918
  0
LINE
  5
15EC
330
1F
100
AcDbEntity
  8
Hewi
  6
CUSTOM
 62
    18
420
        0
370
     9
100
AcDbLine
 10
178.8225048082658
 20
962.6437737841392
 30
0.0
 11
178.8225048082658
 21
960.3127737843088
 31
0.0
  0
LWPOLYLINE
  5
15ED
330
1F
100
AcDbEntity
  8
Hewi
  6
CUSTOM
 62
    18
420
        0
370
     9
100
AcDbPolyline
 90
        3
 70
     0
 43
0.0
 10
190.0535764224496
 20
910.8476285385366
 10
190.6275050278327
 20
910.1867737879516
 10
190.9295050334494
 20
909.9547737879683
  0
LINE
  5
15EE
330
1F
100
AcDbEntity
  8
Hewi
  6
CUSTOM
 62
    18
420
        0
370
     9
100
AcDbLine
 10
187.5915049713639
 20
942.3127737856166
 30
0.0
 11
188.573704211185
 21
940.4004005068996
 31
0.0
  0
LWPOLYLINE
  5
15EF
330
1F
100
AcDbEntity
  8
Hewi
  6
CUSTOM
 62
    18
420
        0
370
     9
100
AcDbPolyline
 90
        3
 70
     0
 43
0.0
 10
411.847503340517
 20
885.4097737897522
 10
412.5975033544687
 20
885.6547737897344
 10
413.3005033675448
 20
885.825773789722
  0
LWPOLYLINE
  5
15F0
330
1F
100
AcDbEntity
  8
Hewi
  6
CUSTOM
 62
    18
420
        0
370
     9
100
AcDbPolyline
 90
        5
 70
     0
 43
0.0
 10
186.7415049555547
 20
943.0897737855602
 10
185.6755049357289
 20
943.674773785518
 10
184.7305049181504
 20
943.9487737854975
 10
184.0465049054309
 20
944.0297737854919
 10
183.8225049012635
 20
944.0327737854918
  0
LWPOLYLINE
  5
15F1
330
1F
100
AcDbEntity
  8
Hewi
  6
CUSTOM
 62
    18
420
        0
370
     9
100
AcDbPolyline
 90
       18
 70
     0
 43
0.0
 10
480.1625046111452
 20
877.8137737903044
 10
480.3225046141172
 20
876.0327737904335
 10
480.3225046141172
 20
726.0327738013358
 10
480.3225046141172
 20
722.7997738015702
 10
480.3225046141172
 20
720.2817738017532
 10
480.3225046141172
 20
718.3687738018925
 10
480.3225046141172
 20
717.3737738019648
 10
480.3225046141172
 20
717.0327738019896
 10
405.3225032191561
 20
717.0327738019896
 10
405.3225032191561
 20
717.0837738019859
 10
405.3225032191561
 20
717.4187738019614
 10
405.3225032191561
 20
718.4797738018843
 10
405.3225032191561
 20
720.159773801762
 10
405.3225032191561
 20
721.7997738016434
 10
405.3225032191561
 20
723.7317738015026
 10
405.3225032191561
 20
726.0327738013358
 10
405.3225032191561
 20
876.0327737904335
 10
405.5505032233972
 20
878.15377379028
  0
LINE
  5
15F2
330
1F
100
AcDbEntity
  8
Hewi
  6
CUSTOM
 62
    18
420
        0
370
     9
100
AcDbLine
 10
178.8225048082658
 20
944.0327737854918
 30
0.0
 11
173.8225047152646
 21
944.0327737854918
 31
0.0
  0
LWPOLYLINE
  5
15F3
330
1F
100
AcDbEntity
  8
Hewi
  6
CUSTOM
 62
    18
420
        0
370
     9
100
AcDbPolyline
 90
        4
 70
     0
 43
0.0
 10
178.8225048082658
 20
956.1917737846084
 10
178.8225048082658
 20
953.9787737847687
 10
178.8225048082658
 20
952.7357737848587
 10
178.8225048082658
 20
951.3527737849594
  0
LINE
  5
15F4
330
1F
100
AcDbEntity
  8
Hewi
  6
CUSTOM
 62
    18
420
        0
370
     9
100
AcDbLine
 10
222.445505619633
 20
910.5867737879226
 30
0.0
 11
220.7935055889084
 21
909.4377737880057
 31
0.0
  0
LWPOLYLINE
  5
15F5
330
1F
100
AcDbEntity
  8
Hewi
  6
CUSTOM
 62
    18
420
        0
370
     9
100
AcDbPolyline
 90
        3
 70
     0
 43
0.0
 10
178.8225048082658
 20
969.0327737836751
 10
178.8225048082658
 20
968.7637737836944
 10
178.8225048082658
 20
967.9187737837557
  0
LINE
  5
15F6
330
1F
100
AcDbEntity
  8
Hewi
  6
CUSTOM
 62
    18
420
        0
370
     9
100
AcDbLine
 10
186.752014298012
 20
943.080167010344
 30
0.0
 11
186.7224177595981
 21
943.0959400155526
 31
0.0
  0
LWPOLYLINE
  5
15F7
330
1F
100
AcDbEntity
  8
Hewi
  6
CUSTOM
 62
    18
420
        0
370
     9
100
AcDbPolyline
 90
        3
 70
     0
 43
0.0
 10
223.3570497991004
 20
912.0124973041042
 10
223.4885056390321
 20
912.2367737878024
 10
223.6885056427545
 20
912.8817737877552
  0
LINE
  5
15F8
330
1F
100
AcDbEntity
  8
Hewi
  6
CUSTOM
 62
    18
420
        0
370
     9
100
AcDbLine
 10
187.7075325218338
 20
942.0868644369065
 30
0.0
 11
186.7698971827794
 21
943.0638199493596
 31
0.0
  0
LWPOLYLINE
  5
15F9
330
1F
100
AcDbEntity
  8
Hewi
  6
CUSTOM
 62
    18
420
        0
370
     9
100
AcDbPolyline
 90
        3
 70
     0
 43
0.0
 10
222.445505619633
 20
910.5867737879226
 10
222.668505623782
 20
910.837773787904
 10
223.219505634026
 20
911.6517737878448
  0
LINE
  5
15FA
330
1F
100
AcDbEntity
  8
Hewi
  6
CUSTOM
 62
    18
420
        0
370
     9
100
AcDbLine
 10
178.8225048082658
 20
944.0327737854918
 30
0.0
 11
183.8225049012635
 21
944.0327737854918
 31
0.0
  0
LWPOLYLINE
  5
15FB
330
1F
100
AcDbEntity
  8
Hewi
  6
CUSTOM
 62
    18
420
        0
370
     9
100
AcDbPolyline
 90
        3
 70
     0
 43
0.0
 10
413.3005033675448
 20
885.825773789722
 10
415.3225034051515
 20
886.0327737897073
 10
470.3225044281221
 20
886.0327737897073
  0
LINE
  5
15FC
330
1F
100
AcDbEntity
  8
Hewi
  6
CUSTOM
 62
    18
420
        0
370
     9
100
AcDbLine
 10
187.5915049713639
 20
942.3127737856166
 30
0.0
 11
186.7415049555547
 21
943.0897737855602
 31
0.0
  0
LINE
  5
15FD
330
1F
100
AcDbEntity
  8
Hewi
  6
CUSTOM
 62
    18
420
        0
370
     9
100
AcDbLine
 10
223.6885056427545
 20
912.8817737877552
 30
0.0
 11
223.219505634026
 21
911.6517737878448
 31
0.0
  0
LINE
  5
15FE
330
1F
100
AcDbEntity
  8
Hewi
  6
CUSTOM
 62
    18
420
        0
370
     9
100
AcDbLine
 10
171.8225046780699
 20
956.5327737845835
 30
0.0
 11
171.8225046780699
 21
956.533773784583
 31
0.0
  0
LINE
  5
15FF
330
1F
100
AcDbEntity
  8
Hewi
  6
CUSTOM
 62
    18
420
        0
370
     9
100
AcDbLine
 10
411.847503340517
 20
885.4097737897522
 30
0.0
 11
413.3005033675448
 21
885.825773789722
 31
0.0
  0
LWPOLYLINE
  5
1600
330
1F
100
AcDbEntity
  8
Hewi
  6
CUSTOM
 62
    18
420
        0
370
     9
100
AcDbPolyline
 90
        3
 70
     0
 43
0.0
 10
220.7935055889084
 20
909.4377737880057
 10
220.1845055775793
 20
909.2217737880217
 10
218.822505552247
 20
909.0327737880356
  0
LWPOLYLINE
  5
1601
330
1F
100
AcDbEntity
  8
Hewi
  6
CUSTOM
 62
    18
420
        0
370
     9
100
AcDbPolyline
 90
        3
 70
     0
 43
0.0
 10
220.7935055889084
 20
909.4377737880057
 10
221.4445056010135
 20
909.7747737879815
 10
222.445505619633
 20
910.5867737879226
  0
LINE
  5
1602
330
1F
100
AcDbEntity
  8
Hewi
  6
CUSTOM
 62
    18
420
        0
370
     9
100
AcDbLine
 10
190.9295050334494
 20
909.9547737879683
 30
0.0
 11
189.6875050103499
 21
911.2207737878762
 31
0.0
  0
LINE
  5
1603
330
1F
100
AcDbEntity
  8
Hewi
  6
CUSTOM
 62
    18
420
        0
370
     9
100
AcDbLine
 10
183.8225049012635
 20
969.0327737836751
 30
0.0
 11
178.8225048082658
 21
969.0327737836751
 31
0.0
  0
LWPOLYLINE
  5
1604
330
1F
100
AcDbEntity
  8
Hewi
  6
CUSTOM
 62
    18
420
        0
370
     9
100
AcDbPolyline
 90
        3
 70
     0
 43
0.0
 10
223.8225056452411
 20
943.5327739643421
 10
223.8225056452411
 20
914.0327737876724
 10
223.6885056427545
 20
912.8817737877552
  0
LINE
  5
1605
330
1F
100
AcDbEntity
  8
Hewi
  6
CUSTOM
 62
    18
420
        0
370
     9
100
AcDbLine
 10
223.219505634026
 20
911.6517737878448
 30
0.0
 11
222.445505619633
 21
910.5867737879226
 31
0.0
  0
LINE
  5
1606
330
1F
100
AcDbEntity
  8
Hewi
  6
CUSTOM
 62
    18
420
        0
370
     9
100
AcDbLine
 10
183.8225049012635
 20
944.0327737854918
 30
0.0
 11
186.7415049555547
 21
943.0897737855602
 31
0.0
  0
LINE
  5
1607
330
1F
100
AcDbEntity
  8
Hewi
  6
CUSTOM
 62
    18
420
        0
370
     9
100
AcDbLine
 10
220.7935055889084
 20
909.4377737880057
 30
0.0
 11
218.822505552247
 21
909.0327737880356
 31
0.0
  0
LWPOLYLINE
  5
1608
330
1F
100
AcDbEntity
  8
Hewi
  6
CUSTOM
 62
    18
420
        0
370
     9
100
AcDbPolyline
 90
        3
 70
     0
 43
0.0
 10
409.8285033029656
 20
884.3887737898269
 10
410.0795033076332
 20
884.547773789815
 10
410.5649667760385
 20
884.7612003384593
  0
LINE
  5
1609
330
1F
100
AcDbEntity
  8
Hewi
  6
CUSTOM
 62
    18
420
        0
370
     9
100
AcDbLine
 10
405.5505032233972
 20
878.15377379028
 30
0.0
 11
406.2235032359144
 21
880.1797737901324
 31
0.0
  0
LINE
  5
160A
330
1F
100
AcDbEntity
  8
Hewi
  6
CUSTOM
 62
    18
420
        0
370
     9
100
AcDbLine
 10
406.2235032359144
 20
880.1797737901324
 30
0.0
 11
406.9045032485787
 21
881.4307737900419
 31
0.0
  0
LINE
  5
160B
330
1F
100
AcDbEntity
  8
Hewi
  6
CUSTOM
 62
    18
420
        0
370
     9
100
AcDbLine
 10
477.5685045628939
 20
882.923773789933
 30
0.0
 11
477.1105045543748
 21
883.3767737898996
 31
0.0
  0
LINE
  5
160C
330
1F
100
AcDbEntity
  8
Hewi
  6
CUSTOM
 62
    18
420
        0
370
     9
100
AcDbLine
 10
475.6275045267917
 20
884.5097737898178
 30
0.0
 11
477.1105045543748
 21
883.3767737898996
 31
0.0
  0
LWPOLYLINE
  5
160D
330
1F
100
AcDbEntity
  8
Hewi
  6
CUSTOM
 62
    18
420
        0
370
     9
100
AcDbPolyline
 90
        3
 70
     0
 43
0.0
 10
475.6275045267917
 20
884.5097737898178
 10
475.816504530308
 20
884.3887737898269
 10
477.1105045543748
 20
883.3767737898996
  0
LINE
  5
160E
330
1F
100
AcDbEntity
  8
Hewi
  6
CUSTOM
 62
    18
420
        0
370
     9
100
AcDbLine
 10
477.1105045543748
 20
883.3767737898996
 30
0.0
 11
477.8635045683818
 21
882.6007737899562
 31
0.0
  0
LINE
  5
160F
330
1F
100
AcDbEntity
  8
Hewi
  6
CUSTOM
 62
    18
420
        0
370
     9
100
AcDbLine
 10
470.3225044281221
 20
886.0327737897073
 30
0.0
 11
473.093504479662
 21
885.6417737897354
 31
0.0
  0
LINE
  5
1610
330
1F
100
AcDbEntity
  8
Hewi
  6
CUSTOM
 62
    18
420
        0
370
     9
100
AcDbLine
 10
408.0765032703798
 20
882.923773789933
 30
0.0
 11
409.8285033029656
 21
884.3887737898269
 31
0.0
  0
LWPOLYLINE
  5
1611
330
1F
100
AcDbEntity
  8
Hewi
  6
CUSTOM
 62
    18
420
        0
370
     9
100
AcDbPolyline
 90
        3
 70
     0
 43
0.0
 10
408.0765032703798
 20
882.923773789933
 10
407.6305032620854
 20
882.4227737899692
 10
406.9045032485787
 20
881.4307737900419
  0
LWPOLYLINE
  5
1612
330
1F
100
AcDbEntity
  8
Hewi
  6
CUSTOM
 62
    18
420
        0
370
     9
100
AcDbPolyline
 90
        3
 70
     0
 43
0.0
 10
477.8635045683818
 20
882.6007737899562
 10
478.7405045846911
 20
881.4307737900419
 10
479.3365045957811
 20
880.3627737901193
  0
LINE
  5
1613
330
1F
100
AcDbEntity
  8
Hewi
  6
CUSTOM
 62
    18
420
        0
370
     9
100
AcDbLine
 10
477.8635045683818
 20
882.6007737899562
 30
0.0
 11
479.3365045957811
 21
880.3627737901193
 31
0.0
  0
LWPOLYLINE
  5
1614
330
1F
100
AcDbEntity
  8
Hewi
  6
CUSTOM
 62
    18
420
        0
370
     9
100
AcDbPolyline
 90
        4
 70
     0
 43
0.0
 10
480.1625046111452
 20
877.8137737903044
 10
480.0945046098798
 20
878.15377379028
 10
479.4215045973627
 20
880.1797737901324
 10
479.3365045957811
 20
880.3627737901193
  0
LWPOLYLINE
  5
1615
330
1F
100
AcDbEntity
  8
Hewi
  6
CUSTOM
 62
    18
420
        0
370
     9
100
AcDbPolyline
 90
        3
 70
     0
 43
0.0
 10
406.2235032359144
 20
880.1797737901324
 10
405.9905032315813
 20
879.6247737901724
 10
405.5505032233972
 20
878.15377379028
  0
LINE
  5
1616
330
1F
100
AcDbEntity
  8
Hewi
  6
CUSTOM
 62
    18
420
        0
370
     9
100
AcDbLine
 10
409.8285033029656
 20
884.3887737898269
 30
0.0
 11
411.847503340517
 21
885.4097737897522
 31
0.0
  0
LINE
  5
1617
330
1F
100
AcDbEntity
  8
Hewi
  6
CUSTOM
 62
    18
420
        0
370
     9
100
AcDbLine
 10
479.3365045957811
 20
880.3627737901193
 30
0.0
 11
480.1625046111452
 21
877.8137737903044
 31
0.0
  0
LINE
  5
1618
330
1F
100
AcDbEntity
  8
Hewi
  6
CUSTOM
 62
    18
420
        0
370
     9
100
AcDbLine
 10
477.8635045683818
 20
882.6007737899562
 30
0.0
 11
477.5685045628939
 21
882.923773789933
 31
0.0
  0
LINE
  5
1619
330
1F
100
AcDbEntity
  8
Hewi
  6
CUSTOM
 62
    18
420
        0
370
     9
100
AcDbLine
 10
473.093504479662
 20
885.6417737897354
 30
0.0
 11
475.6275045267917
 21
884.5097737898178
 31
0.0
  0
LINE
  5
161A
330
1F
100
AcDbEntity
  8
Hewi
  6
CUSTOM
 62
    18
420
        0
370
     9
100
AcDbLine
 10
406.9045032485787
 20
881.4307737900419
 30
0.0
 11
408.0765032703798
 21
882.923773789933
 31
0.0
  0
LWPOLYLINE
  5
161B
330
1F
100
AcDbEntity
  8
Hewi
  6
CUSTOM
 62
    18
420
        0
370
     9
100
AcDbPolyline
 90
        3
 70
     0
 43
0.0
 10
473.093504479662
 20
885.6417737897354
 10
473.7975044927601
 20
885.4097737897522
 10
475.1963887531433
 20
884.7023637832208
  0
LWPOLYLINE
  5
161C
330
1F
100
AcDbEntity
  8
Hewi
  6
CUSTOM
 62
    18
420
        0
370
     9
100
AcDbPolyline
 90
        3
 70
     0
 43
0.0
 10
470.3225044281221
 20
886.0327737897073
 10
472.3445044657323
 20
885.825773789722
 10
473.093504479662
 20
885.6417737897354
  0
LWPOLYLINE
  5
161D
330
1F
100
AcDbEntity
  8
Hewi
  6
CUSTOM
 62
    18
420
        0
370
     9
100
AcDbPolyline
 90
       14
 70
     0
 43
0.0
 10
307.801501405314
 20
786.5967420128845
 10
310.2575014509944
 20
781.856725180747
 10
312.7905014981056
 20
778.3682866486295
 10
351.5005022180935
 20
735.3865872105975
 10
353.5985022571199
 20
733.4333741512172
 10
355.6995022961942
 20
731.5224708380392
 10
360.0145023764504
 20
729.1565257183918
 10
362.0415024141526
 20
728.1294496114031
 10
367.1275025087467
 20
726.2028528028017
 10
373.0775026194184
 20
724.6360858919242
 10
379.7025027426366
 20
723.4796194698747
 10
386.7885028744327
 20
722.7704895099805
 10
394.1095030105985
 20
722.5383215578923
 10
405.3225008706154
 20
722.547593063702
  0
LWPOLYLINE
  5
161E
330
1F
100
AcDbEntity
  8
Hewi
  6
CUSTOM
 62
    18
420
        0
370
     9
100
AcDbPolyline
 90
        3
 70
     0
 43
0.0
 10
570.7555062961269
 20
776.4147104914719
 10
572.5175063289002
 20
778.2190789636215
 10
573.9515063555677
 20
779.7122661846063
  0
LWPOLYLINE
  5
161F
330
1F
100
AcDbEntity
  8
Hewi
  6
CUSTOM
 62
    18
420
        0
370
     9
100
AcDbPolyline
 90
        6
 70
     0
 43
0.0
 10
573.9515063555677
 20
779.7122661846063
 10
575.041506375846
 20
781.3005567484561
 10
577.5125064218022
 20
785.8737209756455
 10
579.0915064511732
 20
789.3184483179037
 10
580.3605064747768
 20
792.7777701528484
 10
634.1167092470655
 20
943.5327748326894
  0
LWPOLYLINE
  5
1620
330
1F
100
AcDbEntity
  8
Hewi
  6
CUSTOM
 62
    18
420
        0
370
     9
100
AcDbPolyline
 90
        5
 70
     0
 43
0.0
 10
251.5100101647163
 20
943.5327785168064
 10
305.2845013585006
 20
792.7777701528484
 10
305.807501368226
 20
791.5906909501991
 10
306.7875013864555
 20
788.9947069571426
 10
307.801501405314
 20
786.5967420128845
  0
LWPOLYLINE
  5
1621
330
1F
100
AcDbEntity
  8
Hewi
  6
CUSTOM
 62
    18
420
        0
370
     9
100
AcDbPolyline
 90
        5
 70
     0
 43
0.0
 10
268.4502468776604
 20
943.5327730143956
 10
320.3245016382366
 20
798.0610196714187
 10
321.1245016531152
 20
795.9325708547403
 10
321.4875016598685
 20
794.6481604279012
 10
322.3375016756777
 20
792.8135736420776
  0
LWPOLYLINE
  5
1622
330
1F
100
AcDbEntity
  8
Hewi
  6
CUSTOM
 62
    18
420
        0
370
     9
100
AcDbPolyline
 90
        3
 70
     0
 43
0.0
 10
307.801501405314
 20
786.5967420128845
 10
307.324501396442
 20
787.533235307556
 10
306.9510659783424
 20
788.6079001039356
  0
LWPOLYLINE
  5
1623
330
1F
100
AcDbEntity
  8
Hewi
  6
CUSTOM
 62
    18
420
        0
370
     9
100
AcDbPolyline
 90
        4
 70
     0
 43
0.0
 10
521.6425053826509
 20
745.318555756131
 10
560.3515061026132
 20
788.2998920963855
 10
561.2335061190256
 20
789.3797959962771
 10
561.7850232726791
 20
790.1821819855642
  0
LWPOLYLINE
  5
1624
330
1F
100
AcDbEntity
  8
Hewi
  6
CUSTOM
 62
    18
420
        0
370
     9
100
AcDbPolyline
 90
        3
 70
     0
 43
0.0
 10
364.0025024506262
 20
745.318555756131
 10
325.2935017306568
 20
788.2998920963855
 10
323.7779291073507
 20
790.3858709367596
  0
LINE
  5
1625
330
1F
100
AcDbEntity
  8
Hewi
  6
CUSTOM
 62
    18
420
        0
370
     9
100
AcDbLine
 10
477.5685045628939
 20
882.923773789933
 30
0.0
 11
477.4708011104316
 21
883.005472166184
 31
0.0
  0
LWPOLYLINE
  5
1626
330
1F
100
AcDbEntity
  8
Hewi
  6
CUSTOM
 62
    18
420
        0
370
     9
100
AcDbPolyline
 90
        4
 70
     0
 43
0.0
 10
560.983506114369
 20
788.6267848223146
 10
563.307506157596
 20
793.1366609359855
 10
565.2525061937717
 20
797.9175898607191
 10
617.1925937770623
 20
943.5327752725534
  0
LWPOLYLINE
  5
1627
330
1F
100
AcDbEntity
  8
Hewi
  6
CUSTOM
 62
    18
420
        0
370
     9
100
AcDbPolyline
 90
        7
 70
     0
 43
0.0
 10
405.3225030482549
 20
738.5122648115025
 10
394.1095030105985
 20
738.5122648115025
 10
387.880502894744
 20
738.7313085875265
 10
381.85050278259
 20
739.3347770941033
 10
376.214502677763
 20
740.3187720717341
 10
371.1505025835736
 20
741.6517040137573
 10
367.3215707587238
 20
743.1023855246808
  0
LWPOLYLINE
  5
1628
330
1F
100
AcDbEntity
  8
Hewi
  6
CUSTOM
 62
    18
420
        0
370
     9
100
AcDbPolyline
 90
       13
 70
     0
 43
0.0
 10
573.9515063555677
 20
779.7122661846063
 10
572.8545063351644
 20
778.3682866486295
 10
534.1445056151801
 20
735.3865872105975
 10
532.6675055877108
 20
733.8400861284452
 10
529.9455055370795
 20
731.5224708380392
 10
525.6305054568233
 20
729.1565257183918
 10
523.6035054191246
 20
728.1294496114031
 10
518.5175053245269
 20
726.2028528028017
 10
512.567505213859
 20
724.6360858919242
 10
505.9425050906369
 20
723.4796194698747
 10
498.8565049588372
 20
722.7704895099805
 10
491.5355048226714
 20
722.6188785822613
 10
480.3225047850222
 20
722.6096070746507
  0
LWPOLYLINE
  5
1629
330
1F
100
AcDbEntity
  8
Hewi
  6
CUSTOM
 62
    18
420
        0
370
     9
100
AcDbPolyline
 90
        3
 70
     0
 43
0.0
 10
368.8505025407953
 20
742.2640143731911
 10
365.6535024813325
 20
744.0170504440402
 10
363.9349640177256
 20
745.3935484414751
  0
LWPOLYLINE
  5
162A
330
1F
100
AcDbEntity
  8
Hewi
  6
CUSTOM
 62
    18
420
        0
370
     9
100
AcDbPolyline
 90
        7
 70
     0
 43
0.0
 10
518.3234371712654
 20
743.1023855613239
 10
514.4945052497
 20
741.6517040137573
 10
509.4305051555143
 20
740.3187720717341
 10
503.7945050506873
 20
739.3347770941033
 10
497.7645049385333
 20
738.7313085875265
 10
491.5355048226714
 20
738.5122648115025
 10
480.3225069626619
 20
738.5122648115025
  0
LWPOLYLINE
  5
162B
330
1F
100
AcDbEntity
  8
Hewi
  6
CUSTOM
 62
    18
420
        0
370
     9
100
AcDbPolyline
 90
        3
 70
     0
 43
0.0
 10
521.9384970356053
 20
745.6472161779543
 10
519.991505351941
 20
744.0170504440402
 10
516.7945052924783
 20
742.2640143731911
  0
LINE
  5
162C
330
1F
100
AcDbEntity
  8
Hewi
  6
CUSTOM
 62
    18
420
        0
370
     9
100
AcDbLine
 10
324.1205017088373
 20
789.7642884813158
 30
0.0
 11
321.7969463935201
 21
793.9802742914216
 31
0.0
  0
LINE
  5
162D
330
1F
100
AcDbEntity
  8
Hewi
  6
CUSTOM
 62
    18
420
        0
370
     9
100
AcDbLine
 10
701.6322517764765
 20
945.4457737853893
 30
0.0
 11
701.5373333537117
 21
946.7027737852976
 31
0.0
  0
LINE
  5
162E
330
1F
100
AcDbEntity
  8
Hewi
  6
CUSTOM
 62
    18
420
        0
370
     9
100
AcDbLine
 10
701.3272367488043
 20
955.4867737846596
 30
0.0
 11
701.3253309227676
 21
956.5317737845829
 31
0.0
  0
LINE
  5
162F
330
1F
100
AcDbEntity
  8
Hewi
  6
CUSTOM
 62
    18
420
        0
370
     9
100
AcDbLine
 10
701.1359957472468
 20
968.1897737837363
 30
0.0
 11
701.0652730289312
 21
967.3757737837954
 31
0.0
  0
LWPOLYLINE
  5
1630
330
1F
100
AcDbEntity
  8
Hewi
  6
CUSTOM
 62
    18
420
        0
370
     9
100
AcDbPolyline
 90
        3
 70
     0
 43
0.0
 10
701.3253309227676
 20
956.5327737845835
 10
701.3349014839459
 20
958.8737737844128
 10
701.3631574264709
 20
961.1247737842495
  0
LWPOLYLINE
  5
1631
330
1F
100
AcDbEntity
  8
Hewi
  6
CUSTOM
 62
    18
420
        0
370
     9
100
AcDbPolyline
 90
        5
 70
     0
 43
0.0
 10
701.8225029318508
 20
968.5302995916361
 10
701.367015007543
 20
968.9877737836786
 10
692.3856007624944
 20
968.9627737836799
 10
691.8527611595835
 20
968.5217737837119
 10
691.8225027447424
 20
968.473869337054
  0
LWPOLYLINE
  5
1632
330
1F
100
AcDbEntity
  8
Hewi
  6
CUSTOM
 62
    18
420
        0
370
     9
100
AcDbPolyline
 90
        5
 70
     0
 43
0.0
 10
691.8225027489151
 20
944.5811056890287
 10
692.2573718151087
 20
944.1587737854824
 10
692.3747458402922
 20
944.0777737854887
 10
701.3778699297492
 20
944.1027737854865
 10
701.8225029312034
 20
944.5232810947922
  0
LINE
  5
1633
330
1F
100
AcDbEntity
  8
Hewi
  6
CUSTOM
 62
    18
420
        0
370
     9
100
AcDbLine
 10
701.4709608904795
 20
965.0177737839667
 30
0.0
 11
701.5553558390474
 21
966.6537737838476
 31
0.0
  0
LINE
  5
1634
330
1F
100
AcDbEntity
  8
Hewi
  6
CUSTOM
 62
    18
420
        0
370
     9
100
AcDbLine
 10
701.8225029314907
 20
944.578078734497
 30
0.0
 11
701.7361607264082
 21
944.714773785442
 31
0.0
  0
LINE
  5
1635
330
1F
100
AcDbEntity
  8
Hewi
  6
CUSTOM
 62
    18
420
        0
370
     9
100
AcDbLine
 10
700.8552592860269
 20
961.9027737841923
 30
0.0
 11
700.8177642303289
 21
959.2847737843833
 31
0.0
  0
LWPOLYLINE
  5
1636
330
1F
100
AcDbEntity
  8
Hewi
  6
CUSTOM
 62
    18
420
        0
370
     9
100
AcDbPolyline
 90
        3
 70
     0
 43
0.0
 10
701.0410773244821
 20
946.0467737853456
 10
701.1461877734382
 20
944.7827737854373
 10
701.2216750568422
 20
944.2737737854743
  0
LWPOLYLINE
  5
1637
330
1F
100
AcDbEntity
  8
Hewi
  6
CUSTOM
 62
    18
420
        0
370
     9
100
AcDbPolyline
 90
        3
 70
     0
 43
0.0
 10
692.0488081572276
 20
967.0187737838213
 10
692.1539186061801
 20
968.2827737837293
 10
692.2294058895874
 20
968.7917737836922
  0
LINE
  5
1638
330
1F
100
AcDbEntity
  8
Hewi
  6
CUSTOM
 62
    18
420
        0
370
     9
100
AcDbLine
 10
701.455962868198
 20
948.4257737851722
 30
0.0
 11
701.3919519720092
 21
950.5327737850192
 31
0.0
  0
LINE
  5
1639
330
1F
100
AcDbEntity
  8
Hewi
  6
CUSTOM
 62
    18
420
        0
370
     9
100
AcDbLine
 10
691.862990118776
 20
951.1627737849735
 30
0.0
 11
691.8254950630745
 21
953.7807737847833
 31
0.0
  0
LINE
  5
163A
330
1F
100
AcDbEntity
  8
Hewi
  6
CUSTOM
 62
    18
420
        0
370
     9
100
AcDbLine
 10
692.1437265799921
 20
944.8757737854302
 30
0.0
 11
692.0730038616766
 21
945.6897737853715
 31
0.0
  0
LINE
  5
1641
330
1F
100
AcDbEntity
  8
Hewi
100
AcDbLine
 10
697.8225039166409
 20
972.5327813731103
 30
0.0
 11
697.8225039166409
 21
976.5327610489814
 31
0.0
  0
LINE
  5
1642
330
1F
100
AcDbEntity
  8
Hewi
  6
CUSTOM
 62
    18
420
        0
370
     9
100
AcDbLine
 10
190.8225050314595
 20
969.5327737836382
 30
0.0
 11
191.1095050367966
 21
969.5327737836382
 31
0.0
  0
LINE
  5
1643
330
1F
100
AcDbEntity
  8
Hewi
  6
CUSTOM
 62
    18
420
        0
370
     9
100
AcDbLine
 10
191.1095050367966
 20
969.5327737836382
 30
0.0
 11
191.8845050512118
 21
969.5327737836382
 31
0.0
  0
LINE
  5
1644
330
1F
100
AcDbEntity
  8
Hewi
  6
CUSTOM
 62
    18
420
        0
370
     9
100
AcDbLine
 10
191.8845050512118
 20
969.5327737836382
 30
0.0
 11
193.120505074201
 21
969.5327737836382
 31
0.0
  0
LINE
  5
1645
330
1F
100
AcDbEntity
  8
Hewi
  6
CUSTOM
 62
    18
420
        0
370
     9
100
AcDbLine
 10
193.120505074201
 20
969.5327737836382
 30
0.0
 11
194.1845050939937
 21
969.5327737836382
 31
0.0
  0
LINE
  5
1646
330
1F
100
AcDbEntity
  8
Hewi
  6
CUSTOM
 62
    18
420
        0
370
     9
100
AcDbLine
 10
194.1845050939937
 20
969.5327737836382
 30
0.0
 11
195.8885051256856
 21
969.5327737836382
 31
0.0
  0
LINE
  5
1647
330
1F
100
AcDbEntity
  8
Hewi
  6
CUSTOM
 62
    18
420
        0
370
     9
100
AcDbLine
 10
195.8885051256856
 20
969.5327737836382
 30
0.0
 11
196.9995051463502
 21
969.5327737836382
 31
0.0
  0
LINE
  5
1648
330
1F
100
AcDbEntity
  8
Hewi
  6
CUSTOM
 62
    18
420
        0
370
     9
100
AcDbLine
 10
196.9995051463502
 20
969.5327737836382
 30
0.0
 11
199.3575051902098
 21
969.5327737836382
 31
0.0
  0
LINE
  5
1649
330
1F
100
AcDbEntity
  8
Hewi
  6
CUSTOM
 62
    18
420
        0
370
     9
100
AcDbLine
 10
199.3575051902098
 20
969.5327737836382
 30
0.0
 11
201.9645052386969
 21
969.5327737836382
 31
0.0
  0
LINE
  5
164A
330
1F
100
AcDbEntity
  8
Hewi
  6
CUSTOM
 62
    18
420
        0
370
     9
100
AcDbLine
 10
201.9645052386969
 20
969.5327737836382
 30
0.0
 11
205.3275053012458
 21
969.5327737836382
 31
0.0
  0
LINE
  5
164B
330
1F
100
AcDbEntity
  8
Hewi
  6
CUSTOM
 62
    18
420
        0
370
     9
100
AcDbLine
 10
205.3275053012458
 20
969.5327737836382
 30
0.0
 11
208.8225053662517
 21
969.5327737836382
 31
0.0
  0
LINE
  5
164C
330
1F
100
AcDbEntity
  8
Hewi
  6
CUSTOM
 62
    18
420
        0
370
     9
100
AcDbLine
 10
190.8225050314595
 20
969.5327737836382
 30
0.0
 11
697.8225039166409
 21
969.5327737836382
 31
0.0
  0
LINE
  5
164D
330
1F
100
AcDbEntity
  8
Hewi
  6
CUSTOM
 62
    18
420
        0
370
     9
100
AcDbLine
 10
682.822503637648
 20
969.5327737836382
 30
0.0
 11
686.3425037031174
 21
969.5327737836382
 31
0.0
  0
LINE
  5
164E
330
1F
100
AcDbEntity
  8
Hewi
  6
CUSTOM
 62
    18
420
        0
370
     9
100
AcDbLine
 10
686.3425037031174
 20
969.5327737836382
 30
0.0
 11
689.7265037660527
 21
969.5327737836382
 31
0.0
  0
LINE
  5
164F
330
1F
100
AcDbEntity
  8
Hewi
  6
CUSTOM
 62
    18
420
        0
370
     9
100
AcDbLine
 10
689.7265037660527
 20
969.5327737836382
 30
0.0
 11
692.6535038204947
 21
969.5327737836382
 31
0.0
  0
LINE
  5
1650
330
1F
100
AcDbEntity
  8
Hewi
  6
CUSTOM
 62
    18
420
        0
370
     9
100
AcDbLine
 10
692.6535038204947
 20
969.5327737836382
 30
0.0
 11
695.2265038683525
 21
969.5327737836382
 31
0.0
  0
LINE
  5
1657
330
1F
100
AcDbEntity
  8
Hewi
  6
CUSTOM
 62
    18
420
        0
370
     9
100
AcDbLine
 10
193.8225050872588
 20
969.5327737836382
 30
0.0
 11
193.8225050872588
 21
943.532773785528
 31
0.0
  0
LINE
  5
1658
330
1F
100
AcDbEntity
  8
Hewi
  6
CUSTOM
 62
    18
420
        0
370
     9
100
AcDbLine
 10
193.8225050872588
 20
943.532773785528
 30
0.0
 11
194.0615050917022
 21
943.532773785528
 31
0.0
  0
LINE
  5
1659
330
1F
100
AcDbEntity
  8
Hewi
  6
CUSTOM
 62
    18
420
        0
370
     9
100
AcDbLine
 10
194.0615050917022
 20
943.532773785528
 30
0.0
 11
194.991505109001
 21
943.532773785528
 31
0.0
  0
LINE
  5
165A
330
1F
100
AcDbEntity
  8
Hewi
  6
CUSTOM
 62
    18
420
        0
370
     9
100
AcDbLine
 10
194.991505109001
 20
943.532773785528
 30
0.0
 11
196.5735051384235
 21
943.532773785528
 31
0.0
  0
LINE
  5
165B
330
1F
100
AcDbEntity
  8
Hewi
  6
CUSTOM
 62
    18
420
        0
370
     9
100
AcDbLine
 10
196.5735051384235
 20
943.532773785528
 30
0.0
 11
197.9675051643553
 21
943.532773785528
 31
0.0
  0
LINE
  5
165C
330
1F
100
AcDbEntity
  8
Hewi
  6
CUSTOM
 62
    18
420
        0
370
     9
100
AcDbLine
 10
197.9675051643553
 20
943.532773785528
 30
0.0
 11
198.8785051812938
 21
943.532773785528
 31
0.0
  0
LINE
  5
165D
330
1F
100
AcDbEntity
  8
Hewi
  6
CUSTOM
 62
    18
420
        0
370
     9
100
AcDbLine
 10
198.8785051812938
 20
943.532773785528
 30
0.0
 11
200.0115052023738
 21
943.532773785528
 31
0.0
  0
LINE
  5
165E
330
1F
100
AcDbEntity
  8
Hewi
  6
CUSTOM
 62
    18
420
        0
370
     9
100
AcDbLine
 10
200.0115052023738
 20
943.532773785528
 30
0.0
 11
201.4035052282616
 21
943.532773785528
 31
0.0
  0
LINE
  5
165F
330
1F
100
AcDbEntity
  8
Hewi
  6
CUSTOM
 62
    18
420
        0
370
     9
100
AcDbLine
 10
201.4035052282616
 20
943.532773785528
 30
0.0
 11
203.1075052599535
 21
943.532773785528
 31
0.0
  0
LINE
  5
1660
330
1F
100
AcDbEntity
  8
Hewi
  6
CUSTOM
 62
    18
420
        0
370
     9
100
AcDbLine
 10
203.1075052599535
 20
943.532773785528
 30
0.0
 11
205.9095053120673
 21
943.532773785528
 31
0.0
  0
LINE
  5
1661
330
1F
100
AcDbEntity
  8
Hewi
  6
CUSTOM
 62
    18
420
        0
370
     9
100
AcDbLine
 10
205.9095053120673
 20
943.532773785528
 30
0.0
 11
208.8225053662517
 21
943.532773785528
 31
0.0
  0
LINE
  5
1662
330
1F
100
AcDbEntity
  8
Hewi
  6
CUSTOM
 62
    18
420
        0
370
     9
100
AcDbLine
 10
185.460184135709
 20
943.5037119529303
 30
0.0
 11
699.3706446508833
 21
943.3676162048126
 31
0.0
  0
LINE
  5
1669
330
1F
100
AcDbEntity
  8
Hewi
  6
CUSTOM
 62
    18
420
        0
370
     9
100
AcDbLine
 10
696.2565038875091
 20
943.532773785528
 30
0.0
 11
696.9365039001585
 21
943.532773785528
 31
0.0
  0
LINE
  5
166B
330
1F
100
AcDbEntity
  8
Hewi
  6
CUSTOM
 62
    18
420
        0
370
     9
100
AcDbLine
 10
697.5495039115576
 20
943.532773785528
 30
0.0
 11
697.7445039151845
 21
943.532773785528
 31
0.0
  0
LINE
  5
166C
330
1F
100
AcDbEntity
  8
Hewi
  6
CUSTOM
 62
    18
420
        0
370
     9
100
AcDbLine
 10
697.7445039151845
 20
943.532773785528
 30
0.0
 11
697.8225039166409
 21
943.532773785528
 31
0.0
  0
LINE
  5
166D
330
1F
100
AcDbEntity
  8
Hewi
  6
CUSTOM
 62
    18
420
        0
370
     9
100
AcDbLine
 10
697.8225039166409
 20
943.532773785528
 30
0.0
 11
697.8225039166409
 21
969.5327737836382
 31
0.0
  0
LWPOLYLINE
  5
17CE
330
1F
100
AcDbEntity
  8
Hewi
  6
CUSTOM
 62
    18
420
        0
370
     9
100
AcDbPolyline
 90
        3
 70
     0
 43
0.0
 10
692.048808157233
 20
963.9887737840435
 10
692.1539186061871
 20
965.25277378395
 10
692.2294058895921
 20
965.7617737839135
  0
LINE
  5
17CF
330
1F
100
AcDbEntity
  8
Hewi
  6
CUSTOM
 62
    18
420
        0
370
     9
100
AcDbLine
 10
691.862990118777
 20
948.1327737851932
 30
0.0
 11
691.8254950630799
 21
950.7507737850064
 31
0.0
  0
LINE
  5
17D2
330
1F
100
AcDbEntity
  8
Hewi
  6
CUSTOM
 62
    18
420
        0
370
     9
100
AcDbLine
 10
691.862990118777
 20
950.1677737850455
 30
0.0
 11
691.8254950630799
 21
952.7857737848584
 31
0.0
  0
LINE
  5
17D3
330
1F
100
AcDbEntity
  8
Hewi
  6
CUSTOM
 62
    18
420
        0
370
     9
100
AcDbLine
 10
187.8225039166409
 20
968.5377737837113
 30
0.0
 11
187.8225039166409
 21
942.537773785601
 31
0.0
  0
LINE
  5
17E9
330
1F
100
AcDbEntity
  8
Hewi
  6
CUSTOM
 62
    18
420
        0
370
     9
100
AcDbLine
 10
691.8158323578749
 20
943.3497551103553
 30
0.0
 11
691.8225027460231
 21
968.5377737837113
 31
0.0
  0
LINE
  5
17EC
330
1F
100
AcDbEntity
  8
Hewi
  6
CUSTOM
 62
    18
420
        0
370
     9
100
AcDbLine
 10
208.8225053662517
 20
979.5327737829119
 30
0.0
 11
205.3025053007822
 21
979.5327737829119
 31
0.0
  0
LINE
  5
17ED
330
1F
100
AcDbEntity
  8
Hewi
  6
CUSTOM
 62
    18
420
        0
370
     9
100
AcDbLine
 10
205.3025053007822
 20
979.5327737829119
 30
0.0
 11
201.9185052378397
 21
979.5327737829119
 31
0.0
  0
LINE
  5
17EE
330
1F
100
AcDbEntity
  8
Hewi
  6
CUSTOM
 62
    18
420
        0
370
     9
100
AcDbLine
 10
201.9185052378397
 20
979.5327737829119
 30
0.0
 11
198.9895051833609
 21
979.5327737829119
 31
0.0
  0
LINE
  5
17EF
330
1F
100
AcDbEntity
  8
Hewi
  6
CUSTOM
 62
    18
420
        0
370
     9
100
AcDbLine
 10
198.9895051833609
 20
979.5327737829119
 30
0.0
 11
196.4185051355434
 21
979.5327737829119
 31
0.0
  0
LINE
  5
17F0
330
1F
100
AcDbEntity
  8
Hewi
  6
CUSTOM
 62
    18
420
        0
370
     9
100
AcDbLine
 10
196.4185051355434
 20
979.5327737829119
 30
0.0
 11
194.0265050910547
 21
979.5327737829119
 31
0.0
  0
LINE
  5
17F1
330
1F
100
AcDbEntity
  8
Hewi
  6
CUSTOM
 62
    18
420
        0
370
     9
100
AcDbLine
 10
194.0265050910547
 20
979.5327737829119
 30
0.0
 11
192.2665050583182
 21
979.5327737829119
 31
0.0
  0
LINE
  5
17F2
330
1F
100
AcDbEntity
  8
Hewi
  6
CUSTOM
 62
    18
420
        0
370
     9
100
AcDbLine
 10
192.2665050583182
 20
979.5327737829119
 30
0.0
 11
191.4665050434397
 21
979.5327737829119
 31
0.0
  0
LINE
  5
17F3
330
1F
100
AcDbEntity
  8
Hewi
  6
CUSTOM
 62
    18
420
        0
370
     9
100
AcDbLine
 10
191.4665050434397
 20
979.5327737829119
 30
0.0
 11
191.1495050375433
 21
979.5327737829119
 31
0.0
  0
LINE
  5
17F4
330
1F
100
AcDbEntity
  8
Hewi
  6
CUSTOM
 62
    18
420
        0
370
     9
100
AcDbLine
 10
191.1495050375433
 20
979.5327737829119
 30
0.0
 11
190.9165050332103
 21
979.5327737829119
 31
0.0
  0
LINE
  5
17F5
330
1F
100
AcDbEntity
  8
Hewi
  6
CUSTOM
 62
    18
420
        0
370
     9
100
AcDbLine
 10
190.9165050332103
 20
979.5327737829119
 30
0.0
 11
190.8225050314595
 21
979.5327737829119
 31
0.0
  0
LINE
  5
17F6
330
1F
100
AcDbEntity
  8
Hewi
  6
CUSTOM
 62
    18
420
        0
370
     9
100
AcDbLine
 10
190.8225050314595
 20
979.5327737829119
 30
0.0
 11
190.0055050162645
 21
979.4187737829195
 31
0.0
  0
LINE
  5
17F7
330
1F
100
AcDbEntity
  8
Hewi
  6
CUSTOM
 62
    18
420
        0
370
     9
100
AcDbLine
 10
190.0055050162645
 20
979.4187737829195
 30
0.0
 11
189.7445050114129
 21
979.3327737829264
 31
0.0
  0
LINE
  5
17F8
330
1F
100
AcDbEntity
  8
Hewi
  6
CUSTOM
 62
    18
420
        0
370
     9
100
AcDbLine
 10
189.7445050114129
 20
979.3327737829264
 30
0.0
 11
189.2495050022025
 21
979.0877737829442
 31
0.0
  0
LINE
  5
17F9
330
1F
100
AcDbEntity
  8
Hewi
  6
CUSTOM
 62
    18
420
        0
370
     9
100
AcDbLine
 10
189.2495050022025
 20
979.0877737829442
 30
0.0
 11
188.9055049958024
 21
978.840773782962
 31
0.0
  0
LINE
  5
17FA
330
1F
100
AcDbEntity
  8
Hewi
  6
CUSTOM
 62
    18
420
        0
370
     9
100
AcDbLine
 10
188.9055049958024
 20
978.840773782962
 30
0.0
 11
188.5145049885341
 21
978.4497737829907
 31
0.0
  0
LINE
  5
17FB
330
1F
100
AcDbEntity
  8
Hewi
  6
CUSTOM
 62
    18
420
        0
370
     9
100
AcDbLine
 10
188.5145049885341
 20
978.4497737829907
 30
0.0
 11
188.2675049839363
 21
978.1057737830153
 31
0.0
  0
LINE
  5
17FC
330
1F
100
AcDbEntity
  8
Hewi
  6
CUSTOM
 62
    18
420
        0
370
     9
100
AcDbLine
 10
188.2675049839363
 20
978.1057737830153
 30
0.0
 11
188.0225049793789
 21
977.6107737830516
 31
0.0
  0
LINE
  5
17FD
330
1F
100
AcDbEntity
  8
Hewi
  6
CUSTOM
 62
    18
420
        0
370
     9
100
AcDbLine
 10
188.0225049793789
 20
977.6107737830516
 30
0.0
 11
187.9365049777825
 21
977.3497737830703
 31
0.0
  0
LINE
  5
17FE
330
1F
100
AcDbEntity
  8
Hewi
  6
CUSTOM
 62
    18
420
        0
370
     9
100
AcDbLine
 10
187.9365049777825
 20
977.3497737830703
 30
0.0
 11
187.8225049756601
 21
976.5327737831293
 31
0.0
  0
LINE
  5
17FF
330
1F
100
AcDbEntity
  8
Hewi
  6
CUSTOM
 62
    18
420
        0
370
     9
100
AcDbLine
 10
187.8225049756601
 20
976.5327737831293
 30
0.0
 11
187.8225049756601
 21
972.5327737834204
 31
0.0
  0
LINE
  5
1800
330
1F
100
AcDbEntity
  8
Hewi
  6
CUSTOM
 62
    18
420
        0
370
     9
100
AcDbLine
 10
187.8225049756601
 20
972.5327737834204
 30
0.0
 11
187.9365049777825
 21
971.7157737834796
 31
0.0
  0
LINE
  5
1801
330
1F
100
AcDbEntity
  8
Hewi
  6
CUSTOM
 62
    18
420
        0
370
     9
100
AcDbLine
 10
187.9365049777825
 20
971.7157737834796
 30
0.0
 11
188.1065049809458
 21
971.2577737835136
 31
0.0
  0
LINE
  5
1802
330
1F
100
AcDbEntity
  8
Hewi
  6
CUSTOM
 62
    18
420
        0
370
     9
100
AcDbLine
 10
188.1065049809458
 20
971.2577737835136
 30
0.0
 11
188.2675049839363
 21
970.9597737835347
 31
0.0
  0
LINE
  5
1803
330
1F
100
AcDbEntity
  8
Hewi
  6
CUSTOM
 62
    18
420
        0
370
     9
100
AcDbLine
 10
188.2675049839363
 20
970.9597737835347
 30
0.0
 11
188.9055049958024
 21
970.2247737835888
 31
0.0
  0
LINE
  5
1804
330
1F
100
AcDbEntity
  8
Hewi
  6
CUSTOM
 62
    18
420
        0
370
     9
100
AcDbLine
 10
188.9055049958024
 20
970.2247737835888
 30
0.0
 11
189.7445050114129
 21
969.7327737836239
 31
0.0
  0
LINE
  5
1827
330
1F
100
AcDbEntity
  8
Hewi
  6
CUSTOM
 62
    18
420
        0
370
     9
100
AcDbLine
 10
695.3791281898173
 20
979.5327737829119
 30
0.0
 11
190.8225050314591
 21
979.5327737829119
 31
0.0
  0
ENDSEC
  0
SECTION
  2
OBJECTS
  0
DICTIONARY
  5
C
330
0
100
AcDbDictionary
281
     1
  3
ACAD_CIP_PREVIOUS_PRODUCT_INFO
350
175
  3
ACAD_COLOR
350
16F
  3
ACAD_DETAILVIEWSTYLE
350
16A
  3
ACAD_GROUP
350
D
  3
ACAD_IMAGE_DICT
350
6E
  3
ACAD_LAYOUT
350
1A
  3
ACAD_MATERIAL
350
43
  3
ACAD_MLEADERSTYLE
350
6B
  3
ACAD_MLINESTYLE
350
17
  3
ACAD_PLOTSETTINGS
350
19
  3
ACAD_PLOTSTYLENAME
350
E
  3
ACAD_SCALELIST
350
47
  3
ACAD_SECTIONVIEWSTYLE
350
16B
  3
ACAD_TABLESTYLE
350
69
  3
ACAD_VISUALSTYLE
350
2A
  3
ACDB_RECOMPOSE_DATA
350
1829
  3
AcDbVariableDictionary
350
166
  0
SUN
  5
6D
330
29
100
AcDbSun
 90
        1
290
     1
 63
     7
421
 16777215
 40
1.0
291
     1
 91
  2455826
 92
 54000000
292
     0
 70
     0
 71
   256
280
     1
1001
ACAD
1000
AcDbSavedByObjectVersion
1070
     0
  0
DICTIONARY
  5
374
330
2
100
AcDbDictionary
280
     1
281
     1
  3
ACAD_LAYERSTATES
360
375
  0
DICTIONARY
  5
372
330
371
100
AcDbDictionary
280
     1
281
     1
  0
DICTIONARY
  5
5EE
330
1F
100
AcDbDictionary
280
     1
281
     1
  3
ACAD_SORTENTS
360
5EF
  0
XRECORD
  5
175
102
{ACAD_REACTORS
330
C
102
}
330
C
100
AcDbXrecord
280
     1
300
ACDLT
300
2021
300

  0
DICTIONARY
  5
16F
102
{ACAD_REACTORS
330
C
102
}
330
C
100
AcDbDictionary
281
     1
  0
DICTIONARY
  5
16A
102
{ACAD_REACTORS
330
C
102
}
330
C
100
AcDbDictionary
281
     1
  3
Metric50
350
171
  0
DICTIONARY
  5
D
102
{ACAD_REACTORS
330
C
102
}
330
C
100
AcDbDictionary
281
     1
  0
DICTIONARY
  5
6E
102
{ACAD_REACTORS
330
C
102
}
330
C
100
AcDbDictionary
281
     1
  0
DICTIONARY
  5
1A
102
{ACAD_REACTORS
330
C
102
}
330
C
100
AcDbDictionary
281
     1
  3
Layout1
350
1E
  3
Layout2
350
26
  3
Model
350
22
  0
DICTIONARY
  5
43
102
{ACAD_REACTORS
330
C
102
}
330
C
100
AcDbDictionary
281
     1
  3
ByBlock
350
45
  3
ByLayer
350
44
  3
Global
350
46
  0
DICTIONARY
  5
6B
102
{ACAD_REACTORS
330
C
102
}
330
C
100
AcDbDictionary
281
     1
  3
Standard
350
6C
  0
DICTIONARY
  5
17
102
{ACAD_REACTORS
330
C
102
}
330
C
100
AcDbDictionary
281
     1
  3
Standard
350
18
  0
DICTIONARY
  5
19
102
{ACAD_REACTORS
330
C
102
}
330
C
100
AcDbDictionary
281
     1
  0
ACDBDICTIONARYWDFLT
  5
E
102
{ACAD_REACTORS
330
C
102
}
330
C
100
AcDbDictionary
281
     1
  3
Normal
350
F
100
AcDbDictionaryWithDefault
340
F
  0
DICTIONARY
  5
47
102
{ACAD_REACTORS
330
C
102
}
330
C
100
AcDbDictionary
281
     1
  3
A0
350
48
  3
A1
350
49
  3
A2
350
4A
  3
A3
350
4B
  3
A4
350
4C
  3
A5
350
4D
  3
A6
350
4E
  3
A7
350
4F
  3
A8
350
50
  3
A9
350
51
  3
B0
350
52
  3
B1
350
53
  3
B2
350
54
  3
B3
350
55
  3
B4
350
56
  3
B5
350
57
  3
B6
350
58
  3
B7
350
59
  3
B8
350
5A
  3
B9
350
5B
  3
C0
350
5C
  3
C1
350
5D
  3
C2
350
5E
  3
C3
350
5F
  3
C4
350
60
  3
C5
350
61
  3
C6
350
62
  3
C7
350
63
  3
C8
350
64
  3
C9
350
65
  3
D0
350
66
  3
D1
350
67
  3
D2
350
68
  0
DICTIONARY
  5
16B
102
{ACAD_REACTORS
330
C
102
}
330
C
100
AcDbDictionary
281
     1
  3
Metric50
350
170
  0
DICTIONARY
  5
69
102
{ACAD_REACTORS
330
C
102
}
330
C
100
AcDbDictionary
281
     1
  3
Standard
350
6A
  0
DICTIONARY
  5
2A
102
{ACAD_REACTORS
330
C
102
}
330
C
100
AcDbDictionary
281
     1
  3
2dWireframe
350
2F
  3
Basic
350
32
  3
Brighten
350
36
  3
ColorChange
350
3A
  3
Conceptual
350
34
  3
Dim
350
35
  3
EdgeColorOff
350
3D
  3
Facepattern
350
39
  3
Flat
350
2B
  3
FlatWithEdges
350
2C
  3
Gouraud
350
2D
  3
GouraudWithEdges
350
2E
  3
Hidden
350
31
  3
JitterOff
350
3B
  3
Linepattern
350
38
  3
OverhangOff
350
3C
  3
Realistic
350
33
  3
Shaded
350
42
  3
Shaded with edges
350
41
  3
Shades of Gray
350
3E
  3
Sketchy
350
3F
  3
Thicken
350
37
  3
Wireframe
350
30
  3
X-Ray
350
40
  0
XRECORD
  5
1829
102
{ACAD_REACTORS
330
C
102
}
330
C
100
AcDbXrecord
280
     1
 90
        1
330
6A
  0
DICTIONARY
  5
166
102
{ACAD_REACTORS
330
C
102
}
330
C
100
AcDbDictionary
281
     1
  3
CANNOSCALE
350
167
  3
CENTEREXE
350
16C
  3
CENTERLTYPEFILE
350
16D
  3
CMLEADERSTYLE
350
169
  3
CTABLESTYLE
350
168
  3
CVIEWDETAILSTYLE
350
667
  3
CVIEWSECTIONSTYLE
350
668
  0
DICTIONARY
  5
375
102
{ACAD_REACTORS
330
374
102
}
330
374
100
AcDbDictionary
281
     1
  0
SORTENTSTABLE
  5
5EF
102
{ACAD_REACTORS
330
5EE
102
}
330
5EE
100
AcDbSortentsTable
330
1F
331
115E
  5
117E
331
115F
  5
117F
331
1160
  5
1180
331
1161
  5
1181
331
1162
  5
1182
331
1163
  5
1183
331
1164
  5
1184
331
1165
  5
1185
331
1166
  5
1186
331
1167
  5
1187
331
1168
  5
1188
331
1169
  5
1189
331
116A
  5
118A
331
116B
  5
118B
331
116C
  5
118C
331
116D
  5
118D
331
116E
  5
118E
331
116F
  5
118F
331
1170
  5
1190
331
1171
  5
1191
331
1172
  5
1192
331
1173
  5
1193
331
1174
  5
1194
331
1175
  5
1195
331
1176
  5
1196
331
1177
  5
1197
331
1178
  5
1198
331
1179
  5
1199
331
117A
  5
119A
331
117B
  5
119B
331
117C
  5
119C
331
117D
  5
119D
331
117E
  5
119E
331
117F
  5
119F
331
1180
  5
11A0
331
1181
  5
11A1
331
1182
  5
11A2
331
1183
  5
11A3
331
1184
  5
11A4
331
1185
  5
11A5
331
1186
  5
11A6
331
1187
  5
11A7
331
1188
  5
11A8
331
1189
  5
11A9
331
118A
  5
11AA
331
118B
  5
11AB
331
118C
  5
11AC
331
118D
  5
11AD
331
118E
  5
11AE
331
118F
  5
11AF
331
1190
  5
11B0
331
1191
  5
11B1
331
1192
  5
1259
331
1193
  5
125A
331
1194
  5
125B
331
1195
  5
125C
331
1196
  5
125D
331
1197
  5
125E
331
1198
  5
125F
331
1199
  5
1260
331
119A
  5
1261
331
119B
  5
1262
331
119C
  5
1263
331
119D
  5
1264
331
119E
  5
1265
331
119F
  5
1266
331
11A0
  5
1267
331
11A1
  5
1268
331
11A2
  5
1269
331
11A3
  5
126A
331
11A4
  5
126B
331
11A5
  5
126C
331
11A6
  5
126D
331
11A7
  5
126E
331
11A8
  5
126F
331
11A9
  5
1270
331
11AA
  5
1271
331
11AB
  5
1272
331
11AC
  5
1273
331
11AD
  5
1274
331
11AE
  5
1275
331
11AF
  5
1276
331
11B0
  5
1277
331
11B1
  5
1278
331
139B
  5
13E0
331
139C
  5
13E1
331
139D
  5
13E2
331
139E
  5
13E3
331
139F
  5
13E4
331
13A0
  5
13E5
331
13A1
  5
13E6
331
13A2
  5
13E7
331
13A3
  5
13E8
331
13A4
  5
13E9
331
13A5
  5
13EA
331
13A6
  5
13EB
331
13A7
  5
13EC
331
13A8
  5
13ED
331
13A9
  5
13EE
331
13AA
  5
13EF
331
13AB
  5
13F0
331
13AC
  5
13F1
331
13AD
  5
13F2
331
13AE
  5
13F3
331
13AF
  5
13F4
331
13B0
  5
13F5
331
13B1
  5
13F6
331
13B2
  5
13F7
331
13B3
  5
13F8
331
13B4
  5
13F9
331
13B5
  5
13FA
331
13B6
  5
13FB
331
13B7
  5
13FC
331
13B8
  5
13FD
331
13B9
  5
13FE
331
13BA
  5
13FF
331
13BB
  5
1400
331
13BC
  5
1401
331
13BD
  5
1402
331
13BE
  5
1403
331
13BF
  5
1404
331
13C0
  5
1405
331
13C1
  5
1406
331
13C2
  5
1407
331
13C3
  5
1408
331
13C4
  5
1409
331
13C5
  5
140A
331
13C6
  5
140B
331
13C7
  5
140C
331
13C8
  5
140D
331
13C9
  5
140E
331
13CA
  5
140F
331
13CB
  5
1410
331
13CC
  5
1411
331
13CD
  5
1412
331
13CE
  5
1413
331
13CF
  5
1414
331
13D0
  5
1415
331
13D1
  5
1416
331
13D2
  5
1417
331
13D3
  5
1418
331
13D4
  5
1419
331
13D5
  5
141A
331
13D6
  5
141B
331
13D7
  5
141C
331
13D8
  5
141D
331
13D9
  5
141E
331
13DA
  5
141F
331
13DB
  5
1420
331
13DC
  5
1421
331
13DD
  5
1422
331
13DE
  5
1423
331
13DF
  5
1424
331
13E0
  5
1425
331
13E1
  5
1426
331
13E2
  5
1427
331
13E3
  5
1428
331
13E4
  5
1429
331
13E5
  5
142A
331
13E6
  5
142B
331
13E7
  5
142C
331
13E8
  5
142D
331
13E9
  5
142E
331
13EA
  5
142F
331
13EB
  5
1430
331
13EC
  5
1431
331
13ED
  5
1432
331
13EE
  5
1433
331
13EF
  5
1434
331
13F0
  5
1435
331
13F1
  5
1492
331
13F2
  5
1493
331
13F3
  5
1494
331
13F4
  5
1495
331
13F5
  5
1496
331
13F6
  5
1497
331
13F7
  5
1498
331
13F8
  5
1499
331
13F9
  5
149A
331
13FA
  5
149B
331
13FB
  5
149C
331
13FC
  5
149D
331
13FD
  5
149E
331
13FE
  5
149F
331
13FF
  5
14A0
331
1400
  5
14A1
331
1401
  5
14A2
331
1402
  5
14A3
331
1403
  5
14A4
331
1404
  5
14A5
331
1405
  5
14A6
331
1406
  5
14A7
331
1407
  5
14A8
331
1408
  5
14A9
331
1409
  5
14AA
331
140A
  5
14AB
331
140B
  5
14AC
331
140C
  5
14AD
331
140D
  5
14AE
331
140E
  5
14AF
331
140F
  5
14B0
331
1410
  5
14B1
331
1411
  5
14B2
331
1412
  5
14B3
331
1413
  5
14B4
331
1414
  5
14B5
331
1415
  5
14B6
331
1416
  5
14B7
331
1417
  5
14B8
331
1418
  5
14B9
331
1419
  5
14BA
331
141A
  5
14BB
331
141B
  5
14BC
331
141C
  5
14BD
331
141D
  5
14BE
331
141E
  5
14BF
331
141F
  5
14C0
331
1420
  5
14C1
331
1421
  5
14C2
331
1422
  5
14C3
331
1423
  5
14C4
331
1424
  5
14C5
331
1425
  5
14C6
331
1426
  5
14C7
331
1427
  5
14C8
331
1428
  5
14C9
331
1429
  5
14CA
331
142A
  5
14CB
331
142B
  5
14CC
331
142C
  5
14CD
331
142D
  5
14CE
331
142E
  5
14CF
331
142F
  5
14D0
331
1430
  5
14D1
331
1431
  5
14D2
331
1432
  5
14D3
331
1433
  5
14D4
331
1434
  5
14D5
331
1435
  5
14D6
331
1493
  5
115E
331
1494
  5
115F
331
1495
  5
1160
331
1496
  5
1161
331
1497
  5
1162
331
1498
  5
1163
331
1499
  5
1164
331
149A
  5
1165
331
149B
  5
1166
331
149C
  5
1167
331
149D
  5
1168
331
149E
  5
1169
331
149F
  5
116A
331
14A0
  5
116B
331
14A1
  5
116C
331
14A2
  5
116D
331
14A3
  5
116E
331
14A4
  5
116F
331
14A5
  5
1170
331
14A6
  5
1171
331
14A7
  5
1172
331
14A8
  5
1173
331
14A9
  5
1174
331
14AA
  5
1175
331
14AB
  5
1176
331
14AC
  5
1177
331
14AD
  5
1178
331
14AE
  5
1179
331
14AF
  5
117A
331
14B0
  5
117B
331
14B1
  5
117C
331
14B2
  5
117D
331
14B3
  5
14D8
331
159B
  5
15CD
331
159C
  5
15CE
331
159D
  5
15CF
331
159E
  5
15D0
331
159F
  5
15D1
331
15A0
  5
15D2
331
15A1
  5
15D3
331
15A2
  5
15D4
331
15A4
  5
15EC
331
15A5
  5
15ED
331
15A6
  5
15EE
331
15A7
  5
15EF
331
15A8
  5
15F0
331
15A9
  5
15F1
331
15AA
  5
15F2
331
15AB
  5
15F3
331
15AC
  5
15F4
331
15AD
  5
15F5
331
15AE
  5
15F6
331
15AF
  5
15F7
331
15B0
  5
15F8
331
15B1
  5
15F9
331
15B2
  5
15FA
331
15B3
  5
15FB
331
15B4
  5
15FC
331
15B5
  5
15FD
331
15B6
  5
15FE
331
15B7
  5
15FF
331
15B8
  5
1600
331
15B9
  5
1601
331
15BA
  5
1602
331
15BB
  5
1603
331
15BC
  5
1604
331
15BD
  5
1605
331
15BE
  5
1606
331
15BF
  5
1607
331
15C0
  5
1608
331
15C1
  5
1609
331
15C2
  5
160A
331
15C3
  5
160B
331
15C4
  5
160C
331
15C5
  5
160D
331
15C6
  5
160E
331
15C7
  5
160F
331
15C8
  5
1610
331
15C9
  5
1611
331
15CA
  5
1612
331
15CB
  5
1613
331
15CC
  5
1614
331
15CD
  5
1615
331
15CE
  5
1616
331
15CF
  5
1617
331
15D0
  5
1618
331
15D1
  5
1619
331
15D2
  5
161A
331
15D3
  5
161B
331
15D4
  5
161C
331
15D5
  5
161D
331
15D6
  5
161E
331
15D7
  5
161F
331
15D8
  5
1620
331
15D9
  5
1621
331
15DA
  5
1622
331
15DB
  5
1623
331
15DC
  5
1624
331
15DD
  5
1625
331
15DE
  5
1626
331
15DF
  5
1627
331
15E0
  5
1628
331
15E1
  5
1629
331
15E2
  5
162A
331
15E3
  5
162B
331
15E4
  5
162C
331
15E5
  5
162D
331
15E6
  5
162E
331
15E7
  5
162F
331
15E8
  5
1630
331
15E9
  5
1631
331
15EA
  5
1632
331
15EB
  5
1633
331
15EC
  5
1634
331
15ED
  5
1635
331
15EE
  5
1636
331
15EF
  5
1637
331
15F0
  5
1638
331
15F1
  5
1639
331
15F2
  5
163A
331
15F3
  5
163B
331
15F4
  5
163C
331
15F5
  5
163D
331
15F6
  5
163E
331
15F7
  5
163F
331
15F8
  5
1640
331
15F9
  5
1641
331
15FA
  5
1642
331
15FB
  5
1643
331
15FC
  5
1644
331
15FD
  5
1645
331
15FE
  5
1646
331
15FF
  5
1647
331
1600
  5
1648
331
1601
  5
1649
331
1602
  5
164A
331
1603
  5
164B
331
1604
  5
164C
331
1605
  5
164D
331
1606
  5
164E
331
1607
  5
164F
331
1608
  5
1650
331
1609
  5
1651
331
160A
  5
1652
331
160B
  5
1653
331
160C
  5
1654
331
160D
  5
1655
331
160E
  5
1656
331
160F
  5
1657
331
1610
  5
1658
331
1611
  5
1659
331
1612
  5
165A
331
1613
  5
165B
331
1614
  5
165C
331
1615
  5
165D
331
1616
  5
165E
331
1617
  5
165F
331
1618
  5
1660
331
1619
  5
1661
331
161A
  5
1662
331
161B
  5
1663
331
161C
  5
1664
331
161D
  5
1665
331
161E
  5
1666
331
161F
  5
1667
331
1620
  5
1668
331
1621
  5
1669
331
1622
  5
166B
331
1623
  5
172B
331
1624
  5
172C
331
1625
  5
172D
331
1626
  5
172E
331
1627
  5
172F
331
1628
  5
1730
331
1629
  5
1731
331
162A
  5
1732
331
162B
  5
1733
331
162C
  5
1734
331
162D
  5
1735
331
162E
  5
1736
331
162F
  5
1737
331
1630
  5
1738
331
1631
  5
1739
331
1632
  5
173A
331
1633
  5
173B
331
1634
  5
173C
331
1635
  5
173D
331
1636
  5
173E
331
1637
  5
173F
331
1638
  5
1740
331
1639
  5
1741
331
163A
  5
1744
331
1641
  5
17E9
331
1642
  5
159A
331
1643
  5
159B
331
1644
  5
159C
331
1645
  5
159D
331
1646
  5
159E
331
1647
  5
159F
331
1648
  5
15A0
331
1649
  5
15A1
331
164A
  5
15A2
331
164B
  5
15A3
331
164C
  5
15A5
331
164D
  5
15A6
331
164E
  5
15A7
331
164F
  5
15A8
331
1650
  5
15A9
331
1657
  5
15D5
331
1658
  5
15D6
331
1659
  5
15D7
331
165A
  5
15D8
331
165B
  5
15D9
331
165C
  5
15DA
331
165D
  5
15DB
331
165E
  5
15DC
331
165F
  5
15DD
331
1660
  5
15DE
331
1661
  5
15DF
331
1662
  5
15E6
331
1669
  5
15E8
331
166B
  5
15E9
331
166C
  5
15EA
331
166D
  5
15EB
331
17CE
  5
17EA
331
17CF
  5
17EC
331
17D2
  5
1826
331
17D3
  5
1802
331
17E9
  5
1803
331
17EC
  5
15B4
331
17ED
  5
15B5
331
17EE
  5
15B6
331
17EF
  5
15B7
331
17F0
  5
15B8
331
17F1
  5
15B9
331
17F2
  5
15BA
331
17F3
  5
15BB
331
17F4
  5
15BC
331
17F5
  5
15BD
331
17F6
  5
15BE
331
17F7
  5
15BF
331
17F8
  5
15C0
331
17F9
  5
15C1
331
17FA
  5
15C2
331
17FB
  5
15C3
331
17FC
  5
15C4
331
17FD
  5
15C5
331
17FE
  5
15C6
331
17FF
  5
15C7
331
1800
  5
15C8
331
1801
  5
15C9
331
1802
  5
15CA
331
1803
  5
15CB
331
1804
  5
15CC
331
1827
  5
15B3
  0
ACDBDETAILVIEWSTYLE
  5
171
102
{ACAD_REACTORS
330
16A
102
}
330
16A
100
AcDbModelDocViewStyle
 70
     0
  3
Metric50
290
     0
300
Metric50
 90
        0
100
AcDbDetailViewStyle
 70
     0
 71
     0
 90
        3
 71
     1
340
11
 62
   256
 40
5.0
340
0
 62
   256
 40
5.0
300

 40
0.0
280
     1
 71
     2
340
16
 90
       25
 62
   256
 71
     3
340
11
 62
   256
 40
5.0
 90
        0
 40
15.0
 90
        1
300
%<\AcVar ViewDetailId>% (%<\AcVar ViewScale \f "%sn">%)
 71
     4
340
16
 90
       25
 62
   256
340
16
 90
       25
 62
   256
280
     0
  0
LAYOUT
  5
1E
102
{ACAD_REACTORS
330
1A
102
}
330
1A
100
AcDbPlotSettings
  1

  2
none_device
  4

  6

 40
0.0
 41
0.0
 42
0.0
 43
0.0
 44
0.0
 45
0.0
 46
0.0
 47
0.0
 48
0.0
 49
0.0
140
0.0
141
0.0
142
1.0
143
1.0
 70
   688
 72
     1
 73
     0
 74
     5
  7

 75
    16
147
1.0
 76
     0
 77
     2
 78
   300
148
0.0
149
0.0
100
AcDbLayout
  1
Layout1
 70
     1
 71
     1
 10
0.0
 20
0.0
 11
420.0
 21
297.0
 12
0.0
 22
0.0
 32
0.0
 14
1.000000000000000E+20
 24
1.000000000000000E+20
 34
1.000000000000000E+20
 15
-1.000000000000000E+20
 25
-1.000000000000000E+20
 35
-1.000000000000000E+20
146
0.0
 13
0.0
 23
0.0
 33
0.0
 16
1.0
 26
0.0
 36
0.0
 17
0.0
 27
1.0
 37
0.0
 76
     0
330
1B
  0
LAYOUT
  5
26
102
{ACAD_REACTORS
330
1A
102
}
330
1A
100
AcDbPlotSettings
  1

  2
none_device
  4

  6

 40
0.0
 41
0.0
 42
0.0
 43
0.0
 44
0.0
 45
0.0
 46
0.0
 47
0.0
 48
0.0
 49
0.0
140
0.0
141
0.0
142
1.0
143
1.0
 70
   688
 72
     1
 73
     0
 74
     5
  7

 75
    16
147
1.0
 76
     0
 77
     2
 78
   300
148
0.0
149
0.0
100
AcDbLayout
  1
Layout2
 70
     1
 71
     2
 10
0.0
 20
0.0
 11
0.0
 21
0.0
 12
0.0
 22
0.0
 32
0.0
 14
0.0
 24
0.0
 34
0.0
 15
0.0
 25
0.0
 35
0.0
146
0.0
 13
0.0
 23
0.0
 33
0.0
 16
1.0
 26
0.0
 36
0.0
 17
0.0
 27
1.0
 37
0.0
 76
     0
330
23
  0
LAYOUT
  5
22
102
{ACAD_REACTORS
330
1A
102
}
330
1A
100
AcDbPlotSettings
  1

  2
none_device
  4
Letter_(8.50_x_11.00_Inches)
  6

 40
6.349999999999998
 41
6.349999999999998
 42
6.350005079999998
 43
6.350005079999998
 44
215.9
 45
279.4
 46
0.0
 47
0.0
 48
0.0
 49
0.0
140
0.0
141
0.0
142
1.0
143
1.0
 70
  1712
 72
     1
 73
     0
 74
     0
  7

 75
     0
147
1.0
 76
     0
 77
     2
 78
   300
148
0.0
149
0.0
100
AcDbLayout
  1
Model
 70
     1
 71
     0
 10
0.0
 20
0.0
 11
420.0
 21
297.0
 12
0.0
 22
0.0
 32
0.0
 14
-207.8283572922613
 24
-149.9999957938967
 34
0.0
 15
-155.2924570130382
 25
-104.8671957971767
 35
0.0
146
0.0
 13
0.0
 23
0.0
 33
0.0
 16
1.0
 26
0.0
 36
0.0
 17
0.0
 27
1.0
 37
0.0
 76
     0
330
1F
331
29
  0
MATERIAL
  5
45
102
{ACAD_REACTORS
330
43
102
}
330
43
100
AcDbMaterial
  1
ByBlock
 73
     1
 78
     1
172
     1
176
     1
270
     1
274
     1
  0
MATERIAL
  5
44
102
{ACAD_REACTORS
330
43
102
}
330
43
100
AcDbMaterial
  1
ByLayer
 73
     1
 78
     1
172
     1
176
     1
270
     1
274
     1
  0
MATERIAL
  5
46
102
{ACAD_REACTORS
330
43
102
}
330
43
100
AcDbMaterial
  1
Global
 73
     1
 78
     1
172
     1
176
     1
270
     1
274
     1
  0
MLEADERSTYLE
  5
6C
102
{ACAD_REACTORS
330
6B
102
}
330
6B
100
AcDbMLeaderStyle
179
     2
170
     2
171
     1
172
     0
 90
        2
 40
0.0
 41
0.0
173
     1
 91
-1056964608
340
14
 92
       -2
290
     1
 42
2.0
291
     1
 43
8.0
  3
Standard
 44
4.0
300

342
11
174
     1
178
     6
175
     1
176
     0
 93
-1056964608
 45
4.0
292
     0
297
     0
 46
4.0
 94
-1056964608
 47
1.0
 49
1.0
140
1.0
293
     1
141
0.0
294
     1
177
     0
142
1.0
295
     0
296
     0
143
3.75
271
     0
272
     9
273
     9
298
     0
  0
MLINESTYLE
  5
18
102
{ACAD_REACTORS
330
17
102
}
330
17
100
AcDbMlineStyle
  2
STANDARD
 70
     0
  3

 62
   256
 51
90.0
 52
90.0
 71
     2
 49
0.5
 62
   256
  6
BYLAYER
 49
-0.5
 62
   256
  6
BYLAYER
  0
ACDBPLACEHOLDER
  5
F
102
{ACAD_REACTORS
330
E
102
}
330
E
  0
SCALE
  5
48
102
{ACAD_REACTORS
330
47
102
}
330
47
100
AcDbScale
 70
     0
300
1:1
140
1.0
141
1.0
290
     1
  0
SCALE
  5
49
102
{ACAD_REACTORS
330
47
102
}
330
47
100
AcDbScale
 70
     0
300
1:2
140
1.0
141
2.0
290
     0
  0
SCALE
  5
4A
102
{ACAD_REACTORS
330
47
102
}
330
47
100
AcDbScale
 70
     0
300
1:4
140
1.0
141
4.0
290
     0
  0
SCALE
  5
4B
102
{ACAD_REACTORS
330
47
102
}
330
47
100
AcDbScale
 70
     0
300
1:5
140
1.0
141
5.0
290
     0
  0
SCALE
  5
4C
102
{ACAD_REACTORS
330
47
102
}
330
47
100
AcDbScale
 70
     0
300
1:8
140
1.0
141
8.0
290
     0
  0
SCALE
  5
4D
102
{ACAD_REACTORS
330
47
102
}
330
47
100
AcDbScale
 70
     0
300
1:10
140
1.0
141
10.0
290
     0
  0
SCALE
  5
4E
102
{ACAD_REACTORS
330
47
102
}
330
47
100
AcDbScale
 70
     0
300
1:16
140
1.0
141
16.0
290
     0
  0
SCALE
  5
4F
102
{ACAD_REACTORS
330
47
102
}
330
47
100
AcDbScale
 70
     0
300
1:20
140
1.0
141
20.0
290
     0
  0
SCALE
  5
50
102
{ACAD_REACTORS
330
47
102
}
330
47
100
AcDbScale
 70
     0
300
1:30
140
1.0
141
30.0
290
     0
  0
SCALE
  5
51
102
{ACAD_REACTORS
330
47
102
}
330
47
100
AcDbScale
 70
     0
300
1:40
140
1.0
141
40.0
290
     0
  0
SCALE
  5
52
102
{ACAD_REACTORS
330
47
102
}
330
47
100
AcDbScale
 70
     0
300
1:50
140
1.0
141
50.0
290
     0
  0
SCALE
  5
53
102
{ACAD_REACTORS
330
47
102
}
330
47
100
AcDbScale
 70
     0
300
1:100
140
1.0
141
100.0
290
     0
  0
SCALE
  5
54
102
{ACAD_REACTORS
330
47
102
}
330
47
100
AcDbScale
 70
     0
300
2:1
140
2.0
141
1.0
290
     0
  0
SCALE
  5
55
102
{ACAD_REACTORS
330
47
102
}
330
47
100
AcDbScale
 70
     0
300
4:1
140
4.0
141
1.0
290
     0
  0
SCALE
  5
56
102
{ACAD_REACTORS
330
47
102
}
330
47
100
AcDbScale
 70
     0
300
8:1
140
8.0
141
1.0
290
     0
  0
SCALE
  5
57
102
{ACAD_REACTORS
330
47
102
}
330
47
100
AcDbScale
 70
     0
300
10:1
140
10.0
141
1.0
290
     0
  0
SCALE
  5
58
102
{ACAD_REACTORS
330
47
102
}
330
47
100
AcDbScale
 70
     0
300
100:1
140
100.0
141
1.0
290
     0
  0
SCALE
  5
59
102
{ACAD_REACTORS
330
47
102
}
330
47
100
AcDbScale
 70
     0
300
1/128" = 1'-0"
140
0.0078125
141
12.0
290
     0
  0
SCALE
  5
5A
102
{ACAD_REACTORS
330
47
102
}
330
47
100
AcDbScale
 70
     0
300
1/64" = 1'-0"
140
0.015625
141
12.0
290
     0
  0
SCALE
  5
5B
102
{ACAD_REACTORS
330
47
102
}
330
47
100
AcDbScale
 70
     0
300
1/32" = 1'-0"
140
0.03125
141
12.0
290
     0
  0
SCALE
  5
5C
102
{ACAD_REACTORS
330
47
102
}
330
47
100
AcDbScale
 70
     0
300
1/16" = 1'-0"
140
0.0625
141
12.0
290
     0
  0
SCALE
  5
5D
102
{ACAD_REACTORS
330
47
102
}
330
47
100
AcDbScale
 70
     0
300
3/32" = 1'-0"
140
0.09375
141
12.0
290
     0
  0
SCALE
  5
5E
102
{ACAD_REACTORS
330
47
102
}
330
47
100
AcDbScale
 70
     0
300
1/8" = 1'-0"
140
0.125
141
12.0
290
     0
  0
SCALE
  5
5F
102
{ACAD_REACTORS
330
47
102
}
330
47
100
AcDbScale
 70
     0
300
3/16" = 1'-0"
140
0.1875
141
12.0
290
     0
  0
SCALE
  5
60
102
{ACAD_REACTORS
330
47
102
}
330
47
100
AcDbScale
 70
     0
300
1/4" = 1'-0"
140
0.25
141
12.0
290
     0
  0
SCALE
  5
61
102
{ACAD_REACTORS
330
47
102
}
330
47
100
AcDbScale
 70
     0
300
3/8" = 1'-0"
140
0.375
141
12.0
290
     0
  0
SCALE
  5
62
102
{ACAD_REACTORS
330
47
102
}
330
47
100
AcDbScale
 70
     0
300
1/2" = 1'-0"
140
0.5
141
12.0
290
     0
  0
SCALE
  5
63
102
{ACAD_REACTORS
330
47
102
}
330
47
100
AcDbScale
 70
     0
300
3/4" = 1'-0"
140
0.75
141
12.0
290
     0
  0
SCALE
  5
64
102
{ACAD_REACTORS
330
47
102
}
330
47
100
AcDbScale
 70
     0
300
1" = 1'-0"
140
1.0
141
12.0
290
     0
  0
SCALE
  5
65
102
{ACAD_REACTORS
330
47
102
}
330
47
100
AcDbScale
 70
     0
300
1-1/2" = 1'-0"
140
1.5
141
12.0
290
     0
  0
SCALE
  5
66
102
{ACAD_REACTORS
330
47
102
}
330
47
100
AcDbScale
 70
     0
300
3" = 1'-0"
140
3.0
141
12.0
290
     0
  0
SCALE
  5
67
102
{ACAD_REACTORS
330
47
102
}
330
47
100
AcDbScale
 70
     0
300
6" = 1'-0"
140
6.0
141
12.0
290
     0
  0
SCALE
  5
68
102
{ACAD_REACTORS
330
47
102
}
330
47
100
AcDbScale
 70
     0
300
1'-0" = 1'-0"
140
12.0
141
12.0
290
     0
  0
ACDBSECTIONVIEWSTYLE
  5
170
102
{ACAD_REACTORS
330
16B
102
}
330
16B
100
AcDbModelDocViewStyle
 70
     0
  3
Metric50
290
     0
300
Metric50
 90
        0
100
AcDbSectionViewStyle
 70
     0
 71
     0
 90
      102
 71
     1
340
11
 62
   256
 40
5.0
340
0
340
0
 62
   256
 40
5.0
300
I, O, Q, S, X, Z
 40
10.0
 90
        0
 40
2.5
 90
        0
 71
     2
340
16
 90
       25
 62
   256
340
16
 90
       50
 62
   256
 40
5.0
 40
2.5
 40
5.0
 71
     3
340
11
 62
   256
 40
5.0
 90
        0
 40
15.0
 90
        1
300
%<\AcVar ViewSectionStartId>%-%<\AcVar ViewSectionEndId>% (%<\AcVar ViewScale \f "%sn">%)
 71
     4
 62
   256
 62
   257
300
ANSI31
 40
1.0
 90
        0
290
     0
290
     0
 90
        6
 40
0.0
 40
1.570796326794896
 40
0.2617993877991494
 40
1.308996938995747
 40
-0.2617993877991494
 40
1.832595714594045
  0
TABLESTYLE
  5
6A
102
{ACAD_XDICTIONARY
360
180D
102
}
102
{ACAD_REACTORS
330
69
102
}
330
69
100
AcDbTableStyle
280
     0
  3
Standard
 70
     0
 71
     0
 40
1.5
 41
1.5
280
     0
281
     0
  7
Standard
140
4.5
170
     2
 62
     0
 63
     7
283
     0
 90
        4
 91
        0
  1

274
    -2
284
     1
 64
     0
275
    -2
285
     1
 65
     0
276
    -2
286
     1
 66
     0
277
    -2
287
     1
 67
     0
278
    -2
288
     1
 68
     0
279
    -2
289
     1
 69
     0
  7
Standard
140
6.0
170
     5
 62
     0
 63
     7
283
     0
 90
        4
 91
        0
  1

274
    -2
284
     1
 64
     0
275
    -2
285
     1
 65
     0
276
    -2
286
     1
 66
     0
277
    -2
287
     1
 67
     0
278
    -2
288
     1
 68
     0
279
    -2
289
     1
 69
     0
  7
Standard
140
4.5
170
     5
 62
     0
 63
     7
283
     0
 90
        4
 91
        0
  1

274
    -2
284
     1
 64
     0
275
    -2
285
     1
 65
     0
276
    -2
286
     1
 66
     0
277
    -2
287
     1
 67
     0
278
    -2
288
     1
 68
     0
279
    -2
289
     1
 69
     0
  0
VISUALSTYLE
  5
2F
102
{ACAD_REACTORS
330
2A
102
}
330
2A
100
AcDbVisualStyle
  2
2dWireframe
 70
     4
177
     3
291
     0
 70
    58
 90
        0
176
     1
 90
        2
176
     1
 90
        0
176
     1
 90
        0
176
     1
 40
0.6
176
     1
 40
30.0
176
     1
 62
     7
420
 16777215
176
     1
 90
        1
176
     1
 90
        4
176
     1
 62
     7
176
     1
 62
   257
176
     1
 90
        1
176
     1
 90
        1
176
     1
 40
1.0
176
     1
 90
        0
176
     1
 62
   257
176
     1
 40
1.0
176
     1
 90
        1
176
     1
 90
        6
176
     1
 90
        2
176
     1
 62
     7
176
     1
 90
        5
176
     1
 90
        0
176
     1
 90
        0
176
     1
290
     0
176
     1
 90
        1
176
     1
 40
0.0
176
     1
 90
        0
176
     1
290
     1
176
     1
290
     1
176
     1
290
     0
176
     1
290
     0
176
     1
290
     0
176
     1
290
     0
176
     1
290
     0
176
     1
290
     0
176
     1
290
     0
176
     1
 90
       50
176
     1
 40
0.0
176
     1
 40
1.0
176
     1
 90
        0
176
     1
 62
    18
176
     1
 90
       50
176
     1
 90
        3
176
     1
 62
     5
420
      255
176
     1
290
     0
176
     1
 90
       50
176
     1
 90
       50
176
     1
 90
       50
176
     1
290
     0
176
     1
 90
       50
176
     1
 62
   256
176
     0
 40
1.0
176
     0
 90
        2
176
     1
  1
strokes_ogs.tif
176
     1
290
     0
176
     1
 40
1.0
176
     1
 40
1.0
176
     1
1001
ACAD
1000
AcDbSavedByObjectVersion
1070
     0
  0
VISUALSTYLE
  5
32
102
{ACAD_REACTORS
330
2A
102
}
330
2A
100
AcDbVisualStyle
  2
Basic
 70
     7
177
     3
291
     1
 70
    58
 90
        1
176
     1
 90
        0
176
     1
 90
        1
176
     1
 90
        0
176
     1
 40
0.6
176
     1
 40
30.0
176
     1
 62
     7
420
 16777215
176
     1
 90
        0
176
     1
 90
        4
176
     1
 62
     7
176
     1
 62
   257
176
     1
 90
        1
176
     1
 90
        1
176
     1
 40
1.0
176
     1
 90
        8
176
     1
 62
     7
176
     1
 40
1.0
176
     1
 90
        1
176
     1
 90
        6
176
     1
 90
        2
176
     1
 62
     7
176
     1
 90
        5
176
     1
 90
        0
176
     1
 90
        0
176
     1
290
     0
176
     1
 90
        1
176
     1
 40
0.0
176
     1
 90
        0
176
     1
290
     0
176
     1
290
     1
176
     1
290
     1
176
     1
290
     0
176
     1
290
     0
176
     1
290
     0
176
     1
290
     0
176
     1
290
     0
176
     1
290
     0
176
     1
 90
       50
176
     1
 40
0.0
176
     1
 40
1.0
176
     1
 90
        0
176
     1
 62
    18
176
     1
 90
       50
176
     1
 90
        3
176
     1
 62
     5
420
      255
176
     1
290
     0
176
     1
 90
       50
176
     1
 90
       50
176
     1
 90
       50
176
     1
290
     0
176
     1
 90
       50
176
     1
 62
   256
176
     0
 40
1.0
176
     0
 90
        2
176
     1
  1
strokes_ogs.tif
176
     1
290
     0
176
     1
 40
1.0
176
     1
 40
1.0
176
     1
1001
ACAD
1000
AcDbSavedByObjectVersion
1070
     0
  0
VISUALSTYLE
  5
36
102
{ACAD_REACTORS
330
2A
102
}
330
2A
100
AcDbVisualStyle
  2
Brighten
 70
    12
177
     3
291
     1
 70
    58
 90
        2
176
     1
 90
        2
176
     1
 90
        0
176
     1
 90
        0
176
     1
 40
0.6
176
     1
 40
30.0
176
     1
 62
     7
420
 16777215
176
     1
 90
        1
176
     1
 90
        4
176
     1
 62
     7
176
     1
 62
   257
176
     1
 90
        1
176
     1
 90
        1
176
     1
 40
1.0
176
     1
 90
        8
176
     1
 62
     7
176
     1
 40
1.0
176
     1
 90
        1
176
     1
 90
        6
176
     1
 90
        2
176
     1
 62
     7
176
     1
 90
        5
176
     1
 90
        0
176
     1
 90
        0
176
     1
290
     0
176
     1
 90
        1
176
     1
 40
50.0
176
     1
 90
        0
176
     1
290
     0
176
     1
290
     1
176
     1
290
     1
176
     1
290
     0
176
     1
290
     0
176
     1
290
     0
176
     1
290
     0
176
     1
290
     0
176
     1
290
     0
176
     1
 90
       50
176
     1
 40
0.0
176
     1
 40
1.0
176
     1
 90
        0
176
     1
 62
    18
176
     1
 90
       50
176
     1
 90
        3
176
     1
 62
     5
420
      255
176
     1
290
     0
176
     1
 90
       50
176
     1
 90
       50
176
     1
 90
       50
176
     1
290
     0
176
     1
 90
       50
176
     1
 62
   256
176
     0
 40
1.0
176
     0
 90
        2
176
     1
  1
strokes_ogs.tif
176
     1
290
     0
176
     1
 40
1.0
176
     1
 40
1.0
176
     1
1001
ACAD
1000
AcDbSavedByObjectVersion
1070
     0
  0
VISUALSTYLE
  5
3A
102
{ACAD_REACTORS
330
2A
102
}
330
2A
100
AcDbVisualStyle
  2
ColorChange
 70
    16
177
     3
291
     1
 70
    58
 90
        2
176
     1
 90
        2
176
     1
 90
        3
176
     1
 90
        0
176
     1
 40
0.6
176
     1
 40
30.0
176
     1
 62
     8
420
  8421504
176
     1
 90
        1
176
     1
 90
        4
176
     1
 62
     7
176
     1
 62
   257
176
     1
 90
        1
176
     1
 90
        1
176
     1
 40
1.0
176
     1
 90
        8
176
     1
 62
     8
420
  8421504
176
     1
 40
1.0
176
     1
 90
        1
176
     1
 90
        6
176
     1
 90
        2
176
     1
 62
     7
176
     1
 90
        5
176
     1
 90
        0
176
     1
 90
        0
176
     1
290
     0
176
     1
 90
        1
176
     1
 40
0.0
176
     1
 90
        0
176
     1
290
     0
176
     1
290
     1
176
     1
290
     1
176
     1
290
     0
176
     1
290
     0
176
     1
290
     0
176
     1
290
     0
176
     1
290
     0
176
     1
290
     0
176
     1
 90
       50
176
     1
 40
0.0
176
     1
 40
1.0
176
     1
 90
        0
176
     1
 62
    18
176
     1
 90
       50
176
     1
 90
        3
176
     1
 62
     5
420
      255
176
     1
290
     0
176
     1
 90
       50
176
     1
 90
       50
176
     1
 90
       50
176
     1
290
     0
176
     1
 90
       50
176
     1
 62
   256
176
     0
 40
1.0
176
     0
 90
        2
176
     1
  1
strokes_ogs.tif
176
     1
290
     0
176
     1
 40
1.0
176
     1
 40
1.0
176
     1
1001
ACAD
1000
AcDbSavedByObjectVersion
1070
     0
  0
VISUALSTYLE
  5
34
102
{ACAD_REACTORS
330
2A
102
}
330
2A
100
AcDbVisualStyle
  2
Conceptual
 70
     9
177
     3
291
     0
 70
    58
 90
        3
176
     1
 90
        2
176
     1
 90
        0
176
     1
 90
        0
176
     1
 40
0.6
176
     1
 40
30.0
176
     1
 62
     7
420
 16777215
176
     1
 90
        2
176
     1
 90
        2
176
     1
 62
     7
176
     1
 62
   257
176
     1
 90
        1
176
     1
 90
        1
176
     1
 40
179.0
176
     1
 90
        8
176
     1
 62
     7
176
     1
 40
1.0
176
     1
 90
        1
176
     1
 90
        6
176
     1
 90
        2
176
     1
 62
     7
176
     1
 90
        3
176
     1
 90
        0
176
     1
 90
        0
176
     1
290
     0
176
     1
 90
        1
176
     1
 40
0.0
176
     1
 90
        0
176
     1
290
     0
176
     1
290
     1
176
     1
290
     1
176
     1
290
     0
176
     1
290
     0
176
     1
290
     0
176
     1
290
     0
176
     1
290
     0
176
     1
290
     0
176
     1
 90
       50
176
     1
 40
0.0
176
     1
 40
1.0
176
     1
 90
        0
176
     1
 62
    18
176
     1
 90
       50
176
     1
 90
        3
176
     1
 62
     5
420
      255
176
     1
290
     0
176
     1
 90
       50
176
     1
 90
       50
176
     1
 90
       50
176
     1
290
     0
176
     1
 90
       50
176
     1
 62
   256
176
     0
 40
1.0
176
     0
 90
        2
176
     1
  1
strokes_ogs.tif
176
     1
290
     0
176
     1
 40
1.0
176
     1
 40
1.0
176
     1
1001
ACAD
1000
AcDbSavedByObjectVersion
1070
     0
  0
VISUALSTYLE
  5
35
102
{ACAD_REACTORS
330
2A
102
}
330
2A
100
AcDbVisualStyle
  2
Dim
 70
    11
177
     3
291
     1
 70
    58
 90
        2
176
     1
 90
        2
176
     1
 90
        0
176
     1
 90
        0
176
     1
 40
0.6
176
     1
 40
30.0
176
     1
 62
     7
420
 16777215
176
     1
 90
        1
176
     1
 90
        4
176
     1
 62
     7
176
     1
 62
   257
176
     1
 90
        1
176
     1
 90
        1
176
     1
 40
1.0
176
     1
 90
        8
176
     1
 62
     7
176
     1
 40
1.0
176
     1
 90
        1
176
     1
 90
        6
176
     1
 90
        2
176
     1
 62
     7
176
     1
 90
        5
176
     1
 90
        0
176
     1
 90
        0
176
     1
290
     0
176
     1
 90
        1
176
     1
 40
-50.0
176
     1
 90
        0
176
     1
290
     0
176
     1
290
     1
176
     1
290
     1
176
     1
290
     0
176
     1
290
     0
176
     1
290
     0
176
     1
290
     0
176
     1
290
     0
176
     1
290
     0
176
     1
 90
       50
176
     1
 40
0.0
176
     1
 40
1.0
176
     1
 90
        0
176
     1
 62
    18
176
     1
 90
       50
176
     1
 90
        3
176
     1
 62
     5
420
      255
176
     1
290
     0
176
     1
 90
       50
176
     1
 90
       50
176
     1
 90
       50
176
     1
290
     0
176
     1
 90
       50
176
     1
 62
   256
176
     0
 40
1.0
176
     0
 90
        2
176
     1
  1
strokes_ogs.tif
176
     1
290
     0
176
     1
 40
1.0
176
     1
 40
1.0
176
     1
1001
ACAD
1000
AcDbSavedByObjectVersion
1070
     0
  0
VISUALSTYLE
  5
3D
102
{ACAD_REACTORS
330
2A
102
}
330
2A
100
AcDbVisualStyle
  2
EdgeColorOff
 70
    22
177
     3
291
     1
 70
    58
 90
        2
176
     0
 90
        2
176
     0
 90
        0
176
     0
 90
        0
176
     0
 40
0.6
176
     0
 40
30.0
176
     0
 62
     7
420
 16777215
176
     0
 90
        1
176
     0
 90
        4
176
     0
 62
     7
176
     0
 62
   257
176
     0
 90
        1
176
     0
 90
        1
176
     0
 40
1.0
176
     0
 90
        8
176
     2
 62
     7
176
     0
 40
1.0
176
     0
 90
        1
176
     0
 90
        6
176
     0
 90
        2
176
     0
 62
     7
176
     0
 90
        5
176
     0
 90
        0
176
     0
 90
        0
176
     0
290
     0
176
     0
 90
        1
176
     0
 40
0.0
176
     0
 90
        0
176
     0
290
     0
176
     0
290
     1
176
     0
290
     1
176
     0
290
     0
176
     0
290
     0
176
     0
290
     0
176
     0
290
     0
176
     0
290
     0
176
     0
290
     0
176
     0
 90
       50
176
     0
 40
0.0
176
     0
 40
1.0
176
     0
 90
        0
176
     0
 62
    18
176
     0
 90
       50
176
     0
 90
        3
176
     0
 62
     5
420
      255
176
     0
290
     0
176
     0
 90
       50
176
     0
 90
       50
176
     0
 90
       50
176
     0
290
     0
176
     0
 90
       50
176
     0
 62
   256
176
     0
 40
1.0
176
     0
 90
        2
176
     0
  1
strokes_ogs.tif
176
     0
290
     0
176
     0
 40
1.0
176
     0
 40
1.0
176
     0
1001
ACAD
1000
AcDbSavedByObjectVersion
1070
     0
  0
VISUALSTYLE
  5
39
102
{ACAD_REACTORS
330
2A
102
}
330
2A
100
AcDbVisualStyle
  2
Facepattern
 70
    15
177
     3
291
     1
 70
    58
 90
        2
176
     1
 90
        2
176
     1
 90
        0
176
     1
 90
        0
176
     1
 40
0.6
176
     1
 40
30.0
176
     1
 62
     7
420
 16777215
176
     1
 90
        1
176
     1
 90
        4
176
     1
 62
     7
176
     1
 62
   257
176
     1
 90
        1
176
     1
 90
        1
176
     1
 40
1.0
176
     1
 90
        8
176
     1
 62
     7
176
     1
 40
1.0
176
     1
 90
        1
176
     1
 90
        6
176
     1
 90
        2
176
     1
 62
     7
176
     1
 90
        5
176
     1
 90
        0
176
     1
 90
        0
176
     1
290
     0
176
     1
 90
        1
176
     1
 40
0.0
176
     1
 90
        0
176
     1
290
     0
176
     1
290
     1
176
     1
290
     1
176
     1
290
     0
176
     1
290
     0
176
     1
290
     0
176
     1
290
     0
176
     1
290
     0
176
     1
290
     0
176
     1
 90
       50
176
     1
 40
0.0
176
     1
 40
1.0
176
     1
 90
        0
176
     1
 62
    18
176
     1
 90
       50
176
     1
 90
        3
176
     1
 62
     5
420
      255
176
     1
290
     0
176
     1
 90
       50
176
     1
 90
       50
176
     1
 90
       50
176
     1
290
     0
176
     1
 90
       50
176
     1
 62
   256
176
     0
 40
1.0
176
     0
 90
        2
176
     1
  1
strokes_ogs.tif
176
     1
290
     0
176
     1
 40
1.0
176
     1
 40
1.0
176
     1
1001
ACAD
1000
AcDbSavedByObjectVersion
1070
     0
  0
VISUALSTYLE
  5
2B
102
{ACAD_REACTORS
330
2A
102
}
330
2A
100
AcDbVisualStyle
  2
Flat
 70
     0
177
     3
291
     1
 70
    58
 90
        2
176
     1
 90
        1
176
     1
 90
        1
176
     1
 90
        2
176
     1
 40
0.6
176
     1
 40
30.0
176
     1
 62
     7
420
 16777215
176
     1
 90
        0
176
     1
 90
        0
176
     1
 62
     7
176
     1
 62
   257
176
     1
 90
        1
176
     1
 90
        1
176
     1
 40
1.0
176
     1
 90
        8
176
     1
 62
     7
176
     1
 40
1.0
176
     1
 90
        1
176
     1
 90
        6
176
     1
 90
        2
176
     1
 62
     7
176
     1
 90
        5
176
     1
 90
        0
176
     1
 90
        0
176
     1
290
     0
176
     1
 90
       13
176
     1
 40
0.0
176
     1
 90
        0
176
     1
290
     0
176
     1
290
     1
176
     1
290
     1
176
     1
290
     0
176
     1
290
     0
176
     1
290
     0
176
     1
290
     0
176
     1
290
     0
176
     1
290
     0
176
     1
 90
       50
176
     1
 40
0.0
176
     1
 40
1.0
176
     1
 90
        0
176
     1
 62
    18
176
     1
 90
       50
176
     1
 90
        3
176
     1
 62
     5
420
      255
176
     1
290
     0
176
     1
 90
       50
176
     1
 90
       50
176
     1
 90
       50
176
     1
290
     0
176
     1
 90
       50
176
     1
 62
   256
176
     0
 40
1.0
176
     0
 90
        2
176
     1
  1
strokes_ogs.tif
176
     1
290
     0
176
     1
 40
1.0
176
     1
 40
1.0
176
     1
1001
ACAD
1000
AcDbSavedByObjectVersion
1070
     0
  0
VISUALSTYLE
  5
2C
102
{ACAD_REACTORS
330
2A
102
}
330
2A
100
AcDbVisualStyle
  2
FlatWithEdges
 70
     1
177
     3
291
     1
 70
    58
 90
        2
176
     1
 90
        1
176
     1
 90
        1
176
     1
 90
        2
176
     1
 40
0.6
176
     1
 40
30.0
176
     1
 62
     7
420
 16777215
176
     1
 90
        1
176
     1
 90
        0
176
     1
 62
     7
176
     1
 62
   257
176
     1
 90
        1
176
     1
 90
        1
176
     1
 40
1.0
176
     1
 90
        0
176
     1
 62
   257
176
     1
 40
1.0
176
     1
 90
        1
176
     1
 90
        6
176
     1
 90
        2
176
     1
 62
     7
176
     1
 90
        5
176
     1
 90
        0
176
     1
 90
        0
176
     1
290
     0
176
     1
 90
       13
176
     1
 40
0.0
176
     1
 90
        0
176
     1
290
     0
176
     1
290
     1
176
     1
290
     1
176
     1
290
     0
176
     1
290
     0
176
     1
290
     0
176
     1
290
     0
176
     1
290
     0
176
     1
290
     0
176
     1
 90
       50
176
     1
 40
0.0
176
     1
 40
1.0
176
     1
 90
        0
176
     1
 62
    18
176
     1
 90
       50
176
     1
 90
        3
176
     1
 62
     5
420
      255
176
     1
290
     0
176
     1
 90
       50
176
     1
 90
       50
176
     1
 90
       50
176
     1
290
     0
176
     1
 90
       50
176
     1
 62
   256
176
     0
 40
1.0
176
     0
 90
        2
176
     1
  1
strokes_ogs.tif
176
     1
290
     0
176
     1
 40
1.0
176
     1
 40
1.0
176
     1
1001
ACAD
1000
AcDbSavedByObjectVersion
1070
     0
  0
VISUALSTYLE
  5
2D
102
{ACAD_REACTORS
330
2A
102
}
330
2A
100
AcDbVisualStyle
  2
Gouraud
 70
     2
177
     3
291
     1
 70
    58
 90
        2
176
     1
 90
        2
176
     1
 90
        1
176
     1
 90
        2
176
     1
 40
0.6
176
     1
 40
30.0
176
     1
 62
     7
420
 16777215
176
     1
 90
        0
176
     1
 90
        0
176
     1
 62
     7
176
     1
 62
   257
176
     1
 90
        1
176
     1
 90
        1
176
     1
 40
1.0
176
     1
 90
        0
176
     1
 62
     7
176
     1
 40
1.0
176
     1
 90
        1
176
     1
 90
        6
176
     1
 90
        2
176
     1
 62
     7
176
     1
 90
        5
176
     1
 90
        0
176
     1
 90
        0
176
     1
290
     0
176
     1
 90
       13
176
     1
 40
0.0
176
     1
 90
        0
176
     1
290
     0
176
     1
290
     1
176
     1
290
     1
176
     1
290
     0
176
     1
290
     0
176
     1
290
     0
176
     1
290
     0
176
     1
290
     0
176
     1
290
     0
176
     1
 90
       50
176
     1
 40
0.0
176
     1
 40
1.0
176
     1
 90
        0
176
     1
 62
    18
176
     1
 90
       50
176
     1
 90
        3
176
     1
 62
     5
420
      255
176
     1
290
     0
176
     1
 90
       50
176
     1
 90
       50
176
     1
 90
       50
176
     1
290
     0
176
     1
 90
       50
176
     1
 62
   256
176
     0
 40
1.0
176
     0
 90
        2
176
     1
  1
strokes_ogs.tif
176
     1
290
     0
176
     1
 40
1.0
176
     1
 40
1.0
176
     1
1001
ACAD
1000
AcDbSavedByObjectVersion
1070
     0
  0
VISUALSTYLE
  5
2E
102
{ACAD_REACTORS
330
2A
102
}
330
2A
100
AcDbVisualStyle
  2
GouraudWithEdges
 70
     3
177
     3
291
     1
 70
    58
 90
        2
176
     1
 90
        2
176
     1
 90
        1
176
     1
 90
        2
176
     1
 40
0.6
176
     1
 40
30.0
176
     1
 62
     7
420
 16777215
176
     1
 90
        1
176
     1
 90
        0
176
     1
 62
     7
176
     1
 62
   257
176
     1
 90
        1
176
     1
 90
        1
176
     1
 40
1.0
176
     1
 90
        0
176
     1
 62
   257
176
     1
 40
1.0
176
     1
 90
        1
176
     1
 90
        6
176
     1
 90
        2
176
     1
 62
     7
176
     1
 90
        5
176
     1
 90
        0
176
     1
 90
        0
176
     1
290
     0
176
     1
 90
       13
176
     1
 40
0.0
176
     1
 90
        0
176
     1
290
     0
176
     1
290
     1
176
     1
290
     1
176
     1
290
     0
176
     1
290
     0
176
     1
290
     0
176
     1
290
     0
176
     1
290
     0
176
     1
290
     0
176
     1
 90
       50
176
     1
 40
0.0
176
     1
 40
1.0
176
     1
 90
        0
176
     1
 62
    18
176
     1
 90
       50
176
     1
 90
        3
176
     1
 62
     5
420
      255
176
     1
290
     0
176
     1
 90
       50
176
     1
 90
       50
176
     1
 90
       50
176
     1
290
     0
176
     1
 90
       50
176
     1
 62
   256
176
     0
 40
1.0
176
     0
 90
        2
176
     1
  1
strokes_ogs.tif
176
     1
290
     0
176
     1
 40
1.0
176
     1
 40
1.0
176
     1
1001
ACAD
1000
AcDbSavedByObjectVersion
1070
     0
  0
VISUALSTYLE
  5
31
102
{ACAD_REACTORS
330
2A
102
}
330
2A
100
AcDbVisualStyle
  2
Hidden
 70
     6
177
     3
291
     0
 70
    58
 90
        1
176
     1
 90
        2
176
     1
 90
        2
176
     1
 90
        0
176
     1
 40
0.6
176
     1
 40
30.0
176
     1
 62
     7
420
 16777215
176
     1
 90
        2
176
     1
 90
        2
176
     1
 62
     7
176
     1
 62
   257
176
     1
 90
        2
176
     1
 90
        1
176
     1
 40
40.0
176
     1
 90
        0
176
     1
 62
   257
176
     1
 40
1.0
176
     1
 90
        1
176
     1
 90
        6
176
     1
 90
        2
176
     1
 62
     7
176
     1
 90
        3
176
     1
 90
        0
176
     1
 90
        0
176
     1
290
     0
176
     1
 90
        1
176
     1
 40
0.0
176
     1
 90
        0
176
     1
290
     0
176
     1
290
     1
176
     1
290
     1
176
     1
290
     0
176
     1
290
     0
176
     1
290
     0
176
     1
290
     0
176
     1
290
     0
176
     1
290
     0
176
     1
 90
       50
176
     1
 40
0.0
176
     1
 40
1.0
176
     1
 90
        0
176
     1
 62
    18
176
     1
 90
       50
176
     1
 90
        3
176
     1
 62
     5
420
      255
176
     1
290
     0
176
     1
 90
       50
176
     1
 90
       50
176
     1
 90
       50
176
     1
290
     0
176
     1
 90
       50
176
     1
 62
   256
176
     0
 40
1.0
176
     0
 90
        2
176
     1
  1
strokes_ogs.tif
176
     1
290
     0
176
     1
 40
1.0
176
     1
 40
1.0
176
     1
1001
ACAD
1000
AcDbSavedByObjectVersion
1070
     0
  0
VISUALSTYLE
  5
3B
102
{ACAD_REACTORS
330
2A
102
}
330
2A
100
AcDbVisualStyle
  2
JitterOff
 70
    20
177
     3
291
     1
 70
    58
 90
        2
176
     0
 90
        2
176
     0
 90
        0
176
     0
 90
        0
176
     0
 40
0.6
176
     0
 40
30.0
176
     0
 62
     7
420
 16777215
176
     0
 90
        1
176
     0
 90
        4
176
     0
 62
     7
176
     0
 62
   257
176
     0
 90
        1
176
     0
 90
        1
176
     0
 40
1.0
176
     0
 90
       10
176
     2
 62
     7
176
     0
 40
1.0
176
     0
 90
        1
176
     0
 90
        6
176
     0
 90
        2
176
     0
 62
     7
176
     0
 90
        5
176
     0
 90
        0
176
     0
 90
        0
176
     0
290
     0
176
     0
 90
        1
176
     0
 40
0.0
176
     0
 90
        0
176
     0
290
     0
176
     0
290
     1
176
     0
290
     1
176
     0
290
     0
176
     0
290
     0
176
     0
290
     0
176
     0
290
     0
176
     0
290
     0
176
     0
290
     0
176
     0
 90
       50
176
     0
 40
0.0
176
     0
 40
1.0
176
     0
 90
        0
176
     0
 62
    18
176
     0
 90
       50
176
     0
 90
        3
176
     0
 62
     5
420
      255
176
     0
290
     0
176
     0
 90
       50
176
     0
 90
       50
176
     0
 90
       50
176
     0
290
     0
176
     0
 90
       50
176
     0
 62
   256
176
     0
 40
1.0
176
     0
 90
        2
176
     0
  1
strokes_ogs.tif
176
     0
290
     0
176
     0
 40
1.0
176
     0
 40
1.0
176
     0
1001
ACAD
1000
AcDbSavedByObjectVersion
1070
     0
  0
VISUALSTYLE
  5
38
102
{ACAD_REACTORS
330
2A
102
}
330
2A
100
AcDbVisualStyle
  2
Linepattern
 70
    14
177
     3
291
     1
 70
    58
 90
        2
176
     1
 90
        2
176
     1
 90
        0
176
     1
 90
        0
176
     1
 40
0.6
176
     1
 40
30.0
176
     1
 62
     7
420
 16777215
176
     1
 90
        1
176
     1
 90
        4
176
     1
 62
     7
176
     1
 62
   257
176
     1
 90
        7
176
     1
 90
        7
176
     1
 40
1.0
176
     1
 90
        8
176
     1
 62
     7
176
     1
 40
1.0
176
     1
 90
        1
176
     1
 90
        6
176
     1
 90
        2
176
     1
 62
     7
176
     1
 90
        5
176
     1
 90
        0
176
     1
 90
        0
176
     1
290
     0
176
     1
 90
        1
176
     1
 40
0.0
176
     1
 90
        0
176
     1
290
     0
176
     1
290
     1
176
     1
290
     1
176
     1
290
     0
176
     1
290
     0
176
     1
290
     0
176
     1
290
     0
176
     1
290
     0
176
     1
290
     0
176
     1
 90
       50
176
     1
 40
0.0
176
     1
 40
1.0
176
     1
 90
        0
176
     1
 62
    18
176
     1
 90
       50
176
     1
 90
        3
176
     1
 62
     5
420
      255
176
     1
290
     0
176
     1
 90
       50
176
     1
 90
       50
176
     1
 90
       50
176
     1
290
     0
176
     1
 90
       50
176
     1
 62
   256
176
     0
 40
1.0
176
     0
 90
        2
176
     1
  1
strokes_ogs.tif
176
     1
290
     0
176
     1
 40
1.0
176
     1
 40
1.0
176
     1
1001
ACAD
1000
AcDbSavedByObjectVersion
1070
     0
  0
VISUALSTYLE
  5
3C
102
{ACAD_REACTORS
330
2A
102
}
330
2A
100
AcDbVisualStyle
  2
OverhangOff
 70
    21
177
     3
291
     1
 70
    58
 90
        2
176
     0
 90
        2
176
     0
 90
        0
176
     0
 90
        0
176
     0
 40
0.6
176
     0
 40
30.0
176
     0
 62
     7
420
 16777215
176
     0
 90
        1
176
     0
 90
        4
176
     0
 62
     7
176
     0
 62
   257
176
     0
 90
        1
176
     0
 90
        1
176
     0
 40
1.0
176
     0
 90
        9
176
     2
 62
     7
176
     0
 40
1.0
176
     0
 90
        1
176
     0
 90
        6
176
     0
 90
        2
176
     0
 62
     7
176
     0
 90
        5
176
     0
 90
        0
176
     0
 90
        0
176
     0
290
     0
176
     0
 90
        1
176
     0
 40
0.0
176
     0
 90
        0
176
     0
290
     0
176
     0
290
     1
176
     0
290
     1
176
     0
290
     0
176
     0
290
     0
176
     0
290
     0
176
     0
290
     0
176
     0
290
     0
176
     0
290
     0
176
     0
 90
       50
176
     0
 40
0.0
176
     0
 40
1.0
176
     0
 90
        0
176
     0
 62
    18
176
     0
 90
       50
176
     0
 90
        3
176
     0
 62
     5
420
      255
176
     0
290
     0
176
     0
 90
       50
176
     0
 90
       50
176
     0
 90
       50
176
     0
290
     0
176
     0
 90
       50
176
     0
 62
   256
176
     0
 40
1.0
176
     0
 90
        2
176
     0
  1
strokes_ogs.tif
176
     0
290
     0
176
     0
 40
1.0
176
     0
 40
1.0
176
     0
1001
ACAD
1000
AcDbSavedByObjectVersion
1070
     0
  0
VISUALSTYLE
  5
33
102
{ACAD_REACTORS
330
2A
102
}
330
2A
100
AcDbVisualStyle
  2
Realistic
 70
     8
177
     3
291
     0
 70
    58
 90
        2
176
     1
 90
        3
176
     1
 90
        0
176
     1
 90
        2
176
     1
 40
0.6
176
     1
 40
30.0
176
     1
 62
     7
420
 16777215
176
     1
 90
        0
176
     1
 90
        0
176
     1
 62
     7
176
     1
 62
   257
176
     1
 90
        1
176
     1
 90
        1
176
     1
 40
1.0
176
     1
 90
        8
176
     1
 62
   257
176
     1
 40
1.0
176
     1
 90
        1
176
     1
 90
        6
176
     1
 90
        2
176
     1
 62
     7
176
     1
 90
        3
176
     1
 90
        0
176
     1
 90
        0
176
     1
290
     0
176
     1
 90
       13
176
     1
 40
0.0
176
     1
 90
        0
176
     1
290
     0
176
     1
290
     1
176
     1
290
     1
176
     1
290
     0
176
     1
290
     0
176
     1
290
     0
176
     1
290
     0
176
     1
290
     0
176
     1
290
     0
176
     1
 90
       50
176
     1
 40
0.0
176
     1
 40
1.0
176
     1
 90
        0
176
     1
 62
    18
176
     1
 90
       50
176
     1
 90
        3
176
     1
 62
     5
420
      255
176
     1
290
     0
176
     1
 90
       50
176
     1
 90
       50
176
     1
 90
       50
176
     1
290
     0
176
     1
 90
       50
176
     1
 62
   256
176
     0
 40
1.0
176
     0
 90
        2
176
     1
  1
strokes_ogs.tif
176
     1
290
     0
176
     1
 40
1.0
176
     1
 40
1.0
176
     1
1001
ACAD
1000
AcDbSavedByObjectVersion
1070
     0
  0
VISUALSTYLE
  5
42
102
{ACAD_REACTORS
330
2A
102
}
330
2A
100
AcDbVisualStyle
  2
Shaded
 70
    27
177
     3
291
     0
 70
    58
 90
        2
176
     1
 90
        2
176
     1
 90
        1
176
     1
 90
        2
176
     1
 40
0.6
176
     1
 40
30.0
176
     1
 62
     7
420
 16777215
176
     1
 90
        0
176
     1
 90
        4
176
     1
 62
     7
176
     1
 62
   257
176
     1
 90
        1
176
     1
 90
        1
176
     1
 40
1.0
176
     1
 90
        8
176
     1
 62
   257
176
     1
 40
1.0
176
     1
 90
        1
176
     1
 90
        6
176
     1
 90
        2
176
     1
 62
     8
420
  7895160
176
     1
 90
        3
176
     1
 90
        0
176
     1
 90
        0
176
     1
290
     0
176
     1
 90
        5
176
     1
 40
0.0
176
     1
 90
        0
176
     1
290
     0
176
     1
290
     1
176
     1
290
     1
176
     1
290
     0
176
     1
290
     0
176
     1
290
     0
176
     1
290
     0
176
     1
290
     0
176
     1
290
     0
176
     1
 90
       50
176
     1
 40
0.0
176
     1
 40
1.0
176
     1
 90
        0
176
     1
 62
    18
176
     1
 90
       50
176
     1
 90
        3
176
     1
 62
     5
420
      255
176
     1
290
     0
176
     1
 90
       50
176
     1
 90
       50
176
     1
 90
       50
176
     1
290
     0
176
     1
 90
       50
176
     1
 62
   256
176
     0
 40
1.0
176
     0
 90
        2
176
     1
  1
strokes_ogs.tif
176
     1
290
     0
176
     1
 40
1.0
176
     1
 40
1.0
176
     1
1001
ACAD
1000
AcDbSavedByObjectVersion
1070
     0
  0
VISUALSTYLE
  5
41
102
{ACAD_REACTORS
330
2A
102
}
330
2A
100
AcDbVisualStyle
  2
Shaded with edges
 70
    26
177
     3
291
     0
 70
    58
 90
        2
176
     1
 90
        2
176
     1
 90
        1
176
     1
 90
        2
176
     1
 40
0.6
176
     1
 40
30.0
176
     1
 62
     7
420
 16777215
176
     1
 90
        1
176
     1
 90
        2
176
     1
 62
     7
176
     1
 62
   257
176
     1
 90
        2
176
     1
 90
        1
176
     1
 40
1.0
176
     1
 90
        8
176
     1
 62
   257
176
     1
 40
1.0
176
     1
 90
        1
176
     1
 90
        6
176
     1
 90
        2
176
     1
 62
     7
176
     1
 90
        3
176
     1
 90
        0
176
     1
 90
        0
176
     1
290
     0
176
     1
 90
        5
176
     1
 40
0.0
176
     1
 90
        0
176
     1
290
     0
176
     1
290
     1
176
     1
290
     1
176
     1
290
     0
176
     1
290
     0
176
     1
290
     0
176
     1
290
     0
176
     1
290
     0
176
     1
290
     0
176
     1
 90
       50
176
     1
 40
0.0
176
     1
 40
1.0
176
     1
 90
        0
176
     1
 62
    18
176
     1
 90
       50
176
     1
 90
        3
176
     1
 62
     5
420
      255
176
     1
290
     0
176
     1
 90
       50
176
     1
 90
       50
176
     1
 90
       50
176
     1
290
     0
176
     1
 90
       50
176
     1
 62
   256
176
     0
 40
1.0
176
     0
 90
        2
176
     1
  1
strokes_ogs.tif
176
     1
290
     0
176
     1
 40
1.0
176
     1
 40
1.0
176
     1
1001
ACAD
1000
AcDbSavedByObjectVersion
1070
     0
  0
VISUALSTYLE
  5
3E
102
{ACAD_REACTORS
330
2A
102
}
330
2A
100
AcDbVisualStyle
  2
Shades of Gray
 70
    23
177
     3
291
     0
 70
    58
 90
        2
176
     1
 90
        2
176
     1
 90
        3
176
     1
 90
        0
176
     1
 40
0.6
176
     1
 40
30.0
176
     1
 62
     7
420
 16777215
176
     1
 90
        2
176
     1
 90
        2
176
     1
 62
     7
176
     1
 62
     7
176
     1
 90
        1
176
     1
 90
        1
176
     1
 40
40.0
176
     1
 90
        8
176
     1
 62
     7
176
     1
 40
1.0
176
     1
 90
        1
176
     1
 90
        6
176
     1
 90
        2
176
     1
 62
     7
176
     1
 90
        3
176
     1
 90
        0
176
     1
 90
        0
176
     1
290
     0
176
     1
 90
        1
176
     1
 40
0.0
176
     1
 90
        0
176
     1
290
     0
176
     1
290
     1
176
     1
290
     1
176
     1
290
     0
176
     1
290
     0
176
     1
290
     0
176
     1
290
     0
176
     1
290
     0
176
     1
290
     0
176
     1
 90
       50
176
     1
 40
0.0
176
     1
 40
1.0
176
     1
 90
        0
176
     1
 62
    18
176
     1
 90
       50
176
     1
 90
        3
176
     1
 62
     5
420
      255
176
     1
290
     0
176
     1
 90
       50
176
     1
 90
       50
176
     1
 90
       50
176
     1
290
     0
176
     1
 90
       50
176
     1
 62
   256
176
     0
 40
1.0
176
     0
 90
        2
176
     1
  1
strokes_ogs.tif
176
     1
290
     0
176
     1
 40
1.0
176
     1
 40
1.0
176
     1
1001
ACAD
1000
AcDbSavedByObjectVersion
1070
     0
  0
VISUALSTYLE
  5
3F
102
{ACAD_REACTORS
330
2A
102
}
330
2A
100
AcDbVisualStyle
  2
Sketchy
 70
    24
177
     3
291
     0
 70
    58
 90
        1
176
     1
 90
        2
176
     1
 90
        2
176
     1
 90
        0
176
     1
 40
0.6
176
     1
 40
30.0
176
     1
 62
     7
420
 16777215
176
     1
 90
        2
176
     1
 90
        2
176
     1
 62
     7
176
     1
 62
     7
176
     1
 90
        1
176
     1
 90
        1
176
     1
 40
40.0
176
     1
 90
       11
176
     1
 62
     7
176
     1
 40
1.0
176
     1
 90
        1
176
     1
 90
        6
176
     1
 90
        2
176
     1
 62
     7
176
     1
 90
        6
176
     1
 90
        0
176
     1
 90
        0
176
     1
290
     0
176
     1
 90
        1
176
     1
 40
0.0
176
     1
 90
        0
176
     1
290
     0
176
     1
290
     1
176
     1
290
     1
176
     1
290
     0
176
     1
290
     0
176
     1
290
     0
176
     1
290
     0
176
     1
290
     0
176
     1
290
     0
176
     1
 90
       50
176
     1
 40
0.0
176
     1
 40
1.0
176
     1
 90
        0
176
     1
 62
    18
176
     1
 90
       50
176
     1
 90
        3
176
     1
 62
     5
420
      255
176
     1
290
     0
176
     1
 90
       50
176
     1
 90
       50
176
     1
 90
       50
176
     1
290
     0
176
     1
 90
       50
176
     1
 62
   256
176
     0
 40
1.0
176
     0
 90
        2
176
     1
  1
strokes_ogs.tif
176
     1
290
     0
176
     1
 40
1.0
176
     1
 40
1.0
176
     1
1001
ACAD
1000
AcDbSavedByObjectVersion
1070
     0
  0
VISUALSTYLE
  5
37
102
{ACAD_REACTORS
330
2A
102
}
330
2A
100
AcDbVisualStyle
  2
Thicken
 70
    13
177
     3
291
     1
 70
    58
 90
        2
176
     1
 90
        2
176
     1
 90
        0
176
     1
 90
        0
176
     1
 40
0.6
176
     1
 40
30.0
176
     1
 62
     7
420
 16777215
176
     1
 90
        1
176
     1
 90
        4
176
     1
 62
     7
176
     1
 62
   257
176
     1
 90
        1
176
     1
 90
        1
176
     1
 40
1.0
176
     1
 90
       12
176
     1
 62
     7
176
     1
 40
1.0
176
     1
 90
        1
176
     1
 90
        6
176
     1
 90
        2
176
     1
 62
     7
176
     1
 90
        5
176
     1
 90
        0
176
     1
 90
        0
176
     1
290
     0
176
     1
 90
        1
176
     1
 40
0.0
176
     1
 90
        0
176
     1
290
     0
176
     1
290
     1
176
     1
290
     1
176
     1
290
     0
176
     1
290
     0
176
     1
290
     0
176
     1
290
     0
176
     1
290
     0
176
     1
290
     0
176
     1
 90
       50
176
     1
 40
0.0
176
     1
 40
1.0
176
     1
 90
        0
176
     1
 62
    18
176
     1
 90
       50
176
     1
 90
        3
176
     1
 62
     5
420
      255
176
     1
290
     0
176
     1
 90
       50
176
     1
 90
       50
176
     1
 90
       50
176
     1
290
     0
176
     1
 90
       50
176
     1
 62
   256
176
     0
 40
1.0
176
     0
 90
        2
176
     1
  1
strokes_ogs.tif
176
     1
290
     0
176
     1
 40
1.0
176
     1
 40
1.0
176
     1
1001
ACAD
1000
AcDbSavedByObjectVersion
1070
     0
  0
VISUALSTYLE
  5
30
102
{ACAD_REACTORS
330
2A
102
}
330
2A
100
AcDbVisualStyle
  2
Wireframe
 70
     5
177
     3
291
     0
 70
    58
 90
        0
176
     1
 90
        2
176
     1
 90
        0
176
     1
 90
        0
176
     1
 40
0.6
176
     1
 40
30.0
176
     1
 62
     7
420
 16777215
176
     1
 90
        1
176
     1
 90
        4
176
     1
 62
     7
176
     1
 62
   257
176
     1
 90
        1
176
     1
 90
        1
176
     1
 40
1.0
176
     1
 90
        0
176
     1
 62
   257
176
     1
 40
1.0
176
     1
 90
        1
176
     1
 90
        6
176
     1
 90
        2
176
     1
 62
     7
176
     1
 90
        3
176
     1
 90
        0
176
     1
 90
        0
176
     1
290
     0
176
     1
 90
        1
176
     1
 40
0.0
176
     1
 90
        0
176
     1
290
     0
176
     1
290
     1
176
     1
290
     1
176
     1
290
     0
176
     1
290
     0
176
     1
290
     0
176
     1
290
     0
176
     1
290
     0
176
     1
290
     0
176
     1
 90
       50
176
     1
 40
0.0
176
     1
 40
1.0
176
     1
 90
        0
176
     1
 62
    18
176
     1
 90
       50
176
     1
 90
        3
176
     1
 62
     5
420
      255
176
     1
290
     0
176
     1
 90
       50
176
     1
 90
       50
176
     1
 90
       50
176
     1
290
     0
176
     1
 90
       50
176
     1
 62
   256
176
     0
 40
1.0
176
     0
 90
        2
176
     1
  1
strokes_ogs.tif
176
     1
290
     0
176
     1
 40
1.0
176
     1
 40
1.0
176
     1
1001
ACAD
1000
AcDbSavedByObjectVersion
1070
     0
  0
VISUALSTYLE
  5
40
102
{ACAD_REACTORS
330
2A
102
}
330
2A
100
AcDbVisualStyle
  2
X-Ray
 70
    25
177
     3
291
     0
 70
    58
 90
        2
176
     1
 90
        2
176
     1
 90
        1
176
     1
 90
        1
176
     1
 40
0.5
176
     1
 40
30.0
176
     1
 62
     7
420
 16777215
176
     1
 90
        1
176
     1
 90
        0
176
     1
 62
     7
176
     1
 62
   257
176
     1
 90
        1
176
     1
 90
        1
176
     1
 40
1.0
176
     1
 90
        8
176
     1
 62
     7
176
     1
 40
1.0
176
     1
 90
        1
176
     1
 90
        6
176
     1
 90
        2
176
     1
 62
     7
176
     1
 90
        3
176
     1
 90
        0
176
     1
 90
        0
176
     1
290
     0
176
     1
 90
       13
176
     1
 40
0.0
176
     1
 90
        0
176
     1
290
     0
176
     1
290
     1
176
     1
290
     1
176
     1
290
     0
176
     1
290
     0
176
     1
290
     0
176
     1
290
     0
176
     1
290
     0
176
     1
290
     0
176
     1
 90
       50
176
     1
 40
0.0
176
     1
 40
1.0
176
     1
 90
        0
176
     1
 62
    18
176
     1
 90
       50
176
     1
 90
        3
176
     1
 62
     5
420
      255
176
     1
290
     0
176
     1
 90
       50
176
     1
 90
       50
176
     1
 90
       50
176
     1
290
     0
176
     1
 90
       50
176
     1
 62
   256
176
     0
 40
1.0
176
     0
 90
        2
176
     1
  1
strokes_ogs.tif
176
     1
290
     0
176
     1
 40
1.0
176
     1
 40
1.0
176
     1
1001
ACAD
1000
AcDbSavedByObjectVersion
1070
     0
  0
DICTIONARYVAR
  5
167
102
{ACAD_REACTORS
330
166
102
}
330
166
100
DictionaryVariables
280
     0
  1
1:1
  0
DICTIONARYVAR
  5
16C
102
{ACAD_REACTORS
330
166
102
}
330
166
100
DictionaryVariables
280
     0
  1
3.500000
  0
DICTIONARYVAR
  5
16D
102
{ACAD_REACTORS
330
166
102
}
330
166
100
DictionaryVariables
280
     0
  1
acadiso.lin
  0
DICTIONARYVAR
  5
169
102
{ACAD_REACTORS
330
166
102
}
330
166
100
DictionaryVariables
280
     0
  1
STANDARD
  0
DICTIONARYVAR
  5
168
102
{ACAD_REACTORS
330
166
102
}
330
166
100
DictionaryVariables
280
     0
  1
STANDARD
  0
DICTIONARYVAR
  5
667
102
{ACAD_REACTORS
330
166
102
}
330
166
100
DictionaryVariables
280
     0
  1
Metric50
  0
DICTIONARYVAR
  5
668
102
{ACAD_REACTORS
330
166
102
}
330
166
100
DictionaryVariables
280
     0
  1
Metric50
  0
DICTIONARY
  5
180D
330
6A
100
AcDbDictionary
280
     1
281
     1
  3
ACAD_ROUNDTRIP_2008_TABLESTYLE_CELLSTYLEMAP
360
1828
  0
CELLSTYLEMAP
  5
1828
102
{ACAD_REACTORS
330
180D
102
}
330
180D
100
AcDbCellStyleMap
 90
        3
300
CELLSTYLE
  1
TABLEFORMAT_BEGIN
 90
        5
170
     1
 91
        0
 92
    32768
 62
   257
 93
        1
300
CONTENTFORMAT
  1
CONTENTFORMAT_BEGIN
 90
        0
 91
        0
 92
        4
 93
        0
300

 40
0.0
140
1.0
 94
        5
 62
     0
340
11
144
6.0
309
CONTENTFORMAT_END
171
     1
301
MARGIN
  1
CELLMARGIN_BEGIN
 40
1.5
 40
1.5
 40
1.5
 40
1.5
 40
0.18
 40
0.18
309
CELLMARGIN_END
 94
        6
 95
        1
302
GRIDFORMAT
  1
GRIDFORMAT_BEGIN
 90
        0
 91
        1
 62
     0
 92
       -2
340
14
 93
        0
 40
0.045
309
GRIDFORMAT_END
 95
        2
302
GRIDFORMAT
  1
GRIDFORMAT_BEGIN
 90
        0
 91
        1
 62
     0
 92
       -2
340
14
 93
        0
 40
0.045
309
GRIDFORMAT_END
 95
        4
302
GRIDFORMAT
  1
GRIDFORMAT_BEGIN
 90
        0
 91
        1
 62
     0
 92
       -2
340
14
 93
        0
 40
0.045
309
GRIDFORMAT_END
 95
        8
302
GRIDFORMAT
  1
GRIDFORMAT_BEGIN
 90
        0
 91
        1
 62
     0
 92
       -2
340
14
 93
        0
 40
0.045
309
GRIDFORMAT_END
 95
       16
302
GRIDFORMAT
  1
GRIDFORMAT_BEGIN
 90
        0
 91
        1
 62
     0
 92
       -2
340
14
 93
        0
 40
0.045
309
GRIDFORMAT_END
 95
       32
302
GRIDFORMAT
  1
GRIDFORMAT_BEGIN
 90
        0
 91
        1
 62
     0
 92
       -2
340
14
 93
        0
 40
0.045
309
GRIDFORMAT_END
309
TABLEFORMAT_END
  1
CELLSTYLE_BEGIN
 90
        1
 91
        1
300
_TITLE
309
CELLSTYLE_END
300
CELLSTYLE
  1
TABLEFORMAT_BEGIN
 90
        5
170
     1
 91
        0
 92
        0
 62
   257
 93
        1
300
CONTENTFORMAT
  1
CONTENTFORMAT_BEGIN
 90
        0
 91
        0
 92
        4
 93
        0
300

 40
0.0
140
1.0
 94
        5
 62
     0
340
11
144
4.5
309
CONTENTFORMAT_END
171
     1
301
MARGIN
  1
CELLMARGIN_BEGIN
 40
1.5
 40
1.5
 40
1.5
 40
1.5
 40
0.18
 40
0.18
309
CELLMARGIN_END
 94
        6
 95
        1
302
GRIDFORMAT
  1
GRIDFORMAT_BEGIN
 90
        0
 91
        1
 62
     0
 92
       -2
340
14
 93
        0
 40
0.045
309
GRIDFORMAT_END
 95
        2
302
GRIDFORMAT
  1
GRIDFORMAT_BEGIN
 90
        0
 91
        1
 62
     0
 92
       -2
340
14
 93
        0
 40
0.045
309
GRIDFORMAT_END
 95
        4
302
GRIDFORMAT
  1
GRIDFORMAT_BEGIN
 90
        0
 91
        1
 62
     0
 92
       -2
340
14
 93
        0
 40
0.045
309
GRIDFORMAT_END
 95
        8
302
GRIDFORMAT
  1
GRIDFORMAT_BEGIN
 90
        0
 91
        1
 62
     0
 92
       -2
340
14
 93
        0
 40
0.045
309
GRIDFORMAT_END
 95
       16
302
GRIDFORMAT
  1
GRIDFORMAT_BEGIN
 90
        0
 91
        1
 62
     0
 92
       -2
340
14
 93
        0
 40
0.045
309
GRIDFORMAT_END
 95
       32
302
GRIDFORMAT
  1
GRIDFORMAT_BEGIN
 90
        0
 91
        1
 62
     0
 92
       -2
340
14
 93
        0
 40
0.045
309
GRIDFORMAT_END
309
TABLEFORMAT_END
  1
CELLSTYLE_BEGIN
 90
        2
 91
        1
300
_HEADER
309
CELLSTYLE_END
300
CELLSTYLE
  1
TABLEFORMAT_BEGIN
 90
        5
170
     1
 91
        0
 92
        0
 62
   257
 93
        1
300
CONTENTFORMAT
  1
CONTENTFORMAT_BEGIN
 90
        0
 91
        0
 92
        4
 93
        0
300

 40
0.0
140
1.0
 94
        2
 62
     0
340
11
144
4.5
309
CONTENTFORMAT_END
171
     1
301
MARGIN
  1
CELLMARGIN_BEGIN
 40
1.5
 40
1.5
 40
1.5
 40
1.5
 40
0.18
 40
0.18
309
CELLMARGIN_END
 94
        6
 95
        1
302
GRIDFORMAT
  1
GRIDFORMAT_BEGIN
 90
        0
 91
        1
 62
     0
 92
       -2
340
14
 93
        0
 40
0.045
309
GRIDFORMAT_END
 95
        2
302
GRIDFORMAT
  1
GRIDFORMAT_BEGIN
 90
        0
 91
        1
 62
     0
 92
       -2
340
14
 93
        0
 40
0.045
309
GRIDFORMAT_END
 95
        4
302
GRIDFORMAT
  1
GRIDFORMAT_BEGIN
 90
        0
 91
        1
 62
     0
 92
       -2
340
14
 93
        0
 40
0.045
309
GRIDFORMAT_END
 95
        8
302
GRIDFORMAT
  1
GRIDFORMAT_BEGIN
 90
        0
 91
        1
 62
     0
 92
       -2
340
14
 93
        0
 40
0.045
309
GRIDFORMAT_END
 95
       16
302
GRIDFORMAT
  1
GRIDFORMAT_BEGIN
 90
        0
 91
        1
 62
     0
 92
       -2
340
14
 93
        0
 40
0.045
309
GRIDFORMAT_END
 95
       32
302
GRIDFORMAT
  1
GRIDFORMAT_BEGIN
 90
        0
 91
        1
 62
     0
 92
       -2
340
14
 93
        0
 40
0.045
309
GRIDFORMAT_END
309
TABLEFORMAT_END
  1
CELLSTYLE_BEGIN
 90
        3
 91
        2
300
_DATA
309
CELLSTYLE_END
  0
ENDSEC
  0
SECTION
  2
ACDSDATA
 70
     2
 71
     8
  0
ACDSSCHEMA
 90
        0
  1
AcDb_Thumbnail_Schema
  2
AcDbDs::ID
280
    10
 91
        8
  2
Thumbnail_Data
280
    15
 91
        0
101
ACDSRECORD
 95
        0
 90
        1
  2
AcDbDs::TreatedAsObjectData
280
     1
291
     1
101
ACDSRECORD
 95
        0
 90
        2
  2
AcDbDs::Legacy
280
     1
291
     1
101
ACDSRECORD
  1
AcDbDs::ID
 90
        3
  2
AcDs:Indexable
280
     1
291
     1
101
ACDSRECORD
  1
AcDbDs::ID
 90
        4
  2
AcDbDs::HandleAttribute
280
     7
282
     1
  0
ACDSSCHEMA
 90
        1
  1
AcDbDs::TreatedAsObjectDataSchema
  2
AcDbDs::TreatedAsObjectData
280
     1
 91
        0
  0
ACDSSCHEMA
 90
        2
  1
AcDbDs::LegacySchema
  2
AcDbDs::Legacy
280
     1
 91
        0
  0
ACDSSCHEMA
 90
        3
  1
AcDbDs::IndexedPropertySchema
  2
AcDs:Indexable
280
     1
 91
        0
  0
ACDSSCHEMA
 90
        4
  1
AcDbDs::HandleAttributeSchema
  2
AcDbDs::HandleAttribute
280
     7
 91
        1
284
     1
  0
ACDSRECORD
 90
        0
  2
AcDbDs::ID
280
    10
320
22
  2
Thumbnail_Data
280
    15
 94
     1264
310
89504E470D0A1A0A0000000D49484452000001000000007D08030000007A674DFF00000300504C5445FFFFFFFFFFFFFFFFFF0000000000000000000000000000000000000000000000000000330000660000990000CC0000FF0033000033330033660033990033CC0033FF0066000066330066660066990066CC0066FF0099
310
000099330099660099990099CC0099FF00CC0000CC3300CC6600CC9900CCCC00CCFF00FF0000FF3300FF6600FF9900FFCC00FFFF3300003300333300663300993300CC3300FF3333003333333333663333993333CC3333FF3366003366333366663366993366CC3366FF3399003399333399663399993399CC3399FF33CC00
310
33CC3333CC6633CC9933CCCC33CCFF33FF0033FF3333FF6633FF9933FFCC33FFFF6600006600336600666600996600CC6600FF6633006633336633666633996633CC6633FF6666006666336666666666996666CC6666FF6699006699336699666699996699CC6699FF66CC0066CC3366CC6666CC9966CCCC66CCFF66FF0066
310
FF3366FF6666FF9966FFCC66FFFF9900009900339900669900999900CC9900FF9933009933339933669933999933CC9933FF9966009966339966669966999966CC9966FF9999009999339999669999999999CC9999FF99CC0099CC3399CC6699CC9999CCCC99CCFF99FF0099FF3399FF6699FF9999FFCC99FFFFCC0000CC00
310
33CC0066CC0099CC00CCCC00FFCC3300CC3333CC3366CC3399CC33CCCC33FFCC6600CC6633CC6666CC6699CC66CCCC66FFCC9900CC9933CC9966CC9999CC99CCCC99FFCCCC00CCCC33CCCC66CCCC99CCCCCCCCCCFFCCFF00CCFF33CCFF66CCFF99CCFFCCCCFFFFFF0000FF0033FF0066FF0099FF00CCFF00FFFF3300FF3333
310
FF3366FF3399FF33CCFF33FFFF6600FF6633FF6666FF6699FF66CCFF66FFFF9900FF9933FF9966FF9999FF99CCFF99FFFFCC00FFCC33FFCC66FFCC99FFCCCCFFCCFFFFFF00FFFF33FFFF66FFFF99FFFFCCFFFFFF0000000D0D0D1A1A1A2828283535354343435050505D5D5D6B6B6B787878868686939393A1A1A1AEAEAEBB
310
BBBBC9C9C9D6D6D6E4E4E4F1F1F1FFFFFF000000000000000000000000000000000000000000000000000000000000AD4AB4E4000000D04944415478DAEDD9410AC2301445D1EC7F995989601B29264DAB0E8497731084C6C9BFB5D56829000000000000000000000000000030502F5CBC387EFEE388977D160C9071096C4F
310
DDF1EE70ED96B3EE05ED249F0E7838E379F3B700ED3CCF0304CEFF166038E12B402D6B07889C7F9F790F307E8BB7FB65E6FCB703D49A39FF36757B9C06A8B9F3B7CFC0E798932F4D4B6C0B6681000080940D40B71918AFA606986F86E2037CF2BF406880DFD6A32E812F9605104000010410400001041040000104C8FC41A0
310
000000000000FCCD03DA5C64B8B6FCCB870000000049454E44AE426082F23D65927393BA000835AEBE95CBA48C0FD9AE01C85AFD6E80C8E095B1F33B0053B57380D8D695BAFC954D692A7B0610DCBA9F06F0BE02340750ED0302B9CBD607402A5EFF0E80E20744EAAEDD039C8E713608000000000000000000000000000000
310
00000000301C80F3DCABF348ACD4B332A798EEFB70C500FC8B5F9BDFA80AB0E39DC85A2D70FD9BA2D95B607B8300A04E0F8C7E8B000000000000000000000000000000000000000000000000000000000000300EC0D047A38410420821841042082124735E19253A7E802413D10000000049454E44AE426082
  0
ENDSEC
  0
EOF
