  0
SECTION
  2
HEADER
  9
$ACADVER
  1
AC1027
  9
$ACADMAINTVER
 70
   125
  9
$DWGCODEPAGE
  3
ANSI_1252
  9
$LASTSAVEDBY
  1
kaschu
  9
$REQUIREDVERSIONS
160
                 0
  9
$INSBASE
 10
0.0
 20
0.0
 30
0.0
  9
$EXTMIN
 10
70.65938889646464
 20
71.67332563790115
 30
0.0
  9
$EXTMAX
 10
3410.82620686473
 20
1371.977228559902
 30
0.0
  9
$LIMMIN
 10
0.0
 20
0.0
  9
$LIMMAX
 10
420.0
 20
297.0
  9
$ORTHOMODE
 70
     0
  9
$REGENMODE
 70
     1
  9
$FILLMODE
 70
     1
  9
$QTEXTMODE
 70
     0
  9
$MIRRTEXT
 70
     1
  9
$LTSCALE
 40
1.0
  9
$ATTMODE
 70
     1
  9
$TEXTSIZE
 40
2.5
  9
$TRACEWID
 40
1.0
  9
$TEXTSTYLE
  7
Standard
  9
$CLAYER
  8
0
  9
$CELTYPE
  6
ByLayer
  9
$CECOLOR
 62
   256
  9
$CELTSCALE
 40
1.0
  9
$DISPSILH
 70
     0
  9
$DIMSCALE
 40
1.0
  9
$DIMASZ
 40
2.5
  9
$DIMEXO
 40
0.625
  9
$DIMDLI
 40
3.75
  9
$DIMRND
 40
0.0
  9
$DIMDLE
 40
0.0
  9
$DIMEXE
 40
1.25
  9
$DIMTP
 40
0.0
  9
$DIMTM
 40
0.0
  9
$DIMTXT
 40
2.5
  9
$DIMCEN
 40
2.5
  9
$DIMTSZ
 40
0.0
  9
$DIMTOL
 70
     0
  9
$DIMLIM
 70
     0
  9
$DIMTIH
 70
     0
  9
$DIMTOH
 70
     0
  9
$DIMSE1
 70
     0
  9
$DIMSE2
 70
     0
  9
$DIMTAD
 70
     1
  9
$DIMZIN
 70
     8
  9
$DIMBLK
  1

  9
$DIMASO
 70
     1
  9
$DIMSHO
 70
     1
  9
$DIMPOST
  1

  9
$DIMAPOST
  1

  9
$DIMALT
 70
     0
  9
$DIMALTD
 70
     3
  9
$DIMALTF
 40
0.03937007874016
  9
$DIMLFAC
 40
1.0
  9
$DIMTOFL
 70
     1
  9
$DIMTVP
 40
0.0
  9
$DIMTIX
 70
     0
  9
$DIMSOXD
 70
     0
  9
$DIMSAH
 70
     0
  9
$DIMBLK1
  1

  9
$DIMBLK2
  1

  9
$DIMSTYLE
  2
ISO-25
  9
$DIMCLRD
 70
     0
  9
$DIMCLRE
 70
     0
  9
$DIMCLRT
 70
     0
  9
$DIMTFAC
 40
1.0
  9
$DIMGAP
 40
0.625
  9
$DIMJUST
 70
     0
  9
$DIMSD1
 70
     0
  9
$DIMSD2
 70
     0
  9
$DIMTOLJ
 70
     0
  9
$DIMTZIN
 70
     8
  9
$DIMALTZ
 70
     0
  9
$DIMALTTZ
 70
     0
  9
$DIMUPT
 70
     0
  9
$DIMDEC
 70
     2
  9
$DIMTDEC
 70
     2
  9
$DIMALTU
 70
     2
  9
$DIMALTTD
 70
     3
  9
$DIMTXSTY
  7
Standard
  9
$DIMAUNIT
 70
     0
  9
$DIMADEC
 70
     0
  9
$DIMALTRND
 40
0.0
  9
$DIMAZIN
 70
     0
  9
$DIMDSEP
 70
    44
  9
$DIMATFIT
 70
     3
  9
$DIMFRAC
 70
     0
  9
$DIMLDRBLK
  1

  9
$DIMLUNIT
 70
     2
  9
$DIMLWD
 70
    -2
  9
$DIMLWE
 70
    -2
  9
$DIMTMOVE
 70
     0
  9
$DIMFXL
 40
1.0
  9
$DIMFXLON
 70
     0
  9
$DIMJOGANG
 40
0.7853981633974483
  9
$DIMTFILL
 70
     0
  9
$DIMTFILLCLR
 70
     0
  9
$DIMARCSYM
 70
     0
  9
$DIMLTYPE
  6

  9
$DIMLTEX1
  6

  9
$DIMLTEX2
  6

  9
$DIMTXTDIRECTION
 70
     0
  9
$LUNITS
 70
     2
  9
$LUPREC
 70
     4
  9
$SKETCHINC
 40
1.0
  9
$FILLETRAD
 40
10.0
  9
$AUNITS
 70
     0
  9
$AUPREC
 70
     0
  9
$MENU
  1
.
  9
$ELEVATION
 40
0.0
  9
$PELEVATION
 40
0.0
  9
$THICKNESS
 40
0.0
  9
$LIMCHECK
 70
     0
  9
$CHAMFERA
 40
0.0
  9
$CHAMFERB
 40
0.0
  9
$CHAMFERC
 40
0.0
  9
$CHAMFERD
 40
0.0
  9
$SKPOLY
 70
     0
  9
$TDCREATE
 40
2459124.429664352
  9
$TDUCREATE
 40
2459124.346339595
  9
$TDUPDATE
 40
2459124.525057871
  9
$TDUUPDATE
 40
2459124.441724537
  9
$TDINDWG
 40
0.0279051042
  9
$TDUSRTIMER
 40
0.0279051042
  9
$USRTIMER
 70
     1
  9
$ANGBASE
 50
0.0
  9
$ANGDIR
 70
     0
  9
$PDMODE
 70
     0
  9
$PDSIZE
 40
0.0
  9
$PLINEWID
 40
0.0
  9
$SPLFRAME
 70
     0
  9
$SPLINETYPE
 70
     6
  9
$SPLINESEGS
 70
     8
  9
$HANDSEED
  5
1998
  9
$SURFTAB1
 70
     6
  9
$SURFTAB2
 70
     6
  9
$SURFTYPE
 70
     6
  9
$SURFU
 70
     6
  9
$SURFV
 70
     6
  9
$UCSBASE
  2

  9
$UCSNAME
  2

  9
$UCSORG
 10
0.0
 20
0.0
 30
0.0
  9
$UCSXDIR
 10
1.0
 20
0.0
 30
0.0
  9
$UCSYDIR
 10
0.0
 20
1.0
 30
0.0
  9
$UCSORTHOREF
  2

  9
$UCSORTHOVIEW
 70
     0
  9
$UCSORGTOP
 10
0.0
 20
0.0
 30
0.0
  9
$UCSORGBOTTOM
 10
0.0
 20
0.0
 30
0.0
  9
$UCSORGLEFT
 10
0.0
 20
0.0
 30
0.0
  9
$UCSORGRIGHT
 10
0.0
 20
0.0
 30
0.0
  9
$UCSORGFRONT
 10
0.0
 20
0.0
 30
0.0
  9
$UCSORGBACK
 10
0.0
 20
0.0
 30
0.0
  9
$PUCSBASE
  2

  9
$PUCSNAME
  2

  9
$PUCSORG
 10
0.0
 20
0.0
 30
0.0
  9
$PUCSXDIR
 10
1.0
 20
0.0
 30
0.0
  9
$PUCSYDIR
 10
0.0
 20
1.0
 30
0.0
  9
$PUCSORTHOREF
  2

  9
$PUCSORTHOVIEW
 70
     0
  9
$PUCSORGTOP
 10
0.0
 20
0.0
 30
0.0
  9
$PUCSORGBOTTOM
 10
0.0
 20
0.0
 30
0.0
  9
$PUCSORGLEFT
 10
0.0
 20
0.0
 30
0.0
  9
$PUCSORGRIGHT
 10
0.0
 20
0.0
 30
0.0
  9
$PUCSORGFRONT
 10
0.0
 20
0.0
 30
0.0
  9
$PUCSORGBACK
 10
0.0
 20
0.0
 30
0.0
  9
$USERI1
 70
     0
  9
$USERI2
 70
     0
  9
$USERI3
 70
     0
  9
$USERI4
 70
     0
  9
$USERI5
 70
     0
  9
$USERR1
 40
0.0
  9
$USERR2
 40
0.0
  9
$USERR3
 40
0.0
  9
$USERR4
 40
0.0
  9
$USERR5
 40
0.0
  9
$WORLDVIEW
 70
     1
  9
$SHADEDGE
 70
     3
  9
$SHADEDIF
 70
    70
  9
$TILEMODE
 70
     1
  9
$MAXACTVP
 70
    64
  9
$PINSBASE
 10
0.0
 20
0.0
 30
0.0
  9
$PLIMCHECK
 70
     0
  9
$PEXTMIN
 10
1.000000000000000E+20
 20
1.000000000000000E+20
 30
1.000000000000000E+20
  9
$PEXTMAX
 10
-1.000000000000000E+20
 20
-1.000000000000000E+20
 30
-1.000000000000000E+20
  9
$PLIMMIN
 10
0.0
 20
0.0
  9
$PLIMMAX
 10
420.0
 20
297.0
  9
$UNITMODE
 70
     0
  9
$VISRETAIN
 70
     1
  9
$PLINEGEN
 70
     0
  9
$PSLTSCALE
 70
     1
  9
$TREEDEPTH
 70
  3020
  9
$CMLSTYLE
  2
Standard
  9
$CMLJUST
 70
     0
  9
$CMLSCALE
 40
20.0
  9
$PROXYGRAPHICS
 70
     1
  9
$MEASUREMENT
 70
     1
  9
$CELWEIGHT
370
    -1
  9
$ENDCAPS
280
     0
  9
$JOINSTYLE
280
     0
  9
$LWDISPLAY
290
     0
  9
$INSUNITS
 70
     5
  9
$HYPERLINKBASE
  1

  9
$STYLESHEET
  1

  9
$XEDIT
290
     1
  9
$CEPSNTYPE
380
     0
  9
$PSTYLEMODE
290
     1
  9
$FINGERPRINTGUID
  2
{D65F844E-A70C-446A-BAFE-CE0D367131DF}
  9
$VERSIONGUID
  2
{319E5198-4150-7C49-B0CA-BCDBD7C80CDE}
  9
$EXTNAMES
290
     1
  9
$PSVPSCALE
 40
0.0
  9
$OLESTARTUP
290
     0
  9
$SORTENTS
280
   127
  9
$INDEXCTL
280
     0
  9
$HIDETEXT
280
     1
  9
$XCLIPFRAME
280
     2
  9
$HALOGAP
280
     0
  9
$OBSCOLOR
 70
   257
  9
$OBSLTYPE
280
     0
  9
$INTERSECTIONDISPLAY
280
     0
  9
$INTERSECTIONCOLOR
 70
   257
  9
$DIMASSOC
280
     2
  9
$PROJECTNAME
  1

  9
$CAMERADISPLAY
290
     0
  9
$LENSLENGTH
 40
50.0
  9
$CAMERAHEIGHT
 40
0.0
  9
$STEPSPERSEC
 40
2.0
  9
$STEPSIZE
 40
6.0
  9
$3DDWFPREC
 40
2.0
  9
$PSOLWIDTH
 40
5.0
  9
$PSOLHEIGHT
 40
80.0
  9
$LOFTANG1
 40
1.570796326794896
  9
$LOFTANG2
 40
1.570796326794896
  9
$LOFTMAG1
 40
0.0
  9
$LOFTMAG2
 40
0.0
  9
$LOFTPARAM
 70
     7
  9
$LOFTNORMALS
280
     1
  9
$LATITUDE
 40
37.795
  9
$LONGITUDE
 40
-122.394
  9
$NORTHDIRECTION
 40
0.0
  9
$TIMEZONE
 70
 -8000
  9
$LIGHTGLYPHDISPLAY
280
     1
  9
$TILEMODELIGHTSYNCH
280
     1
  9
$CMATERIAL
347
44
  9
$SOLIDHIST
280
     0
  9
$SHOWHIST
280
     1
  9
$DWFFRAME
280
     2
  9
$DGNFRAME
280
     2
  9
$REALWORLDSCALE
290
     1
  9
$INTERFERECOLOR
 62
   256
  9
$INTERFEREOBJVS
345
33
  9
$INTERFEREVPVS
346
30
  9
$CSHADOW
280
     0
  9
$SHADOWPLANELOCATION
 40
0.0
  0
ENDSEC
  0
SECTION
  2
CLASSES
  0
CLASS
  1
ACDBDICTIONARYWDFLT
  2
AcDbDictionaryWithDefault
  3
ObjectDBX Classes
 90
        0
 91
        1
280
     0
281
     0
  0
CLASS
  1
VISUALSTYLE
  2
AcDbVisualStyle
  3
ObjectDBX Classes
 90
     4095
 91
       24
280
     0
281
     0
  0
CLASS
  1
MATERIAL
  2
AcDbMaterial
  3
ObjectDBX Classes
 90
     1153
 91
        3
280
     0
281
     0
  0
CLASS
  1
SCALE
  2
AcDbScale
  3
ObjectDBX Classes
 90
     1153
 91
       33
280
     0
281
     0
  0
CLASS
  1
TABLESTYLE
  2
AcDbTableStyle
  3
ObjectDBX Classes
 90
     4095
 91
        1
280
     0
281
     0
  0
CLASS
  1
MLEADERSTYLE
  2
AcDbMLeaderStyle
  3
ACDB_MLEADERSTYLE_CLASS
 90
     4095
 91
        1
280
     0
281
     0
  0
CLASS
  1
SUN
  2
AcDbSun
  3
SCENEOE
 90
     1153
 91
        1
280
     0
281
     0
  0
CLASS
  1
DICTIONARYVAR
  2
AcDbDictionaryVar
  3
ObjectDBX Classes
 90
        0
 91
        7
280
     0
281
     0
  0
CLASS
  1
ACDBSECTIONVIEWSTYLE
  2
AcDbSectionViewStyle
  3
ObjectDBX Classes
 90
     1025
 91
        1
280
     0
281
     0
  0
CLASS
  1
ACDBDETAILVIEWSTYLE
  2
AcDbDetailViewStyle
  3
ObjectDBX Classes
 90
     1025
 91
        1
280
     0
281
     0
  0
CLASS
  1
SORTENTSTABLE
  2
AcDbSortentsTable
  3
ObjectDBX Classes
 90
        0
 91
        1
280
     0
281
     0
  0
CLASS
  1
DIMASSOC
  2
AcDbDimAssoc
  3
"AcDbDimAssoc|Product Desc:     AcDim ARX App For Dimension|Company:          Autodesk, Inc.|WEB Address:      www.autodesk.com"
 90
        0
 91
        0
280
     0
281
     0
  0
CLASS
  1
CELLSTYLEMAP
  2
AcDbCellStyleMap
  3
ObjectDBX Classes
 90
     1152
 91
        1
280
     0
281
     0
  0
ENDSEC
  0
SECTION
  2
TABLES
  0
TABLE
  2
VPORT
  5
8
330
0
100
AcDbSymbolTable
 70
     1
1001
ACAD
1000
DbSaveVer
1071
      224
  0
VPORT
  5
29
330
8
100
AcDbSymbolTableRecord
100
AcDbViewportTableRecord
  2
*Active
 70
     0
 10
0.0
 20
0.0
 11
1.0
 21
1.0
 12
1029.347286505011
 22
642.1776123957853
 13
0.0
 23
0.0
 14
10.0
 24
10.0
 15
10.0
 25
10.0
 16
0.0
 26
0.0
 36
1.0
 17
0.0
 27
0.0
 37
0.0
 40
1811.155731899304
 41
2.046436285097192
 42
50.0
 43
0.0
 44
0.0
 50
0.0
 51
0.0
 71
     0
 72
   100
 73
     1
 74
     3
 75
     0
 76
     0
 77
     0
 78
     0
281
     0
 65
     1
110
0.0
120
0.0
130
0.0
111
1.0
121
0.0
131
0.0
112
0.0
122
1.0
132
0.0
 79
     0
146
0.0
348
2F
 60
     3
 61
     5
292
     1
282
     1
141
0.0
142
0.0
 63
   250
421
  3355443
361
6D
1001
ACAD_NAV_VCDISPLAY
1070
     3
  0
ENDTAB
  0
TABLE
  2
LTYPE
  5
5
330
0
100
AcDbSymbolTable
 70
    11
  0
LTYPE
  5
14
330
5
100
AcDbSymbolTableRecord
100
AcDbLinetypeTableRecord
  2
ByBlock
 70
     0
  3

 72
    65
 73
     0
 40
0.0
  0
LTYPE
  5
15
330
5
100
AcDbSymbolTableRecord
100
AcDbLinetypeTableRecord
  2
ByLayer
 70
     0
  3

 72
    65
 73
     0
 40
0.0
  0
LTYPE
  5
16
330
5
100
AcDbSymbolTableRecord
100
AcDbLinetypeTableRecord
  2
Continuous
 70
     0
  3
Solid line
 72
    65
 73
     0
 40
0.0
  0
LTYPE
  5
6F
330
5
100
AcDbSymbolTableRecord
100
AcDbLinetypeTableRecord
  2
CUSTOM
 70
     0
  3

 72
    65
 73
     0
 40
0.0
  0
LTYPE
  5
70
330
5
100
AcDbSymbolTableRecord
100
AcDbLinetypeTableRecord
  2
SOLID
 70
     0
  3

 72
    65
 73
     0
 40
0.0
  0
LTYPE
  5
71
330
5
100
AcDbSymbolTableRecord
100
AcDbLinetypeTableRecord
  2
DASHED
 70
     0
  3

 72
    65
 73
     2
 40
2.62679501396115
 49
1.313397506980575
 74
     0
 49
-1.313397506980575
 74
     0
  0
LTYPE
  5
72
330
5
100
AcDbSymbolTableRecord
100
AcDbLinetypeTableRecord
  2
LONG_DASH
 70
     0
  3

 72
    65
 73
     2
 40
2.62679501396115
 49
1.970096260470862
 74
     0
 49
-0.656698753490288
 74
     0
  0
LTYPE
  5
73
330
5
100
AcDbSymbolTableRecord
100
AcDbLinetypeTableRecord
  2
SHORT_DASH
 70
     0
  3

 72
    65
 73
     4
 40
2.62679501396115
 49
0.5253590027922303
 74
     0
 49
-0.7880385041883456
 74
     0
 49
0.5253590027922303
 74
     0
 49
-0.7880385041883456
 74
     0
  0
LTYPE
  5
74
330
5
100
AcDbSymbolTableRecord
100
AcDbLinetypeTableRecord
  2
DOTTED
 70
     0
  3

 72
    65
 73
     8
 40
2.62679501396115
 49
0.1313397506980576
 74
     0
 49
-0.5253590027922303
 74
     0
 49
0.1313397506980576
 74
     0
 49
-0.5253590027922303
 74
     0
 49
0.1313397506980576
 74
     0
 49
-0.5253590027922303
 74
     0
 49
0.1313397506980576
 74
     0
 49
-0.5253590027922303
 74
     0
  0
LTYPE
  5
75
330
5
100
AcDbSymbolTableRecord
100
AcDbLinetypeTableRecord
  2
DOTDASH
 70
     0
  3

 72
    65
 73
     4
 40
2.62679501396115
 49
0.1313397506980576
 74
     0
 49
-0.656698753490288
 74
     0
 49
1.182057756282518
 74
     0
 49
-0.656698753490288
 74
     0
  0
LTYPE
  5
76
330
5
100
AcDbSymbolTableRecord
100
AcDbLinetypeTableRecord
  2
DOTDOTDASH
 70
     0
  3

 72
    65
 73
     6
 40
2.62679501396115
 49
0.1313397506980576
 74
     0
 49
-0.3940192520941727
 74
     0
 49
0.1313397506980576
 74
     0
 49
-0.3940192520941727
 74
     0
 49
1.182057756282518
 74
     0
 49
-0.3940192520941727
 74
     0
  0
LTYPE
  5
77
330
5
100
AcDbSymbolTableRecord
100
AcDbLinetypeTableRecord
  2
DASHDASHDOT
 70
     0
  3

 72
    65
 73
     6
 40
2.62679501396115
 49
0.1313397506980576
 74
     0
 49
-0.3940192520941727
 74
     0
 49
0.1313397506980576
 74
     0
 49
-0.3940192520941727
 74
     0
 49
1.182057756282518
 74
     0
 49
-0.3940192520941727
 74
     0
  0
ENDTAB
  0
TABLE
  2
LAYER
  5
2
102
{ACAD_XDICTIONARY
360
374
102
}
330
0
100
AcDbSymbolTable
 70
     3
  0
LAYER
  5
10
330
2
100
AcDbSymbolTableRecord
100
AcDbLayerTableRecord
  2
0
 70
     0
 62
     7
  6
Continuous
370
    -3
390
F
347
46
348
0
  0
LAYER
  5
371
102
{ACAD_XDICTIONARY
360
372
102
}
330
2
100
AcDbSymbolTableRecord
100
AcDbLayerTableRecord
  2
Hewi
 70
     0
 62
     7
  6
Continuous
370
    -3
390
F
347
46
348
0
  0
LAYER
  5
475
330
2
100
AcDbSymbolTableRecord
100
AcDbLayerTableRecord
  2
Defpoints
 70
     0
 62
     7
  6
Continuous
290
     0
370
    -3
390
F
347
46
348
0
  0
ENDTAB
  0
TABLE
  2
STYLE
  5
3
330
0
100
AcDbSymbolTable
 70
     1
  0
STYLE
  5
11
330
3
100
AcDbSymbolTableRecord
100
AcDbTextStyleTableRecord
  2
Standard
 70
     0
 40
0.0
 41
1.0
 50
0.0
 71
     0
 42
2.5
  3
txt
  4

  0
ENDTAB
  0
TABLE
  2
VIEW
  5
6
330
0
100
AcDbSymbolTable
 70
     0
  0
ENDTAB
  0
TABLE
  2
UCS
  5
7
330
0
100
AcDbSymbolTable
 70
     0
  0
ENDTAB
  0
TABLE
  2
APPID
  5
9
330
0
100
AcDbSymbolTable
 70
     4
  0
APPID
  5
12
330
9
100
AcDbSymbolTableRecord
100
AcDbRegAppTableRecord
  2
ACAD
 70
     0
  0
APPID
  5
176
330
9
100
AcDbSymbolTableRecord
100
AcDbRegAppTableRecord
  2
ACAD_NAV_VCDISPLAY
 70
     0
  0
APPID
  5
373
330
9
100
AcDbSymbolTableRecord
100
AcDbRegAppTableRecord
  2
ACAD_PSEXT
 70
     0
  0
APPID
  5
5CB
330
9
100
AcDbSymbolTableRecord
100
AcDbRegAppTableRecord
  2
ACAD_EXEMPT_FROM_CAD_STANDARDS
 70
     0
  0
ENDTAB
  0
TABLE
  2
DIMSTYLE
  5
A
330
0
100
AcDbSymbolTable
 70
     3
100
AcDbDimStyleTable
 71
     2
340
27
340
615
  0
DIMSTYLE
105
27
330
A
100
AcDbSymbolTableRecord
100
AcDbDimStyleTableRecord
  2
ISO-25
 70
     0
 41
2.5
 42
0.625
 43
3.75
 44
1.25
 73
     0
 74
     0
 77
     1
 78
     8
140
2.5
141
2.5
143
0.03937007874016
147
0.625
171
     3
172
     1
271
     2
272
     2
274
     3
278
    44
283
     0
284
     8
340
11
  0
DIMSTYLE
105
615
330
A
100
AcDbSymbolTableRecord
100
AcDbDimStyleTableRecord
  2
Standard
 70
     0
340
11
  0
ENDTAB
  0
TABLE
  2
BLOCK_RECORD
  5
1
330
0
100
AcDbSymbolTable
 70
    13
  0
BLOCK_RECORD
  5
1F
102
{ACAD_XDICTIONARY
360
5EE
102
}
330
1
100
AcDbSymbolTableRecord
100
AcDbBlockTableRecord
  2
*Model_Space
340
22
 70
     0
280
     1
281
     0
  0
BLOCK_RECORD
  5
1B
330
1
100
AcDbSymbolTableRecord
100
AcDbBlockTableRecord
  2
*Paper_Space
340
1E
 70
     0
280
     1
281
     0
  0
BLOCK_RECORD
  5
23
330
1
100
AcDbSymbolTableRecord
100
AcDbBlockTableRecord
  2
*Paper_Space0
340
26
 70
     0
280
     1
281
     0
  0
ENDTAB
  0
ENDSEC
  0
SECTION
  2
BLOCKS
  0
BLOCK
  5
20
330
1F
100
AcDbEntity
  8
0
100
AcDbBlockBegin
  2
*Model_Space
 70
     0
 10
0.0
 20
0.0
 30
0.0
  3
*Model_Space
  1

  0
ENDBLK
  5
21
330
1F
100
AcDbEntity
  8
0
100
AcDbBlockEnd
  0
BLOCK
  5
1C
330
1B
100
AcDbEntity
 67
     1
  8
0
100
AcDbBlockBegin
  2
*Paper_Space
 70
     0
 10
0.0
 20
0.0
 30
0.0
  3
*Paper_Space
  1

  0
ENDBLK
  5
1D
330
1B
100
AcDbEntity
 67
     1
  8
0
100
AcDbBlockEnd
  0
BLOCK
  5
24
330
23
100
AcDbEntity
 67
     1
  8
0
100
AcDbBlockBegin
  2
*Paper_Space0
 70
     0
 10
0.0
 20
0.0
 30
0.0
  3
*Paper_Space0
  1

  0
ENDBLK
  5
25
330
23
100
AcDbEntity
 67
     1
  8
0
100
AcDbBlockEnd
  0
ENDSEC
  0
SECTION
  2
ENTITIES
  0
LWPOLYLINE
  5
189E
330
1F
100
AcDbEntity
  8
Hewi
  6
CUSTOM
 62
    18
420
        0
370
     9
100
AcDbPolyline
 90
        3
 70
     0
 43
0.0
 10
82.65938911965827
 20
740.7608139614994
 10
83.15938912895694
 20
740.2644595282991
 10
86.65938925365958
 20
740.2644595282991
  0
LWPOLYLINE
  5
189F
330
1F
100
AcDbEntity
  8
Hewi
  6
CUSTOM
 62
    18
420
        0
370
     9
100
AcDbPolyline
 90
        3
 70
     0
 43
0.0
 10
87.88269491901997
 20
765.0821811883461
 10
83.15938912895694
 20
765.0821811883461
 10
82.65938911965827
 20
764.5858267551448
  0
LWPOLYLINE
  5
18A0
330
1F
100
AcDbEntity
  8
Hewi
  6
CUSTOM
 62
    18
420
        0
370
     9
100
AcDbPolyline
 90
        8
 70
     0
 43
0.0
 10
475.6593964292599
 20
798.1733200055741
 10
475.6593964292599
 20
752.6733203583217
 10
475.6593964292599
 20
749.6818745779192
 10
475.6593964292599
 20
746.8642807528112
 10
475.6593964292599
 20
744.3842871945753
 10
475.6593964292599
 20
742.3860221144068
 10
475.6593964292599
 20
740.9856174153656
 10
475.6593964292599
 20
740.2644595282991
  0
LWPOLYLINE
  5
18A1
330
1F
100
AcDbEntity
  8
Hewi
  6
CUSTOM
 62
    18
420
        0
370
     9
100
AcDbPolyline
 90
       18
 70
     0
 43
0.0
 10
475.6593964292599
 20
740.2644595282991
 10
480.6593965222575
 20
740.2160142923166
 10
482.6593965594558
 20
742.173320439725
 10
482.6593965594558
 20
742.4784313543868
 10
482.6593965594558
 20
743.3760321610415
 10
482.6593965594558
 20
744.8139575634568
 10
482.6593965594558
 20
746.7086405638865
 10
482.6593965594558
 20
748.9499690732418
 10
482.6593965594558
 20
751.4076852254539
 10
482.6593965594558
 20
753.9389554911894
 10
482.6593965594558
 20
756.3966716434015
 10
482.6593965594558
 20
758.6380001527577
 10
482.6593965594558
 20
760.5326831531884
 10
482.6593965594558
 20
761.9706085556035
 10
482.6593965594558
 20
762.8682093622574
 10
482.6593965594558
 20
763.1733202769201
 10
480.6593965222575
 20
765.1733202614131
 10
475.6593964292599
 20
765.0821811883461
  0
LWPOLYLINE
  5
18A2
330
1F
100
AcDbEntity
  8
Hewi
  6
CUSTOM
 62
    18
420
        0
370
     9
100
AcDbPolyline
 90
       47
 70
     1
 43
0.0
 10
86.73460545890817
 20
763.3408830774905
 10
86.69562715127653
 20
763.1382014983546
 10
86.65938919405858
 20
762.6733202807945
 10
86.65938919405858
 20
92.6733254750934
 10
87.18590304803115
 20
88.00038589824088
 10
88.73904300678736
 20
83.56176702426456
 10
91.24092814744404
 20
79.58003973757058
 10
94.56610350208325
 20
76.25486447055209
 10
98.54783089370654
 20
73.75297939582651
 10
102.9864498846484
 20
72.1998394780012
 10
107.6593895846465
 20
71.67332563790115
 10
445.659395871274
 20
71.67332563790115
 10
450.3323355712721
 20
72.1998394780012
 10
454.7709545622139
 20
73.75297939582651
 10
458.7526819538372
 20
76.25486447055209
 10
462.0778573084801
 20
79.58003973757058
 10
464.5797424491331
 20
83.56176702426456
 10
466.1328824078894
 20
88.00038589824088
 10
466.6593962618619
 20
92.6733254750934
 10
466.6593962618619
 20
762.6733202807945
 10
466.5841799970087
 20
763.3408830774905
 10
466.5571737388283
 20
763.4497774100828
 10
466.3623028600461
 20
763.9749714880553
 10
466.2574724657436
 20
764.1733202691657
 10
466.0048906970962
 20
764.5437896718712
 10
465.780716589082
 20
764.794640607909
 10
465.5298656464339
 20
765.0188147100152
 10
465.2268919293685
 20
765.2312407540266
 10
464.9610474476296
 20
765.3762268635482
 10
464.7132055553531
 20
765.4821431257487
 10
464.3269590203501
 20
765.5981039946664
 10
464.217605078634
 20
765.6209299448209
 10
463.9397272114995
 20
765.6601939627562
 10
463.6593962060626
 20
765.6733202575387
 10
89.65938924985426
 20
765.6733202575387
 10
89.14661964972152
 20
765.6291733237394
 10
88.99182643557038
 20
765.5981039946664
 10
88.64894152009696
 20
765.4980318235366
 10
88.35773800829088
 20
765.3762268635482
 10
88.18100217005598
 20
765.2837554203697
 10
87.78891980949016
 20
765.0188147100152
 10
87.75657365804477
 20
764.992650545083
 10
87.38814746244429
 20
764.6332847895137
 10
87.31389475882792
 20
764.5437896718712
 10
87.08656684124184
 20
764.216234751223
 10
86.95648259587802
 20
763.9749714880553
 10
86.80346556326298
 20
763.5918518190055
  0
LINE
  5
18A3
330
1F
100
AcDbEntity
  8
Hewi
  6
CUSTOM
 62
    18
420
        0
370
     9
100
AcDbLine
 10
471.8942943778176
 20
805.9916347696416
 30
0.0
 11
473.4777112133608
 21
804.4082179758252
 31
0.0
  0
LWPOLYLINE
  5
18A4
330
1F
100
AcDbEntity
  8
Hewi
  6
CUSTOM
 62
    18
420
        0
370
     9
100
AcDbPolyline
 90
       33
 70
     0
 43
0.0
 10
475.6593964292599
 20
740.2644595282991
 10
470.6593963362622
 20
740.2644595282991
 10
470.6593963362622
 20
740.9856174153656
 10
470.6593963362622
 20
742.3860221144068
 10
470.6593963362622
 20
744.3842871945753
 10
470.6593963362622
 20
746.8642807528112
 10
470.6593963362622
 20
749.6818745779192
 10
470.6593963362622
 20
752.6733203583217
 10
470.6593963362622
 20
798.1733200055741
 10
470.5340358948389
 20
799.2859246667312
 10
470.1642406665643
 20
800.3427386843441
 10
469.5685537283146
 20
801.2907689907006
 10
468.7768453105429
 20
802.0824773876075
 10
467.8288149792035
 20
802.6781643101621
 10
466.7720009337402
 20
803.0479595286925
 10
465.6593962432646
 20
803.1733199668115
 10
435.6593956852787
 20
803.1733199668115
 10
434.5467909948031
 20
803.1733199668115
 10
433.4899769493433
 20
803.1733199668115
 10
432.5419466180039
 20
803.1733199668115
 10
431.7502382002324
 20
803.1733199668115
 10
431.1545512619789
 20
803.1733199668115
 10
430.7847560337043
 20
803.1733199668115
 10
430.659395592281
 20
803.1733199668115
 10
430.659395592281
 20
808.1733199280488
 10
430.7847560337043
 20
808.1733199280488
 10
431.1545512619789
 20
808.1733199280488
 10
431.7502382002324
 20
808.1733199280488
 10
432.5419466180039
 20
808.1733199280488
 10
433.4899769493433
 20
808.1733199280488
 10
434.5467909948031
 20
808.1733199280488
 10
435.6593956852787
 20
808.1733199280488
 10
465.6593962432646
 20
808.1733199280488
  0
LINE
  5
18A5
330
1F
100
AcDbEntity
  8
Hewi
  6
CUSTOM
 62
    18
420
        0
370
     9
100
AcDbLine
 10
469.9982337151425
 20
807.1830086147501
 30
0.0
 11
471.8942943778176
 21
805.9916347696416
 31
0.0
  0
LINE
  5
18A6
330
1F
100
AcDbEntity
  8
Hewi
  6
CUSTOM
 62
    18
420
        0
370
     9
100
AcDbLine
 10
463.6593962060626
 20
762.6733202807945
 30
0.0
 11
464.2043031122059
 21
763.423320274981
 31
0.0
  0
LWPOLYLINE
  5
18A7
330
1F
100
AcDbEntity
  8
Hewi
  6
CUSTOM
 62
    18
420
        0
370
     9
100
AcDbPolyline
 90
        4
 70
     0
 43
0.0
 10
469.9982337151425
 20
807.1830086147501
 10
469.4144776656223
 20
807.4340759094393
 10
468.5398405098906
 20
807.7413626514545
 10
467.8846056242157
 20
807.9225990518107
  0
LWPOLYLINE
  5
18A8
330
1F
100
AcDbEntity
  8
Hewi
  6
CUSTOM
 62
    18
420
        0
370
     9
100
AcDbPolyline
 90
        6
 70
     0
 43
0.0
 10
467.8846056242157
 20
807.9225990518107
 10
467.7189770065935
 20
807.9563246148318
 10
466.9234705082938
 20
808.0936703014003
 10
466.2426887330123
 20
808.1606724537151
 10
465.8105897920225
 20
808.1758461493983
 10
465.6593962432646
 20
808.1733199280488
  0
LINE
  5
18A9
330
1F
100
AcDbEntity
  8
Hewi
  6
CUSTOM
 62
    18
420
        0
370
     9
100
AcDbLine
 10
474.6690850898642
 20
802.5121573631121
 30
0.0
 11
475.4086755464133
 21
800.3985293278866
 31
0.0
  0
LINE
  5
18AA
330
1F
100
AcDbEntity
  8
Hewi
  6
CUSTOM
 62
    18
420
        0
370
     9
100
AcDbLine
 10
467.8846056242157
 20
807.9225990518107
 30
0.0
 11
469.9982337151425
 21
807.1830086147501
 31
0.0
  0
LINE
  5
18AB
330
1F
100
AcDbEntity
  8
Hewi
  6
CUSTOM
 62
    18
420
        0
370
     9
100
AcDbLine
 10
475.4086755464133
 20
800.3985293278866
 30
0.0
 11
475.6593964292599
 21
798.1733200055741
 31
0.0
  0
LINE
  5
18AC
330
1F
100
AcDbEntity
  8
Hewi
  6
CUSTOM
 62
    18
420
        0
370
     9
100
AcDbLine
 10
465.6593962432646
 20
808.1733199280488
 30
0.0
 11
467.8846056242157
 21
807.9225990518107
 31
0.0
  0
LINE
  5
18AD
330
1F
100
AcDbEntity
  8
Hewi
  6
CUSTOM
 62
    18
420
        0
370
     9
100
AcDbLine
 10
89.65938924985426
 20
762.6733202807945
 30
0.0
 11
88.90938923590624
 21
763.2182271725751
 31
0.0
  0
LINE
  5
18AE
330
1F
100
AcDbEntity
  8
Hewi
  6
CUSTOM
 62
    18
420
        0
370
     9
100
AcDbLine
 10
473.4777112133608
 20
804.4082179758252
 30
0.0
 11
474.6690850898642
 21
802.5121573631121
 31
0.0
  0
LINE
  5
18AF
330
1F
100
AcDbEntity
  8
Hewi
  6
CUSTOM
 62
    18
420
        0
370
     9
100
AcDbLine
 10
469.6010789791082
 20
801.2390053528861
 30
0.0
 11
469.4130044680835
 21
801.4463182461359
 31
0.0
  0
LINE
  5
18B0
330
1F
100
AcDbEntity
  8
Hewi
  6
CUSTOM
 62
    18
420
        0
370
     9
100
AcDbLine
 10
468.9003351724251
 20
801.9589875299361
 30
0.0
 11
468.6362039542193
 21
802.1708482039638
 31
0.0
  0
LWPOLYLINE
  5
18B1
330
1F
100
AcDbEntity
  8
Hewi
  6
CUSTOM
 62
    18
420
        0
370
     9
100
AcDbPolyline
 90
        3
 70
     0
 43
0.0
 10
475.4086755464133
 20
800.3985293278866
 10
475.4408724325306
 20
800.2524368976336
 10
475.6593964292599
 20
798.1733200055741
  0
LWPOLYLINE
  5
18B2
330
1F
100
AcDbEntity
  8
Hewi
  6
CUSTOM
 62
    18
420
        0
370
     9
100
AcDbPolyline
 90
       25
 70
     0
 43
0.0
 10
87.65938921265592
 20
808.1733199280488
 10
117.6593897706382
 20
808.1733199280488
 10
118.7719944611137
 20
808.1733199280488
 10
119.8288085065771
 20
808.1733199280488
 10
120.7768388379165
 20
808.1733199280488
 10
121.5685472556918
 20
808.1733199280488
 10
122.1642341939416
 20
808.1733199280488
 10
122.5340294222162
 20
808.1733199280488
 10
122.6593898636395
 20
808.1733199280488
 10
122.6593898636395
 20
803.1733199668115
 10
122.5340294222162
 20
803.1733199668115
 10
122.1642341939416
 20
803.1733199668115
 10
121.5685472556918
 20
803.1733199668115
 10
120.7768388379165
 20
803.1733199668115
 10
119.8288085065771
 20
803.1733199668115
 10
118.7719944611137
 20
803.1733199668115
 10
117.6593897706382
 20
803.1733199668115
 10
87.65938921265592
 20
803.1733199668115
 10
86.54678452218035
 20
803.0479595286925
 10
85.4899704767206
 20
802.6781643101621
 10
84.54194014538121
 20
802.0824773876075
 10
83.75023172760961
 20
801.2907689907006
 10
83.15454478935611
 20
800.3427386843441
 10
82.78474956108153
 20
799.2859246667312
 10
82.65938911965827
 20
798.1733200055741
  0
LWPOLYLINE
  5
18B3
330
1F
100
AcDbEntity
  8
Hewi
  6
CUSTOM
 62
    18
420
        0
370
     9
100
AcDbPolyline
 90
       18
 70
     0
 43
0.0
 10
77.65938902666062
 20
765.0821811883461
 10
72.65938893366296
 20
765.1733202614131
 10
70.65938889646464
 20
763.1733202769201
 10
70.65938889646464
 20
762.8682093622574
 10
70.65938889646464
 20
761.9706085556035
 10
70.65938889646464
 20
760.5326831531884
 10
70.65938889646464
 20
758.6380001527577
 10
70.65938889646464
 20
756.3966716434015
 10
70.65938889646464
 20
753.9389554911894
 10
70.65938889646464
 20
751.4076852254539
 10
70.65938889646464
 20
748.9499690732418
 10
70.65938889646464
 20
746.7086405638865
 10
70.65938889646464
 20
744.8139575634568
 10
70.65938889646464
 20
743.3760321610415
 10
70.65938889646464
 20
742.4784313543868
 10
70.65938889646464
 20
742.173320439725
 10
72.65938893366296
 20
740.2160142923166
 10
77.65938902666062
 20
740.2644595282991
  0
LWPOLYLINE
  5
18B4
330
1F
100
AcDbEntity
  8
Hewi
  6
CUSTOM
 62
    18
420
        0
370
     9
100
AcDbPolyline
 90
        3
 70
     0
 43
0.0
 10
474.6690850898642
 20
802.5121573631121
 10
474.7948509896061
 20
802.2406864048006
 10
475.4086755464133
 20
800.3985293278866
  0
LINE
  5
18B5
330
1F
100
AcDbEntity
  8
Hewi
  6
CUSTOM
 62
    18
420
        0
370
     9
100
AcDbLine
 10
77.65938902666062
 20
798.1733200055741
 30
0.0
 11
77.91010990950349
 21
800.3985293278866
 31
0.0
  0
LINE
  5
18B6
330
1F
100
AcDbEntity
  8
Hewi
  6
CUSTOM
 62
    18
420
        0
370
     9
100
AcDbLine
 10
467.8936346646853
 20
802.6374354039107
 30
0.0
 11
467.8109093390459
 21
802.684429765598
 31
0.0
  0
LINE
  5
18B7
330
1F
100
AcDbEntity
  8
Hewi
  6
CUSTOM
 62
    18
420
        0
370
     9
100
AcDbLine
 10
466.8507811099819
 20
803.0203931536116
 30
0.0
 11
466.7210425041532
 21
803.0537011654978
 31
0.0
  0
LWPOLYLINE
  5
18B8
330
1F
100
AcDbEntity
  8
Hewi
  6
CUSTOM
 62
    18
420
        0
370
     9
100
AcDbPolyline
 90
        9
 70
     0
 43
0.0
 10
82.65938911965827
 20
798.1733200055741
 10
82.65938911965827
 20
752.6733203583217
 10
82.65938911965827
 20
749.6818745779192
 10
82.65938911965827
 20
746.8642807528112
 10
82.65938911965827
 20
744.3842871945753
 10
82.65938911965827
 20
742.3860221144068
 10
82.65938911965827
 20
740.9856174153656
 10
82.65938911965827
 20
740.2644595282991
 10
77.65938902666062
 20
740.2644595282991
  0
LINE
  5
18B9
330
1F
100
AcDbEntity
  8
Hewi
  6
CUSTOM
 62
    18
420
        0
370
     9
100
AcDbLine
 10
470.2264959974138
 20
800.1648231759563
 30
0.0
 11
470.1287509413571
 21
800.3992202602221
 31
0.0
  0
LWPOLYLINE
  5
18BA
330
1F
100
AcDbEntity
  8
Hewi
  6
CUSTOM
 62
    18
420
        0
370
     9
100
AcDbPolyline
 90
        8
 70
     0
 43
0.0
 10
77.65938902666062
 20
740.2644595282991
 10
77.65938902666062
 20
740.9856174153656
 10
77.65938902666062
 20
742.3860221144068
 10
77.65938902666062
 20
744.3842871945753
 10
77.65938902666062
 20
746.8642807528112
 10
77.65938902666062
 20
749.6818745779192
 10
77.65938902666062
 20
752.6733203583217
 10
77.65938902666062
 20
798.1733200055741
  0
LWPOLYLINE
  5
18BB
330
1F
100
AcDbEntity
  8
Hewi
  6
CUSTOM
 62
    18
420
        0
370
     9
100
AcDbPolyline
 90
        3
 70
     0
 43
0.0
 10
473.4777112133608
 20
804.4082179758252
 10
473.7495663374877
 20
804.0511724829302
 10
474.6690850898642
 20
802.5121573631121
  0
LINE
  5
18BC
330
1F
100
AcDbEntity
  8
Hewi
  6
CUSTOM
 62
    18
420
        0
370
     9
100
AcDbLine
 10
81.42449107810284
 20
805.9916347696416
 30
0.0
 11
83.32055174078163
 21
807.1830086147501
 31
0.0
  0
LWPOLYLINE
  5
18BD
330
1F
100
AcDbEntity
  8
Hewi
  6
CUSTOM
 62
    18
420
        0
370
     9
100
AcDbPolyline
 90
        3
 70
     0
 43
0.0
 10
471.8942943778176
 20
805.9916347696416
 10
472.3507024313087
 20
805.6047682027337
 10
473.4777112133608
 20
804.4082179758252
  0
LINE
  5
18BE
330
1F
100
AcDbEntity
  8
Hewi
  6
CUSTOM
 62
    18
420
        0
370
     9
100
AcDbLine
 10
83.32055174078163
 20
807.1830086147501
 30
0.0
 11
85.43417983170479
 21
807.9225990518107
 31
0.0
  0
LINE
  5
18BF
330
1F
100
AcDbEntity
  8
Hewi
  6
CUSTOM
 62
    18
420
        0
370
     9
100
AcDbLine
 10
78.64970036605632
 20
802.5121573631121
 30
0.0
 11
79.84107424255967
 21
804.4082179758252
 31
0.0
  0
LWPOLYLINE
  5
18C0
330
1F
100
AcDbEntity
  8
Hewi
  6
CUSTOM
 62
    18
420
        0
370
     9
100
AcDbPolyline
 90
        3
 70
     0
 43
0.0
 10
469.9982337151425
 20
807.1830086147501
 10
470.6593963362622
 20
806.8335739762778
 10
471.8942943778176
 20
805.9916347696416
  0
LINE
  5
18C1
330
1F
100
AcDbEntity
  8
Hewi
  6
CUSTOM
 62
    18
420
        0
370
     9
100
AcDbLine
 10
79.84107424255967
 20
804.4082179758252
 30
0.0
 11
81.42449107810284
 21
805.9916347696416
 31
0.0
  0
LINE
  5
18C2
330
1F
100
AcDbEntity
  8
Hewi
  6
CUSTOM
 62
    18
420
        0
370
     9
100
AcDbLine
 10
77.91010990950349
 20
800.3985293278866
 30
0.0
 11
78.64970036605632
 21
802.5121573631121
 31
0.0
  0
LINE
  5
18C3
330
1F
100
AcDbEntity
  8
Hewi
  6
CUSTOM
 62
    18
420
        0
370
     9
100
AcDbLine
 10
470.5480682927748
 20
799.161383682479
 30
0.0
 11
470.4854813685317
 21
799.4246855279661
 31
0.0
  0
LINE
  5
18C4
330
1F
100
AcDbEntity
  8
Hewi
  6
CUSTOM
 62
    18
420
        0
370
     9
100
AcDbLine
 10
85.43417983170479
 20
807.9225990518107
 30
0.0
 11
87.65938921265592
 21
808.1733199280488
 31
0.0
  0
LWPOLYLINE
  5
18C5
330
1F
100
AcDbEntity
  8
Hewi
  6
CUSTOM
 62
    18
420
        0
370
     9
100
AcDbPolyline
 90
        3
 70
     0
 43
0.0
 10
83.32055174078163
 20
807.1830086147501
 10
82.65938911965827
 20
806.8335739762778
 10
81.42449107810284
 20
805.9916347696416
  0
LWPOLYLINE
  5
18C6
330
1F
100
AcDbEntity
  8
Hewi
  6
CUSTOM
 62
    18
420
        0
370
     9
100
AcDbPolyline
 90
        3
 70
     0
 43
0.0
 10
81.42449107810284
 20
805.9916347696416
 10
80.96808302461182
 20
805.6047682027337
 10
79.84107424255967
 20
804.4082179758252
  0
LWPOLYLINE
  5
18C7
330
1F
100
AcDbEntity
  8
Hewi
  6
CUSTOM
 62
    18
420
        0
370
     9
100
AcDbPolyline
 90
        3
 70
     0
 43
0.0
 10
466.6593962022609
 20
740.2301449179967
 10
470.1593963269636
 20
740.2301449179967
 10
470.6593963362622
 20
740.7278719356082
  0
LINE
  5
18C8
330
1F
100
AcDbEntity
  8
Hewi
  6
CUSTOM
 62
    18
420
        0
370
     9
100
AcDbLine
 10
86.58116744174298
 20
803.0518335530677
 30
0.0
 11
86.47677464913181
 21
803.0234620147847
 31
0.0
  0
LWPOLYLINE
  5
18C9
330
1F
100
AcDbEntity
  8
Hewi
  6
CUSTOM
 62
    18
420
        0
370
     9
100
AcDbPolyline
 90
        4
 70
     0
 43
0.0
 10
85.43417983170479
 20
807.9225990518107
 10
84.82208298137743
 20
807.7546059221468
 10
83.7424957898777
 20
807.3679508266604
 10
83.32055174078163
 20
807.1830086147501
  0
LWPOLYLINE
  5
18CA
330
1F
100
AcDbEntity
  8
Hewi
  6
CUSTOM
 62
    18
420
        0
370
     9
100
AcDbPolyline
 90
        3
 70
     0
 43
0.0
 10
78.64970036605632
 20
802.5121573631121
 10
78.52393446631436
 20
802.2406864048006
 10
77.91010990950349
 20
800.3985293278866
  0
LWPOLYLINE
  5
18CB
330
1F
100
AcDbEntity
  8
Hewi
  6
CUSTOM
 62
    18
420
        0
370
     9
100
AcDbPolyline
 90
        7
 70
     0
 43
0.0
 10
85.43417983170479
 20
807.9225990518107
 10
85.72384255537077
 20
807.9825960821244
 10
86.42765773486212
 20
808.0978818032372
 10
86.99011268522486
 20
808.1548687903751
 10
87.39214993112296
 20
808.1744303715577
 10
87.59098114747507
 20
808.1753022631419
 10
87.65938921265592
 20
808.1733199280488
  0
LWPOLYLINE
  5
18CC
330
1F
100
AcDbEntity
  8
Hewi
  6
CUSTOM
 62
    18
420
        0
370
     9
100
AcDbPolyline
 90
        3
 70
     0
 43
0.0
 10
77.91010990950349
 20
800.3985293278866
 10
77.87791302338632
 20
800.2524368976336
 10
77.65938902666062
 20
798.1733200055741
  0
LWPOLYLINE
  5
18CD
330
1F
100
AcDbEntity
  8
Hewi
  6
CUSTOM
 62
    18
420
        0
370
     9
100
AcDbPolyline
 90
        3
 70
     0
 43
0.0
 10
79.84107424255967
 20
804.4082179758252
 10
79.56921911843278
 20
804.0511724829302
 10
78.64970036605632
 20
802.5121573631121
  0
LINE
  5
18CE
330
1F
100
AcDbEntity
  8
Hewi
  6
CUSTOM
 62
    18
420
        0
370
     9
100
AcDbLine
 10
85.55371154765566
 20
802.7004682741317
 30
0.0
 11
85.47238036669046
 21
802.6671117105752
 31
0.0
  0
LINE
  5
18CF
330
1F
100
AcDbEntity
  8
Hewi
  6
CUSTOM
 62
    18
420
        0
370
     9
100
AcDbLine
 10
83.91473169555069
 20
801.4552689536458
 30
0.0
 11
83.69541367385432
 21
801.2035265641962
 31
0.0
  0
LWPOLYLINE
  5
18D0
330
1F
100
AcDbEntity
  8
Hewi
  6
CUSTOM
 62
    18
420
        0
370
     9
100
AcDbPolyline
 90
        3
 70
     0
 43
0.0
 10
465.3905474316427
 20
765.1164957986484
 10
470.1593963269636
 20
765.1164957986484
 10
470.6593963362622
 20
764.618768781036
  0
LINE
  5
18D1
330
1F
100
AcDbEntity
  8
Hewi
  6
CUSTOM
 62
    18
420
        0
370
     9
100
AcDbLine
 10
82.78829041108224
 20
799.2960438343116
 30
0.0
 11
82.65938911965827
 21
798.1733200055741
 31
0.0
  0
LINE
  5
18D2
330
1F
100
AcDbEntity
  8
Hewi
  6
CUSTOM
 62
    18
420
        0
370
     9
100
AcDbLine
 10
84.65698488551538
 20
802.1547647876541
 30
0.0
 11
84.3966586207655
 21
801.9371958656037
 31
0.0
  0
LINE
  5
18D3
330
1F
100
AcDbEntity
  8
Hewi
  6
CUSTOM
 62
    18
420
        0
370
     9
100
AcDbLine
 10
83.16079192523943
 20
800.3526809438525
 30
0.0
 11
82.88957438946932
 21
799.5854968070407
 31
0.0
  0
LINE
  5
18F3
330
1F
100
AcDbEntity
  8
Hewi
  6
CUSTOM
 62
    18
420
        0
370
     9
100
AcDbLine
 10
817.3188789313316
 20
998.5628164194686
 30
0.0
 11
817.3000450717081
 21
997.7842382263833
 31
0.0
  0
LINE
  5
18F4
330
1F
100
AcDbEntity
  8
Hewi
  6
CUSTOM
 62
    18
420
        0
370
     9
100
AcDbLine
 10
817.6656952745542
 20
1000.429456904032
 30
0.0
 11
817.5474669794894
 21
1000.176462651841
 31
0.0
  0
LINE
  5
18F5
330
1F
100
AcDbEntity
  8
Hewi
  6
CUSTOM
 62
    18
420
        0
370
     9
100
AcDbLine
 10
817.9858799651483
 20
1000.885878165658
 30
0.0
 11
817.799024740103
 21
1000.690211832183
 31
0.0
  0
LINE
  5
18F6
330
1F
100
AcDbEntity
  8
Hewi
  6
CUSTOM
 62
    18
420
        0
370
     9
100
AcDbLine
 10
819.0190781624842
 20
1001.404121778969
 30
0.0
 11
818.6952954981061
 21
1001.324291145104
 31
0.0
  0
LINE
  5
18F7
330
1F
100
AcDbEntity
  8
Hewi
  6
CUSTOM
 62
    18
420
        0
370
     9
100
AcDbLine
 10
821.2881055889519
 20
1001.572968191434
 30
0.0
 11
821.0875199963812
 21
1001.571713048133
 31
0.0
  0
LWPOLYLINE
  5
18F8
330
1F
100
AcDbEntity
  8
Hewi
  6
CUSTOM
 62
    18
420
        0
370
     9
100
AcDbPolyline
 90
        3
 70
     0
 43
0.0
 10
812.2987897830789
 20
1026.572968249211
 10
812.296263561635
 20
997.7778900261236
 10
812.2968162983452
 20
997.514253385505
  0
LWPOLYLINE
  5
18F9
330
1F
100
AcDbEntity
  8
Hewi
  6
CUSTOM
 62
    18
420
        0
370
     9
100
AcDbPolyline
 90
       20
 70
     1
 43
0.0
 10
1527.798810543332
 20
969.0729681164675
 10
1527.798810543332
 20
1015.072968222663
 10
1526.798810514316
 20
1016.072968224971
 10
1428.798807670842
 20
1016.072968224971
 10
1427.798807641829
 20
1015.072968222663
 10
1427.798807641829
 20
969.0729681164675
 10
1427.924168084559
 20
967.9603634441173
 10
1428.293963316686
 20
966.9035494158706
 10
1428.889650261139
 20
965.9555190999762
 10
1429.681358687157
 20
965.1638106951031
 10
1430.62938902837
 20
964.5681237665549
 10
1431.686203084838
 20
964.1983285443048
 10
1432.798807786905
 20
964.0729681049233
 10
1522.798810398257
 20
964.0729681049233
 10
1523.911415100323
 20
964.1983285443048
 10
1524.968229156791
 20
964.5681237665549
 10
1525.916259498004
 20
965.1638106951031
 10
1526.707967924023
 20
965.9555190999762
 10
1527.303654868476
 20
966.9035494158716
 10
1527.673450100603
 20
967.9603634441173
  0
LINE
  5
18FA
330
1F
100
AcDbEntity
  8
Hewi
  6
CUSTOM
 62
    18
420
        0
370
     9
100
AcDbLine
 10
817.3635160760349
 20
999.2002951900577
 30
0.0
 11
817.3277853921208
 21
998.8067757538019
 31
0.0
  0
LINE
  5
18FB
330
1F
100
AcDbEntity
  8
Hewi
  6
CUSTOM
 62
    18
420
        0
370
     9
100
AcDbLine
 10
818.4423012484913
 20
1001.206062856085
 30
0.0
 11
818.1815463035091
 21
1001.072733386801
 31
0.0
  0
LINE
  5
18FC
330
1F
100
AcDbEntity
  8
Hewi
  6
CUSTOM
 62
    18
420
        0
370
     9
100
AcDbLine
 10
819.6714629881462
 20
1001.508242044941
 30
0.0
 11
819.3223828338522
 21
1001.471960326691
 31
0.0
  0
LINE
  5
18FD
330
1F
100
AcDbEntity
  8
Hewi
  6
CUSTOM
 62
    18
420
        0
370
     9
100
AcDbLine
 10
817.4676363448815
 20
999.852680001506
 30
0.0
 11
817.3997977964281
 21
999.5493753427499
 31
0.0
  0
LINE
  5
18FE
330
1F
100
AcDbEntity
  8
Hewi
  6
CUSTOM
 62
    18
420
        0
370
     9
100
AcDbLine
 10
820.3089417949922
 20
1001.552879189306
 30
0.0
 11
820.0649824261564
 21
1001.54397272775
 31
0.0
  0
LWPOLYLINE
  5
18FF
330
1F
100
AcDbEntity
  8
Hewi
  6
CUSTOM
 62
    18
420
        0
370
     9
100
AcDbPolyline
 90
       26
 70
     0
 43
0.0
 10
867.7987913934121
 20
1026.572968249211
 10
869.856223831619
 20
1026.402484541351
 10
870.7902372838034
 20
1026.209740966198
 10
872.8199843472648
 20
1025.520134829969
 10
873.6078312125099
 20
1025.141168566571
 10
875.4764505248022
 20
1023.937224610581
 10
876.0878248619301
 20
1023.429352594092
 10
877.6630480470812
 20
1021.750627146699
 10
878.0860900155712
 20
1021.173777570886
 10
879.2459583087403
 20
1019.094161040108
 10
879.4864947661007
 20
1018.505529318619
 10
880.1283080436878
 20
1016.130400603612
 10
880.2076526796845
 20
1015.579676727023
 10
880.2560979174449
 20
1013.040726399567
 10
880.2076526796845
 20
1012.566259713683
 10
879.6215072577069
 20
1010.014224845925
 10
879.4864947661007
 20
1009.640407122089
 10
878.2633726753228
 20
1007.236116228039
 10
878.0860900155712
 20
1006.972158869821
 10
876.264811284378
 20
1004.876419315707
 10
876.0878248619301
 20
1004.716583846614
 10
873.7481339789992
 20
1003.079546304892
 10
873.6078312125099
 20
1003.004767874136
 10
870.8673600717084
 20
1001.955464868137
 10
870.7902372838034
 20
1001.936195474509
 10
867.7987913934121
 20
1001.572968191496
  0
LWPOLYLINE
  5
1900
330
1F
100
AcDbEntity
  8
Hewi
  6
CUSTOM
 62
    18
420
        0
370
     9
100
AcDbPolyline
 90
       27
 70
     0
 43
0.0
 10
867.7987913934121
 20
1026.572968249211
 10
866.7665495450565
 20
1026.530274411696
 10
864.8073455030207
 20
1026.209740966198
 10
863.740047910589
 20
1025.895683768905
 10
861.9897515743177
 20
1025.141168566571
 10
860.9619392185122
 20
1024.537549222793
 10
859.5097579248976
 20
1023.429352594094
 10
858.6022422431597
 20
1022.53898788522
 10
857.5114927712565
 20
1021.173777570886
 10
856.8053691843598
 20
1020.022310647052
 10
856.1110880207269
 20
1018.505529318619
 10
855.6812877175834
 20
1017.141536816698
 10
855.3899301071433
 20
1015.579676727023
 10
855.2987910307274
 20
1014.072968220353
 10
855.3899301071433
 20
1012.566259713683
 10
855.6121921375451
 20
1011.291456539478
 10
856.1110880207269
 20
1009.640407122089
 10
856.5366802178614
 20
1008.649421468863
 10
857.5114927712565
 20
1006.972158869821
 10
858.025897579002
 20
1006.279345679126
 10
859.5097579248976
 20
1004.716583846614
 10
860.0051686440457
 20
1004.300074666941
 10
861.9897515743177
 20
1003.004767874136
 10
862.3752444970815
 20
1002.810857345573
 10
864.8073455030207
 20
1001.936195474509
 10
865.0172796382539
 20
1001.886369289946
 10
867.7987913934121
 20
1001.572968191496
  0
LWPOLYLINE
  5
1901
330
1F
100
AcDbEntity
  8
Hewi
  6
CUSTOM
 62
    18
420
        0
370
     9
100
AcDbPolyline
 90
       32
 70
     0
 43
0.0
 10
854.7987910162191
 20
1027.072968250365
 10
1527.798810543332
 20
1027.072968250365
 10
1531.804187470763
 20
1027.072968250365
 10
1535.60871807405
 20
1027.072968250365
 10
1539.021627302419
 20
1027.072968250365
 10
1541.871777636083
 20
1027.072968250365
 10
1544.016250636127
 20
1027.072968250365
 10
1545.347513471781
 20
1027.072968250365
 10
1545.798811065604
 20
1027.072968250365
 10
1546.46637388684
 20
1027.148184513993
 10
1547.100462320722
 20
1027.370061647344
 10
1547.66928052545
 20
1027.727473804472
 10
1548.144305581059
 20
1028.202498847397
 10
1548.501717747735
 20
1028.771317036933
 10
1548.723594887011
 20
1029.405405453881
 10
1548.798811152646
 20
1030.072968257292
 10
1548.798811152646
 20
1034.072968266525
 10
1548.723594887011
 20
1034.740531069935
 10
1548.501717747735
 20
1035.374619486884
 10
1548.144305581059
 20
1035.94343767642
 10
1547.66928052545
 20
1036.418462719345
 10
1547.100462320722
 20
1036.775874876473
 10
1546.46637388684
 20
1036.997752009823
 10
1545.798811065604
 20
1037.072968273452
 10
1545.347513471781
 20
1037.072968273452
 10
1544.016250636127
 20
1037.072968273452
 10
1541.871777636083
 20
1037.072968273452
 10
1539.021627302419
 20
1037.072968273452
 10
1535.60871807405
 20
1037.072968273452
 10
1531.804187470763
 20
1037.072968273452
 10
1527.798810543332
 20
1037.072968273452
 10
857.7987911032614
 20
1037.072968273452
  0
LWPOLYLINE
  5
1902
330
1F
100
AcDbEntity
  8
Hewi
  6
CUSTOM
 62
    18
420
        0
370
     9
100
AcDbPolyline
 90
        6
 70
     0
 43
0.0
 10
854.7987910162191
 20
1027.072968250365
 10
854.8429379516383
 20
1027.117115184607
 10
854.9740794566641
 20
1027.248256686132
 10
855.1883558677072
 20
1027.462533091451
 10
855.4794607536969
 20
1027.753637969667
 10
855.838826522482
 20
1028.113003728853
  0
LWPOLYLINE
  5
1903
330
1F
100
AcDbEntity
  8
Hewi
  6
CUSTOM
 62
    18
420
        0
370
     9
100
AcDbPolyline
 90
       11
 70
     0
 43
0.0
 10
854.7987910162191
 20
1027.072968250365
 10
854.7987910162191
 20
1034.072968266525
 10
854.8740072818546
 20
1034.740531069935
 10
855.0958844211308
 20
1035.374619486884
 10
855.4532965878024
 20
1035.94343767642
 10
855.928321643416
 20
1036.418462719345
 10
856.0571451313407
 20
1036.500019255254
 10
856.497139848143
 20
1036.775874876473
 10
856.9171131992444
 20
1036.926137821998
 10
857.1312282820255
 20
1036.997752009823
 10
857.7987911032614
 20
1037.072968273452
  0
LWPOLYLINE
  5
1904
330
1F
100
AcDbEntity
  8
Hewi
  6
CUSTOM
 62
    18
420
        0
370
     9
100
AcDbPolyline
 90
       19
 70
     0
 43
0.0
 10
812.2968074479141
 20
997.3839347007052
 10
812.2987897830789
 20
996.572968179953
 10
812.2987897830789
 20
971.5729681222383
 10
812.2987897830789
 20
970.4603634498871
 10
812.2987897830789
 20
969.4035494216423
 10
812.2987897830789
 20
968.455519105748
 10
812.2987897830789
 20
967.6638107008729
 10
812.2987897830789
 20
967.0681237723256
 10
812.2987897830789
 20
966.6983285500755
 10
812.2987897830789
 20
966.5729681106951
 10
817.2987899281542
 20
966.5729681106951
 10
817.2987899281542
 20
966.6983285500755
 10
817.2987899281542
 20
967.0681237723256
 10
817.2987899281542
 20
967.6638107008729
 10
817.2987899281542
 20
968.455519105748
 10
817.2987899281542
 20
969.4035494216423
 10
817.2987899281542
 20
970.4603634498871
 10
817.2987899281542
 20
971.5729681222383
 10
817.2987899281542
 20
996.572968179953
  0
LWPOLYLINE
  5
1905
330
1F
100
AcDbEntity
  8
Hewi
  6
CUSTOM
 62
    18
420
        0
370
     9
100
AcDbPolyline
 90
        9
 70
     0
 43
0.0
 10
1542.798810978558
 20
1027.072968250366
 10
1542.798810978558
 20
1001.072968190341
 10
1542.422729650374
 20
1001.072968190341
 10
1541.313343953992
 20
1001.072968190341
 10
1539.526283120624
 20
1001.072968190341
 10
1537.151157842574
 20
1001.072968190341
 10
1534.307066818932
 20
1001.072968190341
 10
1531.136624649523
 20
1001.072968190341
 10
1527.798810543332
 20
1001.072968190341
  0
LWPOLYLINE
  5
1906
330
1F
100
AcDbEntity
  8
Hewi
  6
CUSTOM
 62
    18
420
        0
370
     9
100
AcDbPolyline
 90
        4
 70
     0
 43
0.0
 10
1427.798804661594
 20
1001.072968190341
 10
867.7987913934121
 20
1001.072968190341
 10
864.9060191680474
 20
1001.398905332729
 10
864.4085760749039
 20
1001.57296819465
  0
LINE
  5
1907
330
1F
100
AcDbEntity
  8
Hewi
  6
CUSTOM
 62
    18
420
        0
370
     9
100
AcDbLine
 10
854.7987910162191
 20
1026.572967891583
 30
0.0
 11
854.7987910162191
 21
1027.072968250365
 31
0.0
  0
LINE
  5
1908
330
1F
100
AcDbEntity
  8
Hewi
  6
CUSTOM
 62
    18
420
        0
370
     9
100
AcDbLine
 10
857.7987911032614
 20
1037.072968273452
 30
0.0
 11
857.2538841914502
 21
1036.926137821998
 31
0.0
  0
LWPOLYLINE
  5
1909
330
1F
100
AcDbEntity
  8
Hewi
  6
CUSTOM
 62
    18
420
        0
370
     9
100
AcDbPolyline
 90
       14
 70
     0
 43
0.0
 10
812.2968074479141
 20
997.3839347007052
 10
812.2976793395283
 20
998.1700086617983
 10
812.3172409214312
 20
999.0625748842049
 10
812.3742279106627
 20
999.8579809556822
 10
812.4895136360137
 20
1000.521649160011
 10
812.7175038043787
 20
1001.071825462064
 10
813.1041589140767
 20
1001.447374204587
 10
813.6385357841064
 20
1001.572968191496
 10
814.8673416028323
 20
1001.572968191496
 10
816.4209373797566
 20
1001.572968191496
 10
818.2314235244557
 20
1001.572968191496
 10
820.219673104726
 20
1001.572968191496
 10
822.2987900732295
 20
1001.572968191496
 10
867.7987913934121
 20
1001.572968191496
  0
LWPOLYLINE
  5
190A
330
1F
100
AcDbEntity
  8
Hewi
  6
CUSTOM
 62
    18
420
        0
370
     9
100
AcDbPolyline
 90
       12
 70
     0
 43
0.0
 10
817.2987899281542
 20
996.572968179953
 10
817.297318431185
 20
997.3484913705069
 10
817.3020288766238
 20
998.1012719011477
 10
817.3305845646828
 20
998.8834486631885
 10
817.4048575933193
 20
999.5980575671055
 10
817.5578343145389
 20
1000.218511211791
 10
817.8162372860752
 20
1000.723874725125
 10
818.2050763452243
 20
1001.095203837974
 10
818.7257155300539
 20
1001.338506914399
 10
819.3568987442777
 20
1001.479680317244
 10
820.1100983681826
 20
1001.548069153396
 10
821.1394066984139
 20
1001.572968190816
  0
LWPOLYLINE
  5
190B
330
1F
100
AcDbEntity
  8
Hewi
  6
CUSTOM
 62
    18
420
        0
370
     9
100
AcDbPolyline
 90
        9
 70
     0
 43
0.0
 10
867.7987913934121
 20
1026.572968249211
 10
822.2987900732295
 20
1026.572968249211
 10
820.0735806691008
 20
1026.572968249211
 10
817.9599525561608
 20
1026.572968249211
 10
816.0638918737349
 20
1026.572968249211
 10
814.4804750217009
 20
1026.572968249211
 10
813.2891011327883
 20
1026.572968249211
 10
812.5495106685338
 20
1026.572968249211
 10
812.2987897830789
 20
1026.572968249211
  0
LINE
  5
190C
330
1F
100
AcDbEntity
  8
Hewi
  6
CUSTOM
 62
    18
420
        0
370
     9
100
AcDbLine
 10
812.2968074479141
 20
997.3839347007052
 30
0.0
 11
812.2987897830789
 21
1026.572968249211
 31
0.0
  0
LINE
  5
190D
330
1F
100
AcDbEntity
  8
Hewi
  6
CUSTOM
 62
    18
420
        0
370
     9
100
AcDbLine
 10
817.2987899281542
 20
996.572968179953
 30
0.0
 11
817.2987899281542
 21
997.5836525905323
 31
0.0
  0
LWPOLYLINE
  5
194A
330
1F
100
AcDbEntity
  8
Hewi
  6
CUSTOM
 62
    18
420
        0
370
     9
100
AcDbPolyline
 90
       15
 70
     0
 43
0.0
 10
444.5990382714092
 20
1001.0729693827
 10
444.5601498129047
 20
1001.063384238656
 10
442.3935322797963
 20
999.9262556490165
 10
440.5620054013063
 20
998.303664440994
 10
439.1720108622805
 20
996.2899097177178
 10
438.3043300928959
 20
994.0020235840048
 10
438.0093895455913
 20
991.5729696658191
 10
438.3043300928959
 20
989.1439157476325
 10
439.1720108622805
 20
986.8560296139193
 10
440.5620054013063
 20
984.8422748906441
 10
442.3935322797963
 20
983.2196836826206
 10
444.5601498129047
 20
982.082555092983
 10
446.9359420649355
 20
981.4969749020647
 10
449.3828366258578
 20
981.4969749020647
 10
449.6593893134607
 20
981.5651390167777
  0
LWPOLYLINE
  5
194B
330
1F
100
AcDbEntity
  8
Hewi
  6
CUSTOM
 62
    18
420
        0
370
     9
100
AcDbPolyline
 90
        9
 70
     0
 43
0.0
 10
470.6593889016196
 20
1026.572968594767
 10
470.5340284650021
 20
1026.572968594767
 10
470.1642332508974
 20
1026.572968594767
 10
469.568546335476
 20
1026.572968594767
 10
468.7768379480415
 20
1026.572968594767
 10
467.8288076530345
 20
1026.572968594767
 10
466.7719936480763
 20
1026.572968594767
 10
465.659389000238
 20
1026.572968594767
 10
460.6593885028062
 20
1026.572968594767
  0
LINE
  5
194C
330
1F
100
AcDbEntity
  8
Hewi
  6
CUSTOM
 62
    18
420
        0
370
     9
100
AcDbLine
 10
470.6593889016196
 20
1001.572969359805
 30
0.0
 11
475.6593888030013
 21
1001.572969359805
 31
0.0
  0
LWPOLYLINE
  5
194D
330
1F
100
AcDbEntity
  8
Hewi
  6
CUSTOM
 62
    18
420
        0
370
     9
100
AcDbPolyline
 90
       14
 70
     0
 43
0.0
 10
470.6593889016196
 20
1026.572968594767
 10
470.6593889016196
 20
1026.209741323709
 10
470.6593889016196
 20
1025.141168959247
 10
470.6593889016196
 20
1023.429353043105
 10
470.6593889016196
 20
1021.17377809413
 10
470.6593889016196
 20
1018.505529929673
 10
470.6593889016196
 20
1015.57967743437
 10
470.6593889016196
 20
1012.566260520202
 10
470.6593889016196
 20
1009.640408024897
 10
470.6593889016196
 20
1006.972159860442
 10
470.6593889016196
 20
1004.716584911467
 10
470.6593889016196
 20
1003.004768995324
 10
470.6593889016196
 20
1001.936196630863
 10
470.6593889016196
 20
1001.572969359805
  0
LWPOLYLINE
  5
194E
330
1F
100
AcDbEntity
  8
Hewi
  6
CUSTOM
 62
    18
420
        0
370
     9
100
AcDbPolyline
 90
       16
 70
     0
 43
0.0
 10
460.6593890988526
 20
1001.072969375105
 10
460.2833077890002
 20
1001.072969375105
 10
459.1739221466898
 20
1001.072969375105
 10
457.3868614004179
 20
1001.072969375105
 10
455.0117362381254
 20
1001.072969375105
 10
452.1676453531011
 20
1001.072969375105
 10
448.9972033382157
 20
1001.072969375105
 10
445.659389394704
 20
1001.072969375105
 10
107.6593960612165
 20
1001.072969375105
 10
104.3215821177048
 20
1001.072969375105
 10
101.1511401028194
 20
1001.072969375105
 10
98.30704921779512
 20
1001.072969375105
 10
95.93192405550258
 20
1001.072969375105
 10
94.14486330923432
 20
1001.072969375105
 10
93.03547766692394
 20
1001.072969375105
 10
92.65939635706786
 20
1001.072969375105
  0
LWPOLYLINE
  5
194F
330
1F
100
AcDbEntity
  8
Hewi
  6
CUSTOM
 62
    18
420
        0
370
     9
100
AcDbPolyline
 90
       10
 70
     0
 43
0.0
 10
449.6593893754154
 20
966.5729704308551
 10
435.659389591937
 20
966.5729704308551
 10
434.5467849441022
 20
966.6983308661102
 10
433.4899709391367
 20
967.0681260761911
 10
432.5419406441299
 20
967.6638129851344
 10
431.7502322566991
 20
968.4555213639532
 10
431.1545453412775
 20
969.4035516486483
 10
430.7847501271728
 20
970.460365642114
 10
430.6593896905553
 20
971.5729702778489
 10
430.6593896905553
 20
1001.072968063802
  0
LINE
  5
1950
330
1F
100
AcDbEntity
  8
Hewi
  6
CUSTOM
 62
    18
420
        0
370
     9
100
AcDbLine
 10
475.6593888030013
 20
1026.572968594767
 30
0.0
 11
470.6593889016196
 21
1026.572968594767
 31
0.0
  0
LWPOLYLINE
  5
1951
330
1F
100
AcDbEntity
  8
Hewi
  6
CUSTOM
 62
    18
420
        0
370
     9
100
AcDbPolyline
 90
        7
 70
     0
 43
0.0
 10
465.659389000238
 20
996.5729695128111
 10
465.659389000238
 20
971.5729702778489
 10
465.5340285636168
 20
970.460365642114
 10
465.1642333495158
 20
969.4035516486483
 10
464.5685464340906
 20
968.4555213639532
 10
463.7768380466598
 20
967.6638129851344
 10
463.659389040805
 20
967.5900148843503
  0
LINE
  5
1952
330
1F
100
AcDbEntity
  8
Hewi
  6
CUSTOM
 62
    18
420
        0
370
     9
100
AcDbLine
 10
92.65939635706786
 20
1001.072969375105
 30
0.0
 11
92.65939635706786
 21
1027.072968579467
 31
0.0
  0
LWPOLYLINE
  5
1953
330
1F
100
AcDbEntity
  8
Hewi
  6
CUSTOM
 62
    18
420
        0
370
     9
100
AcDbPolyline
 90
       14
 70
     0
 43
0.0
 10
475.6593888030013
 20
1001.572969359805
 10
475.6593888030013
 20
1001.936196630863
 10
475.6593888030013
 20
1003.004768995324
 10
475.6593888030013
 20
1004.716584911467
 10
475.6593888030013
 20
1006.972159860442
 10
475.6593888030013
 20
1009.640408024897
 10
475.6593888030013
 20
1012.566260520202
 10
475.6593888030013
 20
1015.57967743437
 10
475.6593888030013
 20
1018.505529929673
 10
475.6593888030013
 20
1021.17377809413
 10
475.6593888030013
 20
1023.429353043105
 10
475.6593888030013
 20
1025.141168959247
 10
475.6593888030013
 20
1026.209741323709
 10
475.6593888030013
 20
1026.572968594767
  0
LWPOLYLINE
  5
1954
330
1F
100
AcDbEntity
  8
Hewi
  6
CUSTOM
 62
    18
420
        0
370
     9
100
AcDbPolyline
 90
       13
 70
     0
 43
0.0
 10
470.6593889016196
 20
1001.572969359805
 10
470.5985817969279
 20
1001.574440856687
 10
470.4196456573929
 20
1001.569730411525
 10
470.093473051643
 20
1001.541174725173
 10
469.6379003160703
 20
1001.466901700965
 10
469.0750240358659
 20
1001.313924988864
 10
468.4449766022492
 20
1001.055522032731
 10
467.7913169037212
 20
1000.666682996764
 10
467.1683600824483
 20
1000.146043842975
 10
466.6184731771111
 20
999.5148606663779
 10
466.1640904023163
 20
998.7616610873729
 10
465.7887926106243
 20
997.7000685321572
 10
465.659389000238
 20
996.5729695128111
  0
LINE
  5
1955
330
1F
100
AcDbEntity
  8
Hewi
  6
CUSTOM
 62
    18
420
        0
370
     9
100
AcDbLine
 10
460.6593890988526
 20
1001.072969375105
 30
0.0
 11
460.6593890988526
 21
1027.072968579467
 31
0.0
  0
LWPOLYLINE
  5
1956
330
1F
100
AcDbEntity
  8
Hewi
  6
CUSTOM
 62
    18
420
        0
370
     9
100
AcDbPolyline
 90
       18
 70
     0
 43
0.0
 10
464.3269518283862
 20
1036.997752012299
 10
463.6593890396845
 20
1037.072968273452
 10
463.2080914678565
 20
1037.072968273452
 10
461.8768286970855
 20
1037.072968273452
 10
459.7323558015607
 20
1037.072968273452
 10
456.8822056068104
 20
1037.072968273452
 10
453.4692965447804
 20
1037.072968273452
 10
449.664766126921
 20
1037.072968273452
 10
445.659389394704
 20
1037.072968273452
 10
107.6593960612165
 20
1037.072968273452
 10
103.6540193290031
 20
1037.072968273452
 10
99.84948891114004
 20
1037.072968273452
 10
96.4365798491101
 20
1037.072968273452
 10
93.58642965435979
 20
1037.072968273452
 10
91.44195675883498
 20
1037.072968273452
 10
90.11069398806398
 20
1037.072968273452
 10
89.65939641623595
 20
1037.072968273452
 10
88.99183362753433
 20
1036.997752012299
  0
LWPOLYLINE
  5
1957
330
1F
100
AcDbEntity
  8
Hewi
  6
CUSTOM
 62
    18
420
        0
370
     9
100
AcDbPolyline
 90
       55
 70
     0
 43
0.0
 10
87.78892704755458
 20
1036.418462740886
 10
87.31390201509316
 20
1035.943437713594
 10
86.95648986584023
 20
1035.374619542777
 10
86.73461273737961
 20
1034.740531146698
 10
86.65939647540767
 20
1034.072968365256
 10
86.65939647540767
 20
1030.072968487662
 10
86.69563443123957
 20
1029.608087280726
 10
86.73461273737961
 20
1029.405405706221
 10
86.80347283909327
 20
1029.154436970439
 10
86.95648986584023
 20
1028.771317310143
 10
87.08657410622004
 20
1028.530054052488
 10
87.31390201509316
 20
1028.202499139325
 10
87.38815471586462
 20
1028.113004023726
 10
87.75658089734974
 20
1027.753638276368
 10
87.78892704755458
 20
1027.727474112034
 10
88.18100939309193
 20
1027.462533407733
 10
88.35774522455654
 20
1027.370061966668
 10
88.6489487252013
 20
1027.248257009464
 10
88.99183362753433
 20
1027.148184840619
 10
89.14662683575192
 20
1027.117115512256
 10
89.65939641623595
 20
1027.072968579467
 10
90.11069398806398
 20
1027.072968579467
 10
91.44195675883498
 20
1027.072968579467
 10
93.58642965435979
 20
1027.072968579467
 10
96.4365798491101
 20
1027.072968579467
 10
99.84948891114004
 20
1027.072968579467
 10
103.6540193290031
 20
1027.072968579467
 10
107.6593960612165
 20
1027.072968579467
 10
445.659389394704
 20
1027.072968579467
 10
449.664766126921
 20
1027.072968579467
 10
453.4692965447804
 20
1027.072968579467
 10
456.8822056068104
 20
1027.072968579467
 10
459.7323558015607
 20
1027.072968579467
 10
461.8768286970855
 20
1027.072968579467
 10
463.2080914678565
 20
1027.072968579467
 10
463.6593890396845
 20
1027.072968579467
 10
463.9397200343712
 20
1027.086094873949
 10
464.217597890861
 20
1027.125358890986
 10
464.3269518283862
 20
1027.148184840619
 10
464.7131983485862
 20
1027.264145706887
 10
464.961040231364
 20
1027.370061966668
 10
465.2268847029128
 20
1027.515048072876
 10
465.5298584083696
 20
1027.727474112034
 10
465.7807093414024
 20
1027.951648209018
 10
466.0048834408273
 20
1028.202499139325
 10
466.2574651997941
 20
1028.572968533564
 10
466.3622955900803
 20
1028.771317310143
 10
466.5571664613974
 20
1029.296511376115
 10
466.5841727185445
 20
1029.405405706221
 10
466.6593889805128
 20
1030.072968487662
 10
466.6593889805128
 20
1034.072968365256
 10
466.5841727185445
 20
1034.740531146698
 10
466.3622955900803
 20
1035.374619542777
 10
466.0048834408273
 20
1035.943437713594
 10
465.5298584083696
 20
1036.418462740886
  0
LINE
  5
1958
330
1F
100
AcDbEntity
  8
Hewi
  6
CUSTOM
 62
    18
420
        0
370
     9
100
AcDbLine
 10
467.6118214947321
 20
1000.516668846857
 30
0.0
 11
467.0462754680531
 21
1000.005910015163
 31
0.0
  0
LINE
  5
1959
330
1F
100
AcDbEntity
  8
Hewi
  6
CUSTOM
 62
    18
420
        0
370
     9
100
AcDbLine
 10
465.8074339026764
 20
997.752798543831
 30
0.0
 11
465.659389000238
 21
996.5729695128111
 31
0.0
  0
LINE
  5
195A
330
1F
100
AcDbEntity
  8
Hewi
  6
CUSTOM
 62
    18
420
        0
370
     9
100
AcDbLine
 10
466.8249432291752
 20
999.7518556229625
 30
0.0
 11
466.3108290061656
 21
999.0048997406056
 31
0.0
  0
LWPOLYLINE
  5
195B
330
1F
100
AcDbEntity
  8
Hewi
  6
CUSTOM
 62
    18
420
        0
370
     9
100
AcDbPolyline
 90
        3
 70
     0
 43
0.0
 10
470.6593889016196
 20
1001.572969359805
 10
470.0421816284699
 20
1001.531419779804
 10
469.4273707276054
 20
1001.409684642936
  0
LWPOLYLINE
  5
195C
330
1F
100
AcDbEntity
  8
Hewi
  6
CUSTOM
 62
    18
420
        0
370
     9
100
AcDbPolyline
 90
        3
 70
     0
 43
0.0
 10
469.4037800504458
 20
1001.40327324526
 10
468.5398331564731
 20
1001.091559562411
 10
467.7474688441555
 20
1000.630036772519
  0
LINE
  5
195D
330
1F
100
AcDbEntity
  8
Hewi
  6
CUSTOM
 62
    18
420
        0
370
     9
100
AcDbLine
 10
466.2280393503799
 20
998.8676649320822
 30
0.0
 11
465.8847769422038
 21
997.9715762631494
 31
0.0
  0
LWPOLYLINE
  5
195E
330
1F
100
AcDbEntity
  8
Hewi
  6
CUSTOM
 62
    18
420
        0
370
     9
100
AcDbPolyline
 90
       15
 70
     0
 43
0.0
 10
103.6593961247611
 20
981.5651390211414
 10
103.9359488300626
 20
981.4969749020647
 10
106.382843390985
 20
981.4969749020647
 10
108.7586356430158
 20
982.082555092983
 10
110.9252531761206
 20
983.2196836826206
 10
112.7567800546142
 20
984.8422748906441
 10
114.1467745936436
 20
986.8560296139193
 10
115.0144553630246
 20
989.1439157476325
 10
115.3093959103328
 20
991.5729696658191
 10
115.0144553630246
 20
994.0020235840048
 10
114.1467745936436
 20
996.2899097177178
 10
112.7567800546142
 20
998.303664440994
 10
110.9252531761206
 20
999.9262556490165
 10
108.7586356430158
 20
1001.063384238656
 10
108.7197472154887
 20
1001.072969375064
  0
LWPOLYLINE
  5
195F
330
1F
100
AcDbEntity
  8
Hewi
  6
CUSTOM
 62
    18
420
        0
370
     9
100
AcDbPolyline
 90
       10
 70
     0
 43
0.0
 10
122.6593957653651
 20
1001.072969553918
 10
122.6593957653651
 20
971.5729702778489
 10
122.5340353287476
 20
970.460365642114
 10
122.164240114643
 20
969.4035516486483
 10
121.5685531992214
 20
968.4555213639532
 10
120.7768448117906
 20
967.6638129851344
 10
119.8288145167837
 20
967.0681260761911
 10
118.7720005118219
 20
966.6983308661102
 10
117.6593958639835
 20
966.5729704308551
 10
103.659396080505
 20
966.5729704308551
  0
LINE
  5
1960
330
1F
100
AcDbEntity
  8
Hewi
  6
CUSTOM
 62
    18
420
        0
370
     9
100
AcDbLine
 10
464.3269518283862
 20
1036.997752012299
 30
0.0
 11
464.961040231364
 21
1036.775874886251
 31
0.0
  0
LWPOLYLINE
  5
1961
330
1F
100
AcDbEntity
  8
Hewi
  6
CUSTOM
 62
    18
420
        0
370
     9
100
AcDbPolyline
 90
        3
 70
     0
 43
0.0
 10
88.35774522455654
 20
1036.775874886251
 10
88.77771855519062
 20
1036.926137826831
 10
88.99183362753433
 20
1036.997752012299
  0
LWPOLYLINE
  5
1962
330
1F
100
AcDbEntity
  8
Hewi
  6
CUSTOM
 62
    18
420
        0
370
     9
100
AcDbPolyline
 90
        3
 70
     0
 43
0.0
 10
464.961040231364
 20
1036.775874886251
 10
464.5410669007299
 20
1036.926137826831
 10
464.3269518283862
 20
1036.997752012299
  0
LINE
  5
1963
330
1F
100
AcDbEntity
  8
Hewi
  6
CUSTOM
 62
    18
420
        0
370
     9
100
AcDbLine
 10
464.961040231364
 20
1036.775874886251
 30
0.0
 11
465.5298584083696
 21
1036.418462740886
 31
0.0
  0
LWPOLYLINE
  5
1964
330
1F
100
AcDbEntity
  8
Hewi
  6
CUSTOM
 62
    18
420
        0
370
     9
100
AcDbPolyline
 90
        3
 70
     0
 43
0.0
 10
465.5298584083696
 20
1036.418462740886
 10
465.4010349267203
 20
1036.50001927411
 10
464.961040231364
 20
1036.775874886251
  0
LWPOLYLINE
  5
1965
330
1F
100
AcDbEntity
  8
Hewi
  6
CUSTOM
 62
    18
420
        0
370
     9
100
AcDbPolyline
 90
        7
 70
     0
 43
0.0
 10
89.65939643630667
 20
967.5900148710352
 10
89.54194740926073
 20
967.6638129851344
 10
88.75023902182988
 20
968.4555213639532
 10
88.1545521064047
 20
969.4035516486483
 10
87.78475689230367
 20
970.460365642114
 10
87.65939645568256
 20
971.5729702778489
 10
87.65939645568256
 20
996.5729695128111
  0
LINE
  5
1966
330
1F
100
AcDbEntity
  8
Hewi
  6
CUSTOM
 62
    18
420
        0
370
     9
100
AcDbLine
 10
87.78892704755458
 20
1036.418462740886
 30
0.0
 11
88.35774522455654
 21
1036.775874886251
 31
0.0
  0
LINE
  5
1967
330
1F
100
AcDbEntity
  8
Hewi
  6
CUSTOM
 62
    18
420
        0
370
     9
100
AcDbLine
 10
88.35774522455654
 20
1036.775874886251
 30
0.0
 11
88.99183362753433
 21
1036.997752012299
 31
0.0
  0
LWPOLYLINE
  5
1968
330
1F
100
AcDbEntity
  8
Hewi
  6
CUSTOM
 62
    18
420
        0
370
     9
100
AcDbPolyline
 90
        3
 70
     0
 43
0.0
 10
87.78892704755458
 20
1036.418462740886
 10
87.91775052920025
 20
1036.50001927411
 10
88.35774522455654
 20
1036.775874886251
  0
LWPOLYLINE
  5
1969
330
1F
100
AcDbEntity
  8
Hewi
  6
CUSTOM
 62
    18
420
        0
370
     9
100
AcDbPolyline
 90
       14
 70
     0
 43
0.0
 10
82.65939655430452
 20
1001.572969359805
 10
82.65939655430452
 20
1001.936196630863
 10
82.65939655430452
 20
1003.004768995324
 10
82.65939655430452
 20
1004.716584911467
 10
82.65939655430452
 20
1006.972159860442
 10
82.65939655430452
 20
1009.640408024897
 10
82.65939655430452
 20
1012.566260520202
 10
82.65939655430452
 20
1015.57967743437
 10
82.65939655430452
 20
1018.505529929675
 10
82.65939655430452
 20
1021.17377809413
 10
82.65939655430452
 20
1023.429353043105
 10
82.65939655430452
 20
1025.141168959247
 10
82.65939655430452
 20
1026.209741323709
 10
82.65939655430452
 20
1026.572968594767
  0
LWPOLYLINE
  5
196A
330
1F
100
AcDbEntity
  8
Hewi
  6
CUSTOM
 62
    18
420
        0
370
     9
100
AcDbPolyline
 90
        4
 70
     0
 43
0.0
 10
85.61210577115094
 20
1000.589827023977
 10
84.82209033313962
 20
1001.071826646866
 10
83.74250318301097
 20
1001.447375377029
 10
82.65939655430452
 20
1001.572969359805
  0
LWPOLYLINE
  5
196B
330
1F
100
AcDbEntity
  8
Hewi
  6
CUSTOM
 62
    18
420
        0
370
     9
100
AcDbPolyline
 90
       14
 70
     0
 43
0.0
 10
77.65939665291921
 20
1026.572968594767
 10
77.65939665291921
 20
1026.209741323709
 10
77.65939665291921
 20
1025.141168959247
 10
77.65939665291921
 20
1023.429353043105
 10
77.65939665291921
 20
1021.17377809413
 10
77.65939665291921
 20
1018.505529929673
 10
77.65939665291921
 20
1015.57967743437
 10
77.65939665291921
 20
1012.566260520202
 10
77.65939665291921
 20
1009.640408024897
 10
77.65939665291921
 20
1006.972159860442
 10
77.65939665291921
 20
1004.716584911467
 10
77.65939665291921
 20
1003.004768995324
 10
77.65939665291921
 20
1001.936196630863
 10
77.65939665291921
 20
1001.572969359805
  0
LWPOLYLINE
  5
196C
330
1F
100
AcDbEntity
  8
Hewi
  6
CUSTOM
 62
    18
420
        0
370
     9
100
AcDbPolyline
 90
       13
 70
     0
 43
0.0
 10
87.65939645568256
 20
996.5729695128111
 10
87.59858935099078
 20
997.3484926778438
 10
87.41965321145585
 20
998.1012731837099
 10
87.09348060570595
 20
998.8834499200093
 10
86.63790787013681
 20
999.5980588004076
 10
86.07503158993244
 20
1000.218512424674
 10
85.44498415631574
 20
1000.723875921377
 10
84.79132445778782
 20
1001.095205022004
 10
84.16836763651122
 20
1001.338508090423
 10
83.61848073117768
 20
1001.479681488623
 10
83.16409795637923
 20
1001.548070322523
 10
82.78880016469088
 20
1001.573750318194
 10
82.65939655430452
 20
1001.572969359805
  0
LINE
  5
196D
330
1F
100
AcDbEntity
  8
Hewi
  6
CUSTOM
 62
    18
420
        0
370
     9
100
AcDbLine
 10
87.65939645568256
 20
996.5729695128111
 30
0.0
 11
87.59144162485359
 21
997.3785630181973
 31
0.0
  0
LWPOLYLINE
  5
196E
330
1F
100
AcDbEntity
  8
Hewi
  6
CUSTOM
 62
    18
420
        0
370
     9
100
AcDbPolyline
 90
        4
 70
     0
 43
0.0
 10
83.1593965326731
 20
1026.572968594767
 10
83.15455220502304
 20
1026.572968594767
 10
82.78475699092201
 20
1026.572968594767
 10
82.65939655430452
 20
1026.572968594767
  0
LINE
  5
196F
330
1F
100
AcDbEntity
  8
Hewi
  6
CUSTOM
 62
    18
420
        0
370
     9
100
AcDbLine
 10
92.15939654574071
 20
1026.572968594767
 30
0.0
 11
92.65939650607947
 21
1026.572968594767
 31
0.0
  0
LINE
  5
1970
330
1F
100
AcDbEntity
  8
Hewi
  6
CUSTOM
 62
    18
420
        0
370
     9
100
AcDbLine
 10
86.25083736292912
 20
1000.024723252632
 30
0.0
 11
85.87616140581781
 21
1000.37802697249
 31
0.0
  0
LINE
  5
1971
330
1F
100
AcDbEntity
  8
Hewi
  6
CUSTOM
 62
    18
420
        0
370
     9
100
AcDbLine
 10
77.65939665291921
 20
1001.572969359805
 30
0.0
 11
82.65939655430452
 21
1001.572969359805
 31
0.0
  0
LINE
  5
1972
330
1F
100
AcDbEntity
  8
Hewi
  6
CUSTOM
 62
    18
420
        0
370
     9
100
AcDbLine
 10
87.37642109185731
 20
998.204945771773
 30
0.0
 11
87.01620576433311
 21
999.0046628108329
 31
0.0
  0
LINE
  5
1973
330
1F
100
AcDbEntity
  8
Hewi
  6
CUSTOM
 62
    18
420
        0
370
     9
100
AcDbLine
 10
87.57731504371008
 20
997.437993232862
 30
0.0
 11
87.39395735577387
 21
998.1628930120587
 31
0.0
  0
LINE
  5
1974
330
1F
100
AcDbEntity
  8
Hewi
  6
CUSTOM
 62
    18
420
        0
370
     9
100
AcDbLine
 10
86.88006549943498
 20
999.2182116783743
 30
0.0
 11
86.51800353749171
 21
999.7302283014878
 31
0.0
  0
LINE
  5
1975
330
1F
100
AcDbEntity
  8
Hewi
  6
CUSTOM
 62
    18
420
        0
370
     9
100
AcDbLine
 10
82.65939655430452
 20
1026.572968594767
 30
0.0
 11
77.65939665291921
 21
1026.572968594767
 31
0.0
  0
LWPOLYLINE
  5
1976
330
1F
100
AcDbEntity
  8
Hewi
  6
CUSTOM
 62
    18
420
        0
370
     9
100
AcDbPolyline
 90
       17
 70
     0
 43
0.0
 10
77.65939665291921
 20
1026.572968594767
 10
72.6593967515339
 20
1026.530274758657
 10
70.65939679098415
 20
1024.496411836343
 10
70.65939679098415
 20
1023.890639225047
 10
70.65939679098415
 20
1022.714299304732
 10
70.65939679098415
 20
1021.035756675743
 10
70.65939679098415
 20
1018.952562134423
 10
70.65939679098415
 20
1016.585783375409
 10
70.65939679098415
 20
1014.072968977286
 10
70.65939679098415
 20
1011.560154579162
 10
70.65939679098415
 20
1009.193375820149
 10
70.65939679098415
 20
1007.11018127883
 10
70.65939679098415
 20
1005.431638649839
 10
70.65939679098415
 20
1004.255298729524
 10
70.65939679098415
 20
1003.64952611823
 10
72.6593967515339
 20
1001.572969359805
 10
77.65939665291921
 20
1001.572969359805
  0
LWPOLYLINE
  5
1977
330
1F
100
AcDbEntity
  8
Hewi
  6
CUSTOM
 62
    18
420
        0
370
     9
100
AcDbPolyline
 90
       22
 70
     0
 43
0.0
 10
92.65939635706786
 20
1016.072968916083
 10
90.65939639651446
 20
1016.072968916083
 10
89.65939641623595
 20
1015.072968946685
 10
89.65939641623595
 20
969.0729703543521
 10
89.65939641623595
 20
968.1828866457644
 10
89.65939641623595
 20
967.3374354509915
 10
89.65939641623595
 20
966.5790112232361
 10
89.65939641623595
 20
965.9456445201813
 10
89.65939641623595
 20
965.4690949930273
 10
89.65939641623595
 20
965.1732588249624
 10
89.65939641623595
 20
965.0729704767591
 10
90.65939639651446
 20
964.0729705073599
 10
102.6593961598348
 20
964.0729705073599
 10
103.6593961401097
 20
965.0729704767591
 10
103.6593961401097
 20
965.1732588249624
 10
103.6593961401097
 20
965.4690949930273
 10
103.6593961401097
 20
965.9456445201813
 10
103.6593961401097
 20
966.5790112232361
 10
103.6593961401097
 20
967.3374354509915
 10
103.6593961401097
 20
968.1828866457644
 10
103.6593961401097
 20
969.0729703543521
 10
103.6593961401097
 20
1001.072969971152
  0
LWPOLYLINE
  5
1978
330
1F
100
AcDbEntity
  8
Hewi
  6
CUSTOM
 62
    18
420
        0
370
     9
100
AcDbPolyline
 90
       22
 70
     0
 43
0.0
 10
449.6593893158108
 20
1001.072969971152
 10
449.6593893158108
 20
969.0729703543539
 10
449.6593893158108
 20
968.1828866457653
 10
449.6593893158108
 20
967.3374354509924
 10
449.6593893158108
 20
966.5790112232361
 10
449.6593893158108
 20
965.9456445201813
 10
449.6593893158108
 20
965.4690949930273
 10
449.6593893158108
 20
965.1732588249624
 10
449.6593893158108
 20
965.0729704767591
 10
450.6593892960856
 20
964.0729705073599
 10
462.659389059406
 20
964.0729705073599
 10
463.6593890396845
 20
965.0729704767591
 10
463.6593890396845
 20
965.1732588249624
 10
463.6593890396845
 20
965.4690949930273
 10
463.6593890396845
 20
965.9456445201813
 10
463.6593890396845
 20
966.5790112232361
 10
463.6593890396845
 20
967.3374354509924
 10
463.6593890396845
 20
968.1828866457653
 10
463.6593890396845
 20
969.0729703543539
 10
463.6593890396845
 20
1015.072968946685
 10
462.659389059406
 20
1016.072968916083
 10
460.6593890988526
 20
1016.072968916083
  0
LINE
  5
1979
330
1F
100
AcDbEntity
  8
Hewi
  6
CUSTOM
 62
    18
420
        0
370
     9
100
AcDbLine
 10
92.65939635706786
 20
1015.072968946685
 30
0.0
 11
92.65939635706786
 21
1001.072969375105
 31
0.0
  0
LINE
  5
197A
330
1F
100
AcDbEntity
  8
Hewi
  6
CUSTOM
 62
    18
420
        0
370
     9
100
AcDbLine
 10
460.6593890988526
 20
1001.072969375105
 30
0.0
 11
460.6593890988526
 21
1015.072968946685
 31
0.0
  0
LINE
  5
197B
330
1F
100
AcDbEntity
  8
Hewi
  6
CUSTOM
 62
    18
420
        0
370
     9
100
AcDbLine
 10
92.15939636693041
 20
1026.572968594767
 30
0.0
 11
83.15939654444196
 21
1026.572968594767
 31
0.0
  0
LWPOLYLINE
  5
197C
330
1F
100
AcDbEntity
  8
Hewi
  6
CUSTOM
 62
    18
420
        0
370
     9
100
AcDbPolyline
 90
        3
 70
     0
 43
0.0
 10
82.65939655430452
 20
1002.072969344504
 10
83.15939654444196
 20
1001.572969359805
 10
89.65939629702665
 20
1001.572969359805
  0
LINE
  5
197D
330
1F
100
AcDbEntity
  8
Hewi
  6
CUSTOM
 62
    18
420
        0
370
     9
100
AcDbLine
 10
92.15939636693041
 20
1026.572968594767
 30
0.0
 11
92.65939635706786
 21
1026.072968610068
 31
0.0
  0
LINE
  5
197E
330
1F
100
AcDbEntity
  8
Hewi
  6
CUSTOM
 62
    18
420
        0
370
     9
100
AcDbLine
 10
83.15939654444196
 20
1026.572968594767
 30
0.0
 11
82.65939655430452
 21
1026.072968610068
 31
0.0
  0
LWPOLYLINE
  5
197F
330
1F
100
AcDbEntity
  8
Hewi
  6
CUSTOM
 62
    18
420
        0
370
     9
100
AcDbPolyline
 90
        4
 70
     0
 43
0.0
 10
470.6593889016196
 20
1026.069084803724
 10
470.1593889114822
 20
1026.56892296316
 10
461.1593890889901
 20
1026.56892296316
 10
460.6593890988526
 20
1026.069084803724
  0
LWPOLYLINE
  5
1980
330
1F
100
AcDbEntity
  8
Hewi
  6
CUSTOM
 62
    18
420
        0
370
     9
100
AcDbPolyline
 90
       17
 70
     0
 43
0.0
 10
475.6593888030013
 20
1001.572969359805
 10
480.6593887043866
 20
1001.615663195916
 10
482.65938866494
 20
1003.649526118229
 10
482.65938866494
 20
1004.255298729524
 10
482.65938866494
 20
1005.431638649839
 10
482.65938866494
 20
1007.11018127883
 10
482.65938866494
 20
1009.193375820149
 10
482.65938866494
 20
1011.560154579162
 10
482.65938866494
 20
1014.072968977286
 10
482.65938866494
 20
1016.585783375409
 10
482.65938866494
 20
1018.952562134423
 10
482.65938866494
 20
1021.035756675743
 10
482.65938866494
 20
1022.714299304732
 10
482.65938866494
 20
1023.890639225047
 10
482.65938866494
 20
1024.496411836343
 10
480.6593887043866
 20
1026.572968594767
 10
475.6593888030013
 20
1026.572968594767
  0
LWPOLYLINE
  5
1981
330
1F
100
AcDbEntity
  8
Hewi
  6
CUSTOM
 62
    18
420
        0
370
     9
100
AcDbPolyline
 90
        3
 70
     0
 43
0.0
 10
463.6593891588939
 20
1001.577014991413
 10
470.1593889114822
 20
1001.577014991413
 10
470.6593889016196
 20
1002.076853150848
  0
ENDSEC
  0
SECTION
  2
OBJECTS
  0
DICTIONARY
  5
C
330
0
100
AcDbDictionary
281
     1
  3
ACAD_CIP_PREVIOUS_PRODUCT_INFO
350
175
  3
ACAD_COLOR
350
16F
  3
ACAD_DETAILVIEWSTYLE
350
16A
  3
ACAD_GROUP
350
D
  3
ACAD_IMAGE_DICT
350
6E
  3
ACAD_LAYOUT
350
1A
  3
ACAD_MATERIAL
350
43
  3
ACAD_MLEADERSTYLE
350
6B
  3
ACAD_MLINESTYLE
350
17
  3
ACAD_PLOTSETTINGS
350
19
  3
ACAD_PLOTSTYLENAME
350
E
  3
ACAD_SCALELIST
350
47
  3
ACAD_SECTIONVIEWSTYLE
350
16B
  3
ACAD_TABLESTYLE
350
69
  3
ACAD_VISUALSTYLE
350
2A
  3
ACDB_RECOMPOSE_DATA
350
198B
  3
AcDbVariableDictionary
350
166
  3
AcDsDecomposeData
350
1991
  0
SUN
  5
6D
330
29
100
AcDbSun
 90
        1
290
     1
 63
     7
421
 16777215
 40
1.0
291
     1
 91
  2455826
 92
 54000000
292
     0
 70
     0
 71
   256
280
     1
1001
ACAD
1000
AcDbSavedByObjectVersion
1070
     0
1000
AcDbSavedByObjectVersion
1070
     0
  0
DICTIONARY
  5
374
330
2
100
AcDbDictionary
280
     1
281
     1
  3
ACAD_LAYERSTATES
360
375
  0
DICTIONARY
  5
372
330
371
100
AcDbDictionary
280
     1
281
     1
  0
DICTIONARY
  5
5EE
330
1F
100
AcDbDictionary
280
     1
281
     1
  3
ACAD_SORTENTS
360
5EF
  0
XRECORD
  5
175
102
{ACAD_REACTORS
330
C
102
}
330
C
100
AcDbXrecord
280
     1
300
ACDLT
300
2021
300
ACDLT_F_S
  0
DICTIONARY
  5
16F
102
{ACAD_REACTORS
330
C
102
}
330
C
100
AcDbDictionary
281
     1
  0
DICTIONARY
  5
16A
102
{ACAD_REACTORS
330
C
102
}
330
C
100
AcDbDictionary
281
     1
  3
Metric50
350
171
  0
DICTIONARY
  5
D
102
{ACAD_REACTORS
330
C
102
}
330
C
100
AcDbDictionary
281
     1
  0
DICTIONARY
  5
6E
102
{ACAD_REACTORS
330
C
102
}
330
C
100
AcDbDictionary
281
     1
  0
DICTIONARY
  5
1A
102
{ACAD_REACTORS
330
C
102
}
330
C
100
AcDbDictionary
281
     1
  3
Layout1
350
1E
  3
Layout2
350
26
  3
Model
350
22
  0
DICTIONARY
  5
43
102
{ACAD_REACTORS
330
C
102
}
330
C
100
AcDbDictionary
281
     1
  3
ByBlock
350
45
  3
ByLayer
350
44
  3
Global
350
46
  0
DICTIONARY
  5
6B
102
{ACAD_REACTORS
330
C
102
}
330
C
100
AcDbDictionary
281
     1
  3
Standard
350
6C
  0
DICTIONARY
  5
17
102
{ACAD_REACTORS
330
C
102
}
330
C
100
AcDbDictionary
281
     1
  3
Standard
350
18
  0
DICTIONARY
  5
19
102
{ACAD_REACTORS
330
C
102
}
330
C
100
AcDbDictionary
281
     1
  0
ACDBDICTIONARYWDFLT
  5
E
102
{ACAD_REACTORS
330
C
102
}
330
C
100
AcDbDictionary
281
     1
  3
Normal
350
F
100
AcDbDictionaryWithDefault
340
F
  0
DICTIONARY
  5
47
102
{ACAD_REACTORS
330
C
102
}
330
C
100
AcDbDictionary
281
     1
  3
A0
350
48
  3
A1
350
49
  3
A2
350
4A
  3
A3
350
4B
  3
A4
350
4C
  3
A5
350
4D
  3
A6
350
4E
  3
A7
350
4F
  3
A8
350
50
  3
A9
350
51
  3
B0
350
52
  3
B1
350
53
  3
B2
350
54
  3
B3
350
55
  3
B4
350
56
  3
B5
350
57
  3
B6
350
58
  3
B7
350
59
  3
B8
350
5A
  3
B9
350
5B
  3
C0
350
5C
  3
C1
350
5D
  3
C2
350
5E
  3
C3
350
5F
  3
C4
350
60
  3
C5
350
61
  3
C6
350
62
  3
C7
350
63
  3
C8
350
64
  3
C9
350
65
  3
D0
350
66
  3
D1
350
67
  3
D2
350
68
  0
DICTIONARY
  5
16B
102
{ACAD_REACTORS
330
C
102
}
330
C
100
AcDbDictionary
281
     1
  3
Metric50
350
170
  0
DICTIONARY
  5
69
102
{ACAD_REACTORS
330
C
102
}
330
C
100
AcDbDictionary
281
     1
  3
Standard
350
6A
  0
DICTIONARY
  5
2A
102
{ACAD_REACTORS
330
C
102
}
330
C
100
AcDbDictionary
281
     1
  3
2dWireframe
350
2F
  3
Basic
350
32
  3
Brighten
350
36
  3
ColorChange
350
3A
  3
Conceptual
350
34
  3
Dim
350
35
  3
EdgeColorOff
350
3D
  3
Facepattern
350
39
  3
Flat
350
2B
  3
FlatWithEdges
350
2C
  3
Gouraud
350
2D
  3
GouraudWithEdges
350
2E
  3
Hidden
350
31
  3
JitterOff
350
3B
  3
Linepattern
350
38
  3
OverhangOff
350
3C
  3
Realistic
350
33
  3
Shaded
350
42
  3
Shaded with edges
350
41
  3
Shades of Gray
350
3E
  3
Sketchy
350
3F
  3
Thicken
350
37
  3
Wireframe
350
30
  3
X-Ray
350
40
  0
XRECORD
  5
198B
102
{ACAD_REACTORS
330
C
102
}
330
C
100
AcDbXrecord
280
     1
 90
        1
330
6A
  0
DICTIONARY
  5
166
102
{ACAD_REACTORS
330
C
102
}
330
C
100
AcDbDictionary
281
     1
  3
CANNOSCALE
350
167
  3
CENTEREXE
350
16C
  3
CENTERLTYPEFILE
350
16D
  3
CMLEADERSTYLE
350
169
  3
CTABLESTYLE
350
168
  3
CVIEWDETAILSTYLE
350
667
  3
CVIEWSECTIONSTYLE
350
668
  0
DICTIONARY
  5
1991
102
{ACAD_REACTORS
330
C
102
}
330
C
100
AcDbDictionary
281
     1
  3
AcDsRecords
350
1993
  3
AcDsSchemas
350
1992
1001
ACAD
1070
     2
  0
DICTIONARY
  5
375
102
{ACAD_REACTORS
330
374
102
}
330
374
100
AcDbDictionary
281
     1
  0
SORTENTSTABLE
  5
5EF
102
{ACAD_REACTORS
330
5EE
102
}
330
5EE
100
AcDbSortentsTable
330
1F
  0
ACDBDETAILVIEWSTYLE
  5
171
102
{ACAD_XDICTIONARY
360
1996
102
}
102
{ACAD_REACTORS
330
16A
102
}
330
16A
100
AcDbModelDocViewStyle
 70
     0
  3
Metric50
290
     0
100
AcDbDetailViewStyle
 70
     0
 71
     0
 90
        3
 71
     1
340
11
 62
   256
 40
5.0
340
0
 62
   256
 40
5.0
300

 40
0.0
280
     1
 71
     2
340
16
 90
       25
 62
   256
 71
     3
340
11
 62
   256
 40
5.0
 90
        0
 40
15.0
 90
        1
300
%<\AcVar ViewDetailId>% (%<\AcVar ViewScale \f "%sn">%)
 71
     4
340
16
 90
       25
 62
   256
340
16
 90
       25
 62
   256
280
     0
  0
LAYOUT
  5
1E
102
{ACAD_REACTORS
330
1A
102
}
330
1A
100
AcDbPlotSettings
  1

  2
none_device
  4

  6

 40
0.0
 41
0.0
 42
0.0
 43
0.0
 44
0.0
 45
0.0
 46
0.0
 47
0.0
 48
0.0
 49
0.0
140
0.0
141
0.0
142
1.0
143
1.0
 70
   688
 72
     1
 73
     0
 74
     5
  7

 75
    16
147
1.0
 76
     0
 77
     2
 78
   300
148
0.0
149
0.0
100
AcDbLayout
  1
Layout1
 70
     1
 71
     1
 10
0.0
 20
0.0
 11
420.0
 21
297.0
 12
0.0
 22
0.0
 32
0.0
 14
1.000000000000000E+20
 24
1.000000000000000E+20
 34
1.000000000000000E+20
 15
-1.000000000000000E+20
 25
-1.000000000000000E+20
 35
-1.000000000000000E+20
146
0.0
 13
0.0
 23
0.0
 33
0.0
 16
1.0
 26
0.0
 36
0.0
 17
0.0
 27
1.0
 37
0.0
 76
     0
330
1B
  0
LAYOUT
  5
26
102
{ACAD_REACTORS
330
1A
102
}
330
1A
100
AcDbPlotSettings
  1

  2
none_device
  4

  6

 40
0.0
 41
0.0
 42
0.0
 43
0.0
 44
0.0
 45
0.0
 46
0.0
 47
0.0
 48
0.0
 49
0.0
140
0.0
141
0.0
142
1.0
143
1.0
 70
   688
 72
     1
 73
     0
 74
     5
  7

 75
    16
147
1.0
 76
     0
 77
     2
 78
   300
148
0.0
149
0.0
100
AcDbLayout
  1
Layout2
 70
     1
 71
     2
 10
0.0
 20
0.0
 11
0.0
 21
0.0
 12
0.0
 22
0.0
 32
0.0
 14
0.0
 24
0.0
 34
0.0
 15
0.0
 25
0.0
 35
0.0
146
0.0
 13
0.0
 23
0.0
 33
0.0
 16
1.0
 26
0.0
 36
0.0
 17
0.0
 27
1.0
 37
0.0
 76
     0
330
23
  0
LAYOUT
  5
22
102
{ACAD_REACTORS
330
1A
102
}
330
1A
100
AcDbPlotSettings
  1

  2
none_device
  4
Letter_(8.50_x_11.00_Inches)
  6

 40
6.349999999999998
 41
6.349999999999998
 42
6.350005079999998
 43
6.350005079999998
 44
215.9
 45
279.4
 46
0.0
 47
0.0
 48
0.0
 49
0.0
140
0.0
141
0.0
142
1.0
143
1.0
 70
  1712
 72
     1
 73
     0
 74
     0
  7

 75
     0
147
1.0
 76
     0
 77
     2
 78
   300
148
0.0
149
0.0
100
AcDbLayout
  1
Model
 70
     1
 71
     0
 10
0.0
 20
0.0
 11
420.0
 21
297.0
 12
0.0
 22
0.0
 32
0.0
 14
-207.8283572922613
 24
-149.9999957938967
 34
0.0
 15
-155.2924570130382
 25
-104.8671957971767
 35
0.0
146
0.0
 13
0.0
 23
0.0
 33
0.0
 16
1.0
 26
0.0
 36
0.0
 17
0.0
 27
1.0
 37
0.0
 76
     0
330
1F
331
29
  0
MATERIAL
  5
45
102
{ACAD_REACTORS
330
43
102
}
330
43
100
AcDbMaterial
  1
ByBlock
 73
     1
 78
     1
172
     1
176
     1
270
     1
274
     1
  0
MATERIAL
  5
44
102
{ACAD_REACTORS
330
43
102
}
330
43
100
AcDbMaterial
  1
ByLayer
 73
     1
 78
     1
172
     1
176
     1
270
     1
274
     1
  0
MATERIAL
  5
46
102
{ACAD_REACTORS
330
43
102
}
330
43
100
AcDbMaterial
  1
Global
 73
     1
 78
     1
172
     1
176
     1
270
     1
274
     1
  0
MLEADERSTYLE
  5
6C
102
{ACAD_REACTORS
330
6B
102
}
330
6B
100
AcDbMLeaderStyle
179
     2
170
     2
171
     1
172
     0
 90
        2
 40
0.0
 41
0.0
173
     1
 91
-1056964608
340
14
 92
       -2
290
     1
 42
2.0
291
     1
 43
8.0
  3
Standard
 44
4.0
300

342
11
174
     1
178
     6
175
     1
176
     0
 93
-1056964608
 45
4.0
292
     0
297
     0
 46
4.0
 94
-1056964608
 47
1.0
 49
1.0
140
1.0
293
     1
141
0.0
294
     1
177
     0
142
1.0
295
     0
296
     0
143
3.75
271
     0
272
     9
273
     9
298
     0
  0
MLINESTYLE
  5
18
102
{ACAD_REACTORS
330
17
102
}
330
17
100
AcDbMlineStyle
  2
STANDARD
 70
     0
  3

 62
   256
 51
90.0
 52
90.0
 71
     2
 49
0.5
 62
   256
  6
BYLAYER
 49
-0.5
 62
   256
  6
BYLAYER
  0
ACDBPLACEHOLDER
  5
F
102
{ACAD_REACTORS
330
E
102
}
330
E
  0
SCALE
  5
48
102
{ACAD_REACTORS
330
47
102
}
330
47
100
AcDbScale
 70
     0
300
1:1
140
1.0
141
1.0
290
     1
  0
SCALE
  5
49
102
{ACAD_REACTORS
330
47
102
}
330
47
100
AcDbScale
 70
     0
300
1:2
140
1.0
141
2.0
290
     0
  0
SCALE
  5
4A
102
{ACAD_REACTORS
330
47
102
}
330
47
100
AcDbScale
 70
     0
300
1:4
140
1.0
141
4.0
290
     0
  0
SCALE
  5
4B
102
{ACAD_REACTORS
330
47
102
}
330
47
100
AcDbScale
 70
     0
300
1:5
140
1.0
141
5.0
290
     0
  0
SCALE
  5
4C
102
{ACAD_REACTORS
330
47
102
}
330
47
100
AcDbScale
 70
     0
300
1:8
140
1.0
141
8.0
290
     0
  0
SCALE
  5
4D
102
{ACAD_REACTORS
330
47
102
}
330
47
100
AcDbScale
 70
     0
300
1:10
140
1.0
141
10.0
290
     0
  0
SCALE
  5
4E
102
{ACAD_REACTORS
330
47
102
}
330
47
100
AcDbScale
 70
     0
300
1:16
140
1.0
141
16.0
290
     0
  0
SCALE
  5
4F
102
{ACAD_REACTORS
330
47
102
}
330
47
100
AcDbScale
 70
     0
300
1:20
140
1.0
141
20.0
290
     0
  0
SCALE
  5
50
102
{ACAD_REACTORS
330
47
102
}
330
47
100
AcDbScale
 70
     0
300
1:30
140
1.0
141
30.0
290
     0
  0
SCALE
  5
51
102
{ACAD_REACTORS
330
47
102
}
330
47
100
AcDbScale
 70
     0
300
1:40
140
1.0
141
40.0
290
     0
  0
SCALE
  5
52
102
{ACAD_REACTORS
330
47
102
}
330
47
100
AcDbScale
 70
     0
300
1:50
140
1.0
141
50.0
290
     0
  0
SCALE
  5
53
102
{ACAD_REACTORS
330
47
102
}
330
47
100
AcDbScale
 70
     0
300
1:100
140
1.0
141
100.0
290
     0
  0
SCALE
  5
54
102
{ACAD_REACTORS
330
47
102
}
330
47
100
AcDbScale
 70
     0
300
2:1
140
2.0
141
1.0
290
     0
  0
SCALE
  5
55
102
{ACAD_REACTORS
330
47
102
}
330
47
100
AcDbScale
 70
     0
300
4:1
140
4.0
141
1.0
290
     0
  0
SCALE
  5
56
102
{ACAD_REACTORS
330
47
102
}
330
47
100
AcDbScale
 70
     0
300
8:1
140
8.0
141
1.0
290
     0
  0
SCALE
  5
57
102
{ACAD_REACTORS
330
47
102
}
330
47
100
AcDbScale
 70
     0
300
10:1
140
10.0
141
1.0
290
     0
  0
SCALE
  5
58
102
{ACAD_REACTORS
330
47
102
}
330
47
100
AcDbScale
 70
     0
300
100:1
140
100.0
141
1.0
290
     0
  0
SCALE
  5
59
102
{ACAD_REACTORS
330
47
102
}
330
47
100
AcDbScale
 70
     0
300
1/128" = 1'-0"
140
0.0078125
141
12.0
290
     0
  0
SCALE
  5
5A
102
{ACAD_REACTORS
330
47
102
}
330
47
100
AcDbScale
 70
     0
300
1/64" = 1'-0"
140
0.015625
141
12.0
290
     0
  0
SCALE
  5
5B
102
{ACAD_REACTORS
330
47
102
}
330
47
100
AcDbScale
 70
     0
300
1/32" = 1'-0"
140
0.03125
141
12.0
290
     0
  0
SCALE
  5
5C
102
{ACAD_REACTORS
330
47
102
}
330
47
100
AcDbScale
 70
     0
300
1/16" = 1'-0"
140
0.0625
141
12.0
290
     0
  0
SCALE
  5
5D
102
{ACAD_REACTORS
330
47
102
}
330
47
100
AcDbScale
 70
     0
300
3/32" = 1'-0"
140
0.09375
141
12.0
290
     0
  0
SCALE
  5
5E
102
{ACAD_REACTORS
330
47
102
}
330
47
100
AcDbScale
 70
     0
300
1/8" = 1'-0"
140
0.125
141
12.0
290
     0
  0
SCALE
  5
5F
102
{ACAD_REACTORS
330
47
102
}
330
47
100
AcDbScale
 70
     0
300
3/16" = 1'-0"
140
0.1875
141
12.0
290
     0
  0
SCALE
  5
60
102
{ACAD_REACTORS
330
47
102
}
330
47
100
AcDbScale
 70
     0
300
1/4" = 1'-0"
140
0.25
141
12.0
290
     0
  0
SCALE
  5
61
102
{ACAD_REACTORS
330
47
102
}
330
47
100
AcDbScale
 70
     0
300
3/8" = 1'-0"
140
0.375
141
12.0
290
     0
  0
SCALE
  5
62
102
{ACAD_REACTORS
330
47
102
}
330
47
100
AcDbScale
 70
     0
300
1/2" = 1'-0"
140
0.5
141
12.0
290
     0
  0
SCALE
  5
63
102
{ACAD_REACTORS
330
47
102
}
330
47
100
AcDbScale
 70
     0
300
3/4" = 1'-0"
140
0.75
141
12.0
290
     0
  0
SCALE
  5
64
102
{ACAD_REACTORS
330
47
102
}
330
47
100
AcDbScale
 70
     0
300
1" = 1'-0"
140
1.0
141
12.0
290
     0
  0
SCALE
  5
65
102
{ACAD_REACTORS
330
47
102
}
330
47
100
AcDbScale
 70
     0
300
1-1/2" = 1'-0"
140
1.5
141
12.0
290
     0
  0
SCALE
  5
66
102
{ACAD_REACTORS
330
47
102
}
330
47
100
AcDbScale
 70
     0
300
3" = 1'-0"
140
3.0
141
12.0
290
     0
  0
SCALE
  5
67
102
{ACAD_REACTORS
330
47
102
}
330
47
100
AcDbScale
 70
     0
300
6" = 1'-0"
140
6.0
141
12.0
290
     0
  0
SCALE
  5
68
102
{ACAD_REACTORS
330
47
102
}
330
47
100
AcDbScale
 70
     0
300
1'-0" = 1'-0"
140
12.0
141
12.0
290
     0
  0
ACDBSECTIONVIEWSTYLE
  5
170
102
{ACAD_XDICTIONARY
360
1994
102
}
102
{ACAD_REACTORS
330
16B
102
}
330
16B
100
AcDbModelDocViewStyle
 70
     0
  3
Metric50
290
     0
100
AcDbSectionViewStyle
 70
     0
 71
     0
 90
      102
 71
     1
340
11
 62
   256
 40
5.0
340
0
340
0
 62
   256
 40
5.0
300
I, O, Q, S, X, Z
 40
10.0
 90
        0
 40
2.5
 90
        0
 71
     2
340
16
 90
       25
 62
   256
340
16
 90
       50
 62
   256
 40
5.0
 40
2.5
 40
5.0
 71
     3
340
11
 62
   256
 40
5.0
 90
        0
 40
15.0
 90
        1
300
%<\AcVar ViewSectionStartId>%-%<\AcVar ViewSectionEndId>% (%<\AcVar ViewScale \f "%sn">%)
 71
     4
 62
   256
 62
   257
300
ANSI31
 40
1.0
 90
        0
290
     0
290
     0
 90
        6
 40
0.0
 40
1.570796326794896
 40
0.2617993877991494
 40
1.308996938995747
 40
-0.2617993877991494
 40
1.832595714594045
  0
TABLESTYLE
  5
6A
102
{ACAD_XDICTIONARY
360
180D
102
}
102
{ACAD_REACTORS
330
69
102
}
330
69
100
AcDbTableStyle
280
     0
  3
Standard
 70
     0
 71
     0
 40
1.5
 41
1.5
280
     0
281
     0
  7
Standard
140
4.5
170
     2
 62
     0
 63
     7
283
     0
 90
        4
 91
        0
  1

274
    -2
284
     1
 64
     0
275
    -2
285
     1
 65
     0
276
    -2
286
     1
 66
     0
277
    -2
287
     1
 67
     0
278
    -2
288
     1
 68
     0
279
    -2
289
     1
 69
     0
  7
Standard
140
6.0
170
     5
 62
     0
 63
     7
283
     0
 90
        4
 91
        0
  1

274
    -2
284
     1
 64
     0
275
    -2
285
     1
 65
     0
276
    -2
286
     1
 66
     0
277
    -2
287
     1
 67
     0
278
    -2
288
     1
 68
     0
279
    -2
289
     1
 69
     0
  7
Standard
140
4.5
170
     5
 62
     0
 63
     7
283
     0
 90
        4
 91
        0
  1

274
    -2
284
     1
 64
     0
275
    -2
285
     1
 65
     0
276
    -2
286
     1
 66
     0
277
    -2
287
     1
 67
     0
278
    -2
288
     1
 68
     0
279
    -2
289
     1
 69
     0
  0
VISUALSTYLE
  5
2F
102
{ACAD_REACTORS
330
2A
102
}
330
2A
100
AcDbVisualStyle
  2
2dWireframe
 70
     4
177
     3
291
     0
 70
    58
 90
        0
176
     1
 90
        2
176
     1
 90
        0
176
     1
 90
        0
176
     1
 40
0.6
176
     1
 40
30.0
176
     1
 62
     7
420
 16777215
176
     1
 90
        1
176
     1
 90
        4
176
     1
 62
     7
176
     1
 62
   257
176
     1
 90
        1
176
     1
 90
        1
176
     1
 40
1.0
176
     1
 90
        0
176
     1
 62
   257
176
     1
 40
1.0
176
     1
 90
        1
176
     1
 90
        6
176
     1
 90
        2
176
     1
 62
     7
176
     1
 90
        5
176
     1
 90
        0
176
     1
 90
        0
176
     1
290
     0
176
     1
 90
        1
176
     1
 40
0.0
176
     1
 90
        0
176
     1
290
     1
176
     1
290
     1
176
     1
290
     0
176
     1
290
     0
176
     1
290
     0
176
     1
290
     0
176
     1
290
     0
176
     1
290
     0
176
     1
290
     0
176
     1
 90
       50
176
     1
 40
0.0
176
     1
 40
1.0
176
     1
 90
        0
176
     1
 62
    18
176
     1
 90
       50
176
     1
 90
        3
176
     1
 62
     5
420
      255
176
     1
290
     0
176
     1
 90
       50
176
     1
 90
       50
176
     1
 90
       50
176
     1
290
     0
176
     1
 90
       50
176
     1
 62
   256
176
     0
 40
1.0
176
     0
 90
        2
176
     1
  1
strokes_ogs.tif
176
     1
290
     0
176
     1
 40
1.0
176
     1
 40
1.0
176
     1
1001
ACAD
1000
AcDbSavedByObjectVersion
1070
     0
  0
VISUALSTYLE
  5
32
102
{ACAD_REACTORS
330
2A
102
}
330
2A
100
AcDbVisualStyle
  2
Basic
 70
     7
177
     3
291
     1
 70
    58
 90
        1
176
     1
 90
        0
176
     1
 90
        1
176
     1
 90
        0
176
     1
 40
0.6
176
     1
 40
30.0
176
     1
 62
     7
420
 16777215
176
     1
 90
        0
176
     1
 90
        4
176
     1
 62
     7
176
     1
 62
   257
176
     1
 90
        1
176
     1
 90
        1
176
     1
 40
1.0
176
     1
 90
        8
176
     1
 62
     7
176
     1
 40
1.0
176
     1
 90
        1
176
     1
 90
        6
176
     1
 90
        2
176
     1
 62
     7
176
     1
 90
        5
176
     1
 90
        0
176
     1
 90
        0
176
     1
290
     0
176
     1
 90
        1
176
     1
 40
0.0
176
     1
 90
        0
176
     1
290
     0
176
     1
290
     1
176
     1
290
     1
176
     1
290
     0
176
     1
290
     0
176
     1
290
     0
176
     1
290
     0
176
     1
290
     0
176
     1
290
     0
176
     1
 90
       50
176
     1
 40
0.0
176
     1
 40
1.0
176
     1
 90
        0
176
     1
 62
    18
176
     1
 90
       50
176
     1
 90
        3
176
     1
 62
     5
420
      255
176
     1
290
     0
176
     1
 90
       50
176
     1
 90
       50
176
     1
 90
       50
176
     1
290
     0
176
     1
 90
       50
176
     1
 62
   256
176
     0
 40
1.0
176
     0
 90
        2
176
     1
  1
strokes_ogs.tif
176
     1
290
     0
176
     1
 40
1.0
176
     1
 40
1.0
176
     1
1001
ACAD
1000
AcDbSavedByObjectVersion
1070
     0
  0
VISUALSTYLE
  5
36
102
{ACAD_REACTORS
330
2A
102
}
330
2A
100
AcDbVisualStyle
  2
Brighten
 70
    12
177
     3
291
     1
 70
    58
 90
        2
176
     1
 90
        2
176
     1
 90
        0
176
     1
 90
        0
176
     1
 40
0.6
176
     1
 40
30.0
176
     1
 62
     7
420
 16777215
176
     1
 90
        1
176
     1
 90
        4
176
     1
 62
     7
176
     1
 62
   257
176
     1
 90
        1
176
     1
 90
        1
176
     1
 40
1.0
176
     1
 90
        8
176
     1
 62
     7
176
     1
 40
1.0
176
     1
 90
        1
176
     1
 90
        6
176
     1
 90
        2
176
     1
 62
     7
176
     1
 90
        5
176
     1
 90
        0
176
     1
 90
        0
176
     1
290
     0
176
     1
 90
        1
176
     1
 40
50.0
176
     1
 90
        0
176
     1
290
     0
176
     1
290
     1
176
     1
290
     1
176
     1
290
     0
176
     1
290
     0
176
     1
290
     0
176
     1
290
     0
176
     1
290
     0
176
     1
290
     0
176
     1
 90
       50
176
     1
 40
0.0
176
     1
 40
1.0
176
     1
 90
        0
176
     1
 62
    18
176
     1
 90
       50
176
     1
 90
        3
176
     1
 62
     5
420
      255
176
     1
290
     0
176
     1
 90
       50
176
     1
 90
       50
176
     1
 90
       50
176
     1
290
     0
176
     1
 90
       50
176
     1
 62
   256
176
     0
 40
1.0
176
     0
 90
        2
176
     1
  1
strokes_ogs.tif
176
     1
290
     0
176
     1
 40
1.0
176
     1
 40
1.0
176
     1
1001
ACAD
1000
AcDbSavedByObjectVersion
1070
     0
  0
VISUALSTYLE
  5
3A
102
{ACAD_REACTORS
330
2A
102
}
330
2A
100
AcDbVisualStyle
  2
ColorChange
 70
    16
177
     3
291
     1
 70
    58
 90
        2
176
     1
 90
        2
176
     1
 90
        3
176
     1
 90
        0
176
     1
 40
0.6
176
     1
 40
30.0
176
     1
 62
     8
420
  8421504
176
     1
 90
        1
176
     1
 90
        4
176
     1
 62
     7
176
     1
 62
   257
176
     1
 90
        1
176
     1
 90
        1
176
     1
 40
1.0
176
     1
 90
        8
176
     1
 62
     8
420
  8421504
176
     1
 40
1.0
176
     1
 90
        1
176
     1
 90
        6
176
     1
 90
        2
176
     1
 62
     7
176
     1
 90
        5
176
     1
 90
        0
176
     1
 90
        0
176
     1
290
     0
176
     1
 90
        1
176
     1
 40
0.0
176
     1
 90
        0
176
     1
290
     0
176
     1
290
     1
176
     1
290
     1
176
     1
290
     0
176
     1
290
     0
176
     1
290
     0
176
     1
290
     0
176
     1
290
     0
176
     1
290
     0
176
     1
 90
       50
176
     1
 40
0.0
176
     1
 40
1.0
176
     1
 90
        0
176
     1
 62
    18
176
     1
 90
       50
176
     1
 90
        3
176
     1
 62
     5
420
      255
176
     1
290
     0
176
     1
 90
       50
176
     1
 90
       50
176
     1
 90
       50
176
     1
290
     0
176
     1
 90
       50
176
     1
 62
   256
176
     0
 40
1.0
176
     0
 90
        2
176
     1
  1
strokes_ogs.tif
176
     1
290
     0
176
     1
 40
1.0
176
     1
 40
1.0
176
     1
1001
ACAD
1000
AcDbSavedByObjectVersion
1070
     0
  0
VISUALSTYLE
  5
34
102
{ACAD_REACTORS
330
2A
102
}
330
2A
100
AcDbVisualStyle
  2
Conceptual
 70
     9
177
     3
291
     0
 70
    58
 90
        3
176
     1
 90
        2
176
     1
 90
        0
176
     1
 90
        0
176
     1
 40
0.6
176
     1
 40
30.0
176
     1
 62
     7
420
 16777215
176
     1
 90
        2
176
     1
 90
        2
176
     1
 62
     7
176
     1
 62
   257
176
     1
 90
        1
176
     1
 90
        1
176
     1
 40
179.0
176
     1
 90
        8
176
     1
 62
     7
176
     1
 40
1.0
176
     1
 90
        1
176
     1
 90
        6
176
     1
 90
        2
176
     1
 62
     7
176
     1
 90
        3
176
     1
 90
        0
176
     1
 90
        0
176
     1
290
     0
176
     1
 90
        1
176
     1
 40
0.0
176
     1
 90
        0
176
     1
290
     0
176
     1
290
     1
176
     1
290
     1
176
     1
290
     0
176
     1
290
     0
176
     1
290
     0
176
     1
290
     0
176
     1
290
     0
176
     1
290
     0
176
     1
 90
       50
176
     1
 40
0.0
176
     1
 40
1.0
176
     1
 90
        0
176
     1
 62
    18
176
     1
 90
       50
176
     1
 90
        3
176
     1
 62
     5
420
      255
176
     1
290
     0
176
     1
 90
       50
176
     1
 90
       50
176
     1
 90
       50
176
     1
290
     0
176
     1
 90
       50
176
     1
 62
   256
176
     0
 40
1.0
176
     0
 90
        2
176
     1
  1
strokes_ogs.tif
176
     1
290
     0
176
     1
 40
1.0
176
     1
 40
1.0
176
     1
1001
ACAD
1000
AcDbSavedByObjectVersion
1070
     0
  0
VISUALSTYLE
  5
35
102
{ACAD_REACTORS
330
2A
102
}
330
2A
100
AcDbVisualStyle
  2
Dim
 70
    11
177
     3
291
     1
 70
    58
 90
        2
176
     1
 90
        2
176
     1
 90
        0
176
     1
 90
        0
176
     1
 40
0.6
176
     1
 40
30.0
176
     1
 62
     7
420
 16777215
176
     1
 90
        1
176
     1
 90
        4
176
     1
 62
     7
176
     1
 62
   257
176
     1
 90
        1
176
     1
 90
        1
176
     1
 40
1.0
176
     1
 90
        8
176
     1
 62
     7
176
     1
 40
1.0
176
     1
 90
        1
176
     1
 90
        6
176
     1
 90
        2
176
     1
 62
     7
176
     1
 90
        5
176
     1
 90
        0
176
     1
 90
        0
176
     1
290
     0
176
     1
 90
        1
176
     1
 40
-50.0
176
     1
 90
        0
176
     1
290
     0
176
     1
290
     1
176
     1
290
     1
176
     1
290
     0
176
     1
290
     0
176
     1
290
     0
176
     1
290
     0
176
     1
290
     0
176
     1
290
     0
176
     1
 90
       50
176
     1
 40
0.0
176
     1
 40
1.0
176
     1
 90
        0
176
     1
 62
    18
176
     1
 90
       50
176
     1
 90
        3
176
     1
 62
     5
420
      255
176
     1
290
     0
176
     1
 90
       50
176
     1
 90
       50
176
     1
 90
       50
176
     1
290
     0
176
     1
 90
       50
176
     1
 62
   256
176
     0
 40
1.0
176
     0
 90
        2
176
     1
  1
strokes_ogs.tif
176
     1
290
     0
176
     1
 40
1.0
176
     1
 40
1.0
176
     1
1001
ACAD
1000
AcDbSavedByObjectVersion
1070
     0
  0
VISUALSTYLE
  5
3D
102
{ACAD_REACTORS
330
2A
102
}
330
2A
100
AcDbVisualStyle
  2
EdgeColorOff
 70
    22
177
     3
291
     1
 70
    58
 90
        2
176
     0
 90
        2
176
     0
 90
        0
176
     0
 90
        0
176
     0
 40
0.6
176
     0
 40
30.0
176
     0
 62
     7
420
 16777215
176
     0
 90
        1
176
     0
 90
        4
176
     0
 62
     7
176
     0
 62
   257
176
     0
 90
        1
176
     0
 90
        1
176
     0
 40
1.0
176
     0
 90
        8
176
     2
 62
     7
176
     0
 40
1.0
176
     0
 90
        1
176
     0
 90
        6
176
     0
 90
        2
176
     0
 62
     7
176
     0
 90
        5
176
     0
 90
        0
176
     0
 90
        0
176
     0
290
     0
176
     0
 90
        1
176
     0
 40
0.0
176
     0
 90
        0
176
     0
290
     0
176
     0
290
     1
176
     0
290
     1
176
     0
290
     0
176
     0
290
     0
176
     0
290
     0
176
     0
290
     0
176
     0
290
     0
176
     0
290
     0
176
     0
 90
       50
176
     0
 40
0.0
176
     0
 40
1.0
176
     0
 90
        0
176
     0
 62
    18
176
     0
 90
       50
176
     0
 90
        3
176
     0
 62
     5
420
      255
176
     0
290
     0
176
     0
 90
       50
176
     0
 90
       50
176
     0
 90
       50
176
     0
290
     0
176
     0
 90
       50
176
     0
 62
   256
176
     0
 40
1.0
176
     0
 90
        2
176
     0
  1
strokes_ogs.tif
176
     0
290
     0
176
     0
 40
1.0
176
     0
 40
1.0
176
     0
1001
ACAD
1000
AcDbSavedByObjectVersion
1070
     0
  0
VISUALSTYLE
  5
39
102
{ACAD_REACTORS
330
2A
102
}
330
2A
100
AcDbVisualStyle
  2
Facepattern
 70
    15
177
     3
291
     1
 70
    58
 90
        2
176
     1
 90
        2
176
     1
 90
        0
176
     1
 90
        0
176
     1
 40
0.6
176
     1
 40
30.0
176
     1
 62
     7
420
 16777215
176
     1
 90
        1
176
     1
 90
        4
176
     1
 62
     7
176
     1
 62
   257
176
     1
 90
        1
176
     1
 90
        1
176
     1
 40
1.0
176
     1
 90
        8
176
     1
 62
     7
176
     1
 40
1.0
176
     1
 90
        1
176
     1
 90
        6
176
     1
 90
        2
176
     1
 62
     7
176
     1
 90
        5
176
     1
 90
        0
176
     1
 90
        0
176
     1
290
     0
176
     1
 90
        1
176
     1
 40
0.0
176
     1
 90
        0
176
     1
290
     0
176
     1
290
     1
176
     1
290
     1
176
     1
290
     0
176
     1
290
     0
176
     1
290
     0
176
     1
290
     0
176
     1
290
     0
176
     1
290
     0
176
     1
 90
       50
176
     1
 40
0.0
176
     1
 40
1.0
176
     1
 90
        0
176
     1
 62
    18
176
     1
 90
       50
176
     1
 90
        3
176
     1
 62
     5
420
      255
176
     1
290
     0
176
     1
 90
       50
176
     1
 90
       50
176
     1
 90
       50
176
     1
290
     0
176
     1
 90
       50
176
     1
 62
   256
176
     0
 40
1.0
176
     0
 90
        2
176
     1
  1
strokes_ogs.tif
176
     1
290
     0
176
     1
 40
1.0
176
     1
 40
1.0
176
     1
1001
ACAD
1000
AcDbSavedByObjectVersion
1070
     0
  0
VISUALSTYLE
  5
2B
102
{ACAD_REACTORS
330
2A
102
}
330
2A
100
AcDbVisualStyle
  2
Flat
 70
     0
177
     3
291
     1
 70
    58
 90
        2
176
     1
 90
        1
176
     1
 90
        1
176
     1
 90
        2
176
     1
 40
0.6
176
     1
 40
30.0
176
     1
 62
     7
420
 16777215
176
     1
 90
        0
176
     1
 90
        0
176
     1
 62
     7
176
     1
 62
   257
176
     1
 90
        1
176
     1
 90
        1
176
     1
 40
1.0
176
     1
 90
        8
176
     1
 62
     7
176
     1
 40
1.0
176
     1
 90
        1
176
     1
 90
        6
176
     1
 90
        2
176
     1
 62
     7
176
     1
 90
        5
176
     1
 90
        0
176
     1
 90
        0
176
     1
290
     0
176
     1
 90
       13
176
     1
 40
0.0
176
     1
 90
        0
176
     1
290
     0
176
     1
290
     1
176
     1
290
     1
176
     1
290
     0
176
     1
290
     0
176
     1
290
     0
176
     1
290
     0
176
     1
290
     0
176
     1
290
     0
176
     1
 90
       50
176
     1
 40
0.0
176
     1
 40
1.0
176
     1
 90
        0
176
     1
 62
    18
176
     1
 90
       50
176
     1
 90
        3
176
     1
 62
     5
420
      255
176
     1
290
     0
176
     1
 90
       50
176
     1
 90
       50
176
     1
 90
       50
176
     1
290
     0
176
     1
 90
       50
176
     1
 62
   256
176
     0
 40
1.0
176
     0
 90
        2
176
     1
  1
strokes_ogs.tif
176
     1
290
     0
176
     1
 40
1.0
176
     1
 40
1.0
176
     1
1001
ACAD
1000
AcDbSavedByObjectVersion
1070
     0
  0
VISUALSTYLE
  5
2C
102
{ACAD_REACTORS
330
2A
102
}
330
2A
100
AcDbVisualStyle
  2
FlatWithEdges
 70
     1
177
     3
291
     1
 70
    58
 90
        2
176
     1
 90
        1
176
     1
 90
        1
176
     1
 90
        2
176
     1
 40
0.6
176
     1
 40
30.0
176
     1
 62
     7
420
 16777215
176
     1
 90
        1
176
     1
 90
        0
176
     1
 62
     7
176
     1
 62
   257
176
     1
 90
        1
176
     1
 90
        1
176
     1
 40
1.0
176
     1
 90
        0
176
     1
 62
   257
176
     1
 40
1.0
176
     1
 90
        1
176
     1
 90
        6
176
     1
 90
        2
176
     1
 62
     7
176
     1
 90
        5
176
     1
 90
        0
176
     1
 90
        0
176
     1
290
     0
176
     1
 90
       13
176
     1
 40
0.0
176
     1
 90
        0
176
     1
290
     0
176
     1
290
     1
176
     1
290
     1
176
     1
290
     0
176
     1
290
     0
176
     1
290
     0
176
     1
290
     0
176
     1
290
     0
176
     1
290
     0
176
     1
 90
       50
176
     1
 40
0.0
176
     1
 40
1.0
176
     1
 90
        0
176
     1
 62
    18
176
     1
 90
       50
176
     1
 90
        3
176
     1
 62
     5
420
      255
176
     1
290
     0
176
     1
 90
       50
176
     1
 90
       50
176
     1
 90
       50
176
     1
290
     0
176
     1
 90
       50
176
     1
 62
   256
176
     0
 40
1.0
176
     0
 90
        2
176
     1
  1
strokes_ogs.tif
176
     1
290
     0
176
     1
 40
1.0
176
     1
 40
1.0
176
     1
1001
ACAD
1000
AcDbSavedByObjectVersion
1070
     0
  0
VISUALSTYLE
  5
2D
102
{ACAD_REACTORS
330
2A
102
}
330
2A
100
AcDbVisualStyle
  2
Gouraud
 70
     2
177
     3
291
     1
 70
    58
 90
        2
176
     1
 90
        2
176
     1
 90
        1
176
     1
 90
        2
176
     1
 40
0.6
176
     1
 40
30.0
176
     1
 62
     7
420
 16777215
176
     1
 90
        0
176
     1
 90
        0
176
     1
 62
     7
176
     1
 62
   257
176
     1
 90
        1
176
     1
 90
        1
176
     1
 40
1.0
176
     1
 90
        0
176
     1
 62
     7
176
     1
 40
1.0
176
     1
 90
        1
176
     1
 90
        6
176
     1
 90
        2
176
     1
 62
     7
176
     1
 90
        5
176
     1
 90
        0
176
     1
 90
        0
176
     1
290
     0
176
     1
 90
       13
176
     1
 40
0.0
176
     1
 90
        0
176
     1
290
     0
176
     1
290
     1
176
     1
290
     1
176
     1
290
     0
176
     1
290
     0
176
     1
290
     0
176
     1
290
     0
176
     1
290
     0
176
     1
290
     0
176
     1
 90
       50
176
     1
 40
0.0
176
     1
 40
1.0
176
     1
 90
        0
176
     1
 62
    18
176
     1
 90
       50
176
     1
 90
        3
176
     1
 62
     5
420
      255
176
     1
290
     0
176
     1
 90
       50
176
     1
 90
       50
176
     1
 90
       50
176
     1
290
     0
176
     1
 90
       50
176
     1
 62
   256
176
     0
 40
1.0
176
     0
 90
        2
176
     1
  1
strokes_ogs.tif
176
     1
290
     0
176
     1
 40
1.0
176
     1
 40
1.0
176
     1
1001
ACAD
1000
AcDbSavedByObjectVersion
1070
     0
  0
VISUALSTYLE
  5
2E
102
{ACAD_REACTORS
330
2A
102
}
330
2A
100
AcDbVisualStyle
  2
GouraudWithEdges
 70
     3
177
     3
291
     1
 70
    58
 90
        2
176
     1
 90
        2
176
     1
 90
        1
176
     1
 90
        2
176
     1
 40
0.6
176
     1
 40
30.0
176
     1
 62
     7
420
 16777215
176
     1
 90
        1
176
     1
 90
        0
176
     1
 62
     7
176
     1
 62
   257
176
     1
 90
        1
176
     1
 90
        1
176
     1
 40
1.0
176
     1
 90
        0
176
     1
 62
   257
176
     1
 40
1.0
176
     1
 90
        1
176
     1
 90
        6
176
     1
 90
        2
176
     1
 62
     7
176
     1
 90
        5
176
     1
 90
        0
176
     1
 90
        0
176
     1
290
     0
176
     1
 90
       13
176
     1
 40
0.0
176
     1
 90
        0
176
     1
290
     0
176
     1
290
     1
176
     1
290
     1
176
     1
290
     0
176
     1
290
     0
176
     1
290
     0
176
     1
290
     0
176
     1
290
     0
176
     1
290
     0
176
     1
 90
       50
176
     1
 40
0.0
176
     1
 40
1.0
176
     1
 90
        0
176
     1
 62
    18
176
     1
 90
       50
176
     1
 90
        3
176
     1
 62
     5
420
      255
176
     1
290
     0
176
     1
 90
       50
176
     1
 90
       50
176
     1
 90
       50
176
     1
290
     0
176
     1
 90
       50
176
     1
 62
   256
176
     0
 40
1.0
176
     0
 90
        2
176
     1
  1
strokes_ogs.tif
176
     1
290
     0
176
     1
 40
1.0
176
     1
 40
1.0
176
     1
1001
ACAD
1000
AcDbSavedByObjectVersion
1070
     0
  0
VISUALSTYLE
  5
31
102
{ACAD_REACTORS
330
2A
102
}
330
2A
100
AcDbVisualStyle
  2
Hidden
 70
     6
177
     3
291
     0
 70
    58
 90
        1
176
     1
 90
        2
176
     1
 90
        2
176
     1
 90
        0
176
     1
 40
0.6
176
     1
 40
30.0
176
     1
 62
     7
420
 16777215
176
     1
 90
        2
176
     1
 90
        2
176
     1
 62
     7
176
     1
 62
   257
176
     1
 90
        2
176
     1
 90
        1
176
     1
 40
40.0
176
     1
 90
        0
176
     1
 62
   257
176
     1
 40
1.0
176
     1
 90
        1
176
     1
 90
        6
176
     1
 90
        2
176
     1
 62
     7
176
     1
 90
        3
176
     1
 90
        0
176
     1
 90
        0
176
     1
290
     0
176
     1
 90
        1
176
     1
 40
0.0
176
     1
 90
        0
176
     1
290
     0
176
     1
290
     1
176
     1
290
     1
176
     1
290
     0
176
     1
290
     0
176
     1
290
     0
176
     1
290
     0
176
     1
290
     0
176
     1
290
     0
176
     1
 90
       50
176
     1
 40
0.0
176
     1
 40
1.0
176
     1
 90
        0
176
     1
 62
    18
176
     1
 90
       50
176
     1
 90
        3
176
     1
 62
     5
420
      255
176
     1
290
     0
176
     1
 90
       50
176
     1
 90
       50
176
     1
 90
       50
176
     1
290
     0
176
     1
 90
       50
176
     1
 62
   256
176
     0
 40
1.0
176
     0
 90
        2
176
     1
  1
strokes_ogs.tif
176
     1
290
     0
176
     1
 40
1.0
176
     1
 40
1.0
176
     1
1001
ACAD
1000
AcDbSavedByObjectVersion
1070
     0
  0
VISUALSTYLE
  5
3B
102
{ACAD_REACTORS
330
2A
102
}
330
2A
100
AcDbVisualStyle
  2
JitterOff
 70
    20
177
     3
291
     1
 70
    58
 90
        2
176
     0
 90
        2
176
     0
 90
        0
176
     0
 90
        0
176
     0
 40
0.6
176
     0
 40
30.0
176
     0
 62
     7
420
 16777215
176
     0
 90
        1
176
     0
 90
        4
176
     0
 62
     7
176
     0
 62
   257
176
     0
 90
        1
176
     0
 90
        1
176
     0
 40
1.0
176
     0
 90
       10
176
     2
 62
     7
176
     0
 40
1.0
176
     0
 90
        1
176
     0
 90
        6
176
     0
 90
        2
176
     0
 62
     7
176
     0
 90
        5
176
     0
 90
        0
176
     0
 90
        0
176
     0
290
     0
176
     0
 90
        1
176
     0
 40
0.0
176
     0
 90
        0
176
     0
290
     0
176
     0
290
     1
176
     0
290
     1
176
     0
290
     0
176
     0
290
     0
176
     0
290
     0
176
     0
290
     0
176
     0
290
     0
176
     0
290
     0
176
     0
 90
       50
176
     0
 40
0.0
176
     0
 40
1.0
176
     0
 90
        0
176
     0
 62
    18
176
     0
 90
       50
176
     0
 90
        3
176
     0
 62
     5
420
      255
176
     0
290
     0
176
     0
 90
       50
176
     0
 90
       50
176
     0
 90
       50
176
     0
290
     0
176
     0
 90
       50
176
     0
 62
   256
176
     0
 40
1.0
176
     0
 90
        2
176
     0
  1
strokes_ogs.tif
176
     0
290
     0
176
     0
 40
1.0
176
     0
 40
1.0
176
     0
1001
ACAD
1000
AcDbSavedByObjectVersion
1070
     0
  0
VISUALSTYLE
  5
38
102
{ACAD_REACTORS
330
2A
102
}
330
2A
100
AcDbVisualStyle
  2
Linepattern
 70
    14
177
     3
291
     1
 70
    58
 90
        2
176
     1
 90
        2
176
     1
 90
        0
176
     1
 90
        0
176
     1
 40
0.6
176
     1
 40
30.0
176
     1
 62
     7
420
 16777215
176
     1
 90
        1
176
     1
 90
        4
176
     1
 62
     7
176
     1
 62
   257
176
     1
 90
        7
176
     1
 90
        7
176
     1
 40
1.0
176
     1
 90
        8
176
     1
 62
     7
176
     1
 40
1.0
176
     1
 90
        1
176
     1
 90
        6
176
     1
 90
        2
176
     1
 62
     7
176
     1
 90
        5
176
     1
 90
        0
176
     1
 90
        0
176
     1
290
     0
176
     1
 90
        1
176
     1
 40
0.0
176
     1
 90
        0
176
     1
290
     0
176
     1
290
     1
176
     1
290
     1
176
     1
290
     0
176
     1
290
     0
176
     1
290
     0
176
     1
290
     0
176
     1
290
     0
176
     1
290
     0
176
     1
 90
       50
176
     1
 40
0.0
176
     1
 40
1.0
176
     1
 90
        0
176
     1
 62
    18
176
     1
 90
       50
176
     1
 90
        3
176
     1
 62
     5
420
      255
176
     1
290
     0
176
     1
 90
       50
176
     1
 90
       50
176
     1
 90
       50
176
     1
290
     0
176
     1
 90
       50
176
     1
 62
   256
176
     0
 40
1.0
176
     0
 90
        2
176
     1
  1
strokes_ogs.tif
176
     1
290
     0
176
     1
 40
1.0
176
     1
 40
1.0
176
     1
1001
ACAD
1000
AcDbSavedByObjectVersion
1070
     0
  0
VISUALSTYLE
  5
3C
102
{ACAD_REACTORS
330
2A
102
}
330
2A
100
AcDbVisualStyle
  2
OverhangOff
 70
    21
177
     3
291
     1
 70
    58
 90
        2
176
     0
 90
        2
176
     0
 90
        0
176
     0
 90
        0
176
     0
 40
0.6
176
     0
 40
30.0
176
     0
 62
     7
420
 16777215
176
     0
 90
        1
176
     0
 90
        4
176
     0
 62
     7
176
     0
 62
   257
176
     0
 90
        1
176
     0
 90
        1
176
     0
 40
1.0
176
     0
 90
        9
176
     2
 62
     7
176
     0
 40
1.0
176
     0
 90
        1
176
     0
 90
        6
176
     0
 90
        2
176
     0
 62
     7
176
     0
 90
        5
176
     0
 90
        0
176
     0
 90
        0
176
     0
290
     0
176
     0
 90
        1
176
     0
 40
0.0
176
     0
 90
        0
176
     0
290
     0
176
     0
290
     1
176
     0
290
     1
176
     0
290
     0
176
     0
290
     0
176
     0
290
     0
176
     0
290
     0
176
     0
290
     0
176
     0
290
     0
176
     0
 90
       50
176
     0
 40
0.0
176
     0
 40
1.0
176
     0
 90
        0
176
     0
 62
    18
176
     0
 90
       50
176
     0
 90
        3
176
     0
 62
     5
420
      255
176
     0
290
     0
176
     0
 90
       50
176
     0
 90
       50
176
     0
 90
       50
176
     0
290
     0
176
     0
 90
       50
176
     0
 62
   256
176
     0
 40
1.0
176
     0
 90
        2
176
     0
  1
strokes_ogs.tif
176
     0
290
     0
176
     0
 40
1.0
176
     0
 40
1.0
176
     0
1001
ACAD
1000
AcDbSavedByObjectVersion
1070
     0
  0
VISUALSTYLE
  5
33
102
{ACAD_REACTORS
330
2A
102
}
330
2A
100
AcDbVisualStyle
  2
Realistic
 70
     8
177
     3
291
     0
 70
    58
 90
        2
176
     1
 90
        3
176
     1
 90
        0
176
     1
 90
        2
176
     1
 40
0.6
176
     1
 40
30.0
176
     1
 62
     7
420
 16777215
176
     1
 90
        0
176
     1
 90
        0
176
     1
 62
     7
176
     1
 62
   257
176
     1
 90
        1
176
     1
 90
        1
176
     1
 40
1.0
176
     1
 90
        8
176
     1
 62
   257
176
     1
 40
1.0
176
     1
 90
        1
176
     1
 90
        6
176
     1
 90
        2
176
     1
 62
     7
176
     1
 90
        3
176
     1
 90
        0
176
     1
 90
        0
176
     1
290
     0
176
     1
 90
       13
176
     1
 40
0.0
176
     1
 90
        0
176
     1
290
     0
176
     1
290
     1
176
     1
290
     1
176
     1
290
     0
176
     1
290
     0
176
     1
290
     0
176
     1
290
     0
176
     1
290
     0
176
     1
290
     0
176
     1
 90
       50
176
     1
 40
0.0
176
     1
 40
1.0
176
     1
 90
        0
176
     1
 62
    18
176
     1
 90
       50
176
     1
 90
        3
176
     1
 62
     5
420
      255
176
     1
290
     0
176
     1
 90
       50
176
     1
 90
       50
176
     1
 90
       50
176
     1
290
     0
176
     1
 90
       50
176
     1
 62
   256
176
     0
 40
1.0
176
     0
 90
        2
176
     1
  1
strokes_ogs.tif
176
     1
290
     0
176
     1
 40
1.0
176
     1
 40
1.0
176
     1
1001
ACAD
1000
AcDbSavedByObjectVersion
1070
     0
  0
VISUALSTYLE
  5
42
102
{ACAD_REACTORS
330
2A
102
}
330
2A
100
AcDbVisualStyle
  2
Shaded
 70
    27
177
     3
291
     0
 70
    58
 90
        2
176
     1
 90
        2
176
     1
 90
        1
176
     1
 90
        2
176
     1
 40
0.6
176
     1
 40
30.0
176
     1
 62
     7
420
 16777215
176
     1
 90
        0
176
     1
 90
        4
176
     1
 62
     7
176
     1
 62
   257
176
     1
 90
        1
176
     1
 90
        1
176
     1
 40
1.0
176
     1
 90
        8
176
     1
 62
   257
176
     1
 40
1.0
176
     1
 90
        1
176
     1
 90
        6
176
     1
 90
        2
176
     1
 62
     8
420
  7895160
176
     1
 90
        3
176
     1
 90
        0
176
     1
 90
        0
176
     1
290
     0
176
     1
 90
        5
176
     1
 40
0.0
176
     1
 90
        0
176
     1
290
     0
176
     1
290
     1
176
     1
290
     1
176
     1
290
     0
176
     1
290
     0
176
     1
290
     0
176
     1
290
     0
176
     1
290
     0
176
     1
290
     0
176
     1
 90
       50
176
     1
 40
0.0
176
     1
 40
1.0
176
     1
 90
        0
176
     1
 62
    18
176
     1
 90
       50
176
     1
 90
        3
176
     1
 62
     5
420
      255
176
     1
290
     0
176
     1
 90
       50
176
     1
 90
       50
176
     1
 90
       50
176
     1
290
     0
176
     1
 90
       50
176
     1
 62
   256
176
     0
 40
1.0
176
     0
 90
        2
176
     1
  1
strokes_ogs.tif
176
     1
290
     0
176
     1
 40
1.0
176
     1
 40
1.0
176
     1
1001
ACAD
1000
AcDbSavedByObjectVersion
1070
     0
  0
VISUALSTYLE
  5
41
102
{ACAD_REACTORS
330
2A
102
}
330
2A
100
AcDbVisualStyle
  2
Shaded with edges
 70
    26
177
     3
291
     0
 70
    58
 90
        2
176
     1
 90
        2
176
     1
 90
        1
176
     1
 90
        2
176
     1
 40
0.6
176
     1
 40
30.0
176
     1
 62
     7
420
 16777215
176
     1
 90
        1
176
     1
 90
        2
176
     1
 62
     7
176
     1
 62
   257
176
     1
 90
        2
176
     1
 90
        1
176
     1
 40
1.0
176
     1
 90
        8
176
     1
 62
   257
176
     1
 40
1.0
176
     1
 90
        1
176
     1
 90
        6
176
     1
 90
        2
176
     1
 62
     7
176
     1
 90
        3
176
     1
 90
        0
176
     1
 90
        0
176
     1
290
     0
176
     1
 90
        5
176
     1
 40
0.0
176
     1
 90
        0
176
     1
290
     0
176
     1
290
     1
176
     1
290
     1
176
     1
290
     0
176
     1
290
     0
176
     1
290
     0
176
     1
290
     0
176
     1
290
     0
176
     1
290
     0
176
     1
 90
       50
176
     1
 40
0.0
176
     1
 40
1.0
176
     1
 90
        0
176
     1
 62
    18
176
     1
 90
       50
176
     1
 90
        3
176
     1
 62
     5
420
      255
176
     1
290
     0
176
     1
 90
       50
176
     1
 90
       50
176
     1
 90
       50
176
     1
290
     0
176
     1
 90
       50
176
     1
 62
   256
176
     0
 40
1.0
176
     0
 90
        2
176
     1
  1
strokes_ogs.tif
176
     1
290
     0
176
     1
 40
1.0
176
     1
 40
1.0
176
     1
1001
ACAD
1000
AcDbSavedByObjectVersion
1070
     0
  0
VISUALSTYLE
  5
3E
102
{ACAD_REACTORS
330
2A
102
}
330
2A
100
AcDbVisualStyle
  2
Shades of Gray
 70
    23
177
     3
291
     0
 70
    58
 90
        2
176
     1
 90
        2
176
     1
 90
        3
176
     1
 90
        0
176
     1
 40
0.6
176
     1
 40
30.0
176
     1
 62
     7
420
 16777215
176
     1
 90
        2
176
     1
 90
        2
176
     1
 62
     7
176
     1
 62
     7
176
     1
 90
        1
176
     1
 90
        1
176
     1
 40
40.0
176
     1
 90
        8
176
     1
 62
     7
176
     1
 40
1.0
176
     1
 90
        1
176
     1
 90
        6
176
     1
 90
        2
176
     1
 62
     7
176
     1
 90
        3
176
     1
 90
        0
176
     1
 90
        0
176
     1
290
     0
176
     1
 90
        1
176
     1
 40
0.0
176
     1
 90
        0
176
     1
290
     0
176
     1
290
     1
176
     1
290
     1
176
     1
290
     0
176
     1
290
     0
176
     1
290
     0
176
     1
290
     0
176
     1
290
     0
176
     1
290
     0
176
     1
 90
       50
176
     1
 40
0.0
176
     1
 40
1.0
176
     1
 90
        0
176
     1
 62
    18
176
     1
 90
       50
176
     1
 90
        3
176
     1
 62
     5
420
      255
176
     1
290
     0
176
     1
 90
       50
176
     1
 90
       50
176
     1
 90
       50
176
     1
290
     0
176
     1
 90
       50
176
     1
 62
   256
176
     0
 40
1.0
176
     0
 90
        2
176
     1
  1
strokes_ogs.tif
176
     1
290
     0
176
     1
 40
1.0
176
     1
 40
1.0
176
     1
1001
ACAD
1000
AcDbSavedByObjectVersion
1070
     0
  0
VISUALSTYLE
  5
3F
102
{ACAD_REACTORS
330
2A
102
}
330
2A
100
AcDbVisualStyle
  2
Sketchy
 70
    24
177
     3
291
     0
 70
    58
 90
        1
176
     1
 90
        2
176
     1
 90
        2
176
     1
 90
        0
176
     1
 40
0.6
176
     1
 40
30.0
176
     1
 62
     7
420
 16777215
176
     1
 90
        2
176
     1
 90
        2
176
     1
 62
     7
176
     1
 62
     7
176
     1
 90
        1
176
     1
 90
        1
176
     1
 40
40.0
176
     1
 90
       11
176
     1
 62
     7
176
     1
 40
1.0
176
     1
 90
        1
176
     1
 90
        6
176
     1
 90
        2
176
     1
 62
     7
176
     1
 90
        6
176
     1
 90
        0
176
     1
 90
        0
176
     1
290
     0
176
     1
 90
        1
176
     1
 40
0.0
176
     1
 90
        0
176
     1
290
     0
176
     1
290
     1
176
     1
290
     1
176
     1
290
     0
176
     1
290
     0
176
     1
290
     0
176
     1
290
     0
176
     1
290
     0
176
     1
290
     0
176
     1
 90
       50
176
     1
 40
0.0
176
     1
 40
1.0
176
     1
 90
        0
176
     1
 62
    18
176
     1
 90
       50
176
     1
 90
        3
176
     1
 62
     5
420
      255
176
     1
290
     0
176
     1
 90
       50
176
     1
 90
       50
176
     1
 90
       50
176
     1
290
     0
176
     1
 90
       50
176
     1
 62
   256
176
     0
 40
1.0
176
     0
 90
        2
176
     1
  1
strokes_ogs.tif
176
     1
290
     0
176
     1
 40
1.0
176
     1
 40
1.0
176
     1
1001
ACAD
1000
AcDbSavedByObjectVersion
1070
     0
  0
VISUALSTYLE
  5
37
102
{ACAD_REACTORS
330
2A
102
}
330
2A
100
AcDbVisualStyle
  2
Thicken
 70
    13
177
     3
291
     1
 70
    58
 90
        2
176
     1
 90
        2
176
     1
 90
        0
176
     1
 90
        0
176
     1
 40
0.6
176
     1
 40
30.0
176
     1
 62
     7
420
 16777215
176
     1
 90
        1
176
     1
 90
        4
176
     1
 62
     7
176
     1
 62
   257
176
     1
 90
        1
176
     1
 90
        1
176
     1
 40
1.0
176
     1
 90
       12
176
     1
 62
     7
176
     1
 40
1.0
176
     1
 90
        1
176
     1
 90
        6
176
     1
 90
        2
176
     1
 62
     7
176
     1
 90
        5
176
     1
 90
        0
176
     1
 90
        0
176
     1
290
     0
176
     1
 90
        1
176
     1
 40
0.0
176
     1
 90
        0
176
     1
290
     0
176
     1
290
     1
176
     1
290
     1
176
     1
290
     0
176
     1
290
     0
176
     1
290
     0
176
     1
290
     0
176
     1
290
     0
176
     1
290
     0
176
     1
 90
       50
176
     1
 40
0.0
176
     1
 40
1.0
176
     1
 90
        0
176
     1
 62
    18
176
     1
 90
       50
176
     1
 90
        3
176
     1
 62
     5
420
      255
176
     1
290
     0
176
     1
 90
       50
176
     1
 90
       50
176
     1
 90
       50
176
     1
290
     0
176
     1
 90
       50
176
     1
 62
   256
176
     0
 40
1.0
176
     0
 90
        2
176
     1
  1
strokes_ogs.tif
176
     1
290
     0
176
     1
 40
1.0
176
     1
 40
1.0
176
     1
1001
ACAD
1000
AcDbSavedByObjectVersion
1070
     0
  0
VISUALSTYLE
  5
30
102
{ACAD_REACTORS
330
2A
102
}
330
2A
100
AcDbVisualStyle
  2
Wireframe
 70
     5
177
     3
291
     0
 70
    58
 90
        0
176
     1
 90
        2
176
     1
 90
        0
176
     1
 90
        0
176
     1
 40
0.6
176
     1
 40
30.0
176
     1
 62
     7
420
 16777215
176
     1
 90
        1
176
     1
 90
        4
176
     1
 62
     7
176
     1
 62
   257
176
     1
 90
        1
176
     1
 90
        1
176
     1
 40
1.0
176
     1
 90
        0
176
     1
 62
   257
176
     1
 40
1.0
176
     1
 90
        1
176
     1
 90
        6
176
     1
 90
        2
176
     1
 62
     7
176
     1
 90
        3
176
     1
 90
        0
176
     1
 90
        0
176
     1
290
     0
176
     1
 90
        1
176
     1
 40
0.0
176
     1
 90
        0
176
     1
290
     0
176
     1
290
     1
176
     1
290
     1
176
     1
290
     0
176
     1
290
     0
176
     1
290
     0
176
     1
290
     0
176
     1
290
     0
176
     1
290
     0
176
     1
 90
       50
176
     1
 40
0.0
176
     1
 40
1.0
176
     1
 90
        0
176
     1
 62
    18
176
     1
 90
       50
176
     1
 90
        3
176
     1
 62
     5
420
      255
176
     1
290
     0
176
     1
 90
       50
176
     1
 90
       50
176
     1
 90
       50
176
     1
290
     0
176
     1
 90
       50
176
     1
 62
   256
176
     0
 40
1.0
176
     0
 90
        2
176
     1
  1
strokes_ogs.tif
176
     1
290
     0
176
     1
 40
1.0
176
     1
 40
1.0
176
     1
1001
ACAD
1000
AcDbSavedByObjectVersion
1070
     0
  0
VISUALSTYLE
  5
40
102
{ACAD_REACTORS
330
2A
102
}
330
2A
100
AcDbVisualStyle
  2
X-Ray
 70
    25
177
     3
291
     0
 70
    58
 90
        2
176
     1
 90
        2
176
     1
 90
        1
176
     1
 90
        1
176
     1
 40
0.5
176
     1
 40
30.0
176
     1
 62
     7
420
 16777215
176
     1
 90
        1
176
     1
 90
        0
176
     1
 62
     7
176
     1
 62
   257
176
     1
 90
        1
176
     1
 90
        1
176
     1
 40
1.0
176
     1
 90
        8
176
     1
 62
     7
176
     1
 40
1.0
176
     1
 90
        1
176
     1
 90
        6
176
     1
 90
        2
176
     1
 62
     7
176
     1
 90
        3
176
     1
 90
        0
176
     1
 90
        0
176
     1
290
     0
176
     1
 90
       13
176
     1
 40
0.0
176
     1
 90
        0
176
     1
290
     0
176
     1
290
     1
176
     1
290
     1
176
     1
290
     0
176
     1
290
     0
176
     1
290
     0
176
     1
290
     0
176
     1
290
     0
176
     1
290
     0
176
     1
 90
       50
176
     1
 40
0.0
176
     1
 40
1.0
176
     1
 90
        0
176
     1
 62
    18
176
     1
 90
       50
176
     1
 90
        3
176
     1
 62
     5
420
      255
176
     1
290
     0
176
     1
 90
       50
176
     1
 90
       50
176
     1
 90
       50
176
     1
290
     0
176
     1
 90
       50
176
     1
 62
   256
176
     0
 40
1.0
176
     0
 90
        2
176
     1
  1
strokes_ogs.tif
176
     1
290
     0
176
     1
 40
1.0
176
     1
 40
1.0
176
     1
1001
ACAD
1000
AcDbSavedByObjectVersion
1070
     0
  0
DICTIONARYVAR
  5
167
102
{ACAD_REACTORS
330
166
102
}
330
166
100
DictionaryVariables
280
     0
  1
1:1
  0
DICTIONARYVAR
  5
16C
102
{ACAD_REACTORS
330
166
102
}
330
166
100
DictionaryVariables
280
     0
  1
3.500000
  0
DICTIONARYVAR
  5
16D
102
{ACAD_REACTORS
330
166
102
}
330
166
100
DictionaryVariables
280
     0
  1
acadiso.lin
  0
DICTIONARYVAR
  5
169
102
{ACAD_REACTORS
330
166
102
}
330
166
100
DictionaryVariables
280
     0
  1
STANDARD
  0
DICTIONARYVAR
  5
168
102
{ACAD_REACTORS
330
166
102
}
330
166
100
DictionaryVariables
280
     0
  1
STANDARD
  0
DICTIONARYVAR
  5
667
102
{ACAD_REACTORS
330
166
102
}
330
166
100
DictionaryVariables
280
     0
  1
Metric50
  0
DICTIONARYVAR
  5
668
102
{ACAD_REACTORS
330
166
102
}
330
166
100
DictionaryVariables
280
     0
  1
Metric50
  0
DICTIONARY
  5
1993
102
{ACAD_REACTORS
330
1991
102
}
330
1991
100
AcDbDictionary
281
     1
  0
DICTIONARY
  5
1992
102
{ACAD_REACTORS
330
1991
102
}
330
1991
100
AcDbDictionary
281
     1
  3
2049117425088
350
198C
  3
2049117425104
350
198D
  3
2049117425120
350
198E
  3
2049117425136
350
198F
  3
2049117425152
350
1990
  0
DICTIONARY
  5
1996
330
171
100
AcDbDictionary
280
     1
281
     1
  3
ACAD_XREC_ROUNDTRIP
360
1997
  0
DICTIONARY
  5
1994
330
170
100
AcDbDictionary
280
     1
281
     1
  3
ACAD_XREC_ROUNDTRIP
360
1995
  0
DICTIONARY
  5
180D
330
6A
100
AcDbDictionary
280
     1
281
     1
  3
ACAD_ROUNDTRIP_2008_TABLESTYLE_CELLSTYLEMAP
360
198A
  0
XRECORD
  5
198C
102
{ACAD_REACTORS
330
1992
102
}
330
1992
100
AcDbXrecord
280
     1
  1
AcDb_Thumbnail_Schema
102
{ATTRRECORD
341
198D
  2
AcDbDs::TreatedAsObjectData
280
     1
291
     1
102
ATTRRECORD}
102
{ATTRRECORD
341
198E
  2
AcDbDs::Legacy
280
     1
291
     1
102
ATTRRECORD}
  2
AcDbDs::ID
280
    10
 91
        8
102
{ATTRRECORD
341
198F
  2
AcDs:Indexable
280
     1
291
     1
102
ATTRRECORD}
102
{ATTRRECORD
341
1990
  2
AcDbDs::HandleAttribute
280
     7
282
     1
102
ATTRRECORD}
  2
Thumbnail_Data
280
    15
 91
        0
  0
XRECORD
  5
198D
102
{ACAD_REACTORS
330
1992
102
}
330
1992
100
AcDbXrecord
280
     1
  1
AcDbDs::TreatedAsObjectDataSchema
  2
AcDbDs::TreatedAsObjectData
280
     1
 91
        0
  0
XRECORD
  5
198E
102
{ACAD_REACTORS
330
1992
102
}
330
1992
100
AcDbXrecord
280
     1
  1
AcDbDs::LegacySchema
  2
AcDbDs::Legacy
280
     1
 91
        0
  0
XRECORD
  5
198F
102
{ACAD_REACTORS
330
1992
102
}
330
1992
100
AcDbXrecord
280
     1
  1
AcDbDs::IndexedPropertySchema
  2
AcDs:Indexable
280
     1
 91
        0
  0
XRECORD
  5
1990
102
{ACAD_REACTORS
330
1992
102
}
330
1992
100
AcDbXrecord
280
     1
  1
AcDbDs::HandleAttributeSchema
  2
AcDbDs::HandleAttribute
280
     7
 91
        1
284
     1
  0
XRECORD
  5
1997
102
{ACAD_REACTORS
330
1996
102
}
330
1996
100
AcDbXrecord
280
     1
102
DISPLAYNAME
  1
Metric50
102
FLAGS
 90
        0
  0
XRECORD
  5
1995
102
{ACAD_REACTORS
330
1994
102
}
330
1994
100
AcDbXrecord
280
     1
102
DISPLAYNAME
  1
Metric50
102
FLAGS
 90
        0
  0
CELLSTYLEMAP
  5
198A
102
{ACAD_REACTORS
330
180D
102
}
330
180D
100
AcDbCellStyleMap
 90
        3
300
CELLSTYLE
  1
TABLEFORMAT_BEGIN
 90
        5
170
     1
 91
        0
 92
    32768
 62
   257
 93
        1
300
CONTENTFORMAT
  1
CONTENTFORMAT_BEGIN
 90
        0
 91
        0
 92
        4
 93
        0
300

 40
0.0
140
1.0
 94
        5
 62
     0
340
11
144
6.0
309
CONTENTFORMAT_END
171
     1
301
MARGIN
  1
CELLMARGIN_BEGIN
 40
1.5
 40
1.5
 40
1.5
 40
1.5
 40
0.18
 40
0.18
309
CELLMARGIN_END
 94
        6
 95
        1
302
GRIDFORMAT
  1
GRIDFORMAT_BEGIN
 90
        0
 91
        1
 62
     0
 92
       -2
340
14
 93
        0
 40
0.045
309
GRIDFORMAT_END
 95
        2
302
GRIDFORMAT
  1
GRIDFORMAT_BEGIN
 90
        0
 91
        1
 62
     0
 92
       -2
340
14
 93
        0
 40
0.045
309
GRIDFORMAT_END
 95
        4
302
GRIDFORMAT
  1
GRIDFORMAT_BEGIN
 90
        0
 91
        1
 62
     0
 92
       -2
340
14
 93
        0
 40
0.045
309
GRIDFORMAT_END
 95
        8
302
GRIDFORMAT
  1
GRIDFORMAT_BEGIN
 90
        0
 91
        1
 62
     0
 92
       -2
340
14
 93
        0
 40
0.045
309
GRIDFORMAT_END
 95
       16
302
GRIDFORMAT
  1
GRIDFORMAT_BEGIN
 90
        0
 91
        1
 62
     0
 92
       -2
340
14
 93
        0
 40
0.045
309
GRIDFORMAT_END
 95
       32
302
GRIDFORMAT
  1
GRIDFORMAT_BEGIN
 90
        0
 91
        1
 62
     0
 92
       -2
340
14
 93
        0
 40
0.045
309
GRIDFORMAT_END
309
TABLEFORMAT_END
  1
CELLSTYLE_BEGIN
 90
        1
 91
        1
300
_TITLE
309
CELLSTYLE_END
300
CELLSTYLE
  1
TABLEFORMAT_BEGIN
 90
        5
170
     1
 91
        0
 92
        0
 62
   257
 93
        1
300
CONTENTFORMAT
  1
CONTENTFORMAT_BEGIN
 90
        0
 91
        0
 92
        4
 93
        0
300

 40
0.0
140
1.0
 94
        5
 62
     0
340
11
144
4.5
309
CONTENTFORMAT_END
171
     1
301
MARGIN
  1
CELLMARGIN_BEGIN
 40
1.5
 40
1.5
 40
1.5
 40
1.5
 40
0.18
 40
0.18
309
CELLMARGIN_END
 94
        6
 95
        1
302
GRIDFORMAT
  1
GRIDFORMAT_BEGIN
 90
        0
 91
        1
 62
     0
 92
       -2
340
14
 93
        0
 40
0.045
309
GRIDFORMAT_END
 95
        2
302
GRIDFORMAT
  1
GRIDFORMAT_BEGIN
 90
        0
 91
        1
 62
     0
 92
       -2
340
14
 93
        0
 40
0.045
309
GRIDFORMAT_END
 95
        4
302
GRIDFORMAT
  1
GRIDFORMAT_BEGIN
 90
        0
 91
        1
 62
     0
 92
       -2
340
14
 93
        0
 40
0.045
309
GRIDFORMAT_END
 95
        8
302
GRIDFORMAT
  1
GRIDFORMAT_BEGIN
 90
        0
 91
        1
 62
     0
 92
       -2
340
14
 93
        0
 40
0.045
309
GRIDFORMAT_END
 95
       16
302
GRIDFORMAT
  1
GRIDFORMAT_BEGIN
 90
        0
 91
        1
 62
     0
 92
       -2
340
14
 93
        0
 40
0.045
309
GRIDFORMAT_END
 95
       32
302
GRIDFORMAT
  1
GRIDFORMAT_BEGIN
 90
        0
 91
        1
 62
     0
 92
       -2
340
14
 93
        0
 40
0.045
309
GRIDFORMAT_END
309
TABLEFORMAT_END
  1
CELLSTYLE_BEGIN
 90
        2
 91
        1
300
_HEADER
309
CELLSTYLE_END
300
CELLSTYLE
  1
TABLEFORMAT_BEGIN
 90
        5
170
     1
 91
        0
 92
        0
 62
   257
 93
        1
300
CONTENTFORMAT
  1
CONTENTFORMAT_BEGIN
 90
        0
 91
        0
 92
        4
 93
        0
300

 40
0.0
140
1.0
 94
        2
 62
     0
340
11
144
4.5
309
CONTENTFORMAT_END
171
     1
301
MARGIN
  1
CELLMARGIN_BEGIN
 40
1.5
 40
1.5
 40
1.5
 40
1.5
 40
0.18
 40
0.18
309
CELLMARGIN_END
 94
        6
 95
        1
302
GRIDFORMAT
  1
GRIDFORMAT_BEGIN
 90
        0
 91
        1
 62
     0
 92
       -2
340
14
 93
        0
 40
0.045
309
GRIDFORMAT_END
 95
        2
302
GRIDFORMAT
  1
GRIDFORMAT_BEGIN
 90
        0
 91
        1
 62
     0
 92
       -2
340
14
 93
        0
 40
0.045
309
GRIDFORMAT_END
 95
        4
302
GRIDFORMAT
  1
GRIDFORMAT_BEGIN
 90
        0
 91
        1
 62
     0
 92
       -2
340
14
 93
        0
 40
0.045
309
GRIDFORMAT_END
 95
        8
302
GRIDFORMAT
  1
GRIDFORMAT_BEGIN
 90
        0
 91
        1
 62
     0
 92
       -2
340
14
 93
        0
 40
0.045
309
GRIDFORMAT_END
 95
       16
302
GRIDFORMAT
  1
GRIDFORMAT_BEGIN
 90
        0
 91
        1
 62
     0
 92
       -2
340
14
 93
        0
 40
0.045
309
GRIDFORMAT_END
 95
       32
302
GRIDFORMAT
  1
GRIDFORMAT_BEGIN
 90
        0
 91
        1
 62
     0
 92
       -2
340
14
 93
        0
 40
0.045
309
GRIDFORMAT_END
309
TABLEFORMAT_END
  1
CELLSTYLE_BEGIN
 90
        3
 91
        2
300
_DATA
309
CELLSTYLE_END
  0
ENDSEC
  0
SECTION
  2
ACDSDATA
 70
     2
 71
     8
  0
ACDSSCHEMA
 90
        0
  1
AcDb_Thumbnail_Schema
  2
AcDbDs::ID
280
    10
 91
        8
  2
Thumbnail_Data
280
    15
 91
        0
101
ACDSRECORD
 95
        0
 90
        1
  2
AcDbDs::TreatedAsObjectData
280
     1
291
     1
101
ACDSRECORD
 95
        0
 90
        2
  2
AcDbDs::Legacy
280
     1
291
     1
101
ACDSRECORD
  1
AcDbDs::ID
 90
        3
  2
AcDs:Indexable
280
     1
291
     1
101
ACDSRECORD
  1
AcDbDs::ID
 90
        4
  2
AcDbDs::HandleAttribute
280
     7
282
     1
  0
ACDSSCHEMA
 90
        1
  1
AcDbDs::TreatedAsObjectDataSchema
  2
AcDbDs::TreatedAsObjectData
280
     1
 91
        0
  0
ACDSSCHEMA
 90
        2
  1
AcDbDs::LegacySchema
  2
AcDbDs::Legacy
280
     1
 91
        0
  0
ACDSSCHEMA
 90
        3
  1
AcDbDs::IndexedPropertySchema
  2
AcDs:Indexable
280
     1
 91
        0
  0
ACDSSCHEMA
 90
        4
  1
AcDbDs::HandleAttributeSchema
  2
AcDbDs::HandleAttribute
280
     7
 91
        1
284
     1
  0
ACDSRECORD
 90
        0
  2
AcDbDs::ID
280
    10
320
22
  2
Thumbnail_Data
280
    15
 94
     1264
310
89504E470D0A1A0A0000000D49484452000001000000007D08030000007A674DFF00000300504C5445FFFFFFFFFFFFFFFFFF0000000000000000000000000000000000000000000000000000330000660000990000CC0000FF0033000033330033660033990033CC0033FF0066000066330066660066990066CC0066FF0099
310
000099330099660099990099CC0099FF00CC0000CC3300CC6600CC9900CCCC00CCFF00FF0000FF3300FF6600FF9900FFCC00FFFF3300003300333300663300993300CC3300FF3333003333333333663333993333CC3333FF3366003366333366663366993366CC3366FF3399003399333399663399993399CC3399FF33CC00
310
33CC3333CC6633CC9933CCCC33CCFF33FF0033FF3333FF6633FF9933FFCC33FFFF6600006600336600666600996600CC6600FF6633006633336633666633996633CC6633FF6666006666336666666666996666CC6666FF6699006699336699666699996699CC6699FF66CC0066CC3366CC6666CC9966CCCC66CCFF66FF0066
310
FF3366FF6666FF9966FFCC66FFFF9900009900339900669900999900CC9900FF9933009933339933669933999933CC9933FF9966009966339966669966999966CC9966FF9999009999339999669999999999CC9999FF99CC0099CC3399CC6699CC9999CCCC99CCFF99FF0099FF3399FF6699FF9999FFCC99FFFFCC0000CC00
310
33CC0066CC0099CC00CCCC00FFCC3300CC3333CC3366CC3399CC33CCCC33FFCC6600CC6633CC6666CC6699CC66CCCC66FFCC9900CC9933CC9966CC9999CC99CCCC99FFCCCC00CCCC33CCCC66CCCC99CCCCCCCCCCFFCCFF00CCFF33CCFF66CCFF99CCFFCCCCFFFFFF0000FF0033FF0066FF0099FF00CCFF00FFFF3300FF3333
310
FF3366FF3399FF33CCFF33FFFF6600FF6633FF6666FF6699FF66CCFF66FFFF9900FF9933FF9966FF9999FF99CCFF99FFFFCC00FFCC33FFCC66FFCC99FFCCCCFFCCFFFFFF00FFFF33FFFF66FFFF99FFFFCCFFFFFF0000000D0D0D1A1A1A2828283535354343435050505D5D5D6B6B6B787878868686939393A1A1A1AEAEAEBB
310
BBBBC9C9C9D6D6D6E4E4E4F1F1F1FFFFFF000000000000000000000000000000000000000000000000000000000000AD4AB4E4000000A94944415478DAEDDCC10980301045C1F45F662A113C6BC22A82EC9FC15B50F0B14472710C000000000000000000B66651F1190101CAB904F86D8AF3BA5C98EBDBBAEC06F101EE4676
310
3DCA7D0200907E28A87D1FBB0578B62640C6B9D80408105020FDC023800002082080000208208000020820800002082080000208208000020820800002082080000208208000020820800002082080000208D0EABD5FFF3E000000000000F8D8013DA88480E0FCCEEF0000000049454E44AE426082041040000104C8FC41A0
310
000000000000FCCD03DA5C64B8B6FCCB870000000049454E44AE426082F23D65927393BA000835AEBE95CBA48C0FD9AE01C85AFD6E80C8E095B1F33B0053B57380D8D695BAFC954D692A7B0610DCBA9F06F0BE02340750ED0302B9CBD607402A5EFF0E80E20744EAAEDD039C8E713608000000000000000000000000000000
310
00000000301C80F3DCABF348ACD4B332A798EEFB70C500FC8B5F9BDFA80AB0E39DC85A2D70FD9BA2D95B607B8300A04E0F8C7E8B000000000000000000000000000000000000000000000000000000000000300EC0D047A38410420821841042082124735E19253A7E802413D10000000049454E44AE426082
  0
ENDSEC
  0
EOF
