  0
SECTION
  2
HEADER
  9
$ACADVER
  1
AC1027
  9
$ACADMAINTVER
 70
   125
  9
$DWGCODEPAGE
  3
ANSI_1252
  9
$LASTSAVEDBY
  1
kaschu
  9
$REQUIREDVERSIONS
160
                 0
  9
$INSBASE
 10
0.0
 20
0.0
 30
0.0
  9
$EXTMIN
 10
42.87713899999994
 20
60.68696699999998
 30
0.0
  9
$EXTMAX
 10
1463.583339
 20
1236.467657
 30
0.0
  9
$LIMMIN
 10
-0.5
 20
-0.5
  9
$LIMMAX
 10
5.0
 20
5.0
  9
$ORTHOMODE
 70
     0
  9
$REGENMODE
 70
     1
  9
$FILLMODE
 70
     1
  9
$QTEXTMODE
 70
     0
  9
$MIRRTEXT
 70
     1
  9
$LTSCALE
 40
1.0
  9
$ATTMODE
 70
     1
  9
$TEXTSIZE
 40
0.2
  9
$TRACEWID
 40
0.05
  9
$TEXTSTYLE
  7
Standard
  9
$CLAYER
  8
0
  9
$CELTYPE
  6
ByLayer
  9
$CECOLOR
 62
   256
  9
$CELTSCALE
 40
1.0
  9
$DISPSILH
 70
     0
  9
$DIMSCALE
 40
1.0
  9
$DIMASZ
 40
0.18
  9
$DIMEXO
 40
0.0625
  9
$DIMDLI
 40
0.38
  9
$DIMRND
 40
0.0
  9
$DIMDLE
 40
0.0
  9
$DIMEXE
 40
0.18
  9
$DIMTP
 40
0.0
  9
$DIMTM
 40
0.0
  9
$DIMTXT
 40
0.18
  9
$DIMCEN
 40
0.09
  9
$DIMTSZ
 40
0.0
  9
$DIMTOL
 70
     0
  9
$DIMLIM
 70
     0
  9
$DIMTIH
 70
     1
  9
$DIMTOH
 70
     1
  9
$DIMSE1
 70
     0
  9
$DIMSE2
 70
     0
  9
$DIMTAD
 70
     0
  9
$DIMZIN
 70
     0
  9
$DIMBLK
  1

  9
$DIMASO
 70
     1
  9
$DIMSHO
 70
     1
  9
$DIMPOST
  1

  9
$DIMAPOST
  1

  9
$DIMALT
 70
     0
  9
$DIMALTD
 70
     2
  9
$DIMALTF
 40
25.4
  9
$DIMLFAC
 40
1.0
  9
$DIMTOFL
 70
     0
  9
$DIMTVP
 40
0.0
  9
$DIMTIX
 70
     0
  9
$DIMSOXD
 70
     0
  9
$DIMSAH
 70
     0
  9
$DIMBLK1
  1

  9
$DIMBLK2
  1

  9
$DIMSTYLE
  2
Standard
  9
$DIMCLRD
 70
     0
  9
$DIMCLRE
 70
     0
  9
$DIMCLRT
 70
     0
  9
$DIMTFAC
 40
1.0
  9
$DIMGAP
 40
0.09
  9
$DIMJUST
 70
     0
  9
$DIMSD1
 70
     0
  9
$DIMSD2
 70
     0
  9
$DIMTOLJ
 70
     1
  9
$DIMTZIN
 70
     0
  9
$DIMALTZ
 70
     0
  9
$DIMALTTZ
 70
     0
  9
$DIMUPT
 70
     0
  9
$DIMDEC
 70
     4
  9
$DIMTDEC
 70
     4
  9
$DIMALTU
 70
     2
  9
$DIMALTTD
 70
     2
  9
$DIMTXSTY
  7
Standard
  9
$DIMAUNIT
 70
     0
  9
$DIMADEC
 70
     0
  9
$DIMALTRND
 40
0.0
  9
$DIMAZIN
 70
     0
  9
$DIMDSEP
 70
    46
  9
$DIMATFIT
 70
     3
  9
$DIMFRAC
 70
     0
  9
$DIMLDRBLK
  1

  9
$DIMLUNIT
 70
     2
  9
$DIMLWD
 70
    -2
  9
$DIMLWE
 70
    -2
  9
$DIMTMOVE
 70
     0
  9
$DIMFXL
 40
1.0
  9
$DIMFXLON
 70
     0
  9
$DIMJOGANG
 40
0.7853981633974483
  9
$DIMTFILL
 70
     0
  9
$DIMTFILLCLR
 70
     0
  9
$DIMARCSYM
 70
     0
  9
$DIMLTYPE
  6

  9
$DIMLTEX1
  6

  9
$DIMLTEX2
  6

  9
$DIMTXTDIRECTION
 70
     0
  9
$LUNITS
 70
     2
  9
$LUPREC
 70
     4
  9
$SKETCHINC
 40
0.1
  9
$FILLETRAD
 40
0.5
  9
$AUNITS
 70
     0
  9
$AUPREC
 70
     0
  9
$MENU
  1
.
  9
$ELEVATION
 40
0.0
  9
$PELEVATION
 40
0.0
  9
$THICKNESS
 40
0.0
  9
$LIMCHECK
 70
     0
  9
$CHAMFERA
 40
0.0
  9
$CHAMFERB
 40
0.0
  9
$CHAMFERC
 40
0.0
  9
$CHAMFERD
 40
0.0
  9
$SKPOLY
 70
     0
  9
$TDCREATE
 40
2460293.567997685
  9
$TDUCREATE
 40
2460293.526333461
  9
$TDUPDATE
 40
2460320.609270834
  9
$TDUUPDATE
 40
2460320.567604167
  9
$TDINDWG
 40
0.0003703819
  9
$TDUSRTIMER
 40
0.0003703819
  9
$USRTIMER
 70
     1
  9
$ANGBASE
 50
0.0
  9
$ANGDIR
 70
     0
  9
$PDMODE
 70
     0
  9
$PDSIZE
 40
0.0
  9
$PLINEWID
 40
0.0
  9
$SPLFRAME
 70
     0
  9
$SPLINETYPE
 70
     6
  9
$SPLINESEGS
 70
     8
  9
$HANDSEED
  5
1F1
  9
$SURFTAB1
 70
     6
  9
$SURFTAB2
 70
     6
  9
$SURFTYPE
 70
     6
  9
$SURFU
 70
     6
  9
$SURFV
 70
     6
  9
$UCSBASE
  2

  9
$UCSNAME
  2

  9
$UCSORG
 10
0.0
 20
0.0
 30
0.0
  9
$UCSXDIR
 10
1.0
 20
0.0
 30
0.0
  9
$UCSYDIR
 10
0.0
 20
1.0
 30
0.0
  9
$UCSORTHOREF
  2

  9
$UCSORTHOVIEW
 70
     0
  9
$UCSORGTOP
 10
0.0
 20
0.0
 30
0.0
  9
$UCSORGBOTTOM
 10
0.0
 20
0.0
 30
0.0
  9
$UCSORGLEFT
 10
0.0
 20
0.0
 30
0.0
  9
$UCSORGRIGHT
 10
0.0
 20
0.0
 30
0.0
  9
$UCSORGFRONT
 10
0.0
 20
0.0
 30
0.0
  9
$UCSORGBACK
 10
0.0
 20
0.0
 30
0.0
  9
$PUCSBASE
  2

  9
$PUCSNAME
  2

  9
$PUCSORG
 10
0.0
 20
0.0
 30
0.0
  9
$PUCSXDIR
 10
1.0
 20
0.0
 30
0.0
  9
$PUCSYDIR
 10
0.0
 20
1.0
 30
0.0
  9
$PUCSORTHOREF
  2

  9
$PUCSORTHOVIEW
 70
     0
  9
$PUCSORGTOP
 10
0.0
 20
0.0
 30
0.0
  9
$PUCSORGBOTTOM
 10
0.0
 20
0.0
 30
0.0
  9
$PUCSORGLEFT
 10
0.0
 20
0.0
 30
0.0
  9
$PUCSORGRIGHT
 10
0.0
 20
0.0
 30
0.0
  9
$PUCSORGFRONT
 10
0.0
 20
0.0
 30
0.0
  9
$PUCSORGBACK
 10
0.0
 20
0.0
 30
0.0
  9
$USERI1
 70
     0
  9
$USERI2
 70
     0
  9
$USERI3
 70
     0
  9
$USERI4
 70
     0
  9
$USERI5
 70
     0
  9
$USERR1
 40
0.0
  9
$USERR2
 40
0.0
  9
$USERR3
 40
0.0
  9
$USERR4
 40
0.0
  9
$USERR5
 40
0.0
  9
$WORLDVIEW
 70
     1
  9
$SHADEDGE
 70
     3
  9
$SHADEDIF
 70
    70
  9
$TILEMODE
 70
     1
  9
$MAXACTVP
 70
    64
  9
$PINSBASE
 10
0.0
 20
0.0
 30
0.0
  9
$PLIMCHECK
 70
     0
  9
$PEXTMIN
 10
-0.5
 20
-0.5
 30
-0.5
  9
$PEXTMAX
 10
5.0
 20
5.0
 30
5.0
  9
$PLIMMIN
 10
-0.5
 20
-0.5
  9
$PLIMMAX
 10
5.0
 20
5.0
  9
$UNITMODE
 70
     0
  9
$VISRETAIN
 70
     1
  9
$PLINEGEN
 70
     0
  9
$PSLTSCALE
 70
     1
  9
$TREEDEPTH
 70
  3020
  9
$CMLSTYLE
  2
Standard
  9
$CMLJUST
 70
     0
  9
$CMLSCALE
 40
1.0
  9
$PROXYGRAPHICS
 70
     1
  9
$MEASUREMENT
 70
     1
  9
$CELWEIGHT
370
    18
  9
$ENDCAPS
280
     0
  9
$JOINSTYLE
280
     0
  9
$LWDISPLAY
290
     1
  9
$INSUNITS
 70
     4
  9
$HYPERLINKBASE
  1

  9
$STYLESHEET
  1

  9
$XEDIT
290
     1
  9
$CEPSNTYPE
380
     0
  9
$PSTYLEMODE
290
     1
  9
$FINGERPRINTGUID
  2
{0D01F8C0-0A11-4E35-A20C-C5F4C4DEA669}
  9
$VERSIONGUID
  2
{181CB5D3-2255-494B-9805-CC43210AD867}
  9
$EXTNAMES
290
     1
  9
$PSVPSCALE
 40
0.0
  9
$OLESTARTUP
290
     0
  9
$SORTENTS
280
   127
  9
$INDEXCTL
280
     0
  9
$HIDETEXT
280
     1
  9
$XCLIPFRAME
280
     2
  9
$HALOGAP
280
     0
  9
$OBSCOLOR
 70
   257
  9
$OBSLTYPE
280
     0
  9
$INTERSECTIONDISPLAY
280
     0
  9
$INTERSECTIONCOLOR
 70
   257
  9
$DIMASSOC
280
     2
  9
$PROJECTNAME
  1

  9
$CAMERADISPLAY
290
     0
  9
$LENSLENGTH
 40
50.0
  9
$CAMERAHEIGHT
 40
0.0
  9
$STEPSPERSEC
 40
2.0
  9
$STEPSIZE
 40
6.0
  9
$3DDWFPREC
 40
2.0
  9
$PSOLWIDTH
 40
0.25
  9
$PSOLHEIGHT
 40
4.0
  9
$LOFTANG1
 40
1.570796326794896
  9
$LOFTANG2
 40
1.570796326794896
  9
$LOFTMAG1
 40
0.0
  9
$LOFTMAG2
 40
0.0
  9
$LOFTPARAM
 70
     7
  9
$LOFTNORMALS
280
     1
  9
$LATITUDE
 40
37.795
  9
$LONGITUDE
 40
-122.394
  9
$NORTHDIRECTION
 40
0.0
  9
$TIMEZONE
 70
 -8000
  9
$LIGHTGLYPHDISPLAY
280
     1
  9
$TILEMODELIGHTSYNCH
280
     1
  9
$CMATERIAL
347
44
  9
$SOLIDHIST
280
     0
  9
$SHOWHIST
280
     1
  9
$DWFFRAME
280
     2
  9
$DGNFRAME
280
     0
  9
$REALWORLDSCALE
290
     1
  9
$INTERFERECOLOR
 62
     1
  9
$INTERFEREOBJVS
345
33
  9
$INTERFEREVPVS
346
30
  9
$CSHADOW
280
     0
  9
$SHADOWPLANELOCATION
 40
0.0
  0
ENDSEC
  0
SECTION
  2
CLASSES
  0
CLASS
  1
ACDBDICTIONARYWDFLT
  2
AcDbDictionaryWithDefault
  3
ObjectDBX Classes
 90
        0
 91
        1
280
     0
281
     0
  0
CLASS
  1
VISUALSTYLE
  2
AcDbVisualStyle
  3
ObjectDBX Classes
 90
     4095
 91
       24
280
     0
281
     0
  0
CLASS
  1
MATERIAL
  2
AcDbMaterial
  3
ObjectDBX Classes
 90
     1153
 91
        3
280
     0
281
     0
  0
CLASS
  1
SCALE
  2
AcDbScale
  3
ObjectDBX Classes
 90
     1153
 91
       33
280
     0
281
     0
  0
CLASS
  1
TABLESTYLE
  2
AcDbTableStyle
  3
ObjectDBX Classes
 90
     4095
 91
        1
280
     0
281
     0
  0
CLASS
  1
MLEADERSTYLE
  2
AcDbMLeaderStyle
  3
ACDB_MLEADERSTYLE_CLASS
 90
     4095
 91
        1
280
     0
281
     0
  0
CLASS
  1
SUN
  2
AcDbSun
  3
SCENEOE
 90
     1153
 91
        0
280
     0
281
     0
  0
CLASS
  1
DICTIONARYVAR
  2
AcDbDictionaryVar
  3
ObjectDBX Classes
 90
        0
 91
       10
280
     0
281
     0
  0
CLASS
  1
CELLSTYLEMAP
  2
AcDbCellStyleMap
  3
ObjectDBX Classes
 90
     1152
 91
        2
280
     0
281
     0
  0
CLASS
  1
ACDBSECTIONVIEWSTYLE
  2
AcDbSectionViewStyle
  3
ObjectDBX Classes
 90
     1025
 91
        2
280
     0
281
     0
  0
CLASS
  1
ACDBDETAILVIEWSTYLE
  2
AcDbDetailViewStyle
  3
ObjectDBX Classes
 90
     1025
 91
        2
280
     0
281
     0
  0
CLASS
  1
SORTENTSTABLE
  2
AcDbSortentsTable
  3
ObjectDBX Classes
 90
        0
 91
        1
280
     0
281
     0
  0
ENDSEC
  0
SECTION
  2
TABLES
  0
TABLE
  2
VPORT
  5
8
330
0
100
AcDbSymbolTable
 70
    16
1001
ACAD
1000
DbSaveVer
1071
      224
  0
VPORT
  5
29
330
8
100
AcDbSymbolTableRecord
100
AcDbViewportTableRecord
  2
*Active
 70
     0
 10
0.0
 20
0.0
 11
1.0
 21
1.0
 12
1232.32474597582
 22
635.4642766336056
 13
0.0
 23
0.0
 14
0.5
 24
0.5
 15
0.5
 25
0.5
 16
0.0
 26
0.0
 36
1.0
 17
0.0
 27
0.0
 37
0.0
 40
2011.396913156512
 41
2.033923303834808
 42
50.0
 43
290.625536
 44
-290.625536
 50
0.0
 51
0.0
 71
     0
 72
   100
 73
     1
 74
     3
 75
     0
 76
     0
 77
     0
 78
     0
281
     0
 65
     1
110
0.0
120
0.0
130
0.0
111
1.0
121
0.0
131
0.0
112
0.0
122
1.0
132
0.0
 79
     0
146
0.0
348
2F
 60
     3
 61
     5
292
     1
282
     1
141
0.0
142
0.0
 63
   250
421
  3355443
1001
ACAD_NAV_VCDISPLAY
1070
     3
  0
VPORT
  5
167
330
8
100
AcDbSymbolTableRecord
100
AcDbViewportTableRecord
  2
L1
 70
     0
 10
0.0
 20
0.0
 11
1.0
 21
1.0
 12
114.632449
 22
119.566001
 13
0.0
 23
0.0
 14
0.5
 24
0.5
 15
0.5
 25
0.5
 16
0.0
 26
0.0
 36
1.0
 17
0.0
 27
0.0
 37
0.0
 40
254.0
 41
0.069908
 42
50.0
 43
290.625536
 44
-290.625536
 50
0.0
 51
0.0
 71
     0
 72
   100
 73
     1
 74
     3
 75
     0
 76
     0
 77
     0
 78
     0
281
     0
 65
     1
110
0.0
120
0.0
130
0.0
111
1.0
121
0.0
131
0.0
112
0.0
122
1.0
132
0.0
 79
     0
146
0.0
348
2F
 60
     3
 61
     5
292
     1
282
     1
141
0.0
142
0.0
 63
   250
421
  3355443
  0
VPORT
  5
168
330
8
100
AcDbSymbolTableRecord
100
AcDbViewportTableRecord
  2
L2
 70
     0
 10
0.0
 20
0.0
 11
0.5
 21
1.0
 12
0.0
 22
0.0
 13
0.0
 23
0.0
 14
0.5
 24
0.5
 15
0.5
 25
0.5
 16
0.0
 26
-1.0
 36
0.0
 17
0.0
 27
0.0
 37
0.0
 40
1319.822715
 41
0.013454
 42
50.0
 43
672.020833
 44
-672.020833
 50
0.0
 51
0.0
 71
     0
 72
   100
 73
     1
 74
     3
 75
     0
 76
     0
 77
     0
 78
     0
281
     0
 65
     1
110
0.0
120
0.0
130
0.0
111
1.0
121
0.0
131
0.0
112
0.0
122
1.0
132
0.0
 79
     0
146
0.0
348
2F
 60
     3
 61
     5
292
     1
282
     1
141
0.0
142
0.0
 63
   250
421
  3355443
  0
VPORT
  5
169
330
8
100
AcDbSymbolTableRecord
100
AcDbViewportTableRecord
  2
L2
 70
     0
 10
0.5
 20
0.0
 11
1.0
 21
1.0
 12
0.0
 22
0.0
 13
0.0
 23
0.0
 14
0.5
 24
0.5
 15
0.5
 25
0.5
 16
1.0
 26
0.0
 36
0.0
 17
0.0
 27
0.0
 37
0.0
 40
1319.822715
 41
0.013454
 42
50.0
 43
672.020833
 44
-672.020833
 50
0.0
 51
0.0
 71
     0
 72
   100
 73
     1
 74
     3
 75
     0
 76
     0
 77
     0
 78
     0
281
     0
 65
     1
110
0.0
120
0.0
130
0.0
111
1.0
121
0.0
131
0.0
112
0.0
122
1.0
132
0.0
 79
     0
146
0.0
348
2F
 60
     3
 61
     5
292
     1
282
     1
141
0.0
142
0.0
 63
   250
421
  3355443
  0
VPORT
  5
16A
330
8
100
AcDbSymbolTableRecord
100
AcDbViewportTableRecord
  2
L3
 70
     0
 10
0.0
 20
0.5
 11
1.0
 21
1.0
 12
114.632449
 22
119.566001
 13
0.0
 23
0.0
 14
0.5
 24
0.5
 15
0.5
 25
0.5
 16
0.0
 26
0.0
 36
1.0
 17
0.0
 27
0.0
 37
0.0
 40
254.0
 41
0.069908
 42
50.0
 43
290.625536
 44
-290.625536
 50
0.0
 51
0.0
 71
     0
 72
   100
 73
     1
 74
     3
 75
     0
 76
     0
 77
     0
 78
     0
281
     0
 65
     1
110
0.0
120
0.0
130
0.0
111
1.0
121
0.0
131
0.0
112
0.0
122
1.0
132
0.0
 79
     0
146
0.0
348
2F
 60
     3
 61
     5
292
     1
282
     1
141
0.0
142
0.0
 63
   250
421
  3355443
  0
VPORT
  5
16B
330
8
100
AcDbSymbolTableRecord
100
AcDbViewportTableRecord
  2
L3
 70
     0
 10
0.0
 20
0.0
 11
1.0
 21
0.5
 12
0.0
 22
0.0
 13
0.0
 23
0.0
 14
0.5
 24
0.5
 15
0.5
 25
0.5
 16
0.0
 26
-1.0
 36
0.0
 17
0.0
 27
0.0
 37
0.0
 40
1319.822715
 41
0.013454
 42
50.0
 43
672.020833
 44
-672.020833
 50
0.0
 51
0.0
 71
     0
 72
   100
 73
     1
 74
     3
 75
     0
 76
     0
 77
     0
 78
     0
281
     0
 65
     1
110
0.0
120
0.0
130
0.0
111
1.0
121
0.0
131
0.0
112
0.0
122
1.0
132
0.0
 79
     0
146
0.0
348
2F
 60
     3
 61
     5
292
     1
282
     1
141
0.0
142
0.0
 63
   250
421
  3355443
  0
VPORT
  5
16C
330
8
100
AcDbSymbolTableRecord
100
AcDbViewportTableRecord
  2
L4
 70
     0
 10
0.0
 20
0.5
 11
0.5
 21
1.0
 12
114.632449
 22
119.566001
 13
0.0
 23
0.0
 14
0.5
 24
0.5
 15
0.5
 25
0.5
 16
0.0
 26
0.0
 36
1.0
 17
0.0
 27
0.0
 37
0.0
 40
254.0
 41
0.069908
 42
50.0
 43
290.625536
 44
-290.625536
 50
0.0
 51
0.0
 71
     0
 72
   100
 73
     1
 74
     3
 75
     0
 76
     0
 77
     0
 78
     0
281
     0
 65
     1
110
0.0
120
0.0
130
0.0
111
1.0
121
0.0
131
0.0
112
0.0
122
1.0
132
0.0
 79
     0
146
0.0
348
2F
 60
     3
 61
     5
292
     1
282
     1
141
0.0
142
0.0
 63
   250
421
  3355443
  0
VPORT
  5
16D
330
8
100
AcDbSymbolTableRecord
100
AcDbViewportTableRecord
  2
L4
 70
     0
 10
0.0
 20
0.0
 11
0.5
 21
0.5
 12
0.0
 22
0.0
 13
0.0
 23
0.0
 14
0.5
 24
0.5
 15
0.5
 25
0.5
 16
0.0
 26
-1.0
 36
0.0
 17
0.0
 27
0.0
 37
0.0
 40
1319.822715
 41
0.013454
 42
50.0
 43
672.020833
 44
-672.020833
 50
0.0
 51
0.0
 71
     0
 72
   100
 73
     1
 74
     3
 75
     0
 76
     0
 77
     0
 78
     0
281
     0
 65
     1
110
0.0
120
0.0
130
0.0
111
1.0
121
0.0
131
0.0
112
0.0
122
1.0
132
0.0
 79
     0
146
0.0
348
2F
 60
     3
 61
     5
292
     1
282
     1
141
0.0
142
0.0
 63
   250
421
  3355443
  0
VPORT
  5
16E
330
8
100
AcDbSymbolTableRecord
100
AcDbViewportTableRecord
  2
L4
 70
     0
 10
0.5
 20
0.0
 11
1.0
 21
0.5
 12
0.0
 22
0.0
 13
0.0
 23
0.0
 14
0.5
 24
0.5
 15
0.5
 25
0.5
 16
1.0
 26
0.0
 36
0.0
 17
0.0
 27
0.0
 37
0.0
 40
1319.822715
 41
0.013454
 42
50.0
 43
672.020833
 44
-672.020833
 50
0.0
 51
0.0
 71
     0
 72
   100
 73
     1
 74
     3
 75
     0
 76
     0
 77
     0
 78
     0
281
     0
 65
     1
110
0.0
120
0.0
130
0.0
111
1.0
121
0.0
131
0.0
112
0.0
122
1.0
132
0.0
 79
     0
146
0.0
348
2F
 60
     3
 61
     5
292
     1
282
     1
141
0.0
142
0.0
 63
   250
421
  3355443
  0
VPORT
  5
16F
330
8
100
AcDbSymbolTableRecord
100
AcDbViewportTableRecord
  2
L4
 70
     0
 10
0.5
 20
0.5
 11
1.0
 21
1.0
 12
0.0
 22
0.0
 13
0.0
 23
0.0
 14
0.5
 24
0.5
 15
0.5
 25
0.5
 16
0.5773502691896259
 26
-0.5773502691896259
 36
0.5773502691896259
 17
0.0
 27
0.0
 37
0.0
 40
1285.020866
 41
0.013818
 42
50.0
 43
667.141407
 44
-667.141407
 50
0.0
 51
0.0
 71
     0
 72
   100
 73
     1
 74
     3
 75
     0
 76
     0
 77
     0
 78
     0
281
     0
 65
     1
110
0.0
120
0.0
130
0.0
111
1.0
121
0.0
131
0.0
112
0.0
122
1.0
132
0.0
 79
     0
146
0.0
348
2F
 60
     3
 61
     5
292
     1
282
     1
141
0.0
142
0.0
 63
   250
421
  3355443
  0
VPORT
  5
170
330
8
100
AcDbSymbolTableRecord
100
AcDbViewportTableRecord
  2
L6
 70
     0
 10
0.0
 20
0.5
 11
0.333333
 21
1.0
 12
0.0
 22
0.0
 13
0.0
 23
0.0
 14
0.5
 24
0.5
 15
0.5
 25
0.5
 16
0.7188730927569434
 26
-0.5850486126764433
 36
0.3754192287502549
 17
0.0
 27
0.0
 37
0.0
 40
1357.434192
 41
0.013081
 42
50.0
 43
701.839477
 44
-701.839477
 50
0.0
 51
0.0
 71
     0
 72
   100
 73
     1
 74
     3
 75
     0
 76
     0
 77
     0
 78
     0
281
     0
 65
     1
110
0.0
120
0.0
130
0.0
111
1.0
121
0.0
131
0.0
112
0.0
122
1.0
132
0.0
 79
     0
146
0.0
348
2F
 60
     3
 61
     5
292
     1
282
     1
141
0.0
142
0.0
 63
   250
421
  3355443
  0
VPORT
  5
171
330
8
100
AcDbSymbolTableRecord
100
AcDbViewportTableRecord
  2
L6
 70
     0
 10
0.0
 20
0.0
 11
0.333333
 21
0.5
 12
0.0
 22
0.0
 13
0.0
 23
0.0
 14
0.5
 24
0.5
 15
0.5
 25
0.5
 16
-1.0
 26
0.0
 36
0.0
 17
0.0
 27
0.0
 37
0.0
 40
1319.822715
 41
0.013454
 42
50.0
 43
672.020833
 44
-672.020833
 50
0.0
 51
0.0
 71
     0
 72
   100
 73
     1
 74
     3
 75
     0
 76
     0
 77
     0
 78
     0
281
     0
 65
     1
110
0.0
120
0.0
130
0.0
111
1.0
121
0.0
131
0.0
112
0.0
122
1.0
132
0.0
 79
     0
146
0.0
348
2F
 60
     3
 61
     5
292
     1
282
     1
141
0.0
142
0.0
 63
   250
421
  3355443
  0
VPORT
  5
172
330
8
100
AcDbSymbolTableRecord
100
AcDbViewportTableRecord
  2
L6
 70
     0
 10
0.333333
 20
0.5
 11
0.666667
 21
1.0
 12
114.632449
 22
119.566001
 13
0.0
 23
0.0
 14
0.5
 24
0.5
 15
0.5
 25
0.5
 16
0.0
 26
0.0
 36
1.0
 17
0.0
 27
0.0
 37
0.0
 40
254.0
 41
0.069908
 42
50.0
 43
290.625536
 44
-290.625536
 50
0.0
 51
0.0
 71
     0
 72
   100
 73
     1
 74
     3
 75
     0
 76
     0
 77
     0
 78
     0
281
     0
 65
     1
110
0.0
120
0.0
130
0.0
111
1.0
121
0.0
131
0.0
112
0.0
122
1.0
132
0.0
 79
     0
146
0.0
348
2F
 60
     3
 61
     5
292
     1
282
     1
141
0.0
142
0.0
 63
   250
421
  3355443
  0
VPORT
  5
173
330
8
100
AcDbSymbolTableRecord
100
AcDbViewportTableRecord
  2
L6
 70
     0
 10
0.333333
 20
0.0
 11
0.666667
 21
0.5
 12
0.0
 22
0.0
 13
0.0
 23
0.0
 14
0.5
 24
0.5
 15
0.5
 25
0.5
 16
0.0
 26
-1.0
 36
0.0
 17
0.0
 27
0.0
 37
0.0
 40
1319.822715
 41
0.013454
 42
50.0
 43
672.020833
 44
-672.020833
 50
0.0
 51
0.0
 71
     0
 72
   100
 73
     1
 74
     3
 75
     0
 76
     0
 77
     0
 78
     0
281
     0
 65
     1
110
0.0
120
0.0
130
0.0
111
1.0
121
0.0
131
0.0
112
0.0
122
1.0
132
0.0
 79
     0
146
0.0
348
2F
 60
     3
 61
     5
292
     1
282
     1
141
0.0
142
0.0
 63
   250
421
  3355443
  0
VPORT
  5
174
330
8
100
AcDbSymbolTableRecord
100
AcDbViewportTableRecord
  2
L6
 70
     0
 10
0.666667
 20
0.5
 11
1.0
 21
1.0
 12
0.0
 22
0.0
 13
0.0
 23
0.0
 14
0.5
 24
0.5
 15
0.5
 25
0.5
 16
0.5773502691896259
 26
-0.5773502691896259
 36
0.5773502691896259
 17
0.0
 27
0.0
 37
0.0
 40
1285.020866
 41
0.013818
 42
50.0
 43
667.141407
 44
-667.141407
 50
0.0
 51
0.0
 71
     0
 72
   100
 73
     1
 74
     3
 75
     0
 76
     0
 77
     0
 78
     0
281
     0
 65
     1
110
0.0
120
0.0
130
0.0
111
1.0
121
0.0
131
0.0
112
0.0
122
1.0
132
0.0
 79
     0
146
0.0
348
2F
 60
     3
 61
     5
292
     1
282
     1
141
0.0
142
0.0
 63
   250
421
  3355443
  0
VPORT
  5
175
330
8
100
AcDbSymbolTableRecord
100
AcDbViewportTableRecord
  2
L6
 70
     0
 10
0.666667
 20
0.0
 11
1.0
 21
0.5
 12
0.0
 22
0.0
 13
0.0
 23
0.0
 14
0.5
 24
0.5
 15
0.5
 25
0.5
 16
1.0
 26
0.0
 36
0.0
 17
0.0
 27
0.0
 37
0.0
 40
1319.822715
 41
0.013454
 42
50.0
 43
672.020833
 44
-672.020833
 50
0.0
 51
0.0
 71
     0
 72
   100
 73
     1
 74
     3
 75
     0
 76
     0
 77
     0
 78
     0
281
     0
 65
     1
110
0.0
120
0.0
130
0.0
111
1.0
121
0.0
131
0.0
112
0.0
122
1.0
132
0.0
 79
     0
146
0.0
348
2F
 60
     3
 61
     5
292
     1
282
     1
141
0.0
142
0.0
 63
   250
421
  3355443
  0
ENDTAB
  0
TABLE
  2
LTYPE
  5
5
330
0
100
AcDbSymbolTable
 70
     6
  0
LTYPE
  5
14
330
5
100
AcDbSymbolTableRecord
100
AcDbLinetypeTableRecord
  2
ByBlock
 70
     0
  3

 72
    65
 73
     0
 40
0.0
  0
LTYPE
  5
15
330
5
100
AcDbSymbolTableRecord
100
AcDbLinetypeTableRecord
  2
ByLayer
 70
     0
  3

 72
    65
 73
     0
 40
0.0
  0
LTYPE
  5
16
330
5
100
AcDbSymbolTableRecord
100
AcDbLinetypeTableRecord
  2
Continuous
 70
     0
  3
Solid line
 72
    65
 73
     0
 40
0.0
  0
LTYPE
  5
6E
330
5
100
AcDbSymbolTableRecord
100
AcDbLinetypeTableRecord
  2
CENTER
 70
     0
  3
____ _ ____ _ ____ _ ____
 72
    65
 73
     4
 40
47.4
 49
22.0
 74
     4
 75
     0
340
0
 46
0.0
 50
0.0
 44
0.0
 45
0.0
 49
-8.5
 74
     4
 75
     0
340
0
 46
0.0
 50
0.0
 44
0.0
 45
0.0
 49
8.5
 74
     4
 75
     0
340
0
 46
0.0
 50
0.0
 44
0.0
 45
0.0
 49
-8.5
 74
     4
 75
     0
340
0
 46
0.0
 50
0.0
 44
0.0
 45
0.0
  0
LTYPE
  5
6F
330
5
100
AcDbSymbolTableRecord
100
AcDbLinetypeTableRecord
  2
DASHDOT
 70
     0
  3
_._._._._._._._._._._._._._._._.
 72
    65
 73
     4
 40
70.0
 49
31.0
 74
     4
 75
     0
340
0
 46
0.0
 50
0.0
 44
0.0
 45
0.0
 49
-13.0
 74
     4
 75
     0
340
0
 46
0.0
 50
0.0
 44
0.0
 45
0.0
 49
13.0
 74
     4
 75
     0
340
0
 46
0.0
 50
0.0
 44
0.0
 45
0.0
 49
-13.0
 74
     4
 75
     0
340
0
 46
0.0
 50
0.0
 44
0.0
 45
0.0
  0
LTYPE
  5
70
330
5
100
AcDbSymbolTableRecord
100
AcDbLinetypeTableRecord
  2
DASHED
 70
     0
  3
__ __ __ __ __ __ __ __ __
 72
    65
 73
     2
 40
25.72
 49
12.86
 74
     4
 75
     0
340
0
 46
0.0
 50
0.0
 44
0.0
 45
0.0
 49
-12.86
 74
     4
 75
     0
340
0
 46
0.0
 50
0.0
 44
0.0
 45
0.0
  0
LTYPE
  5
71
330
5
100
AcDbSymbolTableRecord
100
AcDbLinetypeTableRecord
  2
DOT
 70
     0
  3
.........................
 72
    65
 73
     2
 40
10.0
 49
0.0
 74
     4
 75
     0
340
0
 46
0.0
 50
0.0
 44
0.0
 45
0.0
 49
-10.0
 74
     4
 75
     0
340
0
 46
0.0
 50
0.0
 44
0.0
 45
0.0
  0
LTYPE
  5
72
330
5
100
AcDbSymbolTableRecord
100
AcDbLinetypeTableRecord
  2
PHANTOM
 70
     0
  3
____ _ _ ____ _ _ _____ _ _ ____
 72
    65
 73
     6
 40
50.5
 49
18.0
 74
     4
 75
     0
340
0
 46
0.0
 50
0.0
 44
0.0
 45
0.0
 49
-6.5
 74
     4
 75
     0
340
0
 46
0.0
 50
0.0
 44
0.0
 45
0.0
 49
6.5
 74
     4
 75
     0
340
0
 46
0.0
 50
0.0
 44
0.0
 45
0.0
 49
-6.5
 74
     4
 75
     0
340
0
 46
0.0
 50
0.0
 44
0.0
 45
0.0
 49
6.5
 74
     4
 75
     0
340
0
 46
0.0
 50
0.0
 44
0.0
 45
0.0
 49
-6.5
 74
     4
 75
     0
340
0
 46
0.0
 50
0.0
 44
0.0
 45
0.0
  0
ENDTAB
  0
TABLE
  2
LAYER
  5
2
102
{ACAD_XDICTIONARY
360
1CA
102
}
330
0
100
AcDbSymbolTable
 70
     3
  0
LAYER
  5
10
102
{ACAD_XDICTIONARY
360
1DC
102
}
330
2
100
AcDbSymbolTableRecord
100
AcDbLayerTableRecord
  2
0
 70
     0
 62
     7
  6
Continuous
370
    -3
390
F
347
46
348
0
  0
LAYER
  5
74
102
{ACAD_XDICTIONARY
360
1DE
102
}
330
2
100
AcDbSymbolTableRecord
100
AcDbLayerTableRecord
  2
1
 70
     0
 62
     7
420
 16777215
  6
Continuous
370
    -3
390
F
347
46
348
0
  0
LAYER
  5
1C5
102
{ACAD_XDICTIONARY
360
1E0
102
}
330
2
100
AcDbSymbolTableRecord
100
AcDbLayerTableRecord
  2
HEWI
 70
     0
 62
     7
  6
Continuous
370
     9
390
F
347
46
348
0
1001
AcAecLayerStandard
1000

1000

1001
AcCmTransparency
1071
        0
  0
ENDTAB
  0
TABLE
  2
STYLE
  5
3
330
0
100
AcDbSymbolTable
 70
     1
  0
STYLE
  5
11
330
3
100
AcDbSymbolTableRecord
100
AcDbTextStyleTableRecord
  2
Standard
 70
     0
 40
0.0
 41
1.0
 50
0.0
 71
     0
 42
0.2
  3
txt
  4

  0
ENDTAB
  0
TABLE
  2
VIEW
  5
6
330
0
100
AcDbSymbolTable
 70
     0
  0
ENDTAB
  0
TABLE
  2
UCS
  5
7
330
0
100
AcDbSymbolTable
 70
     0
  0
ENDTAB
  0
TABLE
  2
APPID
  5
9
330
0
100
AcDbSymbolTable
 70
     6
  0
APPID
  5
12
330
9
100
AcDbSymbolTableRecord
100
AcDbRegAppTableRecord
  2
ACAD
 70
     0
  0
APPID
  5
1B5
330
9
100
AcDbSymbolTableRecord
100
AcDbRegAppTableRecord
  2
ACAD_MLEADERVER
 70
     0
  0
APPID
  5
1C6
330
9
100
AcDbSymbolTableRecord
100
AcDbRegAppTableRecord
  2
ACAD_NAV_VCDISPLAY
 70
     0
  0
APPID
  5
1C7
330
9
100
AcDbSymbolTableRecord
100
AcDbRegAppTableRecord
  2
AcAecLayerStandard
 70
     0
  0
APPID
  5
1C8
330
9
100
AcDbSymbolTableRecord
100
AcDbRegAppTableRecord
  2
AcCmTransparency
 70
     0
  0
APPID
  5
1C9
330
9
100
AcDbSymbolTableRecord
100
AcDbRegAppTableRecord
  2
ACAD_PSEXT
 70
     0
  0
ENDTAB
  0
TABLE
  2
DIMSTYLE
  5
A
330
0
100
AcDbSymbolTable
 70
     1
100
AcDbDimStyleTable
 71
     0
  0
DIMSTYLE
105
27
330
A
100
AcDbSymbolTableRecord
100
AcDbDimStyleTableRecord
  2
Standard
 70
     0
340
11
  0
ENDTAB
  0
TABLE
  2
BLOCK_RECORD
  5
1
330
0
100
AcDbSymbolTable
 70
     2
  0
BLOCK_RECORD
  5
1F
330
1
100
AcDbSymbolTableRecord
100
AcDbBlockTableRecord
  2
*Model_Space
340
22
 70
     0
280
     1
281
     0
  0
BLOCK_RECORD
  5
1B
330
1
100
AcDbSymbolTableRecord
100
AcDbBlockTableRecord
  2
*Paper_Space
340
1E
 70
     0
280
     1
281
     0
  0
BLOCK_RECORD
  5
23
330
1
100
AcDbSymbolTableRecord
100
AcDbBlockTableRecord
  2
*Paper_Space0
340
26
 70
     0
280
     1
281
     0
  0
ENDTAB
  0
ENDSEC
  0
SECTION
  2
BLOCKS
  0
BLOCK
  5
20
330
1F
100
AcDbEntity
  8
0
100
AcDbBlockBegin
  2
*Model_Space
 70
     0
 10
0.0
 20
0.0
 30
0.0
  3
*Model_Space
  1

  0
ENDBLK
  5
21
330
1F
100
AcDbEntity
  8
0
100
AcDbBlockEnd
  0
BLOCK
  5
1C
330
1B
100
AcDbEntity
 67
     1
  8
0
100
AcDbBlockBegin
  2
*Paper_Space
 70
     0
 10
0.0
 20
0.0
 30
0.0
  3
*Paper_Space
  1

  0
ENDBLK
  5
1D
330
1B
100
AcDbEntity
 67
     1
  8
0
100
AcDbBlockEnd
  0
BLOCK
  5
24
330
23
100
AcDbEntity
 67
     1
  8
0
100
AcDbBlockBegin
  2
*Paper_Space0
 70
     0
 10
0.0
 20
0.0
 30
0.0
  3
*Paper_Space0
  1

  0
ENDBLK
  5
25
330
23
100
AcDbEntity
 67
     1
  8
0
100
AcDbBlockEnd
  0
ENDSEC
  0
SECTION
  2
ENTITIES
  0
LINE
  5
73
330
1F
100
AcDbEntity
  8
HEWI
100
AcDbLine
 10
1005.877138999999
 20
85.68696699999998
 30
0.0
 11
1005.877138999999
 21
64.68696699999998
 31
0.0
  0
LINE
  5
75
330
1F
100
AcDbEntity
  8
HEWI
100
AcDbLine
 10
79.877139
 20
85.68696699999998
 30
0.0
 11
1005.877138999999
 21
85.68696699999998
 31
0.0
  0
LINE
  5
76
330
1F
100
AcDbEntity
  8
HEWI
100
AcDbLine
 10
79.877139
 20
85.68696699999998
 30
0.0
 11
79.877139
 21
64.68696699999998
 31
0.0
  0
LINE
  5
77
330
1F
100
AcDbEntity
  8
HEWI
100
AcDbLine
 10
1012.877139
 20
60.68696699999998
 30
0.0
 11
72.87713899999994
 21
60.68696699999998
 31
0.0
  0
LINE
  5
78
330
1F
100
AcDbEntity
  8
HEWI
100
AcDbLine
 10
72.87713899999994
 20
60.68696699999998
 30
0.0
 11
67.87713899999994
 21
60.68696699999998
 31
0.0
  0
LINE
  5
79
330
1F
100
AcDbEntity
  8
HEWI
100
AcDbLine
 10
67.87713899999994
 20
60.786967
 30
0.0
 11
67.87713899999994
 21
60.68696699999998
 31
0.0
  0
LINE
  5
7A
330
1F
100
AcDbEntity
  8
HEWI
100
AcDbLine
 10
1017.877139
 20
60.68696699999998
 30
0.0
 11
1012.877139
 21
60.68696699999998
 31
0.0
  0
LINE
  5
7B
330
1F
100
AcDbEntity
  8
HEWI
100
AcDbLine
 10
1017.877139
 20
60.786967
 30
0.0
 11
1017.877139
 21
60.68696699999998
 31
0.0
  0
LINE
  5
7C
330
1F
100
AcDbEntity
  8
HEWI
100
AcDbLine
 10
43.677139
 20
64.68696699999998
 30
0.0
 11
42.87713899999994
 21
63.88696700000003
 31
0.0
  0
LINE
  5
7D
330
1F
100
AcDbEntity
  8
HEWI
100
AcDbLine
 10
43.677139
 20
64.68696699999998
 30
0.0
 11
67.87713899999994
 21
64.68696699999998
 31
0.0
  0
LINE
  5
7E
330
1F
100
AcDbEntity
  8
HEWI
100
AcDbLine
 10
67.87713899999994
 20
63.88696700000003
 30
0.0
 11
42.87713899999994
 21
63.88696700000003
 31
0.0
  0
LINE
  5
7F
330
1F
100
AcDbEntity
  8
HEWI
100
AcDbLine
 10
42.87713899999994
 20
61.58696699999996
 30
0.0
 11
42.87713899999994
 21
63.88696700000003
 31
0.0
  0
LINE
  5
80
330
1F
100
AcDbEntity
  8
HEWI
100
AcDbLine
 10
42.87713899999994
 20
61.58696699999996
 30
0.0
 11
43.677139
 21
60.786967
 31
0.0
  0
LINE
  5
81
330
1F
100
AcDbEntity
  8
HEWI
100
AcDbLine
 10
67.87713899999994
 20
60.786967
 30
0.0
 11
43.677139
 21
60.786967
 31
0.0
  0
LINE
  5
82
330
1F
100
AcDbEntity
  8
HEWI
100
AcDbLine
 10
42.87713899999994
 20
61.58696699999996
 30
0.0
 11
67.87713899999994
 21
61.58696699999996
 31
0.0
  0
LINE
  5
83
330
1F
100
AcDbEntity
  8
HEWI
100
AcDbLine
 10
1017.877139
 20
60.786967
 30
0.0
 11
67.87713899999994
 21
60.786967
 31
0.0
  0
LINE
  5
84
330
1F
100
AcDbEntity
  8
HEWI
100
AcDbLine
 10
67.87713899999994
 20
61.58696699999996
 30
0.0
 11
1017.877139
 21
61.58696699999996
 31
0.0
  0
LINE
  5
85
330
1F
100
AcDbEntity
  8
HEWI
100
AcDbLine
 10
1042.877139
 20
61.58696699999996
 30
0.0
 11
1042.877139
 21
63.88696700000003
 31
0.0
  0
LINE
  5
86
330
1F
100
AcDbEntity
  8
HEWI
100
AcDbLine
 10
1042.077139
 20
60.786967
 30
0.0
 11
1042.877139
 21
61.58696699999996
 31
0.0
  0
LINE
  5
87
330
1F
100
AcDbEntity
  8
HEWI
100
AcDbLine
 10
1017.877139
 20
61.58696699999996
 30
0.0
 11
1042.877139
 21
61.58696699999996
 31
0.0
  0
LINE
  5
88
330
1F
100
AcDbEntity
  8
HEWI
100
AcDbLine
 10
1042.077139
 20
60.786967
 30
0.0
 11
1017.877139
 21
60.786967
 31
0.0
  0
LINE
  5
89
330
1F
100
AcDbEntity
  8
HEWI
100
AcDbLine
 10
1017.877139
 20
63.88696700000003
 30
0.0
 11
67.87713899999994
 21
63.88696700000003
 31
0.0
  0
LINE
  5
8A
330
1F
100
AcDbEntity
  8
HEWI
100
AcDbLine
 10
67.87713899999994
 20
64.68696699999998
 30
0.0
 11
1017.877139
 21
64.68696699999998
 31
0.0
  0
LINE
  5
8B
330
1F
100
AcDbEntity
  8
HEWI
100
AcDbLine
 10
1042.877139
 20
63.88696700000003
 30
0.0
 11
1042.077139
 21
64.68696699999998
 31
0.0
  0
LINE
  5
8C
330
1F
100
AcDbEntity
  8
HEWI
100
AcDbLine
 10
1017.877139
 20
64.68696699999998
 30
0.0
 11
1042.077139
 21
64.68696699999998
 31
0.0
  0
LINE
  5
8D
330
1F
100
AcDbEntity
  8
HEWI
100
AcDbLine
 10
1042.877139
 20
63.88696700000003
 30
0.0
 11
1017.877139
 21
63.88696700000003
 31
0.0
  0
LINE
  5
8E
330
1F
100
AcDbEntity
  8
HEWI
100
AcDbLine
 10
1017.877139
 20
536.4676570000001
 30
0.0
 11
67.87713899999994
 21
536.4676570000001
 31
0.0
  0
LINE
  5
8F
330
1F
100
AcDbEntity
  8
HEWI
100
AcDbLine
 10
67.87713899999994
 20
1236.467657
 30
0.0
 11
1017.877139
 21
1236.467657
 31
0.0
  0
LINE
  5
90
330
1F
100
AcDbEntity
  8
HEWI
100
AcDbLine
 10
1042.877139
 20
1211.467657
 30
0.0
 11
1042.877139
 21
561.4676570000001
 31
0.0
  0
LINE
  5
91
330
1F
100
AcDbEntity
  8
HEWI
100
AcDbLine
 10
42.87713899999994
 20
561.4676570000001
 30
0.0
 11
42.87713899999994
 21
1211.467657
 31
0.0
  0
LINE
  5
92
330
1F
100
AcDbEntity
  8
HEWI
100
AcDbLine
 10
1042.077139
 20
561.4676570000001
 30
0.0
 11
1042.077139
 21
1211.467657
 31
0.0
  0
LINE
  5
93
330
1F
100
AcDbEntity
  8
HEWI
100
AcDbLine
 10
1017.877139
 20
1235.667657
 30
0.0
 11
67.87713899999994
 21
1235.667657
 31
0.0
  0
LINE
  5
94
330
1F
100
AcDbEntity
  8
HEWI
100
AcDbLine
 10
43.677139
 20
1211.467657
 30
0.0
 11
43.677139
 21
561.4676570000001
 31
0.0
  0
LINE
  5
95
330
1F
100
AcDbEntity
  8
HEWI
100
AcDbLine
 10
67.87713899999994
 20
537.2676570000001
 30
0.0
 11
1017.877139
 21
537.2676570000001
 31
0.0
  0
LINE
  5
96
330
1F
100
AcDbEntity
  8
HEWI
100
AcDbLine
 10
946.6738090000001
 20
626.7577369999998
 30
0.0
 11
948.687319
 21
628.9137269999998
 31
0.0
  0
LINE
  5
97
330
1F
100
AcDbEntity
  8
HEWI
100
AcDbLine
 10
949.0527489999999
 20
628.5724469999998
 30
0.0
 11
947.0392390000002
 21
626.4164669999997
 31
0.0
  0
LINE
  5
98
330
1F
100
AcDbEntity
  8
HEWI
100
AcDbLine
 10
946.897899
 20
626.4116369999999
 30
0.0
 11
946.6786389999997
 21
626.616397
 31
0.0
  0
LINE
  5
99
330
1F
100
AcDbEntity
  8
HEWI
100
AcDbLine
 10
946.852359
 20
622.329657
 30
0.0
 11
948.6606989999998
 21
619.9989069999999
 31
0.0
  0
LINE
  5
9A
330
1F
100
AcDbEntity
  8
HEWI
100
AcDbLine
 10
948.2656589999999
 20
619.692407
 30
0.0
 11
946.4573090000001
 21
622.0231570000001
 31
0.0
  0
LINE
  5
9B
330
1F
100
AcDbEntity
  8
HEWI
100
AcDbLine
 10
946.475019
 20
622.1634669999998
 30
0.0
 11
946.7120489999999
 21
622.347367
 31
0.0
  0
LINE
  5
9C
330
1F
100
AcDbEntity
  8
HEWI
100
AcDbLine
 10
944.6271389999997
 20
618.6176570000002
 30
0.0
 11
944.6271389999997
 21
621.567657
 31
0.0
  0
LINE
  5
9D
330
1F
100
AcDbEntity
  8
HEWI
100
AcDbLine
 10
945.127139
 20
621.567657
 30
0.0
 11
945.127139
 21
618.6176570000002
 31
0.0
  0
LINE
  5
9E
330
1F
100
AcDbEntity
  8
HEWI
100
AcDbLine
 10
947.7771389999999
 20
624.7176570000001
 30
0.0
 11
950.7271390000001
 21
624.7176570000001
 31
0.0
  0
LINE
  5
9F
330
1F
100
AcDbEntity
  8
HEWI
100
AcDbLine
 10
950.7271390000001
 20
624.2176569999998
 30
0.0
 11
947.7771389999999
 21
624.2176569999998
 31
0.0
  0
LINE
  5
A0
330
1F
100
AcDbEntity
  8
HEWI
100
AcDbLine
 10
947.6771389999999
 20
624.3176570000001
 30
0.0
 11
947.6771389999999
 21
624.617657
 31
0.0
  0
LINE
  5
A1
330
1F
100
AcDbEntity
  8
HEWI
100
AcDbLine
 10
944.6271389999997
 20
627.3676570000002
 30
0.0
 11
944.6271389999997
 21
630.317657
 31
0.0
  0
LINE
  5
A2
330
1F
100
AcDbEntity
  8
HEWI
100
AcDbLine
 10
945.127139
 20
630.317657
 30
0.0
 11
945.127139
 21
627.3676570000002
 31
0.0
  0
LINE
  5
A3
330
1F
100
AcDbEntity
  8
HEWI
100
AcDbLine
 10
945.0271390000001
 20
627.2676570000001
 30
0.0
 11
944.727139
 21
627.2676570000001
 31
0.0
  0
LINE
  5
A4
330
1F
100
AcDbEntity
  8
HEWI
100
AcDbLine
 10
941.9771390000001
 20
624.2176569999998
 30
0.0
 11
939.0271389999998
 21
624.2176569999998
 31
0.0
  0
LINE
  5
A5
330
1F
100
AcDbEntity
  8
HEWI
100
AcDbLine
 10
939.0271389999998
 20
624.7176570000001
 30
0.0
 11
941.9771390000001
 21
624.7176570000001
 31
0.0
  0
LINE
  5
A6
330
1F
100
AcDbEntity
  8
HEWI
100
AcDbLine
 10
942.077139
 20
624.617657
 30
0.0
 11
942.077139
 21
624.3176570000001
 31
0.0
  0
LINE
  5
A7
330
1F
100
AcDbEntity
  8
HEWI
100
AcDbLine
 10
943.0033090000002
 20
626.553617
 30
0.0
 11
942.7911789999997
 21
626.3414869999999
 31
0.0
  0
LINE
  5
A8
330
1F
100
AcDbEntity
  8
HEWI
100
AcDbLine
 10
942.6497589999998
 20
626.3414869999999
 30
0.0
 11
940.5637890000001
 21
628.4274569999998
 31
0.0
  0
LINE
  5
A9
330
1F
100
AcDbEntity
  8
HEWI
100
AcDbLine
 10
944.727139
 20
621.6676569999999
 30
0.0
 11
945.0271390000001
 21
621.6676569999999
 31
0.0
  0
LINE
  5
AA
330
1F
100
AcDbEntity
  8
HEWI
100
AcDbLine
 10
940.917349
 20
628.781007
 30
0.0
 11
943.0033090000002
 21
626.6950369999999
 31
0.0
  0
LINE
  5
AB
330
1F
100
AcDbEntity
  8
HEWI
100
AcDbLine
 10
940.5637890000001
 20
620.507857
 30
0.0
 11
942.6497589999998
 21
622.5938169999999
 31
0.0
  0
LINE
  5
AC
330
1F
100
AcDbEntity
  8
HEWI
100
AcDbLine
 10
942.7911789999997
 20
622.5938169999999
 30
0.0
 11
943.0033090000002
 21
622.3816869999998
 31
0.0
  0
LINE
  5
AD
330
1F
100
AcDbEntity
  8
HEWI
100
AcDbLine
 10
943.0033090000002
 20
622.2402669999999
 30
0.0
 11
940.917349
 21
620.154307
 31
0.0
  0
LINE
  5
AE
330
1F
100
AcDbEntity
  8
HEWI
100
AcDbLine
 10
921.083959
 20
622.285157
 30
0.0
 11
921.5680890000001
 21
624.160157
 31
0.0
  0
LINE
  5
AF
330
1F
100
AcDbEntity
  8
HEWI
100
AcDbLine
 10
919.1861990000003
 20
624.160157
 30
0.0
 11
919.6703290000002
 21
622.285157
 31
0.0
  0
LINE
  5
B0
330
1F
100
AcDbEntity
  8
HEWI
100
AcDbLine
 10
920.0813489999999
 20
621.8002669999998
 30
0.0
 11
920.6729390000001
 21
621.8002669999998
 31
0.0
  0
LINE
  5
B1
330
1F
100
AcDbEntity
  8
HEWI
100
AcDbLine
 10
920.5271389999998
 20
626.9676570000001
 30
0.0
 11
920.2271389999998
 21
626.9676570000001
 31
0.0
  0
LINE
  5
B2
330
1F
100
AcDbEntity
  8
HEWI
100
AcDbLine
 10
922.3923990000001
 20
622.8059569999998
 30
0.0
 11
924.266229
 21
620.932117
 31
0.0
  0
LINE
  5
B3
330
1F
100
AcDbEntity
  8
HEWI
100
AcDbLine
 10
922.0388490000003
 20
626.4829070000001
 30
0.0
 11
923.912679
 21
628.3567369999998
 31
0.0
  0
LINE
  5
B4
330
1F
100
AcDbEntity
  8
HEWI
100
AcDbLine
 10
919.989709
 20
621.3002669999998
 30
0.0
 11
920.764579
 21
621.3002669999998
 31
0.0
  0
LINE
  5
B5
330
1F
100
AcDbEntity
  8
HEWI
100
AcDbLine
 10
922.9771389999998
 20
624.7176570000001
 30
0.0
 11
925.6271389999996
 21
624.7176570000001
 31
0.0
  0
LINE
  5
B6
330
1F
100
AcDbEntity
  8
HEWI
100
AcDbLine
 10
918.702079
 20
624.035157
 30
0.0
 11
919.1861990000003
 21
622.160157
 31
0.0
  0
LINE
  5
B7
330
1F
100
AcDbEntity
  8
HEWI
100
AcDbLine
 10
921.5680890000001
 20
622.160157
 30
0.0
 11
922.0522089999999
 21
624.035157
 31
0.0
  0
LINE
  5
B8
330
1F
100
AcDbEntity
  8
HEWI
100
AcDbLine
 10
916.4880590000002
 20
628.0031869999998
 30
0.0
 11
918.3618889999999
 21
626.129357
 31
0.0
  0
LINE
  5
B9
330
1F
100
AcDbEntity
  8
HEWI
100
AcDbLine
 10
918.7154390000001
 20
626.4829070000001
 30
0.0
 11
916.8416090000002
 21
628.3567369999998
 31
0.0
  0
LINE
  5
BA
330
1F
100
AcDbEntity
  8
HEWI
100
AcDbLine
 10
918.5033090000002
 20
626.129357
 30
0.0
 11
918.7154390000001
 21
626.3414869999999
 31
0.0
  0
LINE
  5
BB
330
1F
100
AcDbEntity
  8
HEWI
100
AcDbLine
 10
920.6271389999997
 20
629.7176570000001
 30
0.0
 11
920.6271389999997
 21
627.067657
 31
0.0
  0
LINE
  5
BC
330
1F
100
AcDbEntity
  8
HEWI
100
AcDbLine
 10
920.127139
 20
627.067657
 30
0.0
 11
920.127139
 21
629.7176570000001
 31
0.0
  0
LINE
  5
BD
330
1F
100
AcDbEntity
  8
HEWI
100
AcDbLine
 10
922.877139
 20
624.3176570000001
 30
0.0
 11
922.877139
 21
624.617657
 31
0.0
  0
LINE
  5
BE
330
1F
100
AcDbEntity
  8
HEWI
100
AcDbLine
 10
925.6271389999996
 20
624.2176569999998
 30
0.0
 11
922.9771389999998
 21
624.2176569999998
 31
0.0
  0
LINE
  5
BF
330
1F
100
AcDbEntity
  8
HEWI
100
AcDbLine
 10
922.0388490000003
 20
622.5938169999999
 30
0.0
 11
922.2509790000001
 21
622.8059569999998
 31
0.0
  0
LINE
  5
C0
330
1F
100
AcDbEntity
  8
HEWI
100
AcDbLine
 10
923.912679
 20
620.578567
 30
0.0
 11
922.0388490000003
 21
622.4523969999999
 31
0.0
  0
LINE
  5
C1
330
1F
100
AcDbEntity
  8
HEWI
100
AcDbLine
 10
924.266229
 20
628.0031869999998
 30
0.0
 11
922.3923990000001
 21
626.129357
 31
0.0
  0
LINE
  5
C2
330
1F
100
AcDbEntity
  8
HEWI
100
AcDbLine
 10
922.2509790000001
 20
626.129357
 30
0.0
 11
922.0388490000003
 21
626.3414869999999
 31
0.0
  0
LINE
  5
C3
330
1F
100
AcDbEntity
  8
HEWI
100
AcDbLine
 10
916.8416090000002
 20
620.578567
 30
0.0
 11
918.7154390000001
 21
622.4523969999999
 31
0.0
  0
LINE
  5
C4
330
1F
100
AcDbEntity
  8
HEWI
100
AcDbLine
 10
918.3618889999999
 20
622.8059569999998
 30
0.0
 11
916.4880590000002
 21
620.932117
 31
0.0
  0
LINE
  5
C5
330
1F
100
AcDbEntity
  8
HEWI
100
AcDbLine
 10
918.7154390000001
 20
622.5938169999999
 30
0.0
 11
918.5033090000002
 21
622.8059569999998
 31
0.0
  0
LINE
  5
C6
330
1F
100
AcDbEntity
  8
HEWI
100
AcDbLine
 10
917.7771389999998
 20
624.7176570000001
 30
0.0
 11
915.1271389999999
 21
624.7176570000001
 31
0.0
  0
LINE
  5
C7
330
1F
100
AcDbEntity
  8
HEWI
100
AcDbLine
 10
917.8771389999999
 20
624.3176570000001
 30
0.0
 11
917.8771389999999
 21
624.617657
 31
0.0
  0
LINE
  5
C8
330
1F
100
AcDbEntity
  8
HEWI
100
AcDbLine
 10
915.1271389999999
 20
624.2176569999998
 30
0.0
 11
917.7771389999998
 21
624.2176569999998
 31
0.0
  0
LINE
  5
C9
330
1F
100
AcDbEntity
  8
HEWI
100
AcDbLine
 10
968.505279
 20
616.4676570000001
 30
0.0
 11
967.5996389999999
 21
616.4676570000001
 31
0.0
  0
LINE
  5
CA
330
1F
100
AcDbEntity
  8
HEWI
100
AcDbLine
 10
971.7734189999999
 20
619.173297
 30
0.0
 11
970.0184189999999
 21
619.173297
 31
0.0
  0
LINE
  5
CB
330
1F
100
AcDbEntity
  8
HEWI
100
AcDbLine
 10
971.925279
 20
620.9676570000001
 30
0.0
 11
969.1127790000001
 21
620.9676570000001
 31
0.0
  0
LINE
  5
CC
330
1F
100
AcDbEntity
  8
HEWI
100
AcDbLine
 10
974.4902790000001
 20
620.9676570000001
 30
0.0
 11
973.7983889999998
 21
617.8514070000001
 31
0.0
  0
LINE
  5
CD
330
1F
100
AcDbEntity
  8
HEWI
100
AcDbLine
 10
975.407139
 20
620.9676570000001
 30
0.0
 11
974.4902790000001
 21
620.9676570000001
 31
0.0
  0
LINE
  5
CE
330
1F
100
AcDbEntity
  8
HEWI
100
AcDbLine
 10
976.093419
 20
617.828907
 30
0.0
 11
975.407139
 21
620.9676570000001
 31
0.0
  0
LINE
  5
CF
330
1F
100
AcDbEntity
  8
HEWI
100
AcDbLine
 10
976.8977789999999
 20
620.9676570000001
 30
0.0
 11
976.093419
 21
617.828907
 31
0.0
  0
LINE
  5
D0
330
1F
100
AcDbEntity
  8
HEWI
100
AcDbLine
 10
977.8934189999997
 20
620.9676570000001
 30
0.0
 11
976.8977789999999
 21
620.9676570000001
 31
0.0
  0
LINE
  5
D1
330
1F
100
AcDbEntity
  8
HEWI
100
AcDbLine
 10
976.5434189999998
 20
616.4676570000001
 30
0.0
 11
977.8934189999997
 21
620.9676570000001
 31
0.0
  0
LINE
  5
D2
330
1F
100
AcDbEntity
  8
HEWI
100
AcDbLine
 10
975.660279
 20
616.4676570000001
 30
0.0
 11
976.5434189999998
 21
616.4676570000001
 31
0.0
  0
LINE
  5
D3
330
1F
100
AcDbEntity
  8
HEWI
100
AcDbLine
 10
974.9402789999999
 20
619.538907
 30
0.0
 11
975.660279
 21
616.4676570000001
 31
0.0
  0
LINE
  5
D4
330
1F
100
AcDbEntity
  8
HEWI
100
AcDbLine
 10
974.2090290000001
 20
616.4676570000001
 30
0.0
 11
974.9402789999999
 21
619.538907
 31
0.0
  0
LINE
  5
D5
330
1F
100
AcDbEntity
  8
HEWI
100
AcDbLine
 10
973.325889
 20
616.4676570000001
 30
0.0
 11
974.2090290000001
 21
616.4676570000001
 31
0.0
  0
LINE
  5
D6
330
1F
100
AcDbEntity
  8
HEWI
100
AcDbLine
 10
972.060279
 20
620.9676570000001
 30
0.0
 11
973.325889
 21
616.4676570000001
 31
0.0
  0
LINE
  5
D7
330
1F
100
AcDbEntity
  8
HEWI
100
AcDbLine
 10
973.016529
 20
620.9676570000001
 30
0.0
 11
972.060279
 21
620.9676570000001
 31
0.0
  0
LINE
  5
D8
330
1F
100
AcDbEntity
  8
HEWI
100
AcDbLine
 10
973.7983889999998
 20
617.8514070000001
 30
0.0
 11
973.016529
 21
620.9676570000001
 31
0.0
  0
LINE
  5
D9
330
1F
100
AcDbEntity
  8
HEWI
100
AcDbLine
 10
67.87713899999994
 20
1206.467657
 30
0.0
 11
67.87713899999994
 21
566.4676570000001
 31
0.0
  0
LINE
  5
DA
330
1F
100
AcDbEntity
  8
HEWI
100
AcDbLine
 10
72.87713899999994
 20
561.4676570000001
 30
0.0
 11
1012.877139
 21
561.4676570000001
 31
0.0
  0
LINE
  5
DB
330
1F
100
AcDbEntity
  8
HEWI
100
AcDbLine
 10
1017.877139
 20
566.4676570000001
 30
0.0
 11
1017.877139
 21
1206.467657
 31
0.0
  0
LINE
  5
DC
330
1F
100
AcDbEntity
  8
HEWI
100
AcDbLine
 10
1012.877139
 20
1211.467657
 30
0.0
 11
72.87713899999994
 21
1211.467657
 31
0.0
  0
LINE
  5
DD
330
1F
100
AcDbEntity
  8
HEWI
100
AcDbLine
 10
965.782779
 20
618.4589069999999
 30
0.0
 11
965.782779
 21
616.4676570000001
 31
0.0
  0
LINE
  5
DE
330
1F
100
AcDbEntity
  8
HEWI
100
AcDbLine
 10
965.782779
 20
616.4676570000001
 30
0.0
 11
964.877139
 21
616.4676570000001
 31
0.0
  0
LINE
  5
DF
330
1F
100
AcDbEntity
  8
HEWI
100
AcDbLine
 10
964.877139
 20
616.4676570000001
 30
0.0
 11
964.877139
 21
620.9676570000001
 31
0.0
  0
LINE
  5
E0
330
1F
100
AcDbEntity
  8
HEWI
100
AcDbLine
 10
964.877139
 20
620.9676570000001
 30
0.0
 11
965.782779
 21
620.9676570000001
 31
0.0
  0
LINE
  5
E1
330
1F
100
AcDbEntity
  8
HEWI
100
AcDbLine
 10
965.782779
 20
620.9676570000001
 30
0.0
 11
965.782779
 21
619.173297
 31
0.0
  0
LINE
  5
E2
330
1F
100
AcDbEntity
  8
HEWI
100
AcDbLine
 10
965.782779
 20
619.173297
 30
0.0
 11
967.5996389999999
 21
619.173297
 31
0.0
  0
LINE
  5
E3
330
1F
100
AcDbEntity
  8
HEWI
100
AcDbLine
 10
967.5996389999999
 20
619.173297
 30
0.0
 11
967.5996389999999
 21
620.9676570000001
 31
0.0
  0
LINE
  5
E4
330
1F
100
AcDbEntity
  8
HEWI
100
AcDbLine
 10
967.5996389999999
 20
620.9676570000001
 30
0.0
 11
968.505279
 21
620.9676570000001
 31
0.0
  0
LINE
  5
E5
330
1F
100
AcDbEntity
  8
HEWI
100
AcDbLine
 10
968.505279
 20
620.9676570000001
 30
0.0
 11
968.505279
 21
616.4676570000001
 31
0.0
  0
LINE
  5
E6
330
1F
100
AcDbEntity
  8
HEWI
100
AcDbLine
 10
967.5996389999999
 20
616.4676570000001
 30
0.0
 11
967.5996389999999
 21
618.4589069999999
 31
0.0
  0
LINE
  5
E7
330
1F
100
AcDbEntity
  8
HEWI
100
AcDbLine
 10
967.5996389999999
 20
618.4589069999999
 30
0.0
 11
965.782779
 21
618.4589069999999
 31
0.0
  0
LINE
  5
E8
330
1F
100
AcDbEntity
  8
HEWI
100
AcDbLine
 10
970.0184189999999
 20
617.2214069999999
 30
0.0
 11
970.0184189999999
 21
618.4589069999999
 31
0.0
  0
LINE
  5
E9
330
1F
100
AcDbEntity
  8
HEWI
100
AcDbLine
 10
971.925279
 20
617.2214069999999
 30
0.0
 11
970.0184189999999
 21
617.2214069999999
 31
0.0
  0
LINE
  5
EA
330
1F
100
AcDbEntity
  8
HEWI
100
AcDbLine
 10
971.925279
 20
616.4676570000001
 30
0.0
 11
971.925279
 21
617.2214069999999
 31
0.0
  0
LINE
  5
EB
330
1F
100
AcDbEntity
  8
HEWI
100
AcDbLine
 10
969.1127790000001
 20
616.4676570000001
 30
0.0
 11
971.925279
 21
616.4676570000001
 31
0.0
  0
LINE
  5
EC
330
1F
100
AcDbEntity
  8
HEWI
100
AcDbLine
 10
969.1127790000001
 20
620.9676570000001
 30
0.0
 11
969.1127790000001
 21
616.4676570000001
 31
0.0
  0
LINE
  5
ED
330
1F
100
AcDbEntity
  8
HEWI
100
AcDbLine
 10
971.925279
 20
620.1801570000002
 30
0.0
 11
971.925279
 21
620.9676570000001
 31
0.0
  0
LINE
  5
EE
330
1F
100
AcDbEntity
  8
HEWI
100
AcDbLine
 10
970.0184189999999
 20
620.1801570000002
 30
0.0
 11
971.925279
 21
620.1801570000002
 31
0.0
  0
LINE
  5
EF
330
1F
100
AcDbEntity
  8
HEWI
100
AcDbLine
 10
970.0184189999999
 20
619.173297
 30
0.0
 11
970.0184189999999
 21
620.1801570000002
 31
0.0
  0
LINE
  5
F0
330
1F
100
AcDbEntity
  8
HEWI
100
AcDbLine
 10
971.7734189999999
 20
618.4589069999999
 30
0.0
 11
971.7734189999999
 21
619.173297
 31
0.0
  0
LINE
  5
F1
330
1F
100
AcDbEntity
  8
HEWI
100
AcDbLine
 10
970.0184189999999
 20
618.4589069999999
 30
0.0
 11
971.7734189999999
 21
618.4589069999999
 31
0.0
  0
LINE
  5
F2
330
1F
100
AcDbEntity
  8
HEWI
100
AcDbLine
 10
979.069029
 20
620.9676570000001
 30
0.0
 11
978.1352790000001
 21
620.9676570000001
 31
0.0
  0
LINE
  5
F3
330
1F
100
AcDbEntity
  8
HEWI
100
AcDbLine
 10
979.069029
 20
616.4676570000001
 30
0.0
 11
979.069029
 21
620.9676570000001
 31
0.0
  0
LINE
  5
F4
330
1F
100
AcDbEntity
  8
HEWI
100
AcDbLine
 10
978.1352790000001
 20
616.4676570000001
 30
0.0
 11
979.069029
 21
616.4676570000001
 31
0.0
  0
LINE
  5
F5
330
1F
100
AcDbEntity
  8
HEWI
100
AcDbLine
 10
978.1352790000001
 20
620.9676570000001
 30
0.0
 11
978.1352790000001
 21
616.4676570000001
 31
0.0
  0
LINE
  5
F6
330
1F
100
AcDbEntity
  8
HEWI
100
AcDbLine
 10
894.7848190000001
 20
627.468797
 30
0.0
 11
894.7505490000001
 21
627.5629369999998
 31
0.0
  0
LINE
  5
F7
330
1F
100
AcDbEntity
  8
HEWI
100
AcDbLine
 10
897.0037389999998
 20
627.5629369999998
 30
0.0
 11
896.969469
 21
627.468797
 31
0.0
  0
LINE
  5
F8
330
1F
100
AcDbEntity
  8
HEWI
100
AcDbLine
 10
896.0771389999999
 20
623.9676570000001
 30
0.0
 11
895.6771389999998
 21
623.9676570000001
 31
0.0
  0
LINE
  5
F9
330
1F
100
AcDbEntity
  8
HEWI
100
AcDbLine
 10
895.4771389999999
 20
624.167657
 30
0.0
 11
895.4771389999999
 21
629.7676570000001
 31
0.0
  0
LINE
  5
FA
330
1F
100
AcDbEntity
  8
HEWI
100
AcDbLine
 10
895.6771389999998
 20
629.9676570000001
 30
0.0
 11
896.0771389999999
 21
629.9676570000001
 31
0.0
  0
LINE
  5
FB
330
1F
100
AcDbEntity
  8
HEWI
100
AcDbLine
 10
896.277139
 20
629.7676570000001
 30
0.0
 11
896.277139
 21
624.167657
 31
0.0
  0
LINE
  5
FC
330
1F
100
AcDbEntity
  8
HEWI
100
AcDbLine
 10
1438.583339
 20
1199.467657
 30
0.0
 11
1459.583339
 21
1199.467657
 31
0.0
  0
LINE
  5
FD
330
1F
100
AcDbEntity
  8
HEWI
100
AcDbLine
 10
1438.583339
 20
573.4676570000001
 30
0.0
 11
1438.583339
 21
1199.467657
 31
0.0
  0
LINE
  5
FE
330
1F
100
AcDbEntity
  8
HEWI
100
AcDbLine
 10
1438.583339
 20
573.4676570000001
 30
0.0
 11
1459.583339
 21
573.4676570000001
 31
0.0
  0
LINE
  5
FF
330
1F
100
AcDbEntity
  8
HEWI
100
AcDbLine
 10
1463.583339
 20
566.4676570000001
 30
0.0
 11
1463.583339
 21
561.4676570000001
 31
0.0
  0
LINE
  5
100
330
1F
100
AcDbEntity
  8
HEWI
100
AcDbLine
 10
1463.483339
 20
561.4676570000001
 30
0.0
 11
1463.583339
 21
561.4676570000001
 31
0.0
  0
LINE
  5
101
330
1F
100
AcDbEntity
  8
HEWI
100
AcDbLine
 10
1463.583339
 20
1211.467657
 30
0.0
 11
1463.583339
 21
1206.467657
 31
0.0
  0
LINE
  5
102
330
1F
100
AcDbEntity
  8
HEWI
100
AcDbLine
 10
1463.483339
 20
1211.467657
 30
0.0
 11
1463.583339
 21
1211.467657
 31
0.0
  0
LINE
  5
103
330
1F
100
AcDbEntity
  8
HEWI
100
AcDbLine
 10
1463.583339
 20
1206.467657
 30
0.0
 11
1463.583339
 21
566.4676570000001
 31
0.0
  0
LINE
  5
104
330
1F
100
AcDbEntity
  8
HEWI
100
AcDbLine
 10
1462.683339
 20
1236.467657
 30
0.0
 11
1460.383339
 21
1236.467657
 31
0.0
  0
LINE
  5
105
330
1F
100
AcDbEntity
  8
HEWI
100
AcDbLine
 10
1463.483339
 20
1235.667657
 30
0.0
 11
1463.483339
 21
1211.467657
 31
0.0
  0
LINE
  5
106
330
1F
100
AcDbEntity
  8
HEWI
100
AcDbLine
 10
1462.683339
 20
1236.467657
 30
0.0
 11
1463.483339
 21
1235.667657
 31
0.0
  0
LINE
  5
107
330
1F
100
AcDbEntity
  8
HEWI
100
AcDbLine
 10
1462.683339
 20
1211.467657
 30
0.0
 11
1462.683339
 21
1236.467657
 31
0.0
  0
LINE
  5
108
330
1F
100
AcDbEntity
  8
HEWI
100
AcDbLine
 10
1460.383339
 20
1236.467657
 30
0.0
 11
1460.383339
 21
1211.467657
 31
0.0
  0
LINE
  5
109
330
1F
100
AcDbEntity
  8
HEWI
100
AcDbLine
 10
1459.583339
 20
1235.667657
 30
0.0
 11
1460.383339
 21
1236.467657
 31
0.0
  0
LINE
  5
10A
330
1F
100
AcDbEntity
  8
HEWI
100
AcDbLine
 10
1459.583339
 20
1211.467657
 30
0.0
 11
1459.583339
 21
1235.667657
 31
0.0
  0
LINE
  5
10B
330
1F
100
AcDbEntity
  8
HEWI
100
AcDbLine
 10
1463.483339
 20
1211.467657
 30
0.0
 11
1463.483339
 21
561.4676570000001
 31
0.0
  0
LINE
  5
10C
330
1F
100
AcDbEntity
  8
HEWI
100
AcDbLine
 10
1459.583339
 20
537.2676570000001
 30
0.0
 11
1459.583339
 21
561.4676570000001
 31
0.0
  0
LINE
  5
10D
330
1F
100
AcDbEntity
  8
HEWI
100
AcDbLine
 10
1460.383339
 20
536.4676570000001
 30
0.0
 11
1459.583339
 21
537.2676570000001
 31
0.0
  0
LINE
  5
10E
330
1F
100
AcDbEntity
  8
HEWI
100
AcDbLine
 10
1463.483339
 20
537.2676570000001
 30
0.0
 11
1462.683339
 21
536.4676570000001
 31
0.0
  0
LINE
  5
10F
330
1F
100
AcDbEntity
  8
HEWI
100
AcDbLine
 10
1463.483339
 20
537.2676570000001
 30
0.0
 11
1463.483339
 21
561.4676570000001
 31
0.0
  0
LINE
  5
110
330
1F
100
AcDbEntity
  8
HEWI
100
AcDbLine
 10
1459.583339
 20
561.4676570000001
 30
0.0
 11
1459.583339
 21
1211.467657
 31
0.0
  0
LINE
  5
111
330
1F
100
AcDbEntity
  8
HEWI
100
AcDbLine
 10
1460.383339
 20
536.4676570000001
 30
0.0
 11
1460.383339
 21
561.4676570000001
 31
0.0
  0
LINE
  5
112
330
1F
100
AcDbEntity
  8
HEWI
100
AcDbLine
 10
1462.683339
 20
536.4676570000001
 30
0.0
 11
1460.383339
 21
536.4676570000001
 31
0.0
  0
LINE
  5
113
330
1F
100
AcDbEntity
  8
HEWI
100
AcDbLine
 10
1462.683339
 20
536.4676570000001
 30
0.0
 11
1462.683339
 21
561.4676570000001
 31
0.0
  0
LINE
  5
114
330
1F
100
AcDbEntity
  8
HEWI
100
AcDbLine
 10
1460.383339
 20
1211.467657
 30
0.0
 11
1460.383339
 21
561.4676570000001
 31
0.0
  0
LINE
  5
115
330
1F
100
AcDbEntity
  8
HEWI
100
AcDbLine
 10
1462.683339
 20
561.4676570000001
 30
0.0
 11
1462.683339
 21
1211.467657
 31
0.0
  0
ARC
  5
116
330
1F
100
AcDbEntity
  8
HEWI
100
AcDbCircle
 10
67.87713899999994
 20
561.4676570000001
 30
0.0
 40
25.0
100
AcDbArc
 50
180.0
 51
270.0
  0
ARC
  5
117
330
1F
100
AcDbEntity
  8
HEWI
100
AcDbCircle
 10
1017.877139
 20
1211.467657
 30
0.0
 40
25.0
100
AcDbArc
 50
0.0
 51
90.0
  0
ARC
  5
118
330
1F
100
AcDbEntity
  8
HEWI
100
AcDbCircle
 10
67.87713899999994
 20
1211.467657
 30
0.0
 40
25.0
100
AcDbArc
 50
90.0
 51
180.0
  0
ARC
  5
119
330
1F
100
AcDbEntity
  8
HEWI
100
AcDbCircle
 10
1017.877139
 20
561.4676570000001
 30
0.0
 40
25.0
100
AcDbArc
 50
270.0
 51
0.0
  0
ARC
  5
11A
330
1F
100
AcDbEntity
  8
HEWI
100
AcDbCircle
 10
1017.877139
 20
1211.467657
 30
0.0
 40
24.2
100
AcDbArc
 50
0.0
 51
90.0
  0
ARC
  5
11B
330
1F
100
AcDbEntity
  8
HEWI
100
AcDbCircle
 10
67.87713899999994
 20
1211.467657
 30
0.0
 40
24.2
100
AcDbArc
 50
90.0
 51
180.0
  0
ARC
  5
11C
330
1F
100
AcDbEntity
  8
HEWI
100
AcDbCircle
 10
67.87713899999994
 20
561.4676570000001
 30
0.0
 40
24.19999999999999
100
AcDbArc
 50
180.0
 51
270.0
  0
ARC
  5
11D
330
1F
100
AcDbEntity
  8
HEWI
100
AcDbCircle
 10
1017.877139
 20
561.4676570000001
 30
0.0
 40
24.20000000000002
100
AcDbArc
 50
270.0
 51
0.0
  0
ARC
  5
11E
330
1F
100
AcDbEntity
  8
HEWI
100
AcDbCircle
 10
946.746899
 20
626.6894769999999
 30
0.0
 40
0.099999999999989
100
AcDbArc
 50
136.9571399999997
 51
226.95714
  0
ARC
  5
11F
330
1F
100
AcDbEntity
  8
HEWI
100
AcDbCircle
 10
948.8700289999998
 20
628.743087
 30
0.0
 40
0.249999999999986
100
AcDbArc
 50
316.9571399999997
 51
136.9571399999997
  0
ARC
  5
120
330
1F
100
AcDbEntity
  8
HEWI
100
AcDbCircle
 10
946.9661489999998
 20
626.4847169999998
 30
0.0
 40
0.100000000000003
100
AcDbArc
 50
226.95714
 51
316.9571399999997
  0
ARC
  5
121
330
1F
100
AcDbEntity
  8
HEWI
100
AcDbCircle
 10
946.773349
 20
622.2683569999999
 30
0.0
 40
0.099999999999989
100
AcDbArc
 50
37.80652999999998
 51
127.8065299999997
  0
ARC
  5
122
330
1F
100
AcDbEntity
  8
HEWI
100
AcDbCircle
 10
948.4631790000001
 20
619.8456570000001
 30
0.0
 40
0.249999999999986
100
AcDbArc
 50
217.80653
 51
37.80652999999998
  0
ARC
  5
123
330
1F
100
AcDbEntity
  8
HEWI
100
AcDbCircle
 10
946.5363190000003
 20
622.0844569999999
 30
0.0
 40
0.100000000000003
100
AcDbArc
 50
127.8065299999997
 51
217.80653
  0
CIRCLE
  5
124
330
1F
100
AcDbEntity
  8
HEWI
100
AcDbCircle
 10
944.8771389999999
 20
624.4676570000001
 30
0.0
 40
2.25
  0
ARC
  5
125
330
1F
100
AcDbEntity
  8
HEWI
100
AcDbCircle
 10
945.0271390000001
 20
621.567657
 30
0.0
 40
0.099999999999989
100
AcDbArc
 50
0.0
 51
90.0
  0
ARC
  5
126
330
1F
100
AcDbEntity
  8
HEWI
100
AcDbCircle
 10
944.8771389999999
 20
618.6176570000002
 30
0.0
 40
0.249999999999986
100
AcDbArc
 50
180.0
 51
0.0
  0
ARC
  5
127
330
1F
100
AcDbEntity
  8
HEWI
100
AcDbCircle
 10
947.7771389999999
 20
624.617657
 30
0.0
 40
0.099999999999989
100
AcDbArc
 50
90.0
 51
180.0
  0
ARC
  5
128
330
1F
100
AcDbEntity
  8
HEWI
100
AcDbCircle
 10
950.7271390000001
 20
624.4676570000001
 30
0.0
 40
0.249999999999986
100
AcDbArc
 50
270.0
 51
90.0
  0
ARC
  5
129
330
1F
100
AcDbEntity
  8
HEWI
100
AcDbCircle
 10
947.7771389999999
 20
624.3176570000001
 30
0.0
 40
0.100000000000003
100
AcDbArc
 50
180.0
 51
270.0
  0
ARC
  5
12A
330
1F
100
AcDbEntity
  8
HEWI
100
AcDbCircle
 10
944.727139
 20
627.3676570000002
 30
0.0
 40
0.099999999999989
100
AcDbArc
 50
180.0
 51
270.0
  0
ARC
  5
12B
330
1F
100
AcDbEntity
  8
HEWI
100
AcDbCircle
 10
944.8771389999999
 20
630.317657
 30
0.0
 40
0.249999999999986
100
AcDbArc
 50
0.0
 51
180.0
  0
ARC
  5
12C
330
1F
100
AcDbEntity
  8
HEWI
100
AcDbCircle
 10
945.0271390000001
 20
627.3676570000002
 30
0.0
 40
0.100000000000003
100
AcDbArc
 50
270.0
 51
0.0
  0
ARC
  5
12D
330
1F
100
AcDbEntity
  8
HEWI
100
AcDbCircle
 10
941.9771390000001
 20
624.3176570000001
 30
0.0
 40
0.099999999999989
100
AcDbArc
 50
270.0
 51
0.0
  0
ARC
  5
12E
330
1F
100
AcDbEntity
  8
HEWI
100
AcDbCircle
 10
939.0271389999998
 20
624.4676570000001
 30
0.0
 40
0.249999999999986
100
AcDbArc
 50
90.0
 51
270.0
  0
ARC
  5
12F
330
1F
100
AcDbEntity
  8
HEWI
100
AcDbCircle
 10
941.9771390000001
 20
624.617657
 30
0.0
 40
0.100000000000003
100
AcDbArc
 50
0.0
 51
90.0
  0
CIRCLE
  5
130
330
1F
100
AcDbEntity
  8
HEWI
100
AcDbCircle
 10
944.8771389999999
 20
624.4676570000001
 30
0.0
 40
6.50000000000001
  0
ARC
  5
131
330
1F
100
AcDbEntity
  8
HEWI
100
AcDbCircle
 10
942.7204689999998
 20
622.5231069999999
 30
0.0
 40
0.100000000000003
100
AcDbArc
 50
45.00000000000023
 51
134.9999999999997
  0
ARC
  5
132
330
1F
100
AcDbEntity
  8
HEWI
100
AcDbCircle
 10
944.727139
 20
621.567657
 30
0.0
 40
0.100000000000003
100
AcDbArc
 50
90.0
 51
180.0
  0
ARC
  5
133
330
1F
100
AcDbEntity
  8
HEWI
100
AcDbCircle
 10
942.7204689999998
 20
626.4121969999998
 30
0.0
 40
0.099999999999989
100
AcDbArc
 50
224.9999999999998
 51
314.9999999999998
  0
ARC
  5
134
330
1F
100
AcDbEntity
  8
HEWI
100
AcDbCircle
 10
940.740569
 20
628.6042269999998
 30
0.0
 40
0.249999999999986
100
AcDbArc
 50
45.00000000000023
 51
224.9999999999998
  0
ARC
  5
135
330
1F
100
AcDbEntity
  8
HEWI
100
AcDbCircle
 10
942.9325990000002
 20
626.624327
 30
0.0
 40
0.100000000000003
100
AcDbArc
 50
314.9999999999998
 51
45.00000000000023
  0
ARC
  5
136
330
1F
100
AcDbEntity
  8
HEWI
100
AcDbCircle
 10
940.740569
 20
620.3310769999998
 30
0.0
 40
0.249999999999986
100
AcDbArc
 50
134.9999999999997
 51
314.9999999999998
  0
ARC
  5
137
330
1F
100
AcDbEntity
  8
HEWI
100
AcDbCircle
 10
942.9325990000002
 20
622.3109769999998
 30
0.0
 40
0.099999999999989
100
AcDbArc
 50
314.9999999999998
 51
45.00000000000023
  0
ARC
  5
138
330
1F
100
AcDbEntity
  8
HEWI
100
AcDbCircle
 10
920.3771389999999
 20
622.4676570000001
 30
0.0
 40
0.7300000000000911
100
AcDbArc
 50
194.477512
 51
246.0963129999999
  0
ARC
  5
139
330
1F
100
AcDbEntity
  8
HEWI
100
AcDbCircle
 10
920.3771389999999
 20
622.4676570000001
 30
0.0
 40
0.7299999999998401
100
AcDbArc
 50
293.9036869999998
 51
345.5224879999999
  0
ARC
  5
13A
330
1F
100
AcDbEntity
  8
HEWI
100
AcDbCircle
 10
920.3771389999999
 20
624.4676570000001
 30
0.0
 40
1.230000000000069
100
AcDbArc
 50
345.5224879999999
 51
194.477512
  0
ARC
  5
13B
330
1F
100
AcDbEntity
  8
HEWI
100
AcDbCircle
 10
922.3216890000001
 20
622.7352469999998
 30
0.0
 40
0.100000000000022
100
AcDbArc
 50
45.00000000000023
 51
134.9999999999997
  0
ARC
  5
13C
330
1F
100
AcDbEntity
  8
HEWI
100
AcDbCircle
 10
924.0894589999998
 20
620.755347
 30
0.0
 40
0.249999999999911
100
AcDbArc
 50
224.9999999999998
 51
45.00000000000023
  0
ARC
  5
13D
330
1F
100
AcDbEntity
  8
HEWI
100
AcDbCircle
 10
924.0894589999998
 20
628.1799669999998
 30
0.0
 40
0.249999999999911
100
AcDbArc
 50
314.9999999999998
 51
134.9999999999997
  0
ARC
  5
13E
330
1F
100
AcDbEntity
  8
HEWI
100
AcDbCircle
 10
918.4325990000003
 20
626.2000669999999
 30
0.0
 40
0.100000000000003
100
AcDbArc
 50
224.9999999999998
 51
314.9999999999998
  0
CIRCLE
  5
13F
330
1F
100
AcDbEntity
  8
HEWI
100
AcDbCircle
 10
920.3771389999999
 20
624.4676570000001
 30
0.0
 40
6.500000000000001
  0
ARC
  5
140
330
1F
100
AcDbEntity
  8
HEWI
100
AcDbCircle
 10
920.3771389999999
 20
624.4676570000001
 30
0.0
 40
1.73000000000007
100
AcDbArc
 50
345.5224879999999
 51
194.477512
  0
ARC
  5
141
330
1F
100
AcDbEntity
  8
HEWI
100
AcDbCircle
 10
917.7771389999998
 20
624.617657
 30
0.0
 40
0.099999999999961
100
AcDbArc
 50
0.0
 51
90.0
  0
ARC
  5
142
330
1F
100
AcDbEntity
  8
HEWI
100
AcDbCircle
 10
920.3771389999999
 20
622.4676570000001
 30
0.0
 40
1.230000000000089
100
AcDbArc
 50
194.477512
 51
251.639718
  0
ARC
  5
143
330
1F
100
AcDbEntity
  8
HEWI
100
AcDbCircle
 10
920.3771389999999
 20
622.4676570000001
 30
0.0
 40
1.229999999999839
100
AcDbArc
 50
288.3602820000001
 51
345.5224879999999
  0
ARC
  5
144
330
1F
100
AcDbEntity
  8
HEWI
100
AcDbCircle
 10
916.6648290000001
 20
628.1799669999998
 30
0.0
 40
0.249999999999911
100
AcDbArc
 50
45.00000000000023
 51
224.9999999999998
  0
ARC
  5
145
330
1F
100
AcDbEntity
  8
HEWI
100
AcDbCircle
 10
918.6447290000002
 20
626.4121969999998
 30
0.0
 40
0.099999999999934
100
AcDbArc
 50
314.9999999999998
 51
45.00000000000023
  0
ARC
  5
146
330
1F
100
AcDbEntity
  8
HEWI
100
AcDbCircle
 10
920.3771389999999
 20
629.7176570000001
 30
0.0
 40
0.249999999999889
100
AcDbArc
 50
0.0
 51
180.0
  0
ARC
  5
147
330
1F
100
AcDbEntity
  8
HEWI
100
AcDbCircle
 10
920.5271389999998
 20
627.067657
 30
0.0
 40
0.099999999999975
100
AcDbArc
 50
270.0
 51
0.0
  0
ARC
  5
148
330
1F
100
AcDbEntity
  8
HEWI
100
AcDbCircle
 10
920.2271389999998
 20
627.067657
 30
0.0
 40
0.099999999999961
100
AcDbArc
 50
180.0
 51
270.0
  0
ARC
  5
149
330
1F
100
AcDbEntity
  8
HEWI
100
AcDbCircle
 10
922.9771389999998
 20
624.3176570000001
 30
0.0
 40
0.099999999999975
100
AcDbArc
 50
180.0
 51
270.0
  0
ARC
  5
14A
330
1F
100
AcDbEntity
  8
HEWI
100
AcDbCircle
 10
922.9771389999998
 20
624.617657
 30
0.0
 40
0.099999999999961
100
AcDbArc
 50
90.0
 51
180.0
  0
ARC
  5
14B
330
1F
100
AcDbEntity
  8
HEWI
100
AcDbCircle
 10
925.6271389999996
 20
624.4676570000001
 30
0.0
 40
0.249999999999889
100
AcDbArc
 50
270.0
 51
90.0
  0
ARC
  5
14C
330
1F
100
AcDbEntity
  8
HEWI
100
AcDbCircle
 10
922.1095590000002
 20
622.5231069999999
 30
0.0
 40
0.099999999999875
100
AcDbArc
 50
134.9999999999997
 51
224.9999999999998
  0
ARC
  5
14D
330
1F
100
AcDbEntity
  8
HEWI
100
AcDbCircle
 10
922.3216890000001
 20
626.2000669999999
 30
0.0
 40
0.100000000000003
100
AcDbArc
 50
224.9999999999998
 51
314.9999999999998
  0
ARC
  5
14E
330
1F
100
AcDbEntity
  8
HEWI
100
AcDbCircle
 10
922.1095590000002
 20
626.4121969999998
 30
0.0
 40
0.099999999999934
100
AcDbArc
 50
134.9999999999997
 51
224.9999999999998
  0
ARC
  5
14F
330
1F
100
AcDbEntity
  8
HEWI
100
AcDbCircle
 10
916.6648290000001
 20
620.755347
 30
0.0
 40
0.24999999999997
100
AcDbArc
 50
134.9999999999997
 51
314.9999999999998
  0
ARC
  5
150
330
1F
100
AcDbEntity
  8
HEWI
100
AcDbCircle
 10
918.4325990000003
 20
622.7352469999998
 30
0.0
 40
0.100000000000022
100
AcDbArc
 50
45.00000000000023
 51
134.9999999999997
  0
ARC
  5
151
330
1F
100
AcDbEntity
  8
HEWI
100
AcDbCircle
 10
918.6447290000002
 20
622.5231069999999
 30
0.0
 40
0.099999999999875
100
AcDbArc
 50
314.9999999999998
 51
45.00000000000023
  0
ARC
  5
152
330
1F
100
AcDbEntity
  8
HEWI
100
AcDbCircle
 10
917.7771389999998
 20
624.3176570000001
 30
0.0
 40
0.099999999999975
100
AcDbArc
 50
270.0
 51
0.0
  0
ARC
  5
153
330
1F
100
AcDbEntity
  8
HEWI
100
AcDbCircle
 10
915.1271389999999
 20
624.4676570000001
 30
0.0
 40
0.249999999999889
100
AcDbArc
 50
90.0
 51
270.0
  0
ARC
  5
154
330
1F
100
AcDbEntity
  8
HEWI
100
AcDbCircle
 10
72.87713899999994
 20
566.4676570000001
 30
0.0
 40
5.0
100
AcDbArc
 50
180.0
 51
270.0
  0
ARC
  5
155
330
1F
100
AcDbEntity
  8
HEWI
100
AcDbCircle
 10
1012.877139
 20
566.4676570000001
 30
0.0
 40
5.0
100
AcDbArc
 50
270.0
 51
0.0
  0
ARC
  5
156
330
1F
100
AcDbEntity
  8
HEWI
100
AcDbCircle
 10
1012.877139
 20
1206.467657
 30
0.0
 40
5.0
100
AcDbArc
 50
0.0
 51
90.0
  0
ARC
  5
157
330
1F
100
AcDbEntity
  8
HEWI
100
AcDbCircle
 10
72.87713899999994
 20
1206.467657
 30
0.0
 40
5.0
100
AcDbArc
 50
90.0
 51
180.0
  0
CIRCLE
  5
158
330
1F
100
AcDbEntity
  8
HEWI
100
AcDbCircle
 10
895.8771389999997
 20
624.4676570000001
 30
0.0
 40
8.0
  0
CIRCLE
  5
159
330
1F
100
AcDbEntity
  8
HEWI
100
AcDbCircle
 10
944.8771389999999
 20
624.4676570000001
 30
0.0
 40
8.00000000000001
  0
CIRCLE
  5
15A
330
1F
100
AcDbEntity
  8
HEWI
100
AcDbCircle
 10
920.3771389999999
 20
624.4676570000001
 30
0.0
 40
8.0
  0
ARC
  5
15B
330
1F
100
AcDbEntity
  8
HEWI
100
AcDbCircle
 10
895.8771389999997
 20
624.4676570000001
 30
0.0
 40
3.499999999999989
100
AcDbArc
 50
113.474601
 51
66.52539899999998
  0
ARC
  5
15C
330
1F
100
AcDbEntity
  8
HEWI
100
AcDbCircle
 10
894.5626090000001
 20
627.494537
 30
0.0
 40
0.199999999999983
100
AcDbArc
 50
19.99999999999998
 51
113.474601
  0
ARC
  5
15D
330
1F
100
AcDbEntity
  8
HEWI
100
AcDbCircle
 10
894.5968789999996
 20
627.4003870000001
 30
0.0
 40
0.199999999999948
100
AcDbArc
 50
293.5833219999998
 51
19.99999999999998
  0
ARC
  5
15E
330
1F
100
AcDbEntity
  8
HEWI
100
AcDbCircle
 10
895.8771389999997
 20
624.4676570000001
 30
0.0
 40
2.99999999999998
100
AcDbArc
 50
113.5833219999998
 51
66.4166780000002
  0
ARC
  5
15F
330
1F
100
AcDbEntity
  8
HEWI
100
AcDbCircle
 10
897.1574089999998
 20
627.4003870000001
 30
0.0
 40
0.199999999999949
100
AcDbArc
 50
160.0
 51
246.4166779999999
  0
ARC
  5
160
330
1F
100
AcDbEntity
  8
HEWI
100
AcDbCircle
 10
897.191669
 20
627.494537
 30
0.0
 40
0.200000000000026
100
AcDbArc
 50
66.52539899999998
 51
160.0
  0
CIRCLE
  5
161
330
1F
100
AcDbEntity
  8
HEWI
100
AcDbCircle
 10
895.8771389999997
 20
624.4676570000001
 30
0.0
 40
6.500000000000001
  0
ARC
  5
162
330
1F
100
AcDbEntity
  8
HEWI
100
AcDbCircle
 10
895.6771389999998
 20
624.167657
 30
0.0
 40
0.199999999999985
100
AcDbArc
 50
180.0
 51
270.0
  0
ARC
  5
163
330
1F
100
AcDbEntity
  8
HEWI
100
AcDbCircle
 10
895.6771389999998
 20
629.7676570000001
 30
0.0
 40
0.200000000000047
100
AcDbArc
 50
90.0
 51
180.0
  0
ARC
  5
164
330
1F
100
AcDbEntity
  8
HEWI
100
AcDbCircle
 10
896.0771389999999
 20
629.7676570000001
 30
0.0
 40
0.199999999999957
100
AcDbArc
 50
0.0
 51
90.0
  0
ARC
  5
165
330
1F
100
AcDbEntity
  8
HEWI
100
AcDbCircle
 10
896.0771389999999
 20
624.167657
 30
0.0
 40
0.199999999999992
100
AcDbArc
 50
270.0
 51
0.0
  0
CIRCLE
  5
166
330
1F
100
AcDbEntity
  8
HEWI
100
AcDbCircle
 10
944.8771389999999
 20
624.4676570000001
 30
0.0
 40
1.75
  0
ENDSEC
  0
SECTION
  2
OBJECTS
  0
DICTIONARY
  5
C
330
0
100
AcDbDictionary
281
     1
  3
ACAD_CIP_PREVIOUS_PRODUCT_INFO
350
1C4
  3
ACAD_COLOR
350
1BF
  3
ACAD_DETAILVIEWSTYLE
350
1BB
  3
ACAD_GROUP
350
D
  3
ACAD_LAYOUT
350
1A
  3
ACAD_MATERIAL
350
43
  3
ACAD_MLEADERSTYLE
350
6B
  3
ACAD_MLINESTYLE
350
17
  3
ACAD_PLOTSETTINGS
350
19
  3
ACAD_PLOTSTYLENAME
350
E
  3
ACAD_SCALELIST
350
47
  3
ACAD_SECTIONVIEWSTYLE
350
1BC
  3
ACAD_TABLESTYLE
350
69
  3
ACAD_VISUALSTYLE
350
2A
  3
ACDB_RECOMPOSE_DATA
350
1E8
  3
AcDbVariableDictionary
350
178
  0
DICTIONARY
  5
1CA
330
2
100
AcDbDictionary
280
     1
281
     1
  3
ACAD_LAYERSTATES
360
1CB
  0
DICTIONARY
  5
1DC
330
10
100
AcDbDictionary
280
     1
281
     1
  3
ADSK_XREC_LAYER_RECONCILED
360
1DD
  0
DICTIONARY
  5
1DE
330
74
100
AcDbDictionary
280
     1
281
     1
  3
ADSK_XREC_LAYER_RECONCILED
360
1DF
  0
DICTIONARY
  5
1E0
330
1C5
100
AcDbDictionary
280
     1
281
     1
  3
ADSK_XREC_LAYER_RECONCILED
360
1E1
  0
XRECORD
  5
1C4
102
{ACAD_REACTORS
330
C
102
}
330
C
100
AcDbXrecord
280
     1
300
ACDLT
300
2021
300
ACDLT_F_S
  0
DICTIONARY
  5
1BF
102
{ACAD_REACTORS
330
C
102
}
330
C
100
AcDbDictionary
281
     1
  0
DICTIONARY
  5
1BB
102
{ACAD_REACTORS
330
C
102
}
330
C
100
AcDbDictionary
281
     1
  3
Imperial24
350
1CD
  3
Metric50
350
1C1
  0
DICTIONARY
  5
D
102
{ACAD_REACTORS
330
C
102
}
330
C
100
AcDbDictionary
281
     1
  0
DICTIONARY
  5
1A
102
{ACAD_REACTORS
330
C
102
}
330
C
100
AcDbDictionary
281
     1
  3
Layout1
350
1E
  3
Layout2
350
26
  3
Model
350
22
  0
DICTIONARY
  5
43
102
{ACAD_REACTORS
330
C
102
}
330
C
100
AcDbDictionary
281
     1
  3
ByBlock
350
45
  3
ByLayer
350
44
  3
Global
350
46
  0
DICTIONARY
  5
6B
102
{ACAD_REACTORS
330
C
102
}
330
C
100
AcDbDictionary
281
     1
  3
Standard
350
6C
  0
DICTIONARY
  5
17
102
{ACAD_REACTORS
330
C
102
}
330
C
100
AcDbDictionary
281
     1
  3
Standard
350
18
  0
DICTIONARY
  5
19
102
{ACAD_REACTORS
330
C
102
}
330
C
100
AcDbDictionary
281
     1
  0
ACDBDICTIONARYWDFLT
  5
E
102
{ACAD_REACTORS
330
C
102
}
330
C
100
AcDbDictionary
281
     1
  3
Normal
350
F
100
AcDbDictionaryWithDefault
340
F
  0
DICTIONARY
  5
47
102
{ACAD_REACTORS
330
C
102
}
330
C
100
AcDbDictionary
281
     1
  3
A0
350
48
  3
A1
350
49
  3
A2
350
4A
  3
A3
350
4B
  3
A4
350
4C
  3
A5
350
4D
  3
A6
350
4E
  3
A7
350
4F
  3
A8
350
50
  3
A9
350
51
  3
B0
350
52
  3
B1
350
53
  3
B2
350
54
  3
B3
350
55
  3
B4
350
56
  3
B5
350
57
  3
B6
350
58
  3
B7
350
59
  3
B8
350
5A
  3
B9
350
5B
  3
C0
350
5C
  3
C1
350
5D
  3
C2
350
5E
  3
C3
350
5F
  3
C4
350
60
  3
C5
350
61
  3
C6
350
62
  3
C7
350
63
  3
C8
350
64
  3
C9
350
65
  3
D0
350
66
  3
D1
350
67
  3
D2
350
68
  0
DICTIONARY
  5
1BC
102
{ACAD_REACTORS
330
C
102
}
330
C
100
AcDbDictionary
281
     1
  3
Imperial24
350
1CC
  3
Metric50
350
1C0
  0
DICTIONARY
  5
69
102
{ACAD_REACTORS
330
C
102
}
330
C
100
AcDbDictionary
281
     1
  3
Standard
350
6A
  0
DICTIONARY
  5
2A
102
{ACAD_REACTORS
330
C
102
}
330
C
100
AcDbDictionary
281
     1
  3
2dWireframe
350
2F
  3
Basic
350
32
  3
Brighten
350
36
  3
ColorChange
350
3A
  3
Conceptual
350
34
  3
Dim
350
35
  3
EdgeColorOff
350
3D
  3
Facepattern
350
39
  3
Flat
350
2B
  3
FlatWithEdges
350
2C
  3
Gouraud
350
2D
  3
GouraudWithEdges
350
2E
  3
Hidden
350
31
  3
JitterOff
350
3B
  3
Linepattern
350
38
  3
OverhangOff
350
3C
  3
Realistic
350
33
  3
Shaded
350
42
  3
Shaded with edges
350
41
  3
Shades of Gray
350
3E
  3
Sketchy
350
3F
  3
Thicken
350
37
  3
Wireframe
350
30
  3
X-Ray
350
40
  0
XRECORD
  5
1E8
102
{ACAD_REACTORS
330
C
102
}
330
C
100
AcDbXrecord
280
     1
 90
        1
330
6A
  0
DICTIONARY
  5
178
102
{ACAD_REACTORS
330
C
102
}
330
C
100
AcDbDictionary
281
     1
  3
CANNOSCALE
350
179
  3
CMLEADERSTYLE
350
1BA
  3
CTABLESTYLE
350
1B9
  3
CVIEWDETAILSTYLE
350
1E2
  3
CVIEWSECTIONSTYLE
350
1E3
  3
LAYEREVAL
350
1E5
  3
LAYERNOTIFY
350
1E6
  3
LIGHTINGUNITS
350
1E4
  3
MSLTSCALE
350
17A
  0
DICTIONARY
  5
1CB
102
{ACAD_REACTORS
330
1CA
102
}
330
1CA
100
AcDbDictionary
281
     1
  0
XRECORD
  5
1DD
102
{ACAD_REACTORS
330
1DC
102
}
330
1DC
100
AcDbXrecord
280
     1
290
     1
  0
XRECORD
  5
1DF
102
{ACAD_REACTORS
330
1DE
102
}
330
1DE
100
AcDbXrecord
280
     1
290
     1
  0
XRECORD
  5
1E1
102
{ACAD_REACTORS
330
1E0
102
}
330
1E0
100
AcDbXrecord
280
     1
290
     1
  0
ACDBDETAILVIEWSTYLE
  5
1CD
102
{ACAD_XDICTIONARY
360
1EF
102
}
102
{ACAD_REACTORS
330
1BB
102
}
330
1BB
100
AcDbModelDocViewStyle
 70
     0
  3
Imperial24
290
     0
100
AcDbDetailViewStyle
 70
     0
 71
     0
 90
        3
 71
     1
340
11
 62
   256
 40
0.24
340
0
 62
   256
 40
0.24
300

 40
0.36
280
     3
 71
     2
340
16
 90
       25
 62
   256
 71
     3
340
11
 62
   256
 40
0.24
 90
        1
 40
0.75
 90
        1
300
%<\AcVar ViewType \f "%tc1">% %<\AcVar ViewDetailId>%\PVARIA %<\AcVar ViewScale \f "%sn">%
 71
     4
340
16
 90
       25
 62
   256
340
16
 90
       25
 62
   256
280
     0
  0
ACDBDETAILVIEWSTYLE
  5
1C1
102
{ACAD_XDICTIONARY
360
1EB
102
}
102
{ACAD_REACTORS
330
1BB
102
}
330
1BB
100
AcDbModelDocViewStyle
 70
     0
  3
Metric50
290
     0
100
AcDbDetailViewStyle
 70
     0
 71
     0
 90
        3
 71
     1
340
11
 62
   256
 40
5.0
340
0
 62
   256
 40
5.0
300

 40
0.0
280
     1
 71
     2
340
16
 90
       25
 62
   256
 71
     3
340
11
 62
   256
 40
5.0
 90
        0
 40
15.0
 90
        1
300
%<\AcVar ViewDetailId>% (%<\AcVar ViewScale \f "%sn">%)
 71
     4
340
16
 90
       25
 62
   256
340
16
 90
       25
 62
   256
280
     0
  0
LAYOUT
  5
1E
102
{ACAD_REACTORS
330
1A
102
}
330
1A
100
AcDbPlotSettings
  1

  2
none_device
  4

  6

 40
0.0
 41
0.0
 42
0.0
 43
0.0
 44
0.0
 45
0.0
 46
0.0
 47
0.0
 48
0.0
 49
0.0
140
0.0
141
0.0
142
1.0
143
1.0
 70
   688
 72
     0
 73
     0
 74
     5
  7

 75
    16
147
1.0
 76
     0
 77
     2
 78
   300
148
0.0
149
0.0
100
AcDbLayout
  1
Layout1
 70
     1
 71
     1
 10
-0.5
 20
-0.5
 11
5.0
 21
5.0
 12
0.0
 22
0.0
 32
0.0
 14
-0.5
 24
-0.5
 34
-0.5
 15
5.0
 25
5.0
 35
5.0
146
0.0
 13
0.0
 23
0.0
 33
0.0
 16
1.0
 26
0.0
 36
0.0
 17
0.0
 27
1.0
 37
0.0
 76
     0
330
1B
  0
LAYOUT
  5
26
102
{ACAD_REACTORS
330
1A
102
}
330
1A
100
AcDbPlotSettings
  1

  2
none_device
  4

  6

 40
0.0
 41
0.0
 42
0.0
 43
0.0
 44
0.0
 45
0.0
 46
0.0
 47
0.0
 48
0.0
 49
0.0
140
0.0
141
0.0
142
1.0
143
1.0
 70
   688
 72
     0
 73
     0
 74
     5
  7

 75
    16
147
1.0
 76
     0
 77
     2
 78
   300
148
0.0
149
0.0
100
AcDbLayout
  1
Layout2
 70
     1
 71
     2
 10
0.0
 20
0.0
 11
0.0
 21
0.0
 12
0.0
 22
0.0
 32
0.0
 14
0.0
 24
0.0
 34
0.0
 15
0.0
 25
0.0
 35
0.0
146
0.0
 13
0.0
 23
0.0
 33
0.0
 16
1.0
 26
0.0
 36
0.0
 17
0.0
 27
1.0
 37
0.0
 76
     0
330
23
  0
LAYOUT
  5
22
102
{ACAD_REACTORS
330
1A
102
}
330
1A
100
AcDbPlotSettings
  1

  2
none_device
  4
Letter_(8.50_x_11.00_Inches)
  6

 40
6.349999999999999
 41
6.349999999999999
 42
6.350005
 43
6.350005
 44
215.9
 45
279.4
 46
0.0
 47
0.0
 48
0.0
 49
0.0
140
0.0
141
0.0
142
1.0
143
1.0
 70
  1712
 72
     0
 73
     0
 74
     0
  7

 75
     0
147
1.0
 76
     0
 77
     2
 78
   300
148
0.0
149
0.0
100
AcDbLayout
  1
Model
 70
     1
 71
     0
 10
-0.5
 20
-0.5
 11
5.0
 21
5.0
 12
0.0
 22
0.0
 32
0.0
 14
-0.5
 24
-0.5
 34
-0.5
 15
5.0
 25
5.0
 35
5.0
146
0.0
 13
0.0
 23
0.0
 33
0.0
 16
1.0
 26
0.0
 36
0.0
 17
0.0
 27
1.0
 37
0.0
 76
     0
330
1F
331
29
  0
MATERIAL
  5
45
102
{ACAD_XDICTIONARY
360
1AE
102
}
102
{ACAD_REACTORS
330
43
102
}
330
43
100
AcDbMaterial
  1
ByBlock
  0
MATERIAL
  5
44
102
{ACAD_XDICTIONARY
360
1AC
102
}
102
{ACAD_REACTORS
330
43
102
}
330
43
100
AcDbMaterial
  1
ByLayer
  0
MATERIAL
  5
46
102
{ACAD_XDICTIONARY
360
1B0
102
}
102
{ACAD_REACTORS
330
43
102
}
330
43
100
AcDbMaterial
  1
Global
  0
MLEADERSTYLE
  5
6C
102
{ACAD_REACTORS
330
6B
102
}
330
6B
100
AcDbMLeaderStyle
179
     2
170
     2
171
     1
172
     0
 90
        2
 40
0.0
 41
0.0
173
     1
 91
-1056964608
340
14
 92
       -2
290
     1
 42
0.09
291
     1
 43
0.36
  3
Standard
 44
0.18
300

342
11
174
     1
178
     6
175
     1
176
     0
 93
-1056964608
 45
0.18
292
     0
297
     0
 46
0.18
 94
-1056964608
 47
1.0
 49
1.0
140
1.0
293
     1
141
0.0
294
     1
177
     0
142
1.0
295
     0
296
     0
143
0.125
271
     0
272
     9
273
     9
298
     0
1001
ACAD_MLEADERVER
1070
     2
  0
MLINESTYLE
  5
18
102
{ACAD_REACTORS
330
17
102
}
330
17
100
AcDbMlineStyle
  2
STANDARD
 70
     0
  3

 62
   256
 51
90.0
 52
90.0
 71
     2
 49
0.5
 62
   256
  6
BYLAYER
 49
-0.5
 62
   256
  6
BYLAYER
  0
ACDBPLACEHOLDER
  5
F
102
{ACAD_REACTORS
330
E
102
}
330
E
  0
SCALE
  5
48
102
{ACAD_REACTORS
330
47
102
}
330
47
100
AcDbScale
 70
     0
300
1:1
140
1.0
141
1.0
290
     1
  0
SCALE
  5
49
102
{ACAD_REACTORS
330
47
102
}
330
47
100
AcDbScale
 70
     0
300
1:2
140
1.0
141
2.0
290
     0
  0
SCALE
  5
4A
102
{ACAD_REACTORS
330
47
102
}
330
47
100
AcDbScale
 70
     0
300
1:4
140
1.0
141
4.0
290
     0
  0
SCALE
  5
4B
102
{ACAD_REACTORS
330
47
102
}
330
47
100
AcDbScale
 70
     0
300
1:5
140
1.0
141
5.0
290
     0
  0
SCALE
  5
4C
102
{ACAD_REACTORS
330
47
102
}
330
47
100
AcDbScale
 70
     0
300
1:8
140
1.0
141
8.0
290
     0
  0
SCALE
  5
4D
102
{ACAD_REACTORS
330
47
102
}
330
47
100
AcDbScale
 70
     0
300
1:10
140
1.0
141
10.0
290
     0
  0
SCALE
  5
4E
102
{ACAD_REACTORS
330
47
102
}
330
47
100
AcDbScale
 70
     0
300
1:16
140
1.0
141
16.0
290
     0
  0
SCALE
  5
4F
102
{ACAD_REACTORS
330
47
102
}
330
47
100
AcDbScale
 70
     0
300
1:20
140
1.0
141
20.0
290
     0
  0
SCALE
  5
50
102
{ACAD_REACTORS
330
47
102
}
330
47
100
AcDbScale
 70
     0
300
1:30
140
1.0
141
30.0
290
     0
  0
SCALE
  5
51
102
{ACAD_REACTORS
330
47
102
}
330
47
100
AcDbScale
 70
     0
300
1:40
140
1.0
141
40.0
290
     0
  0
SCALE
  5
52
102
{ACAD_REACTORS
330
47
102
}
330
47
100
AcDbScale
 70
     0
300
1:50
140
1.0
141
50.0
290
     0
  0
SCALE
  5
53
102
{ACAD_REACTORS
330
47
102
}
330
47
100
AcDbScale
 70
     0
300
1:100
140
1.0
141
100.0
290
     0
  0
SCALE
  5
54
102
{ACAD_REACTORS
330
47
102
}
330
47
100
AcDbScale
 70
     0
300
2:1
140
2.0
141
1.0
290
     0
  0
SCALE
  5
55
102
{ACAD_REACTORS
330
47
102
}
330
47
100
AcDbScale
 70
     0
300
4:1
140
4.0
141
1.0
290
     0
  0
SCALE
  5
56
102
{ACAD_REACTORS
330
47
102
}
330
47
100
AcDbScale
 70
     0
300
8:1
140
8.0
141
1.0
290
     0
  0
SCALE
  5
57
102
{ACAD_REACTORS
330
47
102
}
330
47
100
AcDbScale
 70
     0
300
10:1
140
10.0
141
1.0
290
     0
  0
SCALE
  5
58
102
{ACAD_REACTORS
330
47
102
}
330
47
100
AcDbScale
 70
     0
300
100:1
140
100.0
141
1.0
290
     0
  0
SCALE
  5
59
102
{ACAD_REACTORS
330
47
102
}
330
47
100
AcDbScale
 70
     0
300
1/128" = 1'-0"
140
0.007812
141
12.0
290
     0
  0
SCALE
  5
5A
102
{ACAD_REACTORS
330
47
102
}
330
47
100
AcDbScale
 70
     0
300
1/64" = 1'-0"
140
0.015625
141
12.0
290
     0
  0
SCALE
  5
5B
102
{ACAD_REACTORS
330
47
102
}
330
47
100
AcDbScale
 70
     0
300
1/32" = 1'-0"
140
0.03125
141
12.0
290
     0
  0
SCALE
  5
5C
102
{ACAD_REACTORS
330
47
102
}
330
47
100
AcDbScale
 70
     0
300
1/16" = 1'-0"
140
0.0625
141
12.0
290
     0
  0
SCALE
  5
5D
102
{ACAD_REACTORS
330
47
102
}
330
47
100
AcDbScale
 70
     0
300
3/32" = 1'-0"
140
0.09375
141
12.0
290
     0
  0
SCALE
  5
5E
102
{ACAD_REACTORS
330
47
102
}
330
47
100
AcDbScale
 70
     0
300
1/8" = 1'-0"
140
0.125
141
12.0
290
     0
  0
SCALE
  5
5F
102
{ACAD_REACTORS
330
47
102
}
330
47
100
AcDbScale
 70
     0
300
3/16" = 1'-0"
140
0.1875
141
12.0
290
     0
  0
SCALE
  5
60
102
{ACAD_REACTORS
330
47
102
}
330
47
100
AcDbScale
 70
     0
300
1/4" = 1'-0"
140
0.25
141
12.0
290
     0
  0
SCALE
  5
61
102
{ACAD_REACTORS
330
47
102
}
330
47
100
AcDbScale
 70
     0
300
3/8" = 1'-0"
140
0.375
141
12.0
290
     0
  0
SCALE
  5
62
102
{ACAD_REACTORS
330
47
102
}
330
47
100
AcDbScale
 70
     0
300
1/2" = 1'-0"
140
0.5
141
12.0
290
     0
  0
SCALE
  5
63
102
{ACAD_REACTORS
330
47
102
}
330
47
100
AcDbScale
 70
     0
300
3/4" = 1'-0"
140
0.75
141
12.0
290
     0
  0
SCALE
  5
64
102
{ACAD_REACTORS
330
47
102
}
330
47
100
AcDbScale
 70
     0
300
1" = 1'-0"
140
1.0
141
12.0
290
     0
  0
SCALE
  5
65
102
{ACAD_REACTORS
330
47
102
}
330
47
100
AcDbScale
 70
     0
300
1-1/2" = 1'-0"
140
1.5
141
12.0
290
     0
  0
SCALE
  5
66
102
{ACAD_REACTORS
330
47
102
}
330
47
100
AcDbScale
 70
     0
300
3" = 1'-0"
140
3.0
141
12.0
290
     0
  0
SCALE
  5
67
102
{ACAD_REACTORS
330
47
102
}
330
47
100
AcDbScale
 70
     0
300
6" = 1'-0"
140
6.0
141
12.0
290
     0
  0
SCALE
  5
68
102
{ACAD_REACTORS
330
47
102
}
330
47
100
AcDbScale
 70
     0
300
1'-0" = 1'-0"
140
12.0
141
12.0
290
     0
  0
ACDBSECTIONVIEWSTYLE
  5
1CC
102
{ACAD_XDICTIONARY
360
1ED
102
}
102
{ACAD_REACTORS
330
1BC
102
}
330
1BC
100
AcDbModelDocViewStyle
 70
     0
  3
Imperial24
290
     0
100
AcDbSectionViewStyle
 70
     0
 71
     0
 90
       78
 71
     1
340
11
 62
   256
 40
0.24
340
0
340
0
 62
   256
 40
0.24
300
I, O, Q, S, X, Z
 40
0.48
 90
        3
 40
0.18
 90
        1
 71
     2
340
16
 90
       25
 62
   256
340
16
 90
       50
 62
   256
 40
0.24
 40
0.0
 40
0.24
 71
     3
340
11
 62
   256
 40
0.24
 90
        1
 40
0.75
 90
        1
300
%<\AcVar ViewType \f "%tc1">% %<\AcVar ViewSectionStartId>%-%<\AcVar ViewSectionEndId>%\PVARIA %<\AcVar ViewScale \f "%sn">%
 71
     4
 62
   256
 62
   257
300
ANSI31
 40
1.0
 90
        0
290
     0
290
     0
 90
        6
 40
0.0
 40
1.570796326794896
 40
0.2617993877991494
 40
1.308996938995747
 40
-0.2617993877991494
 40
1.832595714594046
  0
ACDBSECTIONVIEWSTYLE
  5
1C0
102
{ACAD_XDICTIONARY
360
1E9
102
}
102
{ACAD_REACTORS
330
1BC
102
}
330
1BC
100
AcDbModelDocViewStyle
 70
     0
  3
Metric50
290
     0
100
AcDbSectionViewStyle
 70
     0
 71
     0
 90
      102
 71
     1
340
11
 62
   256
 40
5.0
340
0
340
0
 62
   256
 40
5.0
300
I, O, Q, S, X, Z
 40
10.0
 90
        0
 40
2.5
 90
        0
 71
     2
340
16
 90
       25
 62
   256
340
16
 90
       50
 62
   256
 40
5.0
 40
2.5
 40
5.0
 71
     3
340
11
 62
   256
 40
5.0
 90
        0
 40
15.0
 90
        1
300
%<\AcVar ViewSectionStartId>%-%<\AcVar ViewSectionEndId>% (%<\AcVar ViewScale \f "%sn">%)
 71
     4
 62
   256
 62
   257
300
ANSI31
 40
1.0
 90
        0
290
     0
290
     0
 90
        6
 40
0.0
 40
1.570796326794896
 40
0.2617993877991494
 40
1.308996938995747
 40
-0.2617993877991494
 40
1.832595714594046
  0
TABLESTYLE
  5
6A
102
{ACAD_XDICTIONARY
360
1B2
102
}
102
{ACAD_REACTORS
330
69
102
}
330
69
100
AcDbTableStyle
280
     0
  3
Standard
 70
     0
 71
     0
 40
0.06
 41
0.06
280
     0
281
     0
  7
Standard
140
0.18
170
     2
 62
     0
 63
     7
283
     0
 90
        4
 91
        0
  1

274
    -2
284
     1
 64
     0
275
    -2
285
     1
 65
     0
276
    -2
286
     1
 66
     0
277
    -2
287
     1
 67
     0
278
    -2
288
     1
 68
     0
279
    -2
289
     1
 69
     0
  7
Standard
140
0.25
170
     5
 62
     0
 63
     7
283
     0
 90
        4
 91
        0
  1

274
    -2
284
     1
 64
     0
275
    -2
285
     1
 65
     0
276
    -2
286
     1
 66
     0
277
    -2
287
     1
 67
     0
278
    -2
288
     1
 68
     0
279
    -2
289
     1
 69
     0
  7
Standard
140
0.18
170
     5
 62
     0
 63
     7
283
     0
 90
        4
 91
        0
  1

274
    -2
284
     1
 64
     0
275
    -2
285
     1
 65
     0
276
    -2
286
     1
 66
     0
277
    -2
287
     1
 67
     0
278
    -2
288
     1
 68
     0
279
    -2
289
     1
 69
     0
  0
VISUALSTYLE
  5
2F
102
{ACAD_REACTORS
330
2A
102
}
330
2A
100
AcDbVisualStyle
  2

 70
     4
177
     3
291
     0
 70
    58
 90
        0
176
     1
 90
        2
176
     1
 90
        0
176
     1
 90
        0
176
     1
 40
0.6
176
     1
 40
30.0
176
     1
 62
     7
420
 16777215
176
     1
 90
        1
176
     1
 90
        4
176
     1
 62
     7
176
     1
 62
   257
176
     1
 90
        1
176
     1
 90
        1
176
     1
 40
1.0
176
     1
 90
        0
176
     1
 62
   257
176
     1
 40
1.0
176
     1
 90
        1
176
     1
 90
        6
176
     1
 90
        2
176
     1
 62
     7
176
     1
 90
        5
176
     1
 90
        0
176
     1
 90
        0
176
     1
290
     0
176
     1
 90
        1
176
     1
 40
0.0
176
     1
 90
        0
176
     1
290
     1
176
     1
290
     1
176
     1
290
     0
176
     1
290
     0
176
     1
290
     0
176
     1
290
     0
176
     1
290
     0
176
     1
290
     0
176
     1
290
     0
176
     1
 90
       50
176
     1
 40
0.0
176
     1
 40
1.0
176
     1
 90
        0
176
     1
 62
    18
420
        0
176
     1
 90
       50
176
     1
 90
        3
176
     1
 62
     5
420
      255
176
     1
290
     0
176
     1
 90
       50
176
     1
 90
       50
176
     1
 90
       50
176
     1
290
     0
176
     1
 90
       50
176
     1
 62
   256
176
     0
 40
1.0
176
     0
 90
        2
176
     1
  1
strokes_ogs.tif
176
     1
290
     0
176
     1
 40
1.0
176
     1
 40
1.0
176
     1
1001
ACAD
1000
AcDbSavedByObjectVersion
1070
     0
  0
VISUALSTYLE
  5
32
102
{ACAD_REACTORS
330
2A
102
}
330
2A
100
AcDbVisualStyle
  2

 70
     7
177
     3
291
     1
 70
    58
 90
        1
176
     1
 90
        0
176
     1
 90
        1
176
     1
 90
        0
176
     1
 40
0.6
176
     1
 40
30.0
176
     1
 62
     7
420
 16777215
176
     1
 90
        0
176
     1
 90
        4
176
     1
 62
     7
176
     1
 62
   257
176
     1
 90
        1
176
     1
 90
        1
176
     1
 40
1.0
176
     1
 90
        8
176
     1
 62
     7
176
     1
 40
1.0
176
     1
 90
        1
176
     1
 90
        6
176
     1
 90
        2
176
     1
 62
     7
176
     1
 90
        5
176
     1
 90
        0
176
     1
 90
        0
176
     1
290
     0
176
     1
 90
        1
176
     1
 40
0.0
176
     1
 90
        0
176
     1
290
     0
176
     1
290
     1
176
     1
290
     1
176
     1
290
     0
176
     1
290
     0
176
     1
290
     0
176
     1
290
     0
176
     1
290
     0
176
     1
290
     0
176
     1
 90
       50
176
     1
 40
0.0
176
     1
 40
1.0
176
     1
 90
        0
176
     1
 62
    18
420
        0
176
     1
 90
       50
176
     1
 90
        3
176
     1
 62
     5
420
      255
176
     1
290
     0
176
     1
 90
       50
176
     1
 90
       50
176
     1
 90
       50
176
     1
290
     0
176
     1
 90
       50
176
     1
 62
   256
176
     0
 40
1.0
176
     0
 90
        2
176
     1
  1
strokes_ogs.tif
176
     1
290
     0
176
     1
 40
1.0
176
     1
 40
1.0
176
     1
1001
ACAD
1000
AcDbSavedByObjectVersion
1070
     0
  0
VISUALSTYLE
  5
36
102
{ACAD_REACTORS
330
2A
102
}
330
2A
100
AcDbVisualStyle
  2

 70
    12
177
     3
291
     1
 70
    58
 90
        2
176
     1
 90
        2
176
     1
 90
        0
176
     1
 90
        0
176
     1
 40
0.6
176
     1
 40
30.0
176
     1
 62
     7
420
 16777215
176
     1
 90
        1
176
     1
 90
        4
176
     1
 62
     7
176
     1
 62
   257
176
     1
 90
        1
176
     1
 90
        1
176
     1
 40
1.0
176
     1
 90
        8
176
     1
 62
     7
176
     1
 40
1.0
176
     1
 90
        1
176
     1
 90
        6
176
     1
 90
        2
176
     1
 62
     7
176
     1
 90
        5
176
     1
 90
        0
176
     1
 90
        0
176
     1
290
     0
176
     1
 90
        1
176
     1
 40
50.0
176
     1
 90
        0
176
     1
290
     0
176
     1
290
     1
176
     1
290
     1
176
     1
290
     0
176
     1
290
     0
176
     1
290
     0
176
     1
290
     0
176
     1
290
     0
176
     1
290
     0
176
     1
 90
       50
176
     1
 40
0.0
176
     1
 40
1.0
176
     1
 90
        0
176
     1
 62
    18
420
        0
176
     1
 90
       50
176
     1
 90
        3
176
     1
 62
     5
420
      255
176
     1
290
     0
176
     1
 90
       50
176
     1
 90
       50
176
     1
 90
       50
176
     1
290
     0
176
     1
 90
       50
176
     1
 62
   256
176
     0
 40
1.0
176
     0
 90
        2
176
     1
  1
strokes_ogs.tif
176
     1
290
     0
176
     1
 40
1.0
176
     1
 40
1.0
176
     1
1001
ACAD
1000
AcDbSavedByObjectVersion
1070
     0
  0
VISUALSTYLE
  5
3A
102
{ACAD_REACTORS
330
2A
102
}
330
2A
100
AcDbVisualStyle
  2

 70
    16
177
     3
291
     1
 70
    58
 90
        2
176
     1
 90
        2
176
     1
 90
        3
176
     1
 90
        0
176
     1
 40
0.6
176
     1
 40
30.0
176
     1
 62
     8
420
  8421504
176
     1
 90
        1
176
     1
 90
        4
176
     1
 62
     7
176
     1
 62
   257
176
     1
 90
        1
176
     1
 90
        1
176
     1
 40
1.0
176
     1
 90
        8
176
     1
 62
     8
420
  8421504
176
     1
 40
1.0
176
     1
 90
        1
176
     1
 90
        6
176
     1
 90
        2
176
     1
 62
     7
176
     1
 90
        5
176
     1
 90
        0
176
     1
 90
        0
176
     1
290
     0
176
     1
 90
        1
176
     1
 40
0.0
176
     1
 90
        0
176
     1
290
     0
176
     1
290
     1
176
     1
290
     1
176
     1
290
     0
176
     1
290
     0
176
     1
290
     0
176
     1
290
     0
176
     1
290
     0
176
     1
290
     0
176
     1
 90
       50
176
     1
 40
0.0
176
     1
 40
1.0
176
     1
 90
        0
176
     1
 62
    18
420
        0
176
     1
 90
       50
176
     1
 90
        3
176
     1
 62
     5
420
      255
176
     1
290
     0
176
     1
 90
       50
176
     1
 90
       50
176
     1
 90
       50
176
     1
290
     0
176
     1
 90
       50
176
     1
 62
   256
176
     0
 40
1.0
176
     0
 90
        2
176
     1
  1
strokes_ogs.tif
176
     1
290
     0
176
     1
 40
1.0
176
     1
 40
1.0
176
     1
1001
ACAD
1000
AcDbSavedByObjectVersion
1070
     0
  0
VISUALSTYLE
  5
34
102
{ACAD_REACTORS
330
2A
102
}
330
2A
100
AcDbVisualStyle
  2

 70
     9
177
     3
291
     0
 70
    58
 90
        3
176
     1
 90
        2
176
     1
 90
        0
176
     1
 90
        0
176
     1
 40
0.6
176
     1
 40
30.0
176
     1
 62
     7
420
 16777215
176
     1
 90
        2
176
     1
 90
        2
176
     1
 62
     7
176
     1
 62
   257
176
     1
 90
        1
176
     1
 90
        1
176
     1
 40
179.0
176
     1
 90
        8
176
     1
 62
     7
176
     1
 40
1.0
176
     1
 90
        1
176
     1
 90
        6
176
     1
 90
        2
176
     1
 62
     7
176
     1
 90
        3
176
     1
 90
        0
176
     1
 90
        0
176
     1
290
     0
176
     1
 90
        1
176
     1
 40
0.0
176
     1
 90
        0
176
     1
290
     0
176
     1
290
     1
176
     1
290
     1
176
     1
290
     0
176
     1
290
     0
176
     1
290
     0
176
     1
290
     0
176
     1
290
     0
176
     1
290
     0
176
     1
 90
       50
176
     1
 40
0.0
176
     1
 40
1.0
176
     1
 90
        0
176
     1
 62
    18
420
        0
176
     1
 90
       50
176
     1
 90
        3
176
     1
 62
     5
420
      255
176
     1
290
     0
176
     1
 90
       50
176
     1
 90
       50
176
     1
 90
       50
176
     1
290
     0
176
     1
 90
       50
176
     1
 62
   256
176
     0
 40
1.0
176
     0
 90
        2
176
     1
  1
strokes_ogs.tif
176
     1
290
     0
176
     1
 40
1.0
176
     1
 40
1.0
176
     1
1001
ACAD
1000
AcDbSavedByObjectVersion
1070
     0
  0
VISUALSTYLE
  5
35
102
{ACAD_REACTORS
330
2A
102
}
330
2A
100
AcDbVisualStyle
  2

 70
    11
177
     3
291
     1
 70
    58
 90
        2
176
     1
 90
        2
176
     1
 90
        0
176
     1
 90
        0
176
     1
 40
0.6
176
     1
 40
30.0
176
     1
 62
     7
420
 16777215
176
     1
 90
        1
176
     1
 90
        4
176
     1
 62
     7
176
     1
 62
   257
176
     1
 90
        1
176
     1
 90
        1
176
     1
 40
1.0
176
     1
 90
        8
176
     1
 62
     7
176
     1
 40
1.0
176
     1
 90
        1
176
     1
 90
        6
176
     1
 90
        2
176
     1
 62
     7
176
     1
 90
        5
176
     1
 90
        0
176
     1
 90
        0
176
     1
290
     0
176
     1
 90
        1
176
     1
 40
-50.0
176
     1
 90
        0
176
     1
290
     0
176
     1
290
     1
176
     1
290
     1
176
     1
290
     0
176
     1
290
     0
176
     1
290
     0
176
     1
290
     0
176
     1
290
     0
176
     1
290
     0
176
     1
 90
       50
176
     1
 40
0.0
176
     1
 40
1.0
176
     1
 90
        0
176
     1
 62
    18
420
        0
176
     1
 90
       50
176
     1
 90
        3
176
     1
 62
     5
420
      255
176
     1
290
     0
176
     1
 90
       50
176
     1
 90
       50
176
     1
 90
       50
176
     1
290
     0
176
     1
 90
       50
176
     1
 62
   256
176
     0
 40
1.0
176
     0
 90
        2
176
     1
  1
strokes_ogs.tif
176
     1
290
     0
176
     1
 40
1.0
176
     1
 40
1.0
176
     1
1001
ACAD
1000
AcDbSavedByObjectVersion
1070
     0
  0
VISUALSTYLE
  5
3D
102
{ACAD_REACTORS
330
2A
102
}
330
2A
100
AcDbVisualStyle
  2

 70
    22
177
     3
291
     1
 70
    58
 90
        2
176
     0
 90
        2
176
     0
 90
        0
176
     0
 90
        0
176
     0
 40
0.6
176
     0
 40
30.0
176
     0
 62
     7
420
 16777215
176
     0
 90
        1
176
     0
 90
        4
176
     0
 62
     7
176
     0
 62
   257
176
     0
 90
        1
176
     0
 90
        1
176
     0
 40
1.0
176
     0
 90
        8
176
     2
 62
     7
176
     0
 40
1.0
176
     0
 90
        1
176
     0
 90
        6
176
     0
 90
        2
176
     0
 62
     7
176
     0
 90
        5
176
     0
 90
        0
176
     0
 90
        0
176
     0
290
     0
176
     0
 90
        1
176
     0
 40
0.0
176
     0
 90
        0
176
     0
290
     0
176
     0
290
     1
176
     0
290
     1
176
     0
290
     0
176
     0
290
     0
176
     0
290
     0
176
     0
290
     0
176
     0
290
     0
176
     0
290
     0
176
     0
 90
       50
176
     0
 40
0.0
176
     0
 40
1.0
176
     0
 90
        0
176
     0
 62
    18
420
        0
176
     0
 90
       50
176
     0
 90
        3
176
     0
 62
     5
420
      255
176
     0
290
     0
176
     0
 90
       50
176
     0
 90
       50
176
     0
 90
       50
176
     0
290
     0
176
     0
 90
       50
176
     0
 62
   256
176
     0
 40
1.0
176
     0
 90
        2
176
     0
  1
strokes_ogs.tif
176
     0
290
     0
176
     0
 40
1.0
176
     0
 40
1.0
176
     0
1001
ACAD
1000
AcDbSavedByObjectVersion
1070
     0
  0
VISUALSTYLE
  5
39
102
{ACAD_REACTORS
330
2A
102
}
330
2A
100
AcDbVisualStyle
  2

 70
    15
177
     3
291
     1
 70
    58
 90
        2
176
     1
 90
        2
176
     1
 90
        0
176
     1
 90
        0
176
     1
 40
0.6
176
     1
 40
30.0
176
     1
 62
     7
420
 16777215
176
     1
 90
        1
176
     1
 90
        4
176
     1
 62
     7
176
     1
 62
   257
176
     1
 90
        1
176
     1
 90
        1
176
     1
 40
1.0
176
     1
 90
        8
176
     1
 62
     7
176
     1
 40
1.0
176
     1
 90
        1
176
     1
 90
        6
176
     1
 90
        2
176
     1
 62
     7
176
     1
 90
        5
176
     1
 90
        0
176
     1
 90
        0
176
     1
290
     0
176
     1
 90
        1
176
     1
 40
0.0
176
     1
 90
        0
176
     1
290
     0
176
     1
290
     1
176
     1
290
     1
176
     1
290
     0
176
     1
290
     0
176
     1
290
     0
176
     1
290
     0
176
     1
290
     0
176
     1
290
     0
176
     1
 90
       50
176
     1
 40
0.0
176
     1
 40
1.0
176
     1
 90
        0
176
     1
 62
    18
420
        0
176
     1
 90
       50
176
     1
 90
        3
176
     1
 62
     5
420
      255
176
     1
290
     0
176
     1
 90
       50
176
     1
 90
       50
176
     1
 90
       50
176
     1
290
     0
176
     1
 90
       50
176
     1
 62
   256
176
     0
 40
1.0
176
     0
 90
        2
176
     1
  1
strokes_ogs.tif
176
     1
290
     0
176
     1
 40
1.0
176
     1
 40
1.0
176
     1
1001
ACAD
1000
AcDbSavedByObjectVersion
1070
     0
  0
VISUALSTYLE
  5
2B
102
{ACAD_REACTORS
330
2A
102
}
330
2A
100
AcDbVisualStyle
  2

 70
     0
177
     3
291
     1
 70
    58
 90
        2
176
     1
 90
        1
176
     1
 90
        1
176
     1
 90
        2
176
     1
 40
0.6
176
     1
 40
30.0
176
     1
 62
     7
420
 16777215
176
     1
 90
        0
176
     1
 90
        0
176
     1
 62
     7
176
     1
 62
   257
176
     1
 90
        1
176
     1
 90
        1
176
     1
 40
1.0
176
     1
 90
        8
176
     1
 62
     7
176
     1
 40
1.0
176
     1
 90
        1
176
     1
 90
        6
176
     1
 90
        2
176
     1
 62
     7
176
     1
 90
        5
176
     1
 90
        0
176
     1
 90
        0
176
     1
290
     0
176
     1
 90
       13
176
     1
 40
0.0
176
     1
 90
        0
176
     1
290
     0
176
     1
290
     1
176
     1
290
     1
176
     1
290
     0
176
     1
290
     0
176
     1
290
     0
176
     1
290
     0
176
     1
290
     0
176
     1
290
     0
176
     1
 90
       50
176
     1
 40
0.0
176
     1
 40
1.0
176
     1
 90
        0
176
     1
 62
    18
420
        0
176
     1
 90
       50
176
     1
 90
        3
176
     1
 62
     5
420
      255
176
     1
290
     0
176
     1
 90
       50
176
     1
 90
       50
176
     1
 90
       50
176
     1
290
     0
176
     1
 90
       50
176
     1
 62
   256
176
     0
 40
1.0
176
     0
 90
        2
176
     1
  1
strokes_ogs.tif
176
     1
290
     0
176
     1
 40
1.0
176
     1
 40
1.0
176
     1
1001
ACAD
1000
AcDbSavedByObjectVersion
1070
     0
  0
VISUALSTYLE
  5
2C
102
{ACAD_REACTORS
330
2A
102
}
330
2A
100
AcDbVisualStyle
  2

 70
     1
177
     3
291
     1
 70
    58
 90
        2
176
     1
 90
        1
176
     1
 90
        1
176
     1
 90
        2
176
     1
 40
0.6
176
     1
 40
30.0
176
     1
 62
     7
420
 16777215
176
     1
 90
        1
176
     1
 90
        0
176
     1
 62
     7
176
     1
 62
   257
176
     1
 90
        1
176
     1
 90
        1
176
     1
 40
1.0
176
     1
 90
        0
176
     1
 62
   257
176
     1
 40
1.0
176
     1
 90
        1
176
     1
 90
        6
176
     1
 90
        2
176
     1
 62
     7
176
     1
 90
        5
176
     1
 90
        0
176
     1
 90
        0
176
     1
290
     0
176
     1
 90
       13
176
     1
 40
0.0
176
     1
 90
        0
176
     1
290
     0
176
     1
290
     1
176
     1
290
     1
176
     1
290
     0
176
     1
290
     0
176
     1
290
     0
176
     1
290
     0
176
     1
290
     0
176
     1
290
     0
176
     1
 90
       50
176
     1
 40
0.0
176
     1
 40
1.0
176
     1
 90
        0
176
     1
 62
    18
420
        0
176
     1
 90
       50
176
     1
 90
        3
176
     1
 62
     5
420
      255
176
     1
290
     0
176
     1
 90
       50
176
     1
 90
       50
176
     1
 90
       50
176
     1
290
     0
176
     1
 90
       50
176
     1
 62
   256
176
     0
 40
1.0
176
     0
 90
        2
176
     1
  1
strokes_ogs.tif
176
     1
290
     0
176
     1
 40
1.0
176
     1
 40
1.0
176
     1
1001
ACAD
1000
AcDbSavedByObjectVersion
1070
     0
  0
VISUALSTYLE
  5
2D
102
{ACAD_REACTORS
330
2A
102
}
330
2A
100
AcDbVisualStyle
  2

 70
     2
177
     3
291
     1
 70
    58
 90
        2
176
     1
 90
        2
176
     1
 90
        1
176
     1
 90
        2
176
     1
 40
0.6
176
     1
 40
30.0
176
     1
 62
     7
420
 16777215
176
     1
 90
        0
176
     1
 90
        0
176
     1
 62
     7
176
     1
 62
   257
176
     1
 90
        1
176
     1
 90
        1
176
     1
 40
1.0
176
     1
 90
        0
176
     1
 62
     7
176
     1
 40
1.0
176
     1
 90
        1
176
     1
 90
        6
176
     1
 90
        2
176
     1
 62
     7
176
     1
 90
        5
176
     1
 90
        0
176
     1
 90
        0
176
     1
290
     0
176
     1
 90
       13
176
     1
 40
0.0
176
     1
 90
        0
176
     1
290
     0
176
     1
290
     1
176
     1
290
     1
176
     1
290
     0
176
     1
290
     0
176
     1
290
     0
176
     1
290
     0
176
     1
290
     0
176
     1
290
     0
176
     1
 90
       50
176
     1
 40
0.0
176
     1
 40
1.0
176
     1
 90
        0
176
     1
 62
    18
420
        0
176
     1
 90
       50
176
     1
 90
        3
176
     1
 62
     5
420
      255
176
     1
290
     0
176
     1
 90
       50
176
     1
 90
       50
176
     1
 90
       50
176
     1
290
     0
176
     1
 90
       50
176
     1
 62
   256
176
     0
 40
1.0
176
     0
 90
        2
176
     1
  1
strokes_ogs.tif
176
     1
290
     0
176
     1
 40
1.0
176
     1
 40
1.0
176
     1
1001
ACAD
1000
AcDbSavedByObjectVersion
1070
     0
  0
VISUALSTYLE
  5
2E
102
{ACAD_REACTORS
330
2A
102
}
330
2A
100
AcDbVisualStyle
  2

 70
     3
177
     3
291
     1
 70
    58
 90
        2
176
     1
 90
        2
176
     1
 90
        1
176
     1
 90
        2
176
     1
 40
0.6
176
     1
 40
30.0
176
     1
 62
     7
420
 16777215
176
     1
 90
        1
176
     1
 90
        0
176
     1
 62
     7
176
     1
 62
   257
176
     1
 90
        1
176
     1
 90
        1
176
     1
 40
1.0
176
     1
 90
        0
176
     1
 62
   257
176
     1
 40
1.0
176
     1
 90
        1
176
     1
 90
        6
176
     1
 90
        2
176
     1
 62
     7
176
     1
 90
        5
176
     1
 90
        0
176
     1
 90
        0
176
     1
290
     0
176
     1
 90
       13
176
     1
 40
0.0
176
     1
 90
        0
176
     1
290
     0
176
     1
290
     1
176
     1
290
     1
176
     1
290
     0
176
     1
290
     0
176
     1
290
     0
176
     1
290
     0
176
     1
290
     0
176
     1
290
     0
176
     1
 90
       50
176
     1
 40
0.0
176
     1
 40
1.0
176
     1
 90
        0
176
     1
 62
    18
420
        0
176
     1
 90
       50
176
     1
 90
        3
176
     1
 62
     5
420
      255
176
     1
290
     0
176
     1
 90
       50
176
     1
 90
       50
176
     1
 90
       50
176
     1
290
     0
176
     1
 90
       50
176
     1
 62
   256
176
     0
 40
1.0
176
     0
 90
        2
176
     1
  1
strokes_ogs.tif
176
     1
290
     0
176
     1
 40
1.0
176
     1
 40
1.0
176
     1
1001
ACAD
1000
AcDbSavedByObjectVersion
1070
     0
  0
VISUALSTYLE
  5
31
102
{ACAD_REACTORS
330
2A
102
}
330
2A
100
AcDbVisualStyle
  2

 70
     6
177
     3
291
     0
 70
    58
 90
        1
176
     1
 90
        2
176
     1
 90
        2
176
     1
 90
        0
176
     1
 40
0.6
176
     1
 40
30.0
176
     1
 62
     7
420
 16777215
176
     1
 90
        2
176
     1
 90
        2
176
     1
 62
     7
176
     1
 62
   257
176
     1
 90
        2
176
     1
 90
        1
176
     1
 40
40.0
176
     1
 90
        0
176
     1
 62
   257
176
     1
 40
1.0
176
     1
 90
        1
176
     1
 90
        6
176
     1
 90
        2
176
     1
 62
     7
176
     1
 90
        3
176
     1
 90
        0
176
     1
 90
        0
176
     1
290
     0
176
     1
 90
        1
176
     1
 40
0.0
176
     1
 90
        0
176
     1
290
     0
176
     1
290
     1
176
     1
290
     1
176
     1
290
     0
176
     1
290
     0
176
     1
290
     0
176
     1
290
     0
176
     1
290
     0
176
     1
290
     0
176
     1
 90
       50
176
     1
 40
0.0
176
     1
 40
1.0
176
     1
 90
        0
176
     1
 62
    18
420
        0
176
     1
 90
       50
176
     1
 90
        3
176
     1
 62
     5
420
      255
176
     1
290
     0
176
     1
 90
       50
176
     1
 90
       50
176
     1
 90
       50
176
     1
290
     0
176
     1
 90
       50
176
     1
 62
   256
176
     0
 40
1.0
176
     0
 90
        2
176
     1
  1
strokes_ogs.tif
176
     1
290
     0
176
     1
 40
1.0
176
     1
 40
1.0
176
     1
1001
ACAD
1000
AcDbSavedByObjectVersion
1070
     0
  0
VISUALSTYLE
  5
3B
102
{ACAD_REACTORS
330
2A
102
}
330
2A
100
AcDbVisualStyle
  2

 70
    20
177
     3
291
     1
 70
    58
 90
        2
176
     0
 90
        2
176
     0
 90
        0
176
     0
 90
        0
176
     0
 40
0.6
176
     0
 40
30.0
176
     0
 62
     7
420
 16777215
176
     0
 90
        1
176
     0
 90
        4
176
     0
 62
     7
176
     0
 62
   257
176
     0
 90
        1
176
     0
 90
        1
176
     0
 40
1.0
176
     0
 90
       10
176
     2
 62
     7
176
     0
 40
1.0
176
     0
 90
        1
176
     0
 90
        6
176
     0
 90
        2
176
     0
 62
     7
176
     0
 90
        5
176
     0
 90
        0
176
     0
 90
        0
176
     0
290
     0
176
     0
 90
        1
176
     0
 40
0.0
176
     0
 90
        0
176
     0
290
     0
176
     0
290
     1
176
     0
290
     1
176
     0
290
     0
176
     0
290
     0
176
     0
290
     0
176
     0
290
     0
176
     0
290
     0
176
     0
290
     0
176
     0
 90
       50
176
     0
 40
0.0
176
     0
 40
1.0
176
     0
 90
        0
176
     0
 62
    18
420
        0
176
     0
 90
       50
176
     0
 90
        3
176
     0
 62
     5
420
      255
176
     0
290
     0
176
     0
 90
       50
176
     0
 90
       50
176
     0
 90
       50
176
     0
290
     0
176
     0
 90
       50
176
     0
 62
   256
176
     0
 40
1.0
176
     0
 90
        2
176
     0
  1
strokes_ogs.tif
176
     0
290
     0
176
     0
 40
1.0
176
     0
 40
1.0
176
     0
1001
ACAD
1000
AcDbSavedByObjectVersion
1070
     0
  0
VISUALSTYLE
  5
38
102
{ACAD_REACTORS
330
2A
102
}
330
2A
100
AcDbVisualStyle
  2

 70
    14
177
     3
291
     1
 70
    58
 90
        2
176
     1
 90
        2
176
     1
 90
        0
176
     1
 90
        0
176
     1
 40
0.6
176
     1
 40
30.0
176
     1
 62
     7
420
 16777215
176
     1
 90
        1
176
     1
 90
        4
176
     1
 62
     7
176
     1
 62
   257
176
     1
 90
        7
176
     1
 90
        7
176
     1
 40
1.0
176
     1
 90
        8
176
     1
 62
     7
176
     1
 40
1.0
176
     1
 90
        1
176
     1
 90
        6
176
     1
 90
        2
176
     1
 62
     7
176
     1
 90
        5
176
     1
 90
        0
176
     1
 90
        0
176
     1
290
     0
176
     1
 90
        1
176
     1
 40
0.0
176
     1
 90
        0
176
     1
290
     0
176
     1
290
     1
176
     1
290
     1
176
     1
290
     0
176
     1
290
     0
176
     1
290
     0
176
     1
290
     0
176
     1
290
     0
176
     1
290
     0
176
     1
 90
       50
176
     1
 40
0.0
176
     1
 40
1.0
176
     1
 90
        0
176
     1
 62
    18
420
        0
176
     1
 90
       50
176
     1
 90
        3
176
     1
 62
     5
420
      255
176
     1
290
     0
176
     1
 90
       50
176
     1
 90
       50
176
     1
 90
       50
176
     1
290
     0
176
     1
 90
       50
176
     1
 62
   256
176
     0
 40
1.0
176
     0
 90
        2
176
     1
  1
strokes_ogs.tif
176
     1
290
     0
176
     1
 40
1.0
176
     1
 40
1.0
176
     1
1001
ACAD
1000
AcDbSavedByObjectVersion
1070
     0
  0
VISUALSTYLE
  5
3C
102
{ACAD_REACTORS
330
2A
102
}
330
2A
100
AcDbVisualStyle
  2

 70
    21
177
     3
291
     1
 70
    58
 90
        2
176
     0
 90
        2
176
     0
 90
        0
176
     0
 90
        0
176
     0
 40
0.6
176
     0
 40
30.0
176
     0
 62
     7
420
 16777215
176
     0
 90
        1
176
     0
 90
        4
176
     0
 62
     7
176
     0
 62
   257
176
     0
 90
        1
176
     0
 90
        1
176
     0
 40
1.0
176
     0
 90
        9
176
     2
 62
     7
176
     0
 40
1.0
176
     0
 90
        1
176
     0
 90
        6
176
     0
 90
        2
176
     0
 62
     7
176
     0
 90
        5
176
     0
 90
        0
176
     0
 90
        0
176
     0
290
     0
176
     0
 90
        1
176
     0
 40
0.0
176
     0
 90
        0
176
     0
290
     0
176
     0
290
     1
176
     0
290
     1
176
     0
290
     0
176
     0
290
     0
176
     0
290
     0
176
     0
290
     0
176
     0
290
     0
176
     0
290
     0
176
     0
 90
       50
176
     0
 40
0.0
176
     0
 40
1.0
176
     0
 90
        0
176
     0
 62
    18
420
        0
176
     0
 90
       50
176
     0
 90
        3
176
     0
 62
     5
420
      255
176
     0
290
     0
176
     0
 90
       50
176
     0
 90
       50
176
     0
 90
       50
176
     0
290
     0
176
     0
 90
       50
176
     0
 62
   256
176
     0
 40
1.0
176
     0
 90
        2
176
     0
  1
strokes_ogs.tif
176
     0
290
     0
176
     0
 40
1.0
176
     0
 40
1.0
176
     0
1001
ACAD
1000
AcDbSavedByObjectVersion
1070
     0
  0
VISUALSTYLE
  5
33
102
{ACAD_REACTORS
330
2A
102
}
330
2A
100
AcDbVisualStyle
  2

 70
     8
177
     3
291
     0
 70
    58
 90
        2
176
     1
 90
        3
176
     1
 90
        0
176
     1
 90
        2
176
     1
 40
0.6
176
     1
 40
30.0
176
     1
 62
     7
420
 16777215
176
     1
 90
        0
176
     1
 90
        0
176
     1
 62
     7
176
     1
 62
   257
176
     1
 90
        1
176
     1
 90
        1
176
     1
 40
1.0
176
     1
 90
        8
176
     1
 62
   257
176
     1
 40
1.0
176
     1
 90
        1
176
     1
 90
        6
176
     1
 90
        2
176
     1
 62
     7
176
     1
 90
        3
176
     1
 90
        0
176
     1
 90
        0
176
     1
290
     0
176
     1
 90
       13
176
     1
 40
0.0
176
     1
 90
        0
176
     1
290
     0
176
     1
290
     1
176
     1
290
     1
176
     1
290
     0
176
     1
290
     0
176
     1
290
     0
176
     1
290
     0
176
     1
290
     0
176
     1
290
     0
176
     1
 90
       50
176
     1
 40
0.0
176
     1
 40
1.0
176
     1
 90
        0
176
     1
 62
    18
420
        0
176
     1
 90
       50
176
     1
 90
        3
176
     1
 62
     5
420
      255
176
     1
290
     0
176
     1
 90
       50
176
     1
 90
       50
176
     1
 90
       50
176
     1
290
     0
176
     1
 90
       50
176
     1
 62
   256
176
     0
 40
1.0
176
     0
 90
        2
176
     1
  1
strokes_ogs.tif
176
     1
290
     0
176
     1
 40
1.0
176
     1
 40
1.0
176
     1
1001
ACAD
1000
AcDbSavedByObjectVersion
1070
     0
  0
VISUALSTYLE
  5
42
102
{ACAD_REACTORS
330
2A
102
}
330
2A
100
AcDbVisualStyle
  2

 70
    27
177
     3
291
     0
 70
    58
 90
        2
176
     1
 90
        2
176
     1
 90
        1
176
     1
 90
        2
176
     1
 40
0.6
176
     1
 40
30.0
176
     1
 62
     7
420
 16777215
176
     1
 90
        0
176
     1
 90
        4
176
     1
 62
     7
176
     1
 62
   257
176
     1
 90
        1
176
     1
 90
        1
176
     1
 40
1.0
176
     1
 90
        8
176
     1
 62
   257
176
     1
 40
1.0
176
     1
 90
        1
176
     1
 90
        6
176
     1
 90
        2
176
     1
 62
     8
420
  7895160
176
     1
 90
        3
176
     1
 90
        0
176
     1
 90
        0
176
     1
290
     0
176
     1
 90
        5
176
     1
 40
0.0
176
     1
 90
        0
176
     1
290
     0
176
     1
290
     1
176
     1
290
     1
176
     1
290
     0
176
     1
290
     0
176
     1
290
     0
176
     1
290
     0
176
     1
290
     0
176
     1
290
     0
176
     1
 90
       50
176
     1
 40
0.0
176
     1
 40
1.0
176
     1
 90
        0
176
     1
 62
    18
420
        0
176
     1
 90
       50
176
     1
 90
        3
176
     1
 62
     5
420
      255
176
     1
290
     0
176
     1
 90
       50
176
     1
 90
       50
176
     1
 90
       50
176
     1
290
     0
176
     1
 90
       50
176
     1
 62
   256
176
     0
 40
1.0
176
     0
 90
        2
176
     1
  1
strokes_ogs.tif
176
     1
290
     0
176
     1
 40
1.0
176
     1
 40
1.0
176
     1
1001
ACAD
1000
AcDbSavedByObjectVersion
1070
     0
  0
VISUALSTYLE
  5
41
102
{ACAD_REACTORS
330
2A
102
}
330
2A
100
AcDbVisualStyle
  2

 70
    26
177
     3
291
     0
 70
    58
 90
        2
176
     1
 90
        2
176
     1
 90
        1
176
     1
 90
        2
176
     1
 40
0.6
176
     1
 40
30.0
176
     1
 62
     7
420
 16777215
176
     1
 90
        1
176
     1
 90
       10
176
     1
 62
     7
176
     1
 62
   257
176
     1
 90
        2
176
     1
 90
        1
176
     1
 40
1.0
176
     1
 90
        8
176
     1
 62
   257
176
     1
 40
1.0
176
     1
 90
        1
176
     1
 90
        6
176
     1
 90
        2
176
     1
 62
     7
176
     1
 90
        3
176
     1
 90
        0
176
     1
 90
        0
176
     1
290
     0
176
     1
 90
        5
176
     1
 40
0.0
176
     1
 90
        0
176
     1
290
     0
176
     1
290
     1
176
     1
290
     1
176
     1
290
     0
176
     1
290
     0
176
     1
290
     0
176
     1
290
     0
176
     1
290
     0
176
     1
290
     0
176
     1
 90
       50
176
     1
 40
0.0
176
     1
 40
1.0
176
     1
 90
        0
176
     1
 62
    18
420
        0
176
     1
 90
       50
176
     1
 90
        3
176
     1
 62
     5
420
      255
176
     1
290
     0
176
     1
 90
       50
176
     1
 90
       50
176
     1
 90
       50
176
     1
290
     0
176
     1
 90
       50
176
     1
 62
   256
176
     0
 40
1.0
176
     0
 90
        2
176
     1
  1
strokes_ogs.tif
176
     1
290
     0
176
     1
 40
1.0
176
     1
 40
1.0
176
     1
1001
ACAD
1000
AcDbSavedByObjectVersion
1070
     0
  0
VISUALSTYLE
  5
3E
102
{ACAD_REACTORS
330
2A
102
}
330
2A
100
AcDbVisualStyle
  2

 70
    23
177
     3
291
     0
 70
    58
 90
        2
176
     1
 90
        2
176
     1
 90
        3
176
     1
 90
        0
176
     1
 40
0.6
176
     1
 40
30.0
176
     1
 62
     7
420
 16777215
176
     1
 90
        2
176
     1
 90
        2
176
     1
 62
     7
176
     1
 62
     7
176
     1
 90
        1
176
     1
 90
        1
176
     1
 40
40.0
176
     1
 90
        8
176
     1
 62
     7
176
     1
 40
1.0
176
     1
 90
        1
176
     1
 90
        6
176
     1
 90
        2
176
     1
 62
     7
176
     1
 90
        3
176
     1
 90
        0
176
     1
 90
        0
176
     1
290
     0
176
     1
 90
        1
176
     1
 40
0.0
176
     1
 90
        0
176
     1
290
     0
176
     1
290
     1
176
     1
290
     1
176
     1
290
     0
176
     1
290
     0
176
     1
290
     0
176
     1
290
     0
176
     1
290
     0
176
     1
290
     0
176
     1
 90
       50
176
     1
 40
0.0
176
     1
 40
1.0
176
     1
 90
        0
176
     1
 62
    18
420
        0
176
     1
 90
       50
176
     1
 90
        3
176
     1
 62
     5
420
      255
176
     1
290
     0
176
     1
 90
       50
176
     1
 90
       50
176
     1
 90
       50
176
     1
290
     0
176
     1
 90
       50
176
     1
 62
   256
176
     0
 40
1.0
176
     0
 90
        2
176
     1
  1
strokes_ogs.tif
176
     1
290
     0
176
     1
 40
1.0
176
     1
 40
1.0
176
     1
1001
ACAD
1000
AcDbSavedByObjectVersion
1070
     0
  0
VISUALSTYLE
  5
3F
102
{ACAD_REACTORS
330
2A
102
}
330
2A
100
AcDbVisualStyle
  2

 70
    24
177
     3
291
     0
 70
    58
 90
        1
176
     1
 90
        2
176
     1
 90
        2
176
     1
 90
        0
176
     1
 40
0.6
176
     1
 40
30.0
176
     1
 62
     7
420
 16777215
176
     1
 90
        2
176
     1
 90
        2
176
     1
 62
     7
176
     1
 62
     7
176
     1
 90
        1
176
     1
 90
        1
176
     1
 40
40.0
176
     1
 90
       11
176
     1
 62
     7
176
     1
 40
1.0
176
     1
 90
        1
176
     1
 90
        6
176
     1
 90
        2
176
     1
 62
     7
176
     1
 90
        6
176
     1
 90
        0
176
     1
 90
        0
176
     1
290
     0
176
     1
 90
        1
176
     1
 40
0.0
176
     1
 90
        0
176
     1
290
     0
176
     1
290
     1
176
     1
290
     1
176
     1
290
     0
176
     1
290
     0
176
     1
290
     0
176
     1
290
     0
176
     1
290
     0
176
     1
290
     0
176
     1
 90
       50
176
     1
 40
0.0
176
     1
 40
1.0
176
     1
 90
        0
176
     1
 62
    18
420
        0
176
     1
 90
       50
176
     1
 90
        3
176
     1
 62
     5
420
      255
176
     1
290
     0
176
     1
 90
       50
176
     1
 90
       50
176
     1
 90
       50
176
     1
290
     0
176
     1
 90
       50
176
     1
 62
   256
176
     0
 40
1.0
176
     0
 90
        2
176
     1
  1
strokes_ogs.tif
176
     1
290
     0
176
     1
 40
1.0
176
     1
 40
1.0
176
     1
1001
ACAD
1000
AcDbSavedByObjectVersion
1070
     0
  0
VISUALSTYLE
  5
37
102
{ACAD_REACTORS
330
2A
102
}
330
2A
100
AcDbVisualStyle
  2

 70
    13
177
     3
291
     1
 70
    58
 90
        2
176
     1
 90
        2
176
     1
 90
        0
176
     1
 90
        0
176
     1
 40
0.6
176
     1
 40
30.0
176
     1
 62
     7
420
 16777215
176
     1
 90
        1
176
     1
 90
        4
176
     1
 62
     7
176
     1
 62
   257
176
     1
 90
        1
176
     1
 90
        1
176
     1
 40
1.0
176
     1
 90
       12
176
     1
 62
     7
176
     1
 40
1.0
176
     1
 90
        1
176
     1
 90
        6
176
     1
 90
        2
176
     1
 62
     7
176
     1
 90
        5
176
     1
 90
        0
176
     1
 90
        0
176
     1
290
     0
176
     1
 90
        1
176
     1
 40
0.0
176
     1
 90
        0
176
     1
290
     0
176
     1
290
     1
176
     1
290
     1
176
     1
290
     0
176
     1
290
     0
176
     1
290
     0
176
     1
290
     0
176
     1
290
     0
176
     1
290
     0
176
     1
 90
       50
176
     1
 40
0.0
176
     1
 40
1.0
176
     1
 90
        0
176
     1
 62
    18
420
        0
176
     1
 90
       50
176
     1
 90
        3
176
     1
 62
     5
420
      255
176
     1
290
     0
176
     1
 90
       50
176
     1
 90
       50
176
     1
 90
       50
176
     1
290
     0
176
     1
 90
       50
176
     1
 62
   256
176
     0
 40
1.0
176
     0
 90
        2
176
     1
  1
strokes_ogs.tif
176
     1
290
     0
176
     1
 40
1.0
176
     1
 40
1.0
176
     1
1001
ACAD
1000
AcDbSavedByObjectVersion
1070
     0
  0
VISUALSTYLE
  5
30
102
{ACAD_REACTORS
330
2A
102
}
330
2A
100
AcDbVisualStyle
  2

 70
     5
177
     3
291
     0
 70
    58
 90
        0
176
     1
 90
        2
176
     1
 90
        0
176
     1
 90
        0
176
     1
 40
0.6
176
     1
 40
30.0
176
     1
 62
     7
420
 16777215
176
     1
 90
        1
176
     1
 90
        4
176
     1
 62
     7
176
     1
 62
   257
176
     1
 90
        1
176
     1
 90
        1
176
     1
 40
1.0
176
     1
 90
        0
176
     1
 62
   257
176
     1
 40
1.0
176
     1
 90
        1
176
     1
 90
        6
176
     1
 90
        2
176
     1
 62
     7
176
     1
 90
        3
176
     1
 90
        0
176
     1
 90
        0
176
     1
290
     0
176
     1
 90
        1
176
     1
 40
0.0
176
     1
 90
        0
176
     1
290
     0
176
     1
290
     1
176
     1
290
     1
176
     1
290
     0
176
     1
290
     0
176
     1
290
     0
176
     1
290
     0
176
     1
290
     0
176
     1
290
     0
176
     1
 90
       50
176
     1
 40
0.0
176
     1
 40
1.0
176
     1
 90
        0
176
     1
 62
    18
420
        0
176
     1
 90
       50
176
     1
 90
        3
176
     1
 62
     5
420
      255
176
     1
290
     0
176
     1
 90
       50
176
     1
 90
       50
176
     1
 90
       50
176
     1
290
     0
176
     1
 90
       50
176
     1
 62
   256
176
     0
 40
1.0
176
     0
 90
        2
176
     1
  1
strokes_ogs.tif
176
     1
290
     0
176
     1
 40
1.0
176
     1
 40
1.0
176
     1
1001
ACAD
1000
AcDbSavedByObjectVersion
1070
     0
  0
VISUALSTYLE
  5
40
102
{ACAD_REACTORS
330
2A
102
}
330
2A
100
AcDbVisualStyle
  2

 70
    25
177
     3
291
     0
 70
    58
 90
        2
176
     1
 90
        2
176
     1
 90
        1
176
     1
 90
        1
176
     1
 40
0.5
176
     1
 40
30.0
176
     1
 62
     7
420
 16777215
176
     1
 90
        1
176
     1
 90
        0
176
     1
 62
     7
176
     1
 62
   257
176
     1
 90
        1
176
     1
 90
        1
176
     1
 40
1.0
176
     1
 90
        8
176
     1
 62
     7
176
     1
 40
1.0
176
     1
 90
        1
176
     1
 90
        6
176
     1
 90
        2
176
     1
 62
     7
176
     1
 90
        3
176
     1
 90
        0
176
     1
 90
        0
176
     1
290
     0
176
     1
 90
       13
176
     1
 40
0.0
176
     1
 90
        0
176
     1
290
     0
176
     1
290
     1
176
     1
290
     1
176
     1
290
     0
176
     1
290
     0
176
     1
290
     0
176
     1
290
     0
176
     1
290
     0
176
     1
290
     0
176
     1
 90
       50
176
     1
 40
0.0
176
     1
 40
1.0
176
     1
 90
        0
176
     1
 62
    18
420
        0
176
     1
 90
       50
176
     1
 90
        3
176
     1
 62
     5
420
      255
176
     1
290
     0
176
     1
 90
       50
176
     1
 90
       50
176
     1
 90
       50
176
     1
290
     0
176
     1
 90
       50
176
     1
 62
   256
176
     0
 40
1.0
176
     0
 90
        2
176
     1
  1
strokes_ogs.tif
176
     1
290
     0
176
     1
 40
1.0
176
     1
 40
1.0
176
     1
1001
ACAD
1000
AcDbSavedByObjectVersion
1070
     0
  0
DICTIONARYVAR
  5
179
102
{ACAD_REACTORS
330
178
102
}
330
178
100
DictionaryVariables
280
     0
  1
1:1
  0
DICTIONARYVAR
  5
1BA
102
{ACAD_REACTORS
330
178
102
}
330
178
100
DictionaryVariables
280
     0
  1
STANDARD
  0
DICTIONARYVAR
  5
1B9
102
{ACAD_REACTORS
330
178
102
}
330
178
100
DictionaryVariables
280
     0
  1
STANDARD
  0
DICTIONARYVAR
  5
1E2
102
{ACAD_REACTORS
330
178
102
}
330
178
100
DictionaryVariables
280
     0
  1
Metric50
  0
DICTIONARYVAR
  5
1E3
102
{ACAD_REACTORS
330
178
102
}
330
178
100
DictionaryVariables
280
     0
  1
Metric50
  0
DICTIONARYVAR
  5
1E5
102
{ACAD_REACTORS
330
178
102
}
330
178
100
DictionaryVariables
280
     0
  1
1
  0
DICTIONARYVAR
  5
1E6
102
{ACAD_REACTORS
330
178
102
}
330
178
100
DictionaryVariables
280
     0
  1
15
  0
DICTIONARYVAR
  5
1E4
102
{ACAD_REACTORS
330
178
102
}
330
178
100
DictionaryVariables
280
     0
  1
0
  0
DICTIONARYVAR
  5
17A
102
{ACAD_REACTORS
330
178
102
}
330
178
100
DictionaryVariables
280
     0
  1
1
  0
DICTIONARY
  5
1EF
330
1CD
100
AcDbDictionary
280
     1
281
     1
  3
ACAD_XREC_ROUNDTRIP
360
1F0
  0
DICTIONARY
  5
1EB
330
1C1
100
AcDbDictionary
280
     1
281
     1
  3
ACAD_XREC_ROUNDTRIP
360
1EC
  0
DICTIONARY
  5
1AE
330
45
100
AcDbDictionary
280
     1
281
     1
  3
ACAD_XREC_ROUNDTRIP
360
1AF
  0
DICTIONARY
  5
1AC
330
44
100
AcDbDictionary
280
     1
281
     1
  3
ACAD_XREC_ROUNDTRIP
360
1AD
  0
DICTIONARY
  5
1B0
330
46
100
AcDbDictionary
280
     1
281
     1
  3
ACAD_XREC_ROUNDTRIP
360
1B1
  0
DICTIONARY
  5
1ED
330
1CC
100
AcDbDictionary
280
     1
281
     1
  3
ACAD_XREC_ROUNDTRIP
360
1EE
  0
DICTIONARY
  5
1E9
330
1C0
100
AcDbDictionary
280
     1
281
     1
  3
ACAD_XREC_ROUNDTRIP
360
1EA
  0
DICTIONARY
  5
1B2
330
6A
100
AcDbDictionary
280
     1
281
     1
  3
ACAD_ROUNDTRIP_2008_TABLESTYLE_CELLSTYLEMAP
360
1E7
  0
XRECORD
  5
1F0
102
{ACAD_REACTORS
330
1EF
102
}
330
1EF
100
AcDbXrecord
280
     1
102
DISPLAYNAME
  1
Imperial24
102
FLAGS
 90
        0
  0
XRECORD
  5
1EC
102
{ACAD_REACTORS
330
1EB
102
}
330
1EB
100
AcDbXrecord
280
     1
102
DISPLAYNAME
  1
Metric50
102
FLAGS
 90
        0
  0
XRECORD
  5
1AF
102
{ACAD_REACTORS
330
1AE
102
}
330
1AE
100
AcDbXrecord
280
     1
102
MATERIAL
148
0.0
149
0.0
149
0.0
 93
        0
 94
      127
282
     0
 72
     1
 77
     1
171
     1
175
     1
179
     1
273
     0
  0
XRECORD
  5
1AD
102
{ACAD_REACTORS
330
1AC
102
}
330
1AC
100
AcDbXrecord
280
     1
102
MATERIAL
148
0.0
149
0.0
149
0.0
 93
        0
 94
      127
282
     0
 72
     1
 77
     1
171
     1
175
     1
179
     1
273
     0
  0
XRECORD
  5
1B1
102
{ACAD_REACTORS
330
1B0
102
}
330
1B0
100
AcDbXrecord
280
     1
102
MATERIAL
148
0.0
149
0.0
149
0.0
 93
        0
 94
      127
282
     0
 72
     1
 77
     1
171
     1
175
     1
179
     1
273
     0
  0
XRECORD
  5
1EE
102
{ACAD_REACTORS
330
1ED
102
}
330
1ED
100
AcDbXrecord
280
     1
102
DISPLAYNAME
  1
Imperial24
102
FLAGS
 90
        0
  0
XRECORD
  5
1EA
102
{ACAD_REACTORS
330
1E9
102
}
330
1E9
100
AcDbXrecord
280
     1
102
DISPLAYNAME
  1
Metric50
102
FLAGS
 90
        0
  0
CELLSTYLEMAP
  5
1E7
102
{ACAD_REACTORS
330
1B2
102
}
330
1B2
100
AcDbCellStyleMap
 90
        3
300
CELLSTYLE
  1
TABLEFORMAT_BEGIN
 90
        5
170
     1
 91
        0
 92
    32768
 62
   257
 93
        1
300
CONTENTFORMAT
  1
CONTENTFORMAT_BEGIN
 90
        0
 91
        0
 92
        4
 93
        0
300

 40
0.0
140
1.0
 94
        5
 62
     0
340
11
144
0.25
309
CONTENTFORMAT_END
171
     1
301
MARGIN
  1
CELLMARGIN_BEGIN
 40
0.06
 40
0.06
 40
0.06
 40
0.06
 40
0.18
 40
0.18
309
CELLMARGIN_END
 94
        6
 95
        1
302
GRIDFORMAT
  1
GRIDFORMAT_BEGIN
 90
        0
 91
        1
 62
     0
 92
       -2
340
14
 93
        0
 40
0.045
309
GRIDFORMAT_END
 95
        2
302
GRIDFORMAT
  1
GRIDFORMAT_BEGIN
 90
        0
 91
        1
 62
     0
 92
       -2
340
14
 93
        0
 40
0.045
309
GRIDFORMAT_END
 95
        4
302
GRIDFORMAT
  1
GRIDFORMAT_BEGIN
 90
        0
 91
        1
 62
     0
 92
       -2
340
14
 93
        0
 40
0.045
309
GRIDFORMAT_END
 95
        8
302
GRIDFORMAT
  1
GRIDFORMAT_BEGIN
 90
        0
 91
        1
 62
     0
 92
       -2
340
14
 93
        0
 40
0.045
309
GRIDFORMAT_END
 95
       16
302
GRIDFORMAT
  1
GRIDFORMAT_BEGIN
 90
        0
 91
        1
 62
     0
 92
       -2
340
14
 93
        0
 40
0.045
309
GRIDFORMAT_END
 95
       32
302
GRIDFORMAT
  1
GRIDFORMAT_BEGIN
 90
        0
 91
        1
 62
     0
 92
       -2
340
14
 93
        0
 40
0.045
309
GRIDFORMAT_END
309
TABLEFORMAT_END
  1
CELLSTYLE_BEGIN
 90
        1
 91
        1
300
_TITLE
309
CELLSTYLE_END
300
CELLSTYLE
  1
TABLEFORMAT_BEGIN
 90
        5
170
     1
 91
        0
 92
        0
 62
   257
 93
        1
300
CONTENTFORMAT
  1
CONTENTFORMAT_BEGIN
 90
        0
 91
        0
 92
        4
 93
        0
300

 40
0.0
140
1.0
 94
        5
 62
     0
340
11
144
0.18
309
CONTENTFORMAT_END
171
     1
301
MARGIN
  1
CELLMARGIN_BEGIN
 40
0.06
 40
0.06
 40
0.06
 40
0.06
 40
0.18
 40
0.18
309
CELLMARGIN_END
 94
        6
 95
        1
302
GRIDFORMAT
  1
GRIDFORMAT_BEGIN
 90
        0
 91
        1
 62
     0
 92
       -2
340
14
 93
        0
 40
0.045
309
GRIDFORMAT_END
 95
        2
302
GRIDFORMAT
  1
GRIDFORMAT_BEGIN
 90
        0
 91
        1
 62
     0
 92
       -2
340
14
 93
        0
 40
0.045
309
GRIDFORMAT_END
 95
        4
302
GRIDFORMAT
  1
GRIDFORMAT_BEGIN
 90
        0
 91
        1
 62
     0
 92
       -2
340
14
 93
        0
 40
0.045
309
GRIDFORMAT_END
 95
        8
302
GRIDFORMAT
  1
GRIDFORMAT_BEGIN
 90
        0
 91
        1
 62
     0
 92
       -2
340
14
 93
        0
 40
0.045
309
GRIDFORMAT_END
 95
       16
302
GRIDFORMAT
  1
GRIDFORMAT_BEGIN
 90
        0
 91
        1
 62
     0
 92
       -2
340
14
 93
        0
 40
0.045
309
GRIDFORMAT_END
 95
       32
302
GRIDFORMAT
  1
GRIDFORMAT_BEGIN
 90
        0
 91
        1
 62
     0
 92
       -2
340
14
 93
        0
 40
0.045
309
GRIDFORMAT_END
309
TABLEFORMAT_END
  1
CELLSTYLE_BEGIN
 90
        2
 91
        1
300
_HEADER
309
CELLSTYLE_END
300
CELLSTYLE
  1
TABLEFORMAT_BEGIN
 90
        5
170
     1
 91
        0
 92
        0
 62
   257
 93
        1
300
CONTENTFORMAT
  1
CONTENTFORMAT_BEGIN
 90
        0
 91
        0
 92
        4
 93
        0
300

 40
0.0
140
1.0
 94
        2
 62
     0
340
11
144
0.18
309
CONTENTFORMAT_END
171
     1
301
MARGIN
  1
CELLMARGIN_BEGIN
 40
0.06
 40
0.06
 40
0.06
 40
0.06
 40
0.18
 40
0.18
309
CELLMARGIN_END
 94
        6
 95
        1
302
GRIDFORMAT
  1
GRIDFORMAT_BEGIN
 90
        0
 91
        1
 62
     0
 92
       -2
340
14
 93
        0
 40
0.045
309
GRIDFORMAT_END
 95
        2
302
GRIDFORMAT
  1
GRIDFORMAT_BEGIN
 90
        0
 91
        1
 62
     0
 92
       -2
340
14
 93
        0
 40
0.045
309
GRIDFORMAT_END
 95
        4
302
GRIDFORMAT
  1
GRIDFORMAT_BEGIN
 90
        0
 91
        1
 62
     0
 92
       -2
340
14
 93
        0
 40
0.045
309
GRIDFORMAT_END
 95
        8
302
GRIDFORMAT
  1
GRIDFORMAT_BEGIN
 90
        0
 91
        1
 62
     0
 92
       -2
340
14
 93
        0
 40
0.045
309
GRIDFORMAT_END
 95
       16
302
GRIDFORMAT
  1
GRIDFORMAT_BEGIN
 90
        0
 91
        1
 62
     0
 92
       -2
340
14
 93
        0
 40
0.045
309
GRIDFORMAT_END
 95
       32
302
GRIDFORMAT
  1
GRIDFORMAT_BEGIN
 90
        0
 91
        1
 62
     0
 92
       -2
340
14
 93
        0
 40
0.045
309
GRIDFORMAT_END
309
TABLEFORMAT_END
  1
CELLSTYLE_BEGIN
 90
        3
 91
        2
300
_DATA
309
CELLSTYLE_END
  0
ENDSEC
  0
EOF
