  0
SECTION
  2
HEADER
  9
$ACADVER
  1
AC1018
  9
$ACADMAINTVER
 70
   104
  9
$DWGCODEPAGE
  3
ANSI_1252
  9
$LASTSAVEDBY
  1
kaschu
  9
$INSBASE
 10
0.0
 20
0.0
 30
0.0
  9
$EXTMIN
 10
101.3125131422857
 20
108.3764190747151
 30
0.0
  9
$EXTMAX
 10
1057.254959342463
 20
1604.810299032057
 30
0.0
  9
$LIMMIN
 10
0.0
 20
0.0
  9
$LIMMAX
 10
420.0
 20
297.0
  9
$ORTHOMODE
 70
     0
  9
$REGENMODE
 70
     1
  9
$FILLMODE
 70
     1
  9
$QTEXTMODE
 70
     0
  9
$MIRRTEXT
 70
     0
  9
$LTSCALE
 40
1.0
  9
$ATTMODE
 70
     1
  9
$TEXTSIZE
 40
2.5
  9
$TRACEWID
 40
1.0
  9
$TEXTSTYLE
  7
Standard
  9
$CLAYER
  8
0
  9
$CELTYPE
  6
ByLayer
  9
$CECOLOR
 62
   256
  9
$CELTSCALE
 40
1.0
  9
$DISPSILH
 70
     0
  9
$DIMSCALE
 40
1.0
  9
$DIMASZ
 40
2.5
  9
$DIMEXO
 40
0.625
  9
$DIMDLI
 40
3.75
  9
$DIMRND
 40
0.0
  9
$DIMDLE
 40
0.0
  9
$DIMEXE
 40
1.25
  9
$DIMTP
 40
0.0
  9
$DIMTM
 40
0.0
  9
$DIMTXT
 40
2.5
  9
$DIMCEN
 40
2.5
  9
$DIMTSZ
 40
0.0
  9
$DIMTOL
 70
     0
  9
$DIMLIM
 70
     0
  9
$DIMTIH
 70
     0
  9
$DIMTOH
 70
     0
  9
$DIMSE1
 70
     0
  9
$DIMSE2
 70
     0
  9
$DIMTAD
 70
     1
  9
$DIMZIN
 70
     8
  9
$DIMBLK
  1

  9
$DIMASO
 70
     1
  9
$DIMSHO
 70
     1
  9
$DIMPOST
  1

  9
$DIMAPOST
  1

  9
$DIMALT
 70
     0
  9
$DIMALTD
 70
     3
  9
$DIMALTF
 40
0.03937007874016
  9
$DIMLFAC
 40
1.0
  9
$DIMTOFL
 70
     1
  9
$DIMTVP
 40
0.0
  9
$DIMTIX
 70
     0
  9
$DIMSOXD
 70
     0
  9
$DIMSAH
 70
     0
  9
$DIMBLK1
  1

  9
$DIMBLK2
  1

  9
$DIMSTYLE
  2
ISO-25
  9
$DIMCLRD
 70
     0
  9
$DIMCLRE
 70
     0
  9
$DIMCLRT
 70
     0
  9
$DIMTFAC
 40
1.0
  9
$DIMGAP
 40
0.625
  9
$DIMJUST
 70
     0
  9
$DIMSD1
 70
     0
  9
$DIMSD2
 70
     0
  9
$DIMTOLJ
 70
     0
  9
$DIMTZIN
 70
     8
  9
$DIMALTZ
 70
     0
  9
$DIMALTTZ
 70
     0
  9
$DIMUPT
 70
     0
  9
$DIMDEC
 70
     2
  9
$DIMTDEC
 70
     2
  9
$DIMALTU
 70
     2
  9
$DIMALTTD
 70
     3
  9
$DIMTXSTY
  7
Standard
  9
$DIMAUNIT
 70
     0
  9
$DIMADEC
 70
     0
  9
$DIMALTRND
 40
0.0
  9
$DIMAZIN
 70
     0
  9
$DIMDSEP
 70
    44
  9
$DIMATFIT
 70
     3
  9
$DIMFRAC
 70
     0
  9
$DIMLDRBLK
  1

  9
$DIMLUNIT
 70
     2
  9
$DIMLWD
 70
    -2
  9
$DIMLWE
 70
    -2
  9
$DIMTMOVE
 70
     0
  9
$LUNITS
 70
     2
  9
$LUPREC
 70
     4
  9
$SKETCHINC
 40
1.0
  9
$FILLETRAD
 40
0.0
  9
$AUNITS
 70
     0
  9
$AUPREC
 70
     0
  9
$MENU
  1
.
  9
$ELEVATION
 40
0.0
  9
$PELEVATION
 40
0.0
  9
$THICKNESS
 40
0.0
  9
$LIMCHECK
 70
     0
  9
$CHAMFERA
 40
0.0
  9
$CHAMFERB
 40
0.0
  9
$CHAMFERC
 40
0.0
  9
$CHAMFERD
 40
0.0
  9
$SKPOLY
 70
     0
  9
$TDCREATE
 40
2454768.552548658
  9
$TDUCREATE
 40
2454768.469215324
  9
$TDUPDATE
 40
2456080.508298009
  9
$TDUUPDATE
 40
2456080.424964676
  9
$TDINDWG
 40
0.0178029282
  9
$TDUSRTIMER
 40
0.0178018519
  9
$USRTIMER
 70
     1
  9
$ANGBASE
 50
0.0
  9
$ANGDIR
 70
     0
  9
$PDMODE
 70
     0
  9
$PDSIZE
 40
0.0
  9
$PLINEWID
 40
0.0
  9
$SPLFRAME
 70
     0
  9
$SPLINETYPE
 70
     6
  9
$SPLINESEGS
 70
     8
  9
$HANDSEED
  5
563
  9
$SURFTAB1
 70
     6
  9
$SURFTAB2
 70
     6
  9
$SURFTYPE
 70
     6
  9
$SURFU
 70
     6
  9
$SURFV
 70
     6
  9
$UCSBASE
  2

  9
$UCSNAME
  2

  9
$UCSORG
 10
0.0
 20
0.0
 30
0.0
  9
$UCSXDIR
 10
1.0
 20
0.0
 30
0.0
  9
$UCSYDIR
 10
0.0
 20
1.0
 30
0.0
  9
$UCSORTHOREF
  2

  9
$UCSORTHOVIEW
 70
     0
  9
$UCSORGTOP
 10
0.0
 20
0.0
 30
0.0
  9
$UCSORGBOTTOM
 10
0.0
 20
0.0
 30
0.0
  9
$UCSORGLEFT
 10
0.0
 20
0.0
 30
0.0
  9
$UCSORGRIGHT
 10
0.0
 20
0.0
 30
0.0
  9
$UCSORGFRONT
 10
0.0
 20
0.0
 30
0.0
  9
$UCSORGBACK
 10
0.0
 20
0.0
 30
0.0
  9
$PUCSBASE
  2

  9
$PUCSNAME
  2

  9
$PUCSORG
 10
0.0
 20
0.0
 30
0.0
  9
$PUCSXDIR
 10
1.0
 20
0.0
 30
0.0
  9
$PUCSYDIR
 10
0.0
 20
1.0
 30
0.0
  9
$PUCSORTHOREF
  2

  9
$PUCSORTHOVIEW
 70
     0
  9
$PUCSORGTOP
 10
0.0
 20
0.0
 30
0.0
  9
$PUCSORGBOTTOM
 10
0.0
 20
0.0
 30
0.0
  9
$PUCSORGLEFT
 10
0.0
 20
0.0
 30
0.0
  9
$PUCSORGRIGHT
 10
0.0
 20
0.0
 30
0.0
  9
$PUCSORGFRONT
 10
0.0
 20
0.0
 30
0.0
  9
$PUCSORGBACK
 10
0.0
 20
0.0
 30
0.0
  9
$USERI1
 70
     0
  9
$USERI2
 70
     0
  9
$USERI3
 70
     0
  9
$USERI4
 70
     0
  9
$USERI5
 70
     0
  9
$USERR1
 40
0.0
  9
$USERR2
 40
0.0
  9
$USERR3
 40
0.0
  9
$USERR4
 40
0.0
  9
$USERR5
 40
0.0
  9
$WORLDVIEW
 70
     1
  9
$SHADEDGE
 70
     3
  9
$SHADEDIF
 70
    70
  9
$TILEMODE
 70
     1
  9
$MAXACTVP
 70
    64
  9
$PINSBASE
 10
0.0
 20
0.0
 30
0.0
  9
$PLIMCHECK
 70
     0
  9
$PEXTMIN
 10
0.0
 20
0.0
 30
0.0
  9
$PEXTMAX
 10
0.0
 20
0.0
 30
0.0
  9
$PLIMMIN
 10
0.0
 20
0.0
  9
$PLIMMAX
 10
12.0
 20
9.0
  9
$UNITMODE
 70
     0
  9
$VISRETAIN
 70
     1
  9
$PLINEGEN
 70
     0
  9
$PSLTSCALE
 70
     1
  9
$TREEDEPTH
 70
  3020
  9
$CMLSTYLE
  2
Standard
  9
$CMLJUST
 70
     0
  9
$CMLSCALE
 40
20.0
  9
$PROXYGRAPHICS
 70
     1
  9
$MEASUREMENT
 70
     1
  9
$CELWEIGHT
370
    -1
  9
$ENDCAPS
280
     0
  9
$JOINSTYLE
280
     0
  9
$LWDISPLAY
290
     0
  9
$INSUNITS
 70
     4
  9
$HYPERLINKBASE
  1

  9
$STYLESHEET
  1

  9
$XEDIT
290
     1
  9
$CEPSNTYPE
380
     0
  9
$PSTYLEMODE
290
     1
  9
$FINGERPRINTGUID
  2
{A9F5D530-972F-4813-857A-78B9B08CAD27}
  9
$VERSIONGUID
  2
{8ABDE4FE-CA47-401A-BB4C-241B891873D6}
  9
$EXTNAMES
290
     1
  9
$PSVPSCALE
 40
0.0
  9
$OLESTARTUP
290
     0
  9
$SORTENTS
280
   127
  9
$INDEXCTL
280
     0
  9
$HIDETEXT
280
     1
  9
$XCLIPFRAME
290
     0
  9
$HALOGAP
280
     0
  9
$OBSCOLOR
 70
   257
  9
$OBSLTYPE
280
     0
  9
$INTERSECTIONDISPLAY
280
     0
  9
$INTERSECTIONCOLOR
 70
   257
  9
$DIMASSOC
280
     2
  9
$PROJECTNAME
  1

  0
ENDSEC
  0
SECTION
  2
CLASSES
  0
CLASS
  1
ACDBDICTIONARYWDFLT
  2
AcDbDictionaryWithDefault
  3
ObjectDBX Classes
 90
        0
 91
        1
280
     0
281
     0
  0
CLASS
  1
DICTIONARYVAR
  2
AcDbDictionaryVar
  3
ObjectDBX Classes
 90
        0
 91
        9
280
     0
281
     0
  0
CLASS
  1
TABLESTYLE
  2
AcDbTableStyle
  3
ObjectDBX Classes
 90
     4095
 91
        1
280
     0
281
     0
  0
CLASS
  1
MATERIAL
  2
AcDbMaterial
  3
ObjectDBX Classes
 90
     1024
 91
        3
280
     0
281
     0
  0
CLASS
  1
VISUALSTYLE
  2
AcDbVisualStyle
  3
ObjectDBX Classes
 90
     4095
 91
       16
280
     0
281
     0
  0
CLASS
  1
SORTENTSTABLE
  2
AcDbSortentsTable
  3
ObjectDBX Classes
 90
        0
 91
        1
280
     0
281
     0
  0
CLASS
  1
DIMASSOC
  2
AcDbDimAssoc
  3
"AcDbDimAssoc|Product Desc:     AcDim ARX App For Dimension|Company:          Autodesk, Inc.|WEB Address:      www.autodesk.com"
 90
        0
 91
        1
280
     0
281
     0
  0
ENDSEC
  0
SECTION
  2
TABLES
  0
TABLE
  2
VPORT
  5
8
330
0
100
AcDbSymbolTable
 70
     1
  0
VPORT
  5
EA
330
8
100
AcDbSymbolTableRecord
100
AcDbViewportTableRecord
  2
*Active
 70
     0
 10
0.0
 20
0.0
 11
1.0
 21
1.0
 12
658.2406237256874
 22
817.1393576657109
 13
0.0
 23
0.0
 14
10.0
 24
10.0
 15
10.0
 25
10.0
 16
0.0
 26
0.0
 36
1.0
 17
0.0
 27
0.0
 37
0.0
 40
1938.882303688728
 41
1.742358078602619
 42
50.0
 43
0.0
 44
0.0
 50
0.0
 51
0.0
 71
     0
 72
  1000
 73
     1
 74
     3
 75
     0
 76
     0
 77
     0
 78
     0
281
     0
 65
     1
110
0.0
120
0.0
130
0.0
111
1.0
121
0.0
131
0.0
112
0.0
122
1.0
132
0.0
 79
     0
146
0.0
  0
ENDTAB
  0
TABLE
  2
LTYPE
  5
5
330
0
100
AcDbSymbolTable
 70
     1
  0
LTYPE
  5
14
330
5
100
AcDbSymbolTableRecord
100
AcDbLinetypeTableRecord
  2
ByBlock
 70
     0
  3

 72
    65
 73
     0
 40
0.0
  0
LTYPE
  5
15
330
5
100
AcDbSymbolTableRecord
100
AcDbLinetypeTableRecord
  2
ByLayer
 70
     0
  3

 72
    65
 73
     0
 40
0.0
  0
LTYPE
  5
16
330
5
100
AcDbSymbolTableRecord
100
AcDbLinetypeTableRecord
  2
Continuous
 70
     0
  3
Solid line
 72
    65
 73
     0
 40
0.0
  0
ENDTAB
  0
TABLE
  2
LAYER
  5
2
102
{ACAD_XDICTIONARY
360
141
102
}
330
0
100
AcDbSymbolTable
 70
     3
  0
LAYER
  5
10
330
2
100
AcDbSymbolTableRecord
100
AcDbLayerTableRecord
  2
0
 70
     0
 62
     7
  6
Continuous
370
    -3
390
F
  0
LAYER
  5
124
330
2
100
AcDbSymbolTableRecord
100
AcDbLayerTableRecord
  2
Defpoints
 70
     0
 62
     7
  6
Continuous
290
     0
370
    -3
390
F
  0
LAYER
  5
13E
330
2
100
AcDbSymbolTableRecord
100
AcDbLayerTableRecord
  2
Hewi
 70
     0
 62
     7
  6
Continuous
370
    -3
390
F
  0
ENDTAB
  0
TABLE
  2
STYLE
  5
3
330
0
100
AcDbSymbolTable
 70
     3
  0
STYLE
  5
11
330
3
100
AcDbSymbolTableRecord
100
AcDbTextStyleTableRecord
  2
Standard
 70
     0
 40
0.0
 41
1.0
 50
0.0
 71
     0
 42
2.5
  3
txt
  4

  0
STYLE
  5
3DD
330
3
100
AcDbSymbolTableRecord
100
AcDbTextStyleTableRecord
  2
HEWI
 70
     0
 40
0.0
 41
1.0
 50
0.0
 71
     0
 42
40.0
  3
ARIAL.TTF
  4

1001
ACAD
1000
Arial
1071
       34
  0
STYLE
  5
3DE
330
3
100
AcDbSymbolTableRecord
100
AcDbTextStyleTableRecord
  2
ARIAL
 70
     0
 40
0.0
 41
1.0
 50
0.0
 71
     0
 42
0.0
  3
Arial
  4

  0
ENDTAB
  0
TABLE
  2
VIEW
  5
6
330
0
100
AcDbSymbolTable
 70
     0
  0
ENDTAB
  0
TABLE
  2
UCS
  5
7
330
0
100
AcDbSymbolTable
 70
     0
  0
ENDTAB
  0
TABLE
  2
APPID
  5
9
330
0
100
AcDbSymbolTable
 70
     3
  0
APPID
  5
12
330
9
100
AcDbSymbolTableRecord
100
AcDbRegAppTableRecord
  2
ACAD
 70
     0
  0
APPID
  5
9E
330
9
100
AcDbSymbolTableRecord
100
AcDbRegAppTableRecord
  2
ACAD_PSEXT
 70
     0
  0
APPID
  5
212
330
9
100
AcDbSymbolTableRecord
100
AcDbRegAppTableRecord
  2
ACAD_EXEMPT_FROM_CAD_STANDARDS
 70
     0
  0
ENDTAB
  0
TABLE
  2
DIMSTYLE
  5
A
330
0
100
AcDbSymbolTable
 70
     2
100
AcDbDimStyleTable
 71
     1
340
27
  0
DIMSTYLE
105
27
330
A
100
AcDbSymbolTableRecord
100
AcDbDimStyleTableRecord
  2
ISO-25
 70
     0
 41
2.5
 42
0.625
 43
3.75
 44
1.25
 73
     0
 74
     0
 77
     1
 78
     8
140
2.5
141
2.5
143
0.03937007874016
147
0.625
171
     3
172
     1
271
     2
272
     2
274
     3
278
    44
283
     0
284
     8
340
11
  0
DIMSTYLE
105
254
330
A
100
AcDbSymbolTableRecord
100
AcDbDimStyleTableRecord
  2
Standard
 70
     0
340
11
  0
ENDTAB
  0
TABLE
  2
BLOCK_RECORD
  5
1
330
0
100
AcDbSymbolTable
 70
    28
  0
BLOCK_RECORD
  5
1F
102
{ACAD_XDICTIONARY
360
116
102
}
330
1
100
AcDbSymbolTableRecord
100
AcDbBlockTableRecord
  2
*Model_Space
340
22
  0
BLOCK_RECORD
  5
D2
330
1
100
AcDbSymbolTableRecord
100
AcDbBlockTableRecord
  2
*Paper_Space
340
D3
  0
BLOCK_RECORD
  5
D6
330
1
100
AcDbSymbolTableRecord
100
AcDbBlockTableRecord
  2
*Paper_Space0
340
D7
  0
BLOCK_RECORD
  5
345
330
1
100
AcDbSymbolTableRecord
100
AcDbBlockTableRecord
  2
*D1
340
0
  0
BLOCK_RECORD
  5
34F
330
1
100
AcDbSymbolTableRecord
100
AcDbBlockTableRecord
  2
*D2
340
0
  0
BLOCK_RECORD
  5
359
330
1
100
AcDbSymbolTableRecord
100
AcDbBlockTableRecord
  2
*D3
340
0
  0
BLOCK_RECORD
  5
366
330
1
100
AcDbSymbolTableRecord
100
AcDbBlockTableRecord
  2
*D4
340
0
  0
BLOCK_RECORD
  5
373
330
1
100
AcDbSymbolTableRecord
100
AcDbBlockTableRecord
  2
*D5
340
0
  0
BLOCK_RECORD
  5
37B
330
1
100
AcDbSymbolTableRecord
100
AcDbBlockTableRecord
  2
*D6
340
0
  0
BLOCK_RECORD
  5
388
330
1
100
AcDbSymbolTableRecord
100
AcDbBlockTableRecord
  2
*D7
340
0
  0
BLOCK_RECORD
  5
395
330
1
100
AcDbSymbolTableRecord
100
AcDbBlockTableRecord
  2
*D8
340
0
  0
BLOCK_RECORD
  5
39F
330
1
100
AcDbSymbolTableRecord
100
AcDbBlockTableRecord
  2
*D9
340
0
  0
BLOCK_RECORD
  5
3A9
330
1
100
AcDbSymbolTableRecord
100
AcDbBlockTableRecord
  2
*D10
340
0
  0
BLOCK_RECORD
  5
3B6
330
1
100
AcDbSymbolTableRecord
100
AcDbBlockTableRecord
  2
*D11
340
0
  0
BLOCK_RECORD
  5
3C3
330
1
100
AcDbSymbolTableRecord
100
AcDbBlockTableRecord
  2
*D12
340
0
  0
BLOCK_RECORD
  5
3D0
330
1
100
AcDbSymbolTableRecord
100
AcDbBlockTableRecord
  2
*D13
340
0
  0
BLOCK_RECORD
  5
422
330
1
100
AcDbSymbolTableRecord
100
AcDbBlockTableRecord
  2
*D14
340
0
  0
BLOCK_RECORD
  5
42C
330
1
100
AcDbSymbolTableRecord
100
AcDbBlockTableRecord
  2
*D15
340
0
  0
BLOCK_RECORD
  5
436
330
1
100
AcDbSymbolTableRecord
100
AcDbBlockTableRecord
  2
*D16
340
0
  0
BLOCK_RECORD
  5
443
330
1
100
AcDbSymbolTableRecord
100
AcDbBlockTableRecord
  2
*D17
340
0
  0
BLOCK_RECORD
  5
450
330
1
100
AcDbSymbolTableRecord
100
AcDbBlockTableRecord
  2
*D18
340
0
  0
BLOCK_RECORD
  5
458
330
1
100
AcDbSymbolTableRecord
100
AcDbBlockTableRecord
  2
*D19
340
0
  0
BLOCK_RECORD
  5
465
330
1
100
AcDbSymbolTableRecord
100
AcDbBlockTableRecord
  2
*D20
340
0
  0
BLOCK_RECORD
  5
472
330
1
100
AcDbSymbolTableRecord
100
AcDbBlockTableRecord
  2
*D21
340
0
  0
BLOCK_RECORD
  5
47C
330
1
100
AcDbSymbolTableRecord
100
AcDbBlockTableRecord
  2
*D22
340
0
  0
BLOCK_RECORD
  5
486
330
1
100
AcDbSymbolTableRecord
100
AcDbBlockTableRecord
  2
*D23
340
0
  0
BLOCK_RECORD
  5
493
330
1
100
AcDbSymbolTableRecord
100
AcDbBlockTableRecord
  2
*D24
340
0
  0
BLOCK_RECORD
  5
4A0
330
1
100
AcDbSymbolTableRecord
100
AcDbBlockTableRecord
  2
*D25
340
0
  0
BLOCK_RECORD
  5
4AD
330
1
100
AcDbSymbolTableRecord
100
AcDbBlockTableRecord
  2
*D26
340
0
  0
BLOCK_RECORD
  5
548
330
1
100
AcDbSymbolTableRecord
100
AcDbBlockTableRecord
  2
*D27
340
0
  0
ENDTAB
  0
ENDSEC
  0
SECTION
  2
BLOCKS
  0
BLOCK
  5
20
330
1F
100
AcDbEntity
  8
0
100
AcDbBlockBegin
  2
*Model_Space
 70
     0
 10
0.0
 20
0.0
 30
0.0
  3
*Model_Space
  1

  0
ENDBLK
  5
21
330
1F
100
AcDbEntity
  8
0
100
AcDbBlockEnd
  0
BLOCK
  5
D4
330
D2
100
AcDbEntity
 67
     1
  8
0
100
AcDbBlockBegin
  2
*Paper_Space
 70
     0
 10
0.0
 20
0.0
 30
0.0
  3
*Paper_Space
  1

  0
ENDBLK
  5
D5
330
D2
100
AcDbEntity
 67
     1
  8
0
100
AcDbBlockEnd
  0
BLOCK
  5
D8
330
D6
100
AcDbEntity
 67
     1
  8
0
100
AcDbBlockBegin
  2
*Paper_Space0
 70
     0
 10
0.0
 20
0.0
 30
0.0
  3
*Paper_Space0
  1

  0
ENDBLK
  5
D9
330
D6
100
AcDbEntity
 67
     1
  8
0
100
AcDbBlockEnd
  0
BLOCK
  5
346
330
345
100
AcDbEntity
  8
0
100
AcDbBlockBegin
  2
*D1
 70
     1
 10
0.0
 20
0.0
 30
0.0
  3
*D1
  1

  0
LINE
  5
347
330
345
100
AcDbEntity
  8
0
 62
     7
370
    -2
100
AcDbLine
 10
-63257.44556587276
 20
117381.8306257326
 30
0.0
 11
-63293.90042585574
 21
117365.3672365426
 31
0.0
  0
MTEXT
  5
348
330
345
100
AcDbEntity
  8
0
 62
     7
100
AcDbMText
 10
-63188.29074621882
 20
117413.0616525657
 30
0.0
 40
40.0
 41
0.0
 71
     5
 72
     1
  1
\A1;\U+2205700
  7
ARIAL
 11
0.9113714995745722
 21
0.4115847297497756
 31
0.0
 73
     1
 44
1.0
  0
SOLID
  5
349
330
345
100
AcDbEntity
  8
0
 62
     7
100
AcDbTrace
 10
-63296.64432405406
 20
117371.4430465397
 30
0.0
 11
-63291.15652765741
 21
117359.2914265454
 31
0.0
 12
-63330.35528583872
 22
117348.9038473526
 32
0.0
 13
-63330.35528583872
 23
117348.9038473526
 33
0.0
  0
LINE
  5
34A
330
345
100
AcDbEntity
  8
0
 62
     7
370
    -2
100
AcDbLine
 10
-63651.8353106898
 20
117204.8491919402
 30
0.0
 11
-63646.83531068981
 21
117204.8491919402
 31
0.0
  0
LINE
  5
34B
330
345
100
AcDbEntity
  8
0
 62
     7
370
    -2
100
AcDbLine
 10
-63649.33531068981
 20
117202.3491919402
 30
0.0
 11
-63649.33531068981
 21
117207.3491919402
 31
0.0
  0
POINT
  5
34C
330
345
100
AcDbEntity
  8
Defpoints
 62
     0
100
AcDbPoint
 10
-63330.35528583872
 20
117348.9038473526
 30
0.0
  0
POINT
  5
34D
330
345
100
AcDbEntity
  8
Defpoints
 62
     0
100
AcDbPoint
 10
-63968.3153355409
 20
117060.7945365278
 30
0.0
  0
ENDBLK
  5
34E
330
345
100
AcDbEntity
  8
0
100
AcDbBlockEnd
  0
BLOCK
  5
350
330
34F
100
AcDbEntity
  8
0
100
AcDbBlockBegin
  2
*D2
 70
     1
 10
0.0
 20
0.0
 30
0.0
  3
*D2
  1

  0
LINE
  5
351
330
34F
100
AcDbEntity
  8
0
 62
     7
370
    -2
100
AcDbLine
 10
-63264.33531068982
 20
117204.8491919402
 30
0.0
 11
-63304.33531068982
 21
117204.8491919402
 31
0.0
  0
MTEXT
  5
352
330
34F
100
AcDbEntity
  8
0
 62
     7
100
AcDbMText
 10
-63188.45536526008
 20
117204.8491919402
 30
0.0
 40
40.0
 41
0.0
 71
     5
 72
     1
  1
\A1;\U+2205610
  7
ARIAL
 73
     1
 44
1.0
  0
SOLID
  5
353
330
34F
100
AcDbEntity
  8
0
 62
     7
100
AcDbTrace
 10
-63304.33531068982
 20
117211.5158586068
 30
0.0
 11
-63304.33531068982
 21
117198.1825252735
 31
0.0
 12
-63344.33531068982
 22
117204.8491919402
 32
0.0
 13
-63344.33531068982
 23
117204.8491919402
 33
0.0
  0
LINE
  5
354
330
34F
100
AcDbEntity
  8
0
 62
     7
370
    -2
100
AcDbLine
 10
-63651.83531068981
 20
117204.8491919402
 30
0.0
 11
-63646.83531068981
 21
117204.8491919402
 31
0.0
  0
LINE
  5
355
330
34F
100
AcDbEntity
  8
0
 62
     7
370
    -2
100
AcDbLine
 10
-63649.33531068981
 20
117202.3491919402
 30
0.0
 11
-63649.33531068981
 21
117207.3491919402
 31
0.0
  0
POINT
  5
356
330
34F
100
AcDbEntity
  8
Defpoints
 62
     0
100
AcDbPoint
 10
-63344.33531068982
 20
117204.8491919402
 30
0.0
  0
POINT
  5
357
330
34F
100
AcDbEntity
  8
Defpoints
 62
     0
100
AcDbPoint
 10
-63954.33531068981
 20
117204.8491919402
 30
0.0
  0
ENDBLK
  5
358
330
34F
100
AcDbEntity
  8
0
100
AcDbBlockEnd
  0
BLOCK
  5
35A
330
359
100
AcDbEntity
  8
0
100
AcDbBlockBegin
  2
*D3
 70
     1
 10
0.0
 20
0.0
 30
0.0
  3
*D3
  1

  0
LINE
  5
35B
330
359
100
AcDbEntity
  8
0
 62
     7
370
    -2
100
AcDbLine
 10
-64929.19808058893
 20
116916.2075475753
 30
0.0
 11
-64929.19808058893
 21
116793.3021961677
 31
0.0
  0
LINE
  5
35C
330
359
100
AcDbEntity
  8
0
 62
     7
370
    -2
100
AcDbLine
 10
-64329.19808058891
 20
116916.2075475753
 30
0.0
 11
-64329.19808058891
 21
116793.3021961677
 31
0.0
  0
LINE
  5
35D
330
359
100
AcDbEntity
  8
0
 62
     7
370
    -2
100
AcDbLine
 10
-64889.19808058891
 20
116813.3021961677
 30
0.0
 11
-64683.42727567759
 21
116813.3021961677
 31
0.0
  0
LINE
  5
35E
330
359
100
AcDbEntity
  8
0
 62
     7
370
    -2
100
AcDbLine
 10
-64369.19808058893
 20
116813.3021961677
 30
0.0
 11
-64574.96888550023
 21
116813.3021961677
 31
0.0
  0
SOLID
  5
35F
330
359
100
AcDbEntity
  8
0
 62
     7
100
AcDbTrace
 10
-64889.19808058891
 20
116819.9688628343
 30
0.0
 11
-64889.19808058891
 21
116806.635529501
 31
0.0
 12
-64929.19808058893
 22
116813.3021961677
 32
0.0
 13
-64929.19808058893
 23
116813.3021961677
 33
0.0
  0
SOLID
  5
360
330
359
100
AcDbEntity
  8
0
 62
     7
100
AcDbTrace
 10
-64369.19808058893
 20
116819.9688628343
 30
0.0
 11
-64369.19808058893
 21
116806.635529501
 31
0.0
 12
-64329.19808058891
 22
116813.3021961677
 32
0.0
 13
-64329.19808058891
 23
116813.3021961677
 33
0.0
  0
MTEXT
  5
361
330
359
100
AcDbEntity
  8
0
 62
     7
100
AcDbMText
 10
-64629.19808058892
 20
116813.3021961677
 30
0.0
 40
40.0
 41
0.0
 71
     5
 72
     1
  1
\A1;600
  7
ARIAL
 73
     1
 44
1.0
  0
POINT
  5
362
330
359
100
AcDbEntity
  8
Defpoints
 62
     0
100
AcDbPoint
 10
-64929.19808058893
 20
116936.2075475753
 30
0.0
  0
POINT
  5
363
330
359
100
AcDbEntity
  8
Defpoints
 62
     0
100
AcDbPoint
 10
-64329.19808058891
 20
116936.2075475753
 30
0.0
  0
POINT
  5
364
330
359
100
AcDbEntity
  8
Defpoints
 62
     0
100
AcDbPoint
 10
-64329.19808058891
 20
116813.3021961677
 30
0.0
  0
ENDBLK
  5
365
330
359
100
AcDbEntity
  8
0
100
AcDbBlockEnd
  0
BLOCK
  5
367
330
366
100
AcDbEntity
  8
0
100
AcDbBlockBegin
  2
*D4
 70
     1
 10
0.0
 20
0.0
 30
0.0
  3
*D4
  1

  0
LINE
  5
368
330
366
100
AcDbEntity
  8
0
 62
     7
370
    -2
100
AcDbLine
 10
-64293.70006519806
 20
116954.8491919401
 30
0.0
 11
-64185.71035635181
 21
116954.8491919401
 31
0.0
  0
LINE
  5
369
330
366
100
AcDbEntity
  8
0
 62
     7
370
    -2
100
AcDbLine
 10
-64293.70006519806
 20
117554.8491919402
 30
0.0
 11
-64185.71035635181
 21
117554.8491919402
 31
0.0
  0
LINE
  5
36A
330
366
100
AcDbEntity
  8
0
 62
     7
370
    -2
100
AcDbLine
 10
-64205.71035635179
 20
116994.8491919401
 30
0.0
 11
-64205.71035635179
 21
117200.6199968515
 31
0.0
  0
LINE
  5
36B
330
366
100
AcDbEntity
  8
0
 62
     7
370
    -2
100
AcDbLine
 10
-64205.71035635179
 20
117514.8491919402
 30
0.0
 11
-64205.71035635179
 21
117309.0783870288
 31
0.0
  0
SOLID
  5
36C
330
366
100
AcDbEntity
  8
0
 62
     7
100
AcDbTrace
 10
-64212.37702301847
 20
116994.8491919401
 30
0.0
 11
-64199.04368968514
 21
116994.8491919401
 31
0.0
 12
-64205.71035635179
 22
116954.8491919401
 32
0.0
 13
-64205.71035635179
 23
116954.8491919401
 33
0.0
  0
SOLID
  5
36D
330
366
100
AcDbEntity
  8
0
 62
     7
100
AcDbTrace
 10
-64212.37702301847
 20
117514.8491919402
 30
0.0
 11
-64199.04368968514
 21
117514.8491919402
 31
0.0
 12
-64205.71035635179
 22
117554.8491919402
 32
0.0
 13
-64205.71035635179
 23
117554.8491919402
 33
0.0
  0
MTEXT
  5
36E
330
366
100
AcDbEntity
  8
0
 62
     7
100
AcDbMText
 10
-64205.71035635182
 20
117254.8491919402
 30
0.0
 40
40.0
 41
0.0
 71
     5
 72
     1
  1
\A1;600
  7
ARIAL
 11
0.0000000000000001
 21
1.0
 31
0.0
 73
     1
 44
1.0
  0
POINT
  5
36F
330
366
100
AcDbEntity
  8
Defpoints
 62
     0
100
AcDbPoint
 10
-64313.70006519806
 20
116954.8491919401
 30
0.0
  0
POINT
  5
370
330
366
100
AcDbEntity
  8
Defpoints
 62
     0
100
AcDbPoint
 10
-64313.70006519806
 20
117554.8491919402
 30
0.0
  0
POINT
  5
371
330
366
100
AcDbEntity
  8
Defpoints
 62
     0
100
AcDbPoint
 10
-64205.71035635179
 20
117554.8491919402
 30
0.0
  0
ENDBLK
  5
372
330
366
100
AcDbEntity
  8
0
100
AcDbBlockEnd
  0
BLOCK
  5
374
330
373
100
AcDbEntity
  8
0
100
AcDbBlockBegin
  2
*D5
 70
     1
 10
0.0
 20
0.0
 30
0.0
  3
*D5
  1

  0
LINE
  5
375
330
373
100
AcDbEntity
  8
0
 62
     7
370
    -2
100
AcDbLine
 10
-64575.60548499941
 20
117304.9735382127
 30
0.0
 11
-64453.91554438412
 21
117418.7883041179
 31
0.0
  0
MTEXT
  5
376
330
373
100
AcDbEntity
  8
0
 62
     7
100
AcDbMText
 10
-64631.02394034113
 20
117253.141492855
 30
0.0
 40
40.0
 41
0.0
 71
     5
 72
     1
  1
\A1;\U+2205560
  7
ARIAL
 11
0.7303439008534735
 21
0.6830796340736062
 31
0.0
 73
     1
 44
1.0
  0
SOLID
  5
377
330
373
100
AcDbEntity
  8
0
 62
     7
100
AcDbTrace
 10
-64458.4694086113
 20
117423.6572634569
 30
0.0
 11
-64449.36168015697
 21
117413.9193447789
 31
0.0
 12
-64424.70178834999
 22
117446.1114894808
 32
0.0
 13
-64424.70178834999
 23
117446.1114894808
 33
0.0
  0
POINT
  5
378
330
373
100
AcDbEntity
  8
Defpoints
 62
     0
100
AcDbPoint
 10
-64424.70178834999
 20
117446.1114894808
 30
0.0
  0
POINT
  5
379
330
373
100
AcDbEntity
  8
Defpoints
 62
     0
100
AcDbPoint
 10
-64833.69437282793
 20
117063.5868943996
 30
0.0
  0
ENDBLK
  5
37A
330
373
100
AcDbEntity
  8
0
100
AcDbBlockEnd
  0
BLOCK
  5
37C
330
37B
100
AcDbEntity
  8
0
100
AcDbBlockBegin
  2
*D6
 70
     1
 10
0.0
 20
0.0
 30
0.0
  3
*D6
  1

  0
LINE
  5
37D
330
37B
100
AcDbEntity
  8
0
 62
     7
370
    -2
100
AcDbLine
 10
-66005.43806262432
 20
116322.2684404283
 30
0.0
 11
-66005.43806262432
 21
116176.4478641109
 31
0.0
  0
LINE
  5
37E
330
37B
100
AcDbEntity
  8
0
 62
     7
370
    -2
100
AcDbLine
 10
-65405.43806262431
 20
116322.2684404283
 30
0.0
 11
-65405.43806262431
 21
116176.4478641109
 31
0.0
  0
LINE
  5
37F
330
37B
100
AcDbEntity
  8
0
 62
     7
370
    -2
100
AcDbLine
 10
-65965.43806262429
 20
116196.4478641109
 30
0.0
 11
-65759.66725771298
 21
116196.4478641109
 31
0.0
  0
LINE
  5
380
330
37B
100
AcDbEntity
  8
0
 62
     7
370
    -2
100
AcDbLine
 10
-65445.43806262431
 20
116196.4478641109
 30
0.0
 11
-65651.20886753564
 21
116196.4478641109
 31
0.0
  0
SOLID
  5
381
330
37B
100
AcDbEntity
  8
0
 62
     7
100
AcDbTrace
 10
-65965.43806262429
 20
116203.1145307776
 30
0.0
 11
-65965.43806262429
 21
116189.7811974442
 31
0.0
 12
-66005.43806262432
 22
116196.4478641109
 32
0.0
 13
-66005.43806262432
 23
116196.4478641109
 33
0.0
  0
SOLID
  5
382
330
37B
100
AcDbEntity
  8
0
 62
     7
100
AcDbTrace
 10
-65445.43806262431
 20
116203.1145307776
 30
0.0
 11
-65445.43806262431
 21
116189.7811974442
 31
0.0
 12
-65405.43806262431
 22
116196.4478641109
 32
0.0
 13
-65405.43806262431
 23
116196.4478641109
 33
0.0
  0
MTEXT
  5
383
330
37B
100
AcDbEntity
  8
0
 62
     7
100
AcDbMText
 10
-65705.43806262429
 20
116196.4478641109
 30
0.0
 40
40.0
 41
0.0
 71
     5
 72
     1
  1
\A1;600
  7
ARIAL
 73
     1
 44
1.0
  0
POINT
  5
384
330
37B
100
AcDbEntity
  8
Defpoints
 62
     0
100
AcDbPoint
 10
-66005.43806262432
 20
116342.2684404284
 30
0.0
  0
POINT
  5
385
330
37B
100
AcDbEntity
  8
Defpoints
 62
     0
100
AcDbPoint
 10
-65405.43806262431
 20
116342.2684404284
 30
0.0
  0
POINT
  5
386
330
37B
100
AcDbEntity
  8
Defpoints
 62
     0
100
AcDbPoint
 10
-65405.43806262431
 20
116196.4478641109
 30
0.0
  0
ENDBLK
  5
387
330
37B
100
AcDbEntity
  8
0
100
AcDbBlockEnd
  0
BLOCK
  5
389
330
388
100
AcDbEntity
  8
0
100
AcDbBlockBegin
  2
*D7
 70
     1
 10
0.0
 20
0.0
 30
0.0
  3
*D7
  1

  0
LINE
  5
38A
330
388
100
AcDbEntity
  8
0
 62
     7
370
    -2
100
AcDbLine
 10
-65358.41366024138
 20
117554.8491919402
 30
0.0
 11
-65204.52345025766
 21
117554.8491919402
 31
0.0
  0
LINE
  5
38B
330
388
100
AcDbEntity
  8
0
 62
     7
370
    -2
100
AcDbLine
 10
-65358.41366024138
 20
116354.8491919401
 30
0.0
 11
-65204.52345025766
 21
116354.8491919401
 31
0.0
  0
LINE
  5
38C
330
388
100
AcDbEntity
  8
0
 62
     7
370
    -2
100
AcDbLine
 10
-65224.52345025766
 20
117514.8491919402
 30
0.0
 11
-65224.52345025766
 21
117022.6254538774
 31
0.0
  0
LINE
  5
38D
330
388
100
AcDbEntity
  8
0
 62
     7
370
    -2
100
AcDbLine
 10
-65224.52345025766
 20
116394.8491919402
 30
0.0
 11
-65224.52345025766
 21
116887.0729300029
 31
0.0
  0
SOLID
  5
38E
330
388
100
AcDbEntity
  8
0
 62
     7
100
AcDbTrace
 10
-65231.19011692433
 20
117514.8491919402
 30
0.0
 11
-65217.85678359099
 21
117514.8491919402
 31
0.0
 12
-65224.52345025766
 22
117554.8491919402
 32
0.0
 13
-65224.52345025766
 23
117554.8491919402
 33
0.0
  0
SOLID
  5
38F
330
388
100
AcDbEntity
  8
0
 62
     7
100
AcDbTrace
 10
-65231.19011692433
 20
116394.8491919402
 30
0.0
 11
-65217.85678359099
 21
116394.8491919402
 31
0.0
 12
-65224.52345025766
 22
116354.8491919401
 32
0.0
 13
-65224.52345025766
 23
116354.8491919401
 33
0.0
  0
MTEXT
  5
390
330
388
100
AcDbEntity
  8
0
 62
     7
100
AcDbMText
 10
-65224.52345025769
 20
116954.8491919401
 30
0.0
 40
40.0
 41
0.0
 71
     5
 72
     1
  1
\A1;1200
  7
ARIAL
 11
0.0000000000000001
 21
1.0
 31
0.0
 73
     1
 44
1.0
  0
POINT
  5
391
330
388
100
AcDbEntity
  8
Defpoints
 62
     0
100
AcDbPoint
 10
-65378.41366024138
 20
117554.8491919402
 30
0.0
  0
POINT
  5
392
330
388
100
AcDbEntity
  8
Defpoints
 62
     0
100
AcDbPoint
 10
-65378.41366024138
 20
116354.8491919401
 30
0.0
  0
POINT
  5
393
330
388
100
AcDbEntity
  8
Defpoints
 62
     0
100
AcDbPoint
 10
-65224.52345025766
 20
116354.8491919401
 30
0.0
  0
ENDBLK
  5
394
330
388
100
AcDbEntity
  8
0
100
AcDbBlockEnd
  0
BLOCK
  5
396
330
395
100
AcDbEntity
  8
0
100
AcDbBlockBegin
  2
*D8
 70
     1
 10
0.0
 20
0.0
 30
0.0
  3
*D8
  1

  0
LINE
  5
397
330
395
100
AcDbEntity
  8
0
 62
     7
370
    -2
100
AcDbLine
 10
-65362.15359040022
 20
117598.3412930798
 30
0.0
 11
-65390.40462151192
 21
117570.0238207151
 31
0.0
  0
MTEXT
  5
398
330
395
100
AcDbEntity
  8
0
 62
     7
100
AcDbMText
 10
-65321.23199110574
 20
117639.3591324839
 30
0.0
 40
40.0
 41
0.0
 71
     5
 72
     1
  1
\A1;R45
  7
ARIAL
 11
0.7062757777926803
 21
0.7079368091174131
 31
0.0
 73
     1
 44
1.0
  0
SOLID
  5
399
330
395
100
AcDbEntity
  8
0
 62
     7
100
AcDbTrace
 10
-65395.12420023937
 20
117574.7323259004
 30
0.0
 11
-65385.68504278447
 21
117565.3153155298
 31
0.0
 12
-65418.65565262363
 22
117541.7063483504
 32
0.0
 13
-65418.65565262363
 23
117541.7063483504
 33
0.0
  0
LINE
  5
39A
330
395
100
AcDbEntity
  8
0
 62
     7
370
    -2
100
AcDbLine
 10
-65452.93806262432
 20
117509.8491919401
 30
0.0
 11
-65447.93806262433
 21
117509.8491919401
 31
0.0
  0
LINE
  5
39B
330
395
100
AcDbEntity
  8
0
 62
     7
370
    -2
100
AcDbLine
 10
-65450.43806262433
 20
117507.3491919401
 30
0.0
 11
-65450.43806262433
 21
117512.3491919401
 31
0.0
  0
POINT
  5
39C
330
395
100
AcDbEntity
  8
Defpoints
 62
     0
100
AcDbPoint
 10
-65418.65565262363
 20
117541.7063483504
 30
0.0
  0
POINT
  5
39D
330
395
100
AcDbEntity
  8
Defpoints
 62
     0
100
AcDbPoint
 10
-65450.43806262433
 20
117509.8491919401
 30
0.0
  0
ENDBLK
  5
39E
330
395
100
AcDbEntity
  8
0
100
AcDbBlockEnd
  0
BLOCK
  5
3A0
330
39F
100
AcDbEntity
  8
0
100
AcDbBlockBegin
  2
*D9
 70
     1
 10
0.0
 20
0.0
 30
0.0
  3
*D9
  1

  0
LINE
  5
3A1
330
39F
100
AcDbEntity
  8
0
 62
     7
370
    -2
100
AcDbLine
 10
-65887.28214540476
 20
117465.367973061
 30
0.0
 11
-65913.76205826744
 21
117495.3482034601
 31
0.0
  0
MTEXT
  5
3A2
330
39F
100
AcDbEntity
  8
0
 62
     7
100
AcDbMText
 10
-65849.16082473855
 20
117422.2074844816
 30
0.0
 40
40.0
 41
0.0
 71
     5
 72
     1
  1
\A1;R42
  7
ARIAL
 11
0.6619978215669464
 21
-0.7495057599782791
 31
0.0
 73
     1
 44
1.0
  0
SOLID
  5
3A3
330
39F
100
AcDbEntity
  8
0
 62
     7
100
AcDbTrace
 10
-65908.76535320091
 20
117499.7615222705
 30
0.0
 11
-65918.75876333397
 21
117490.9348846497
 31
0.0
 12
-65940.24197113014
 22
117525.3284338592
 32
0.0
 13
-65940.24197113014
 23
117525.3284338592
 33
0.0
  0
LINE
  5
3A4
330
39F
100
AcDbEntity
  8
0
 62
     7
370
    -2
100
AcDbLine
 10
-65970.54587963588
 20
117556.8076757782
 30
0.0
 11
-65965.54587963587
 21
117556.8076757782
 31
0.0
  0
LINE
  5
3A5
330
39F
100
AcDbEntity
  8
0
 62
     7
370
    -2
100
AcDbLine
 10
-65968.04587963585
 20
117554.3076757782
 30
0.0
 11
-65968.04587963585
 21
117559.3076757782
 31
0.0
  0
POINT
  5
3A6
330
39F
100
AcDbEntity
  8
Defpoints
 62
     0
100
AcDbPoint
 10
-65940.24197113014
 20
117525.3284338592
 30
0.0
  0
POINT
  5
3A7
330
39F
100
AcDbEntity
  8
Defpoints
 62
     0
100
AcDbPoint
 10
-65968.04587963585
 20
117556.8076757782
 30
0.0
  0
ENDBLK
  5
3A8
330
39F
100
AcDbEntity
  8
0
100
AcDbBlockEnd
  0
BLOCK
  5
3AA
330
3A9
100
AcDbEntity
  8
0
100
AcDbBlockBegin
  2
*D10
 70
     1
 10
0.0
 20
0.0
 30
0.0
  3
*D10
  1

  0
LINE
  5
3AB
330
3A9
100
AcDbEntity
  8
0
 62
     7
370
    -2
100
AcDbLine
 10
-65954.43806262432
 20
117098.7724345712
 30
0.0
 11
-65954.43806262432
 21
117153.6693255765
 31
0.0
  0
LINE
  5
3AC
330
3A9
100
AcDbEntity
  8
0
 62
     7
370
    -2
100
AcDbLine
 10
-65424.4380626243
 20
117098.7724345712
 30
0.0
 11
-65424.4380626243
 21
117153.6693255765
 31
0.0
  0
LINE
  5
3AD
330
3A9
100
AcDbEntity
  8
0
 62
     7
370
    -2
100
AcDbLine
 10
-65914.43806262429
 20
117133.6693255764
 30
0.0
 11
-65743.55811719456
 21
117133.6693255764
 31
0.0
  0
LINE
  5
3AE
330
3A9
100
AcDbEntity
  8
0
 62
     7
370
    -2
100
AcDbLine
 10
-65464.43806262431
 20
117133.6693255764
 30
0.0
 11
-65635.31800805405
 21
117133.6693255764
 31
0.0
  0
SOLID
  5
3AF
330
3A9
100
AcDbEntity
  8
0
 62
     7
100
AcDbTrace
 10
-65914.43806262429
 20
117140.3359922431
 30
0.0
 11
-65914.43806262429
 21
117127.0026589098
 31
0.0
 12
-65954.43806262432
 22
117133.6693255764
 32
0.0
 13
-65954.43806262432
 23
117133.6693255764
 33
0.0
  0
SOLID
  5
3B0
330
3A9
100
AcDbEntity
  8
0
 62
     7
100
AcDbTrace
 10
-65464.43806262431
 20
117140.3359922431
 30
0.0
 11
-65464.43806262431
 21
117127.0026589098
 31
0.0
 12
-65424.4380626243
 22
117133.6693255764
 32
0.0
 13
-65424.4380626243
 23
117133.6693255764
 33
0.0
  0
MTEXT
  5
3B1
330
3A9
100
AcDbEntity
  8
0
 62
     7
100
AcDbMText
 10
-65689.43806262432
 20
117133.6693255764
 30
0.0
 40
40.0
 41
0.0
 71
     5
 72
     1
  1
\A1;530
  7
ARIAL
 73
     1
 44
1.0
  0
POINT
  5
3B2
330
3A9
100
AcDbEntity
  8
Defpoints
 62
     0
100
AcDbPoint
 10
-65954.43806262432
 20
117078.7724345712
 30
0.0
  0
POINT
  5
3B3
330
3A9
100
AcDbEntity
  8
Defpoints
 62
     0
100
AcDbPoint
 10
-65424.4380626243
 20
117078.7724345712
 30
0.0
  0
POINT
  5
3B4
330
3A9
100
AcDbEntity
  8
Defpoints
 62
     0
100
AcDbPoint
 10
-65424.4380626243
 20
117133.6693255764
 30
0.0
  0
ENDBLK
  5
3B5
330
3A9
100
AcDbEntity
  8
0
100
AcDbBlockEnd
  0
BLOCK
  5
3B7
330
3B6
100
AcDbEntity
  8
0
100
AcDbBlockBegin
  2
*D11
 70
     1
 10
0.0
 20
0.0
 30
0.0
  3
*D11
  1

  0
LINE
  5
3B8
330
3B6
100
AcDbEntity
  8
0
 62
     7
370
    -2
100
AcDbLine
 10
-65540.10346460616
 20
117535.8491919402
 30
0.0
 11
-65568.87831390924
 21
117535.8491919402
 31
0.0
  0
LINE
  5
3B9
330
3B6
100
AcDbEntity
  8
0
 62
     7
370
    -2
100
AcDbLine
 10
-65540.10346460616
 20
116405.8491919401
 30
0.0
 11
-65568.87831390924
 21
116405.8491919401
 31
0.0
  0
LINE
  5
3BA
330
3B6
100
AcDbEntity
  8
0
 62
     7
370
    -2
100
AcDbLine
 10
-65548.87831390924
 20
117495.8491919402
 30
0.0
 11
-65548.87831390924
 21
117038.6254538774
 31
0.0
  0
LINE
  5
3BB
330
3B6
100
AcDbEntity
  8
0
 62
     7
370
    -2
100
AcDbLine
 10
-65548.87831390924
 20
116445.8491919401
 30
0.0
 11
-65548.87831390924
 21
116903.0729300029
 31
0.0
  0
SOLID
  5
3BC
330
3B6
100
AcDbEntity
  8
0
 62
     7
100
AcDbTrace
 10
-65555.54498057593
 20
117495.8491919402
 30
0.0
 11
-65542.21164724258
 21
117495.8491919402
 31
0.0
 12
-65548.87831390924
 22
117535.8491919402
 32
0.0
 13
-65548.87831390924
 23
117535.8491919402
 33
0.0
  0
SOLID
  5
3BD
330
3B6
100
AcDbEntity
  8
0
 62
     7
100
AcDbTrace
 10
-65555.54498057593
 20
116445.8491919401
 30
0.0
 11
-65542.21164724258
 21
116445.8491919401
 31
0.0
 12
-65548.87831390924
 22
116405.8491919401
 32
0.0
 13
-65548.87831390924
 23
116405.8491919401
 33
0.0
  0
MTEXT
  5
3BE
330
3B6
100
AcDbEntity
  8
0
 62
     7
100
AcDbMText
 10
-65548.87831390927
 20
116970.8491919401
 30
0.0
 40
40.0
 41
0.0
 71
     5
 72
     1
  1
\A1;1130
  7
ARIAL
 11
0.0000000000000001
 21
1.0
 31
0.0
 73
     1
 44
1.0
  0
POINT
  5
3BF
330
3B6
100
AcDbEntity
  8
Defpoints
 62
     0
100
AcDbPoint
 10
-65520.10346460615
 20
117535.8491919402
 30
0.0
  0
POINT
  5
3C0
330
3B6
100
AcDbEntity
  8
Defpoints
 62
     0
100
AcDbPoint
 10
-65520.10346460615
 20
116405.8491919401
 30
0.0
  0
POINT
  5
3C1
330
3B6
100
AcDbEntity
  8
Defpoints
 62
     0
100
AcDbPoint
 10
-65548.87831390924
 20
116405.8491919401
 30
0.0
  0
ENDBLK
  5
3C2
330
3B6
100
AcDbEntity
  8
0
100
AcDbBlockEnd
  0
BLOCK
  5
3C4
330
3C3
100
AcDbEntity
  8
0
100
AcDbBlockBegin
  2
*D12
 70
     1
 10
0.0
 20
0.0
 30
0.0
  3
*D12
  1

  0
LINE
  5
3C5
330
3C3
100
AcDbEntity
  8
0
 62
     7
370
    -2
100
AcDbLine
 10
-65300.68470143771
 20
117554.8491919402
 30
0.0
 11
-65274.90691271005
 21
117554.8491919402
 31
0.0
  0
LINE
  5
3C6
330
3C3
100
AcDbEntity
  8
0
 62
     7
370
    -2
100
AcDbLine
 10
-65300.68470143771
 20
117535.8491919402
 30
0.0
 11
-65274.90691271005
 21
117535.8491919402
 31
0.0
  0
LINE
  5
3C7
330
3C3
100
AcDbEntity
  8
0
 62
     7
370
    -2
100
AcDbLine
 10
-65294.90691271005
 20
117594.8491919402
 30
0.0
 11
-65294.90691271005
 21
117634.8491919402
 31
0.0
  0
LINE
  5
3C8
330
3C3
100
AcDbEntity
  8
0
 62
     7
370
    -2
100
AcDbLine
 10
-65294.90691271005
 20
117495.8491919402
 30
0.0
 11
-65294.90691271005
 21
117455.8491919402
 31
0.0
  0
SOLID
  5
3C9
330
3C3
100
AcDbEntity
  8
0
 62
     7
100
AcDbTrace
 10
-65301.57357937671
 20
117594.8491919402
 30
0.0
 11
-65288.24024604339
 21
117594.8491919402
 31
0.0
 12
-65294.90691271005
 22
117554.8491919402
 32
0.0
 13
-65294.90691271005
 23
117554.8491919402
 33
0.0
  0
SOLID
  5
3CA
330
3C3
100
AcDbEntity
  8
0
 62
     7
100
AcDbTrace
 10
-65301.57357937671
 20
117495.8491919402
 30
0.0
 11
-65288.24024604339
 21
117495.8491919402
 31
0.0
 12
-65294.90691271005
 22
117535.8491919402
 32
0.0
 13
-65294.90691271005
 23
117535.8491919402
 33
0.0
  0
MTEXT
  5
3CB
330
3C3
100
AcDbEntity
  8
0
 62
     7
100
AcDbMText
 10
-65294.90691271008
 20
117419.0415521038
 30
0.0
 40
40.0
 41
0.0
 71
     5
 72
     1
  1
\A1;19
  7
ARIAL
 11
0.0000000000000001
 21
1.0
 31
0.0
 73
     1
 44
1.0
  0
POINT
  5
3CC
330
3C3
100
AcDbEntity
  8
Defpoints
 62
     0
100
AcDbPoint
 10
-65320.68470143771
 20
117554.8491919402
 30
0.0
  0
POINT
  5
3CD
330
3C3
100
AcDbEntity
  8
Defpoints
 62
     0
100
AcDbPoint
 10
-65320.68470143771
 20
117535.8491919402
 30
0.0
  0
POINT
  5
3CE
330
3C3
100
AcDbEntity
  8
Defpoints
 62
     0
100
AcDbPoint
 10
-65294.90691271005
 20
117535.8491919402
 30
0.0
  0
ENDBLK
  5
3CF
330
3C3
100
AcDbEntity
  8
0
100
AcDbBlockEnd
  0
BLOCK
  5
3D1
330
3D0
100
AcDbEntity
  8
0
100
AcDbBlockBegin
  2
*D13
 70
     1
 10
0.0
 20
0.0
 30
0.0
  3
*D13
  1

  0
LINE
  5
3D2
330
3D0
100
AcDbEntity
  8
0
 62
     7
370
    -2
100
AcDbLine
 10
-65405.43806262431
 20
116322.2684404283
 30
0.0
 11
-65405.43806262431
 21
116274.1626065117
 31
0.0
  0
LINE
  5
3D3
330
3D0
100
AcDbEntity
  8
0
 62
     7
370
    -2
100
AcDbLine
 10
-65424.4380626243
 20
116322.2684404283
 30
0.0
 11
-65424.4380626243
 21
116274.1626065117
 31
0.0
  0
LINE
  5
3D4
330
3D0
100
AcDbEntity
  8
0
 62
     7
370
    -2
100
AcDbLine
 10
-65365.43806262431
 20
116294.1626065117
 30
0.0
 11
-65325.43806262431
 21
116294.1626065117
 31
0.0
  0
LINE
  5
3D5
330
3D0
100
AcDbEntity
  8
0
 62
     7
370
    -2
100
AcDbLine
 10
-65464.43806262431
 20
116294.1626065117
 30
0.0
 11
-65504.4380626243
 21
116294.1626065117
 31
0.0
  0
SOLID
  5
3D6
330
3D0
100
AcDbEntity
  8
0
 62
     7
100
AcDbTrace
 10
-65365.43806262431
 20
116300.8292731783
 30
0.0
 11
-65365.43806262431
 21
116287.495939845
 31
0.0
 12
-65405.43806262431
 22
116294.1626065117
 32
0.0
 13
-65405.43806262431
 23
116294.1626065117
 33
0.0
  0
SOLID
  5
3D7
330
3D0
100
AcDbEntity
  8
0
 62
     7
100
AcDbTrace
 10
-65464.43806262431
 20
116300.8292731783
 30
0.0
 11
-65464.43806262431
 21
116287.495939845
 31
0.0
 12
-65424.4380626243
 22
116294.1626065117
 32
0.0
 13
-65424.4380626243
 23
116294.1626065117
 33
0.0
  0
MTEXT
  5
3D8
330
3D0
100
AcDbEntity
  8
0
 62
     7
100
AcDbMText
 10
-65541.24570246058
 20
116294.1626065117
 30
0.0
 40
40.0
 41
0.0
 71
     5
 72
     1
  1
\A1;19
  7
ARIAL
 73
     1
 44
1.0
  0
POINT
  5
3D9
330
3D0
100
AcDbEntity
  8
Defpoints
 62
     0
100
AcDbPoint
 10
-65405.43806262431
 20
116342.2684404284
 30
0.0
  0
POINT
  5
3DA
330
3D0
100
AcDbEntity
  8
Defpoints
 62
     0
100
AcDbPoint
 10
-65424.4380626243
 20
116342.2684404284
 30
0.0
  0
POINT
  5
3DB
330
3D0
100
AcDbEntity
  8
Defpoints
 62
     0
100
AcDbPoint
 10
-65424.4380626243
 20
116294.1626065117
 30
0.0
  0
ENDBLK
  5
3DC
330
3D0
100
AcDbEntity
  8
0
100
AcDbBlockEnd
  0
BLOCK
  5
42A
330
422
100
AcDbEntity
  8
0
100
AcDbBlockBegin
  2
*D14
 70
     1
 10
0.0
 20
0.0
 30
0.0
  3
*D14
  1

  0
LINE
  5
4BA
330
422
100
AcDbEntity
  8
0
 62
     7
370
    -2
100
AcDbLine
 10
2967.636105658634
 20
1185.699640485657
 30
0.0
 11
2931.181245675652
 21
1169.236251295666
 31
0.0
  0
MTEXT
  5
4BB
330
422
100
AcDbEntity
  8
0
 62
     7
100
AcDbMText
 10
3036.790925312574
 20
1216.930667318785
 30
0.0
 40
40.0
 41
0.0
 71
     5
 72
     1
  1
\A1;\U+2205700
  7
ARIAL
 11
0.9113714995745722
 21
0.4115847297497756
 31
0.0
 73
     1
 44
1.0
  0
SOLID
  5
4BC
330
422
100
AcDbEntity
  8
0
 62
     7
100
AcDbTrace
 10
2928.43734747732
 20
1175.31206129283
 30
0.0
 11
2933.925143873984
 21
1163.160441298502
 31
0.0
 12
2894.726385692669
 22
1152.772862105675
 32
0.0
 13
2894.726385692669
 23
1152.772862105675
 33
0.0
  0
LINE
  5
4BD
330
422
100
AcDbEntity
  8
0
 62
     7
370
    -2
100
AcDbLine
 10
2573.246360841582
 20
1008.71820669326
 30
0.0
 11
2578.246360841581
 21
1008.71820669326
 31
0.0
  0
LINE
  5
4BE
330
422
100
AcDbEntity
  8
0
 62
     7
370
    -2
100
AcDbLine
 10
2575.746360841581
 20
1006.21820669326
 30
0.0
 11
2575.746360841581
 21
1011.21820669326
 31
0.0
  0
POINT
  5
4BF
330
422
100
AcDbEntity
  8
Defpoints
 62
     0
100
AcDbPoint
 10
2894.726385692669
 20
1152.772862105675
 30
0.0
  0
POINT
  5
4C0
330
422
100
AcDbEntity
  8
Defpoints
 62
     0
100
AcDbPoint
 10
2256.766335990493
 20
864.6635512808437
 30
0.0
  0
ENDBLK
  5
42B
330
422
100
AcDbEntity
  8
0
100
AcDbBlockEnd
  0
BLOCK
  5
434
330
42C
100
AcDbEntity
  8
0
100
AcDbBlockBegin
  2
*D15
 70
     1
 10
0.0
 20
0.0
 30
0.0
  3
*D15
  1

  0
LINE
  5
4C1
330
42C
100
AcDbEntity
  8
0
 62
     7
370
    -2
100
AcDbLine
 10
2960.746360841567
 20
1008.71820669323
 30
0.0
 11
2920.746360841567
 21
1008.71820669323
 31
0.0
  0
MTEXT
  5
4C2
330
42C
100
AcDbEntity
  8
0
 62
     7
100
AcDbMText
 10
3036.626306271307
 20
1008.71820669323
 30
0.0
 40
40.0
 41
0.0
 71
     5
 72
     1
  1
\A1;\U+2205610
  7
ARIAL
 73
     1
 44
1.0
  0
SOLID
  5
4C3
330
42C
100
AcDbEntity
  8
0
 62
     7
100
AcDbTrace
 10
2920.746360841567
 20
1015.384873359897
 30
0.0
 11
2920.746360841567
 21
1002.051540026564
 31
0.0
 12
2880.746360841567
 22
1008.71820669323
 32
0.0
 13
2880.746360841567
 23
1008.71820669323
 33
0.0
  0
LINE
  5
4C4
330
42C
100
AcDbEntity
  8
0
 62
     7
370
    -2
100
AcDbLine
 10
2573.246360841581
 20
1008.71820669323
 30
0.0
 11
2578.246360841581
 21
1008.71820669323
 31
0.0
  0
LINE
  5
4C5
330
42C
100
AcDbEntity
  8
0
 62
     7
370
    -2
100
AcDbLine
 10
2575.746360841581
 20
1006.21820669323
 30
0.0
 11
2575.746360841581
 21
1011.21820669323
 31
0.0
  0
POINT
  5
4C6
330
42C
100
AcDbEntity
  8
Defpoints
 62
     0
100
AcDbPoint
 10
2880.746360841567
 20
1008.71820669323
 30
0.0
  0
POINT
  5
4C7
330
42C
100
AcDbEntity
  8
Defpoints
 62
     0
100
AcDbPoint
 10
2270.746360841596
 20
1008.71820669323
 30
0.0
  0
ENDBLK
  5
435
330
42C
100
AcDbEntity
  8
0
100
AcDbBlockEnd
  0
BLOCK
  5
441
330
436
100
AcDbEntity
  8
0
100
AcDbBlockBegin
  2
*D16
 70
     1
 10
0.0
 20
0.0
 30
0.0
  3
*D16
  1

  0
LINE
  5
4C8
330
436
100
AcDbEntity
  8
0
 62
     7
370
    -2
100
AcDbLine
 10
1295.883590942477
 20
720.0765623283528
 30
0.0
 11
1295.883590942477
 21
597.1712109207304
 31
0.0
  0
LINE
  5
4C9
330
436
100
AcDbEntity
  8
0
 62
     7
370
    -2
100
AcDbLine
 10
1895.883590942477
 20
720.0765623283528
 30
0.0
 11
1895.883590942477
 21
597.1712109207304
 31
0.0
  0
LINE
  5
4CA
330
436
100
AcDbEntity
  8
0
 62
     7
370
    -2
100
AcDbLine
 10
1335.883590942477
 20
617.1712109207304
 30
0.0
 11
1541.6543958538
 21
617.1712109207304
 31
0.0
  0
LINE
  5
4CB
330
436
100
AcDbEntity
  8
0
 62
     7
370
    -2
100
AcDbLine
 10
1855.883590942477
 20
617.1712109207304
 30
0.0
 11
1650.112786031154
 21
617.1712109207304
 31
0.0
  0
SOLID
  5
4CC
330
436
100
AcDbEntity
  8
0
 62
     7
100
AcDbTrace
 10
1335.883590942477
 20
623.8378775873972
 30
0.0
 11
1335.883590942477
 21
610.5045442540638
 31
0.0
 12
1295.883590942477
 22
617.1712109207304
 32
0.0
 13
1295.883590942477
 23
617.1712109207304
 33
0.0
  0
SOLID
  5
4CD
330
436
100
AcDbEntity
  8
0
 62
     7
100
AcDbTrace
 10
1855.883590942477
 20
623.8378775873972
 30
0.0
 11
1855.883590942477
 21
610.5045442540638
 31
0.0
 12
1895.883590942477
 22
617.1712109207304
 32
0.0
 13
1895.883590942477
 23
617.1712109207304
 33
0.0
  0
MTEXT
  5
4CE
330
436
100
AcDbEntity
  8
0
 62
     7
100
AcDbMText
 10
1595.883590942477
 20
617.1712109207304
 30
0.0
 40
40.0
 41
0.0
 71
     5
 72
     1
  1
\A1;600
  7
ARIAL
 73
     1
 44
1.0
  0
POINT
  5
4CF
330
436
100
AcDbEntity
  8
Defpoints
 62
     0
100
AcDbPoint
 10
1295.883590942477
 20
740.0765623283527
 30
0.0
  0
POINT
  5
4D0
330
436
100
AcDbEntity
  8
Defpoints
 62
     0
100
AcDbPoint
 10
1895.883590942477
 20
740.0765623283527
 30
0.0
  0
POINT
  5
4D1
330
436
100
AcDbEntity
  8
Defpoints
 62
     0
100
AcDbPoint
 10
1895.883590942477
 20
617.1712109207304
 30
0.0
  0
ENDBLK
  5
442
330
436
100
AcDbEntity
  8
0
100
AcDbBlockEnd
  0
BLOCK
  5
44E
330
443
100
AcDbEntity
  8
0
100
AcDbBlockBegin
  2
*D17
 70
     1
 10
0.0
 20
0.0
 30
0.0
  3
*D17
  1

  0
LINE
  5
4D2
330
443
100
AcDbEntity
  8
0
 62
     7
370
    -2
100
AcDbLine
 10
1931.381606333332
 20
758.7182066932304
 30
0.0
 11
2039.371315179592
 21
758.7182066932304
 31
0.0
  0
LINE
  5
4D3
330
443
100
AcDbEntity
  8
0
 62
     7
370
    -2
100
AcDbLine
 10
1931.381606333332
 20
1358.71820669323
 30
0.0
 11
2039.371315179592
 21
1358.71820669323
 31
0.0
  0
LINE
  5
4D4
330
443
100
AcDbEntity
  8
0
 62
     7
370
    -2
100
AcDbLine
 10
2019.371315179592
 20
798.7182066932303
 30
0.0
 11
2019.371315179592
 21
1004.489011604554
 31
0.0
  0
LINE
  5
4D5
330
443
100
AcDbEntity
  8
0
 62
     7
370
    -2
100
AcDbLine
 10
2019.371315179592
 20
1318.71820669323
 30
0.0
 11
2019.371315179592
 21
1112.947401781907
 31
0.0
  0
SOLID
  5
4D6
330
443
100
AcDbEntity
  8
0
 62
     7
100
AcDbTrace
 10
2012.704648512925
 20
798.7182066932303
 30
0.0
 11
2026.037981846259
 21
798.7182066932303
 31
0.0
 12
2019.371315179592
 22
758.7182066932304
 32
0.0
 13
2019.371315179592
 23
758.7182066932304
 33
0.0
  0
SOLID
  5
4D7
330
443
100
AcDbEntity
  8
0
 62
     7
100
AcDbTrace
 10
2012.704648512925
 20
1318.71820669323
 30
0.0
 11
2026.037981846259
 21
1318.71820669323
 31
0.0
 12
2019.371315179592
 22
1358.71820669323
 32
0.0
 13
2019.371315179592
 23
1358.71820669323
 33
0.0
  0
MTEXT
  5
4D8
330
443
100
AcDbEntity
  8
0
 62
     7
100
AcDbMText
 10
2019.371315179592
 20
1058.718206693231
 30
0.0
 40
40.0
 41
0.0
 71
     5
 72
     1
  1
\A1;600
  7
ARIAL
 11
0.0000000000000001
 21
1.0
 31
0.0
 73
     1
 44
1.0
  0
POINT
  5
4D9
330
443
100
AcDbEntity
  8
Defpoints
 62
     0
100
AcDbPoint
 10
1911.381606333332
 20
758.7182066932304
 30
0.0
  0
POINT
  5
4DA
330
443
100
AcDbEntity
  8
Defpoints
 62
     0
100
AcDbPoint
 10
1911.381606333332
 20
1358.71820669323
 30
0.0
  0
POINT
  5
4DB
330
443
100
AcDbEntity
  8
Defpoints
 62
     0
100
AcDbPoint
 10
2019.371315179592
 20
1358.71820669323
 30
0.0
  0
ENDBLK
  5
44F
330
443
100
AcDbEntity
  8
0
100
AcDbBlockEnd
  0
BLOCK
  5
456
330
450
100
AcDbEntity
  8
0
100
AcDbBlockBegin
  2
*D18
 70
     1
 10
0.0
 20
0.0
 30
0.0
  3
*D18
  1

  0
LINE
  5
4DC
330
450
100
AcDbEntity
  8
0
 62
     7
370
    -2
100
AcDbLine
 10
1649.476186531978
 20
1108.842552965758
 30
0.0
 11
1771.166127147263
 21
1222.657318870957
 31
0.0
  0
MTEXT
  5
4DD
330
450
100
AcDbEntity
  8
0
 62
     7
100
AcDbMText
 10
1594.057731190272
 20
1057.010507608086
 30
0.0
 40
40.0
 41
0.0
 71
     5
 72
     1
  1
\A1;\U+2205560
  7
ARIAL
 11
0.7303439008534735
 21
0.6830796340736062
 31
0.0
 73
     1
 44
1.0
  0
SOLID
  5
4DE
330
450
100
AcDbEntity
  8
0
 62
     7
100
AcDbTrace
 10
1766.612262920105
 20
1227.52627820998
 30
0.0
 11
1775.71999137442
 21
1217.788359531933
 31
0.0
 12
1800.379883181402
 22
1249.980504233901
 32
0.0
 13
1800.379883181402
 23
1249.980504233901
 33
0.0
  0
POINT
  5
4DF
330
450
100
AcDbEntity
  8
Defpoints
 62
     0
100
AcDbPoint
 10
1800.379883181402
 20
1249.980504233901
 30
0.0
  0
POINT
  5
4E0
330
450
100
AcDbEntity
  8
Defpoints
 62
     0
100
AcDbPoint
 10
1391.387298703451
 20
867.4559091526766
 30
0.0
  0
ENDBLK
  5
457
330
450
100
AcDbEntity
  8
0
100
AcDbBlockEnd
  0
BLOCK
  5
463
330
458
100
AcDbEntity
  8
0
100
AcDbBlockBegin
  2
*D19
 70
     1
 10
0.0
 20
0.0
 30
0.0
  3
*D19
  1

  0
LINE
  5
4E1
330
458
100
AcDbEntity
  8
0
 62
     7
370
    -2
100
AcDbLine
 10
219.6436089070877
 20
126.1374551814238
 30
0.0
 11
219.6436089070877
 21
-19.68312113602445
 31
0.0
  0
LINE
  5
4E2
330
458
100
AcDbEntity
  8
0
 62
     7
370
    -2
100
AcDbLine
 10
819.6436089070877
 20
126.1374551814238
 30
0.0
 11
819.6436089070877
 21
-19.68312113602445
 31
0.0
  0
LINE
  5
4E3
330
458
100
AcDbEntity
  8
0
 62
     7
370
    -2
100
AcDbLine
 10
259.6436089070877
 20
0.3168788639755462
 30
0.0
 11
465.414413818411
 21
0.3168788639755462
 31
0.0
  0
LINE
  5
4E4
330
458
100
AcDbEntity
  8
0
 62
     7
370
    -2
100
AcDbLine
 10
779.6436089070875
 20
0.3168788639755462
 30
0.0
 11
573.8728039957642
 21
0.3168788639755462
 31
0.0
  0
SOLID
  5
4E5
330
458
100
AcDbEntity
  8
0
 62
     7
100
AcDbTrace
 10
259.6436089070877
 20
6.983545530642212
 30
0.0
 11
259.6436089070877
 21
-6.349787802691119
 31
0.0
 12
219.6436089070877
 22
0.3168788639755462
 32
0.0
 13
219.6436089070877
 23
0.3168788639755462
 33
0.0
  0
SOLID
  5
4E6
330
458
100
AcDbEntity
  8
0
 62
     7
100
AcDbTrace
 10
779.6436089070875
 20
6.983545530642212
 30
0.0
 11
779.6436089070875
 21
-6.349787802691119
 31
0.0
 12
819.6436089070877
 22
0.3168788639755462
 32
0.0
 13
819.6436089070877
 23
0.3168788639755462
 33
0.0
  0
MTEXT
  5
4E7
330
458
100
AcDbEntity
  8
0
 62
     7
100
AcDbMText
 10
519.6436089070877
 20
0.3168788639755462
 30
0.0
 40
40.0
 41
0.0
 71
     5
 72
     1
  1
\A1;600
  7
ARIAL
 73
     1
 44
1.0
  0
POINT
  5
4E8
330
458
100
AcDbEntity
  8
Defpoints
 62
     0
100
AcDbPoint
 10
219.6436089070877
 20
146.1374551814238
 30
0.0
  0
POINT
  5
4E9
330
458
100
AcDbEntity
  8
Defpoints
 62
     0
100
AcDbPoint
 10
819.6436089070877
 20
146.1374551814238
 30
0.0
  0
POINT
  5
4EA
330
458
100
AcDbEntity
  8
Defpoints
 62
     0
100
AcDbPoint
 10
819.6436089070877
 20
0.3168788639755462
 30
0.0
  0
ENDBLK
  5
464
330
458
100
AcDbEntity
  8
0
100
AcDbBlockEnd
  0
BLOCK
  5
470
330
465
100
AcDbEntity
  8
0
100
AcDbBlockBegin
  2
*D20
 70
     1
 10
0.0
 20
0.0
 30
0.0
  3
*D20
  1

  0
LINE
  5
4EB
330
465
100
AcDbEntity
  8
0
 62
     7
370
    -2
100
AcDbLine
 10
866.6680112900168
 20
1358.71820669323
 30
0.0
 11
1020.558221273731
 21
1358.71820669323
 31
0.0
  0
LINE
  5
4EC
330
465
100
AcDbEntity
  8
0
 62
     7
370
    -2
100
AcDbLine
 10
866.6680112900168
 20
158.7182066932306
 30
0.0
 11
1020.558221273731
 21
158.7182066932305
 31
0.0
  0
LINE
  5
4ED
330
465
100
AcDbEntity
  8
0
 62
     7
370
    -2
100
AcDbLine
 10
1000.558221273731
 20
1318.71820669323
 30
0.0
 11
1000.558221273731
 21
826.4944686304746
 31
0.0
  0
LINE
  5
4EE
330
465
100
AcDbEntity
  8
0
 62
     7
370
    -2
100
AcDbLine
 10
1000.558221273731
 20
198.7182066932305
 30
0.0
 11
1000.558221273731
 21
690.9419447559861
 31
0.0
  0
SOLID
  5
4EF
330
465
100
AcDbEntity
  8
0
 62
     7
100
AcDbTrace
 10
993.8915546070646
 20
1318.71820669323
 30
0.0
 11
1007.224887940398
 21
1318.71820669323
 31
0.0
 12
1000.558221273731
 22
1358.71820669323
 32
0.0
 13
1000.558221273731
 23
1358.71820669323
 33
0.0
  0
SOLID
  5
4F0
330
465
100
AcDbEntity
  8
0
 62
     7
100
AcDbTrace
 10
993.8915546070644
 20
198.7182066932305
 30
0.0
 11
1007.224887940397
 21
198.7182066932305
 31
0.0
 12
1000.558221273731
 22
158.7182066932305
 32
0.0
 13
1000.558221273731
 23
158.7182066932305
 33
0.0
  0
MTEXT
  5
4F1
330
465
100
AcDbEntity
  8
0
 62
     7
100
AcDbMText
 10
1000.558221273731
 20
758.7182066932306
 30
0.0
 40
40.0
 41
0.0
 71
     5
 72
     1
  1
\A1;1200
  7
ARIAL
 11
0.0000000000000001
 21
1.0
 31
0.0
 73
     1
 44
1.0
  0
POINT
  5
4F2
330
465
100
AcDbEntity
  8
Defpoints
 62
     0
100
AcDbPoint
 10
846.6680112900167
 20
1358.71820669323
 30
0.0
  0
POINT
  5
4F3
330
465
100
AcDbEntity
  8
Defpoints
 62
     0
100
AcDbPoint
 10
846.6680112900167
 20
158.7182066932306
 30
0.0
  0
POINT
  5
4F4
330
465
100
AcDbEntity
  8
Defpoints
 62
     0
100
AcDbPoint
 10
1000.558221273731
 20
158.7182066932305
 30
0.0
  0
ENDBLK
  5
471
330
465
100
AcDbEntity
  8
0
100
AcDbBlockEnd
  0
BLOCK
  5
47A
330
472
100
AcDbEntity
  8
0
100
AcDbBlockBegin
  2
*D21
 70
     1
 10
0.0
 20
0.0
 30
0.0
  3
*D21
  1

  0
LINE
  5
4F5
330
472
100
AcDbEntity
  8
0
 62
     7
370
    -2
100
AcDbLine
 10
862.9280811311517
 20
1402.210307832918
 30
0.0
 11
834.6770500194542
 21
1373.892835468211
 31
0.0
  0
MTEXT
  5
4F6
330
472
100
AcDbEntity
  8
0
 62
     7
100
AcDbMText
 10
903.8496804256194
 20
1443.228147237048
 30
0.0
 40
40.0
 41
0.0
 71
     5
 72
     1
  1
\A1;R45
  7
ARIAL
 11
0.7062757777924354
 21
0.7079368091176575
 31
0.0
 73
     1
 44
1.0
  0
SOLID
  5
4F7
330
472
100
AcDbEntity
  8
0
 62
     7
100
AcDbTrace
 10
829.9574712920032
 20
1378.601340653494
 30
0.0
 11
839.3966287469055
 21
1369.184330282929
 31
0.0
 12
806.4260189077568
 22
1345.575363103505
 32
0.0
 13
806.4260189077568
 23
1345.575363103505
 33
0.0
  0
LINE
  5
4F8
330
472
100
AcDbEntity
  8
0
 62
     7
370
    -2
100
AcDbLine
 10
772.1436089070732
 20
1313.718206693187
 30
0.0
 11
777.1436089070732
 21
1313.718206693187
 31
0.0
  0
LINE
  5
4F9
330
472
100
AcDbEntity
  8
0
 62
     7
370
    -2
100
AcDbLine
 10
774.6436089070733
 20
1311.218206693187
 30
0.0
 11
774.6436089070733
 21
1316.218206693187
 31
0.0
  0
POINT
  5
4FA
330
472
100
AcDbEntity
  8
Defpoints
 62
     0
100
AcDbPoint
 10
806.4260189077568
 20
1345.575363103505
 30
0.0
  0
POINT
  5
4FB
330
472
100
AcDbEntity
  8
Defpoints
 62
     0
100
AcDbPoint
 10
774.6436089070733
 20
1313.718206693187
 30
0.0
  0
ENDBLK
  5
47B
330
472
100
AcDbEntity
  8
0
100
AcDbBlockEnd
  0
BLOCK
  5
484
330
47C
100
AcDbEntity
  8
0
100
AcDbBlockBegin
  2
*D22
 70
     1
 10
0.0
 20
0.0
 30
0.0
  3
*D22
  1

  0
LINE
  5
4FC
330
47C
100
AcDbEntity
  8
0
 62
     7
370
    -2
100
AcDbLine
 10
337.7995261266457
 20
1269.236987814073
 30
0.0
 11
311.3196132639608
 21
1299.217218213198
 31
0.0
  0
MTEXT
  5
4FD
330
47C
100
AcDbEntity
  8
0
 62
     7
100
AcDbMText
 10
375.9208467928777
 20
1226.076499234705
 30
0.0
 40
40.0
 41
0.0
 71
     5
 72
     1
  1
\A1;R42
  7
ARIAL
 11
0.6619978215671206
 21
-0.749505759978125
 31
0.0
 73
     1
 44
1.0
  0
SOLID
  5
4FE
330
47C
100
AcDbEntity
  8
0
 62
     7
100
AcDbTrace
 10
316.3163183304817
 20
1303.630537023646
 30
0.0
 11
306.3229081974399
 21
1294.80389940275
 31
0.0
 12
284.839700401276
 22
1329.197448612323
 32
0.0
 13
284.839700401276
 23
1329.197448612323
 33
0.0
  0
LINE
  5
4FF
330
47C
100
AcDbEntity
  8
0
 62
     7
370
    -2
100
AcDbLine
 10
254.5357918955371
 20
1360.676690531314
 30
0.0
 11
259.535791895537
 21
1360.676690531314
 31
0.0
  0
LINE
  5
500
330
47C
100
AcDbEntity
  8
0
 62
     7
370
    -2
100
AcDbLine
 10
257.0357918955372
 20
1358.176690531314
 30
0.0
 11
257.0357918955372
 21
1363.176690531314
 31
0.0
  0
POINT
  5
501
330
47C
100
AcDbEntity
  8
Defpoints
 62
     0
100
AcDbPoint
 10
284.839700401276
 20
1329.197448612323
 30
0.0
  0
POINT
  5
502
330
47C
100
AcDbEntity
  8
Defpoints
 62
     0
100
AcDbPoint
 10
257.035791895537
 20
1360.676690531314
 30
0.0
  0
ENDBLK
  5
485
330
47C
100
AcDbEntity
  8
0
100
AcDbBlockEnd
  0
BLOCK
  5
491
330
486
100
AcDbEntity
  8
0
100
AcDbBlockBegin
  2
*D23
 70
     1
 10
0.0
 20
0.0
 30
0.0
  3
*D23
  1

  0
LINE
  5
503
330
486
100
AcDbEntity
  8
0
 62
     7
370
    -2
100
AcDbLine
 10
270.6436089070877
 20
902.6414493242496
 30
0.0
 11
270.6436089070877
 21
957.5383403295289
 31
0.0
  0
LINE
  5
504
330
486
100
AcDbEntity
  8
0
 62
     7
370
    -2
100
AcDbLine
 10
800.6436089070877
 20
902.6414493242496
 30
0.0
 11
800.6436089070877
 21
957.5383403295289
 31
0.0
  0
LINE
  5
505
330
486
100
AcDbEntity
  8
0
 62
     7
370
    -2
100
AcDbLine
 10
310.6436089070877
 20
937.5383403295286
 30
0.0
 11
481.5235543368284
 21
937.5383403295286
 31
0.0
  0
LINE
  5
506
330
486
100
AcDbEntity
  8
0
 62
     7
370
    -2
100
AcDbLine
 10
760.6436089070877
 20
937.5383403295286
 30
0.0
 11
589.7636634773467
 21
937.5383403295286
 31
0.0
  0
SOLID
  5
507
330
486
100
AcDbEntity
  8
0
 62
     7
100
AcDbTrace
 10
310.6436089070877
 20
944.2050069961952
 30
0.0
 11
310.6436089070877
 21
930.8716736628619
 31
0.0
 12
270.6436089070877
 22
937.5383403295286
 32
0.0
 13
270.6436089070877
 23
937.5383403295286
 33
0.0
  0
SOLID
  5
508
330
486
100
AcDbEntity
  8
0
 62
     7
100
AcDbTrace
 10
760.6436089070877
 20
944.2050069961952
 30
0.0
 11
760.6436089070877
 21
930.8716736628619
 31
0.0
 12
800.6436089070877
 22
937.5383403295286
 32
0.0
 13
800.6436089070877
 23
937.5383403295286
 33
0.0
  0
MTEXT
  5
509
330
486
100
AcDbEntity
  8
0
 62
     7
100
AcDbMText
 10
535.6436089070877
 20
937.5383403295286
 30
0.0
 40
40.0
 41
0.0
 71
     5
 72
     1
  1
\A1;530
  7
ARIAL
 73
     1
 44
1.0
  0
POINT
  5
50A
330
486
100
AcDbEntity
  8
Defpoints
 62
     0
100
AcDbPoint
 10
270.6436089070877
 20
882.6414493242495
 30
0.0
  0
POINT
  5
50B
330
486
100
AcDbEntity
  8
Defpoints
 62
     0
100
AcDbPoint
 10
800.6436089070877
 20
882.6414493242495
 30
0.0
  0
POINT
  5
50C
330
486
100
AcDbEntity
  8
Defpoints
 62
     0
100
AcDbPoint
 10
800.6436089070877
 20
937.5383403295286
 30
0.0
  0
ENDBLK
  5
492
330
486
100
AcDbEntity
  8
0
100
AcDbBlockEnd
  0
BLOCK
  5
49E
330
493
100
AcDbEntity
  8
0
100
AcDbBlockBegin
  2
*D24
 70
     1
 10
0.0
 20
0.0
 30
0.0
  3
*D24
  1

  0
LINE
  5
50D
330
493
100
AcDbEntity
  8
0
 62
     7
370
    -2
100
AcDbLine
 10
684.9782069252352
 20
1339.71820669323
 30
0.0
 11
656.2033576221397
 21
1339.71820669323
 31
0.0
  0
LINE
  5
50E
330
493
100
AcDbEntity
  8
0
 62
     7
370
    -2
100
AcDbLine
 10
684.9782069252352
 20
209.7182066932306
 30
0.0
 11
656.2033576221392
 21
209.7182066932306
 31
0.0
  0
LINE
  5
50F
330
493
100
AcDbEntity
  8
0
 62
     7
370
    -2
100
AcDbLine
 10
676.2033576221397
 20
1299.71820669323
 30
0.0
 11
676.2033576221396
 21
842.4944686304749
 31
0.0
  0
LINE
  5
510
330
493
100
AcDbEntity
  8
0
 62
     7
370
    -2
100
AcDbLine
 10
676.2033576221393
 20
249.7182066932306
 30
0.0
 11
676.2033576221393
 21
706.9419447559861
 31
0.0
  0
SOLID
  5
511
330
493
100
AcDbEntity
  8
0
 62
     7
100
AcDbTrace
 10
669.5366909554731
 20
1299.71820669323
 30
0.0
 11
682.8700242888062
 21
1299.71820669323
 31
0.0
 12
676.2033576221397
 22
1339.71820669323
 32
0.0
 13
676.2033576221397
 23
1339.71820669323
 33
0.0
  0
SOLID
  5
512
330
493
100
AcDbEntity
  8
0
 62
     7
100
AcDbTrace
 10
669.5366909554727
 20
249.7182066932306
 30
0.0
 11
682.870024288806
 21
249.7182066932306
 31
0.0
 12
676.2033576221393
 22
209.7182066932306
 32
0.0
 13
676.2033576221393
 23
209.7182066932306
 33
0.0
  0
MTEXT
  5
513
330
493
100
AcDbEntity
  8
0
 62
     7
100
AcDbMText
 10
676.2033576221393
 20
774.7182066932307
 30
0.0
 40
40.0
 41
0.0
 71
     5
 72
     1
  1
\A1;1130
  7
ARIAL
 11
0.0000000000000001
 21
1.0
 31
0.0
 73
     1
 44
1.0
  0
POINT
  5
514
330
493
100
AcDbEntity
  8
Defpoints
 62
     0
100
AcDbPoint
 10
704.978206925235
 20
1339.71820669323
 30
0.0
  0
POINT
  5
515
330
493
100
AcDbEntity
  8
Defpoints
 62
     0
100
AcDbPoint
 10
704.978206925235
 20
209.7182066932306
 30
0.0
  0
POINT
  5
516
330
493
100
AcDbEntity
  8
Defpoints
 62
     0
100
AcDbPoint
 10
676.2033576221393
 20
209.7182066932306
 30
0.0
  0
ENDBLK
  5
49F
330
493
100
AcDbEntity
  8
0
100
AcDbBlockEnd
  0
BLOCK
  5
4AB
330
4A0
100
AcDbEntity
  8
0
100
AcDbBlockBegin
  2
*D25
 70
     1
 10
0.0
 20
0.0
 30
0.0
  3
*D25
  1

  0
LINE
  5
517
330
4A0
100
AcDbEntity
  8
0
 62
     7
370
    -2
100
AcDbLine
 10
924.3969700936824
 20
1358.71820669323
 30
0.0
 11
950.1747588213431
 21
1358.71820669323
 31
0.0
  0
LINE
  5
518
330
4A0
100
AcDbEntity
  8
0
 62
     7
370
    -2
100
AcDbLine
 10
924.3969700936824
 20
1339.71820669323
 30
0.0
 11
950.1747588213431
 21
1339.71820669323
 31
0.0
  0
LINE
  5
519
330
4A0
100
AcDbEntity
  8
0
 62
     7
370
    -2
100
AcDbLine
 10
930.1747588213428
 20
1398.71820669323
 30
0.0
 11
930.1747588213428
 21
1438.71820669323
 31
0.0
  0
LINE
  5
51A
330
4A0
100
AcDbEntity
  8
0
 62
     7
370
    -2
100
AcDbLine
 10
930.1747588213428
 20
1299.71820669323
 30
0.0
 11
930.1747588213427
 21
1259.71820669323
 31
0.0
  0
SOLID
  5
51B
330
4A0
100
AcDbEntity
  8
0
 62
     7
100
AcDbTrace
 10
923.5080921546764
 20
1398.71820669323
 30
0.0
 11
936.8414254880097
 21
1398.71820669323
 31
0.0
 12
930.1747588213428
 22
1358.71820669323
 32
0.0
 13
930.1747588213428
 23
1358.71820669323
 33
0.0
  0
SOLID
  5
51C
330
4A0
100
AcDbEntity
  8
0
 62
     7
100
AcDbTrace
 10
923.5080921546764
 20
1299.71820669323
 30
0.0
 11
936.8414254880097
 21
1299.71820669323
 31
0.0
 12
930.1747588213428
 22
1339.71820669323
 32
0.0
 13
930.1747588213428
 23
1339.71820669323
 33
0.0
  0
MTEXT
  5
51D
330
4A0
100
AcDbEntity
  8
0
 62
     7
100
AcDbMText
 10
930.1747588213427
 20
1222.910566856941
 30
0.0
 40
40.0
 41
0.0
 71
     5
 72
     1
  1
\A1;19
  7
ARIAL
 11
0.0000000000000001
 21
1.0
 31
0.0
 73
     1
 44
1.0
  0
POINT
  5
51E
330
4A0
100
AcDbEntity
  8
Defpoints
 62
     0
100
AcDbPoint
 10
904.3969700936823
 20
1358.71820669323
 30
0.0
  0
POINT
  5
51F
330
4A0
100
AcDbEntity
  8
Defpoints
 62
     0
100
AcDbPoint
 10
904.3969700936823
 20
1339.71820669323
 30
0.0
  0
POINT
  5
520
330
4A0
100
AcDbEntity
  8
Defpoints
 62
     0
100
AcDbPoint
 10
930.1747588213428
 20
1339.71820669323
 30
0.0
  0
ENDBLK
  5
4AC
330
4A0
100
AcDbEntity
  8
0
100
AcDbBlockEnd
  0
BLOCK
  5
4B8
330
4AD
100
AcDbEntity
  8
0
100
AcDbBlockBegin
  2
*D26
 70
     1
 10
0.0
 20
0.0
 30
0.0
  3
*D26
  1

  0
LINE
  5
521
330
4AD
100
AcDbEntity
  8
0
 62
     7
370
    -2
100
AcDbLine
 10
819.6436089070877
 20
126.1374551814238
 30
0.0
 11
819.6436089070877
 21
78.03162126473177
 31
0.0
  0
LINE
  5
522
330
4AD
100
AcDbEntity
  8
0
 62
     7
370
    -2
100
AcDbLine
 10
800.6436089070877
 20
126.1374551814238
 30
0.0
 11
800.6436089070877
 21
78.03162126473177
 31
0.0
  0
LINE
  5
523
330
4AD
100
AcDbEntity
  8
0
 62
     7
370
    -2
100
AcDbLine
 10
859.6436089070877
 20
98.03162126473177
 30
0.0
 11
899.6436089070877
 21
98.03162126473177
 31
0.0
  0
LINE
  5
524
330
4AD
100
AcDbEntity
  8
0
 62
     7
370
    -2
100
AcDbLine
 10
760.6436089070877
 20
98.03162126473177
 30
0.0
 11
720.6436089070876
 21
98.03162126473177
 31
0.0
  0
SOLID
  5
525
330
4AD
100
AcDbEntity
  8
0
 62
     7
100
AcDbTrace
 10
859.6436089070877
 20
104.6982879313984
 30
0.0
 11
859.6436089070877
 21
91.36495459806507
 31
0.0
 12
819.6436089070877
 22
98.03162126473177
 32
0.0
 13
819.6436089070877
 23
98.03162126473177
 33
0.0
  0
SOLID
  5
526
330
4AD
100
AcDbEntity
  8
0
 62
     7
100
AcDbTrace
 10
760.6436089070877
 20
104.6982879313984
 30
0.0
 11
760.6436089070877
 21
91.36495459806507
 31
0.0
 12
800.6436089070877
 22
98.03162126473177
 32
0.0
 13
800.6436089070877
 23
98.03162126473177
 33
0.0
  0
MTEXT
  5
527
330
4AD
100
AcDbEntity
  8
0
 62
     7
100
AcDbMText
 10
683.8359690707983
 20
98.03162126473177
 30
0.0
 40
40.0
 41
0.0
 71
     5
 72
     1
  1
\A1;19
  7
ARIAL
 73
     1
 44
1.0
  0
POINT
  5
528
330
4AD
100
AcDbEntity
  8
Defpoints
 62
     0
100
AcDbPoint
 10
819.6436089070877
 20
146.1374551814238
 30
0.0
  0
POINT
  5
529
330
4AD
100
AcDbEntity
  8
Defpoints
 62
     0
100
AcDbPoint
 10
800.6436089070877
 20
146.1374551814238
 30
0.0
  0
POINT
  5
52A
330
4AD
100
AcDbEntity
  8
Defpoints
 62
     0
100
AcDbPoint
 10
800.6436089070877
 20
98.03162126473177
 30
0.0
  0
ENDBLK
  5
4B9
330
4AD
100
AcDbEntity
  8
0
100
AcDbBlockEnd
  0
BLOCK
  5
552
330
548
100
AcDbEntity
  8
0
100
AcDbBlockBegin
  2
*D27
 70
     1
 10
0.0
 20
0.0
 30
0.0
  3
*D27
  1

  0
LINE
  5
555
330
548
100
AcDbEntity
  8
0
 62
     0
370
    -2
100
AcDbLine
 10
499.5418954528904
 20
1458.012521296071
 30
0.0
 11
587.5834644915159
 21
1458.012521296071
 31
0.0
  0
LINE
  5
556
330
548
100
AcDbEntity
  8
0
 62
     0
370
    -2
100
AcDbLine
 10
499.5418954528904
 20
458.0125212960703
 30
0.0
 11
587.5834644915157
 21
458.0125212960703
 31
0.0
  0
LINE
  5
557
330
548
100
AcDbEntity
  8
0
 62
     0
370
    -2
100
AcDbLine
 10
586.333464491516
 20
1455.512521296071
 30
0.0
 11
586.3334644915157
 21
460.5125212960704
 31
0.0
  0
SOLID
  5
558
330
548
100
AcDbEntity
  8
0
 62
     0
100
AcDbTrace
 10
585.9167978248494
 20
1455.512521296071
 30
0.0
 11
586.7501311581825
 21
1455.512521296071
 31
0.0
 12
586.333464491516
 22
1458.012521296071
 32
0.0
 13
586.333464491516
 23
1458.012521296071
 33
0.0
  0
SOLID
  5
559
330
548
100
AcDbEntity
  8
0
 62
     0
100
AcDbTrace
 10
585.9167978248491
 20
460.5125212960704
 30
0.0
 11
586.7501311581824
 21
460.5125212960704
 31
0.0
 12
586.3334644915157
 22
458.0125212960703
 32
0.0
 13
586.3334644915157
 23
458.0125212960703
 33
0.0
  0
MTEXT
  5
55A
330
548
100
AcDbEntity
  8
0
 62
     0
100
AcDbMText
 10
584.4584644915157
 20
958.0125212960707
 30
0.0
 40
2.5
 41
0.0
 71
     5
 72
     1
  1
1000
 11
0.0000000000000001
 21
1.0
 31
0.0
 73
     1
 44
1.0
  0
POINT
  5
55B
330
548
100
AcDbEntity
  8
Defpoints
 62
     0
100
AcDbPoint
 10
498.9168954528905
 20
1458.012521296071
 30
0.0
  0
POINT
  5
55C
330
548
100
AcDbEntity
  8
Defpoints
 62
     0
100
AcDbPoint
 10
498.9168954528905
 20
458.0125212960703
 30
0.0
  0
POINT
  5
55D
330
548
100
AcDbEntity
  8
Defpoints
 62
     0
100
AcDbPoint
 10
586.3334644915157
 20
458.0125212960703
 30
0.0
  0
ENDBLK
  5
553
330
548
100
AcDbEntity
  8
0
100
AcDbBlockEnd
  0
ENDSEC
  0
SECTION
  2
ENTITIES
  0
LWPOLYLINE
  5
420
330
1F
100
AcDbEntity
  8
Hewi
100
AcDbPolyline
 90
        4
 70
     0
 43
0.0
 10
219.6436089070872
 20
979.1825784354916
 10
219.6436089070872
 20
503.0125212960704
 42
0.4142135623730951
 10
264.6436089070872
 20
458.0125212960703
 10
498.9168954528902
 20
458.0125212960703
  0
LWPOLYLINE
  5
421
330
1F
100
AcDbEntity
  8
Hewi
100
AcDbPolyline
 90
        4
 70
     0
 43
0.0
 10
270.6436089070872
 20
979.1825784354914
 10
270.6436089070872
 20
551.0125212960704
 42
0.4142135623730951
 10
312.6436089070872
 20
509.0125212960704
 10
498.9168954528901
 20
509.0125212960704
  0
LWPOLYLINE
  5
541
330
1F
100
AcDbEntity
  8
Hewi
100
AcDbPolyline
 90
        4
 70
     0
 43
0.0
 10
770.6436089070873
 20
979.1825784354916
 10
770.6436089070873
 20
1397.01252129607
 42
0.4142135623730951
 10
728.6436089070873
 20
1439.01252129607
 10
498.9168954528906
 20
1439.01252129607
  0
LWPOLYLINE
  5
542
330
1F
100
AcDbEntity
  8
Hewi
100
AcDbPolyline
 90
        4
 70
     0
 43
0.0
 10
789.6436089070872
 20
979.1825784354916
 10
789.6436089070872
 20
1413.01252129607
 42
0.4142135623730951
 10
744.6436089070873
 20
1458.012521296071
 10
498.9168954528905
 20
1458.012521296071
  0
LWPOLYLINE
  5
543
330
1F
100
AcDbEntity
  8
Hewi
100
AcDbPolyline
 90
        4
 70
     0
 43
0.0
 10
498.9168954528905
 20
1458.012521296071
 10
264.6436089070872
 20
1458.012521296071
 42
0.4142135623730951
 10
219.6436089070872
 20
1413.01252129607
 10
219.6436089070872
 20
979.1825784354916
  0
LWPOLYLINE
  5
544
330
1F
100
AcDbEntity
  8
Hewi
100
AcDbPolyline
 90
        4
 70
     0
 43
0.0
 10
498.9168954528903
 20
1439.01252129607
 10
312.6436089070872
 20
1439.01252129607
 42
0.4142135623730951
 10
270.6436089070872
 20
1397.01252129607
 10
270.6436089070872
 20
979.1825784354916
  0
LWPOLYLINE
  5
545
330
1F
100
AcDbEntity
  8
Hewi
100
AcDbPolyline
 90
        4
 70
     0
 43
0.0
 10
498.9168954528902
 20
509.0125212960704
 10
728.6436089070873
 20
509.0125212960704
 42
0.4142135623730951
 10
770.6436089070873
 20
551.0125212960704
 10
770.6436089070873
 20
979.1825784354914
  0
LWPOLYLINE
  5
546
330
1F
100
AcDbEntity
  8
Hewi
100
AcDbPolyline
 90
        4
 70
     0
 43
0.0
 10
498.9168954528902
 20
458.0125212960703
 10
744.6436089070873
 20
458.0125212960703
 42
0.4142135623730951
 10
789.6436089070872
 20
503.0125212960704
 10
789.6436089070872
 20
979.1825784354916
  0
ENDSEC
  0
SECTION
  2
OBJECTS
  0
DICTIONARY
  5
C
330
0
100
AcDbDictionary
281
     1
  3
ACAD_COLOR
350
6B
  3
ACAD_GROUP
350
D
  3
ACAD_LAYOUT
350
1A
  3
ACAD_MATERIAL
350
6A
  3
ACAD_MLINESTYLE
350
17
  3
ACAD_PLOTSETTINGS
350
19
  3
ACAD_PLOTSTYLENAME
350
E
  3
ACAD_TABLESTYLE
350
7E
  3
ACAD_VISUALSTYLE
350
EF
  3
AcDbVariableDictionary
350
5E
  0
DICTIONARY
  5
141
330
2
100
AcDbDictionary
280
     1
281
     1
  3
ACAD_LAYERSTATES
360
142
  0
DICTIONARY
  5
116
330
1F
100
AcDbDictionary
280
     1
281
     1
  3
ACAD_SORTENTS
360
117
  0
DICTIONARY
  5
6B
102
{ACAD_REACTORS
330
C
102
}
330
C
100
AcDbDictionary
281
     1
  0
DICTIONARY
  5
D
102
{ACAD_REACTORS
330
C
102
}
330
C
100
AcDbDictionary
281
     1
  0
DICTIONARY
  5
1A
102
{ACAD_REACTORS
330
C
102
}
330
C
100
AcDbDictionary
281
     1
  3
Layout1
350
D3
  3
Layout2
350
D7
  3
Model
350
22
  0
DICTIONARY
  5
6A
102
{ACAD_REACTORS
330
C
102
}
330
C
100
AcDbDictionary
281
     1
  3
ByBlock
350
ED
  3
ByLayer
350
EC
  3
Global
350
EE
  0
DICTIONARY
  5
17
102
{ACAD_REACTORS
330
C
102
}
330
C
100
AcDbDictionary
281
     1
  3
Standard
350
18
  0
DICTIONARY
  5
19
102
{ACAD_REACTORS
330
C
102
}
330
C
100
AcDbDictionary
281
     1
  0
ACDBDICTIONARYWDFLT
  5
E
102
{ACAD_REACTORS
330
C
102
}
330
C
100
AcDbDictionary
281
     1
  3
Normal
350
F
100
AcDbDictionaryWithDefault
340
F
  0
DICTIONARY
  5
7E
102
{ACAD_REACTORS
330
C
102
}
330
C
100
AcDbDictionary
281
     1
  3
Standard
350
7F
  0
DICTIONARY
  5
EF
102
{ACAD_REACTORS
330
C
102
}
330
C
100
AcDbDictionary
281
     1
  3
2dWireframe
350
F5
  3
3D Hidden
350
F7
  3
3dWireframe
350
F6
  3
Basic
350
F4
  3
Brighten
350
FB
  3
ColorChange
350
FF
  3
Conceptual
350
F8
  3
Dim
350
FA
  3
Facepattern
350
FE
  3
Flat
350
F0
  3
FlatWithEdges
350
F1
  3
Gouraud
350
F2
  3
GouraudWithEdges
350
F3
  3
Linepattern
350
FD
  3
Realistic
350
F9
  3
Thicken
350
FC
  0
DICTIONARY
  5
5E
102
{ACAD_REACTORS
330
C
102
}
330
C
100
AcDbDictionary
281
     1
  3
CTABLESTYLE
350
84
  3
DIMASSOC
350
5F
  3
HIDETEXT
350
63
  3
INDEXCTL
350
327
  3
PSOLHEIGHT
350
560
  3
PSOLWIDTH
350
55F
  3
SORTENTS
350
326
  0
DICTIONARY
  5
142
102
{ACAD_REACTORS
330
141
102
}
330
141
100
AcDbDictionary
281
     1
  0
SORTENTSTABLE
  5
117
102
{ACAD_REACTORS
330
116
102
}
330
116
100
AcDbSortentsTable
330
1F
331
543
  5
53E
331
421
  5
53F
331
546
  5
421
331
544
  5
542
331
542
  5
53D
331
420
  5
420
331
545
  5
540
  0
LAYOUT
  5
D3
102
{ACAD_REACTORS
330
1A
102
}
330
1A
100
AcDbPlotSettings
  1

  2
C:\Documents and Settings\basas\Application Data\Autodesk\AutoCAD 2005\R16.1\enu\plotters\Default Windows System Printer.pc3
  4

  6

 40
0.0
 41
0.0
 42
0.0
 43
0.0
 44
0.0
 45
0.0
 46
0.0
 47
0.0
 48
0.0
 49
0.0
140
0.0
141
0.0
142
1.0
143
1.0
 70
   688
 72
     0
 73
     0
 74
     5
  7

 75
    16
147
1.0
 76
     0
 77
     2
 78
   300
148
0.0
149
0.0
100
AcDbLayout
  1
Layout1
 70
     1
 71
     1
 10
0.0
 20
0.0
 11
12.0
 21
9.0
 12
0.0
 22
0.0
 32
0.0
 14
0.0
 24
0.0
 34
0.0
 15
0.0
 25
0.0
 35
0.0
146
0.0
 13
0.0
 23
0.0
 33
0.0
 16
1.0
 26
0.0
 36
0.0
 17
0.0
 27
1.0
 37
0.0
 76
     0
330
D2
  0
LAYOUT
  5
D7
102
{ACAD_REACTORS
330
1A
102
}
330
1A
100
AcDbPlotSettings
  1

  2
C:\Documents and Settings\basas\Application Data\Autodesk\AutoCAD 2005\R16.1\enu\plotters\Default Windows System Printer.pc3
  4

  6

 40
0.0
 41
0.0
 42
0.0
 43
0.0
 44
0.0
 45
0.0
 46
0.0
 47
0.0
 48
0.0
 49
0.0
140
0.0
141
0.0
142
1.0
143
1.0
 70
   688
 72
     0
 73
     0
 74
     5
  7

 75
    16
147
1.0
 76
     0
 77
     2
 78
   300
148
0.0
149
0.0
100
AcDbLayout
  1
Layout2
 70
     1
 71
     2
 10
0.0
 20
0.0
 11
12.0
 21
9.0
 12
0.0
 22
0.0
 32
0.0
 14
0.0
 24
0.0
 34
0.0
 15
0.0
 25
0.0
 35
0.0
146
0.0
 13
0.0
 23
0.0
 33
0.0
 16
1.0
 26
0.0
 36
0.0
 17
0.0
 27
1.0
 37
0.0
 76
     0
330
D6
  0
LAYOUT
  5
22
102
{ACAD_REACTORS
330
1A
102
}
330
1A
100
AcDbPlotSettings
  1

  2
none_device
  4
ISO_A4_(210.00_x_297.00_MM)
  6

 40
7.5
 41
20.0
 42
7.5
 43
20.0
 44
210.0
 45
297.0
 46
11.54999923706054
 47
-13.65000009536743
 48
0.0
 49
0.0
140
0.0
141
0.0
142
1.0
143
8.704084754739808
 70
 11952
 72
     1
 73
     0
 74
     0
  7

 75
     0
147
0.1148885871608098
 76
     0
 77
     2
 78
   300
148
0.0
149
0.0
100
AcDbLayout
  1
Model
 70
     1
 71
     0
 10
0.0
 20
0.0
 11
12.0
 21
9.0
 12
0.0
 22
0.0
 32
0.0
 14
0.0
 24
0.0
 34
0.0
 15
0.0
 25
0.0
 35
0.0
146
0.0
 13
0.0
 23
0.0
 33
0.0
 16
1.0
 26
0.0
 36
0.0
 17
0.0
 27
1.0
 37
0.0
 76
     0
330
1F
331
EA
1001
ACAD_PSEXT
1000
None
1000
None
1000
Not applicable
1000
The layout will not be plotted unless a new plotter configuration name is selected.
1070
     0
  0
MATERIAL
  5
ED
102
{ACAD_XDICTIONARY
360
335
102
}
102
{ACAD_REACTORS
330
6A
102
}
330
6A
100
AcDbMaterial
  1
ByBlock
  0
MATERIAL
  5
EC
102
{ACAD_XDICTIONARY
360
333
102
}
102
{ACAD_REACTORS
330
6A
102
}
330
6A
100
AcDbMaterial
  1
ByLayer
  0
MATERIAL
  5
EE
102
{ACAD_XDICTIONARY
360
337
102
}
102
{ACAD_REACTORS
330
6A
102
}
330
6A
100
AcDbMaterial
  1
Global
  0
MLINESTYLE
  5
18
102
{ACAD_REACTORS
330
17
102
}
330
17
100
AcDbMlineStyle
  2
STANDARD
 70
     0
  3

 62
   256
 51
90.0
 52
90.0
 71
     2
 49
0.5
 62
   256
  6
BYLAYER
 49
-0.5
 62
   256
  6
BYLAYER
  0
ACDBPLACEHOLDER
  5
F
102
{ACAD_REACTORS
330
E
102
}
330
E
  0
TABLESTYLE
  5
7F
102
{ACAD_XDICTIONARY
360
561
102
}
102
{ACAD_REACTORS
330
7E
102
}
330
7E
100
AcDbTableStyle
  3
Standard
 70
     0
 71
     0
 40
1.5
 41
1.5
280
     0
281
     0
  7
Standard
140
4.5
170
     2
 62
     0
 63
     7
283
     0
274
    -2
284
     1
 64
     0
275
    -2
285
     1
 65
     0
276
    -2
286
     1
 66
     0
277
    -2
287
     1
 67
     0
278
    -2
288
     1
 68
     0
279
    -2
289
     1
 69
     0
  7
Standard
140
6.0
170
     5
 62
     0
 63
     7
283
     0
274
    -2
284
     1
 64
     0
275
    -2
285
     1
 65
     0
276
    -2
286
     1
 66
     0
277
    -2
287
     1
 67
     0
278
    -2
288
     1
 68
     0
279
    -2
289
     1
 69
     0
  7
Standard
140
4.5
170
     5
 62
     0
 63
     7
283
     0
274
    -2
284
     1
 64
     0
275
    -2
285
     1
 65
     0
276
    -2
286
     1
 66
     0
277
    -2
287
     1
 67
     0
278
    -2
288
     1
 68
     0
279
    -2
289
     1
 69
     0
  0
VISUALSTYLE
  5
F5
102
{ACAD_REACTORS
330
EF
102
}
330
EF
100
AcDbVisualStyle
  2
2dWireframe
 70
     4
 71
     0
 72
     2
 73
     1
 90
        0
 40
-0.6
 41
-30.0
 62
     5
 63
     7
 74
     1
 91
        4
 64
     7
 65
   257
 75
     1
175
     1
 42
1.0
 92
        0
 66
   257
 43
1.0
 76
     1
 77
     6
 78
     2
 67
     7
 79
     5
170
     0
171
     0
290
     0
174
     0
 93
        1
 44
0.0
173
     0
291
     0
 45
0.0
1001
ACAD
1000
AcDbSavedByObjectVersion
1070
     0
1000
AcDbSavedByObjectVersion
1070
     0
1000
AcDbSavedByObjectVersion
1070
     0
  0
VISUALSTYLE
  5
F7
102
{ACAD_REACTORS
330
EF
102
}
330
EF
100
AcDbVisualStyle
  2
3D Hidden
 70
     6
 71
     1
 72
     2
 73
     2
 90
        0
 40
-0.6
 41
-30.0
 62
     5
 63
     7
 74
     2
 91
        2
 64
     7
 65
   257
 75
     2
175
     1
 42
40.0
 92
        0
 66
   257
 43
1.0
 76
     1
 77
     6
 78
     2
 67
     7
 79
     3
170
     0
171
     0
290
     0
174
     0
 93
        1
 44
0.0
173
     0
291
     0
 45
0.0
1001
ACAD
1000
AcDbSavedByObjectVersion
1070
     0
1000
AcDbSavedByObjectVersion
1070
     0
1000
AcDbSavedByObjectVersion
1070
     0
  0
VISUALSTYLE
  5
F6
102
{ACAD_REACTORS
330
EF
102
}
330
EF
100
AcDbVisualStyle
  2
3dWireframe
 70
     5
 71
     0
 72
     2
 73
     1
 90
        0
 40
-0.6
 41
-30.0
 62
     5
 63
     7
 74
     1
 91
        4
 64
     7
 65
   257
 75
     1
175
     1
 42
1.0
 92
        0
 66
   257
 43
1.0
 76
     1
 77
     6
 78
     2
 67
     7
 79
     5
170
     0
171
     0
290
     0
174
     0
 93
        1
 44
0.0
173
     0
291
     0
 45
0.0
1001
ACAD
1000
AcDbSavedByObjectVersion
1070
     0
1000
AcDbSavedByObjectVersion
1070
     0
1000
AcDbSavedByObjectVersion
1070
     0
  0
VISUALSTYLE
  5
F4
102
{ACAD_REACTORS
330
EF
102
}
330
EF
100
AcDbVisualStyle
  2
Basic
 70
     7
 71
     1
 72
     0
 73
     1
 90
        0
 40
-0.6
 41
-30.0
 62
     5
 63
     7
 74
     0
 91
        4
 64
     7
 65
   257
 75
     1
175
     1
 42
1.0
 92
        8
 66
     7
 43
1.0
 76
     1
 77
     6
 78
     2
 67
     7
 79
     5
170
     0
171
     0
290
     0
174
     0
 93
        1
 44
0.0
173
     0
291
     1
 45
0.0
1001
ACAD
1000
AcDbSavedByObjectVersion
1070
     0
1000
AcDbSavedByObjectVersion
1070
     0
1000
AcDbSavedByObjectVersion
1070
     0
  0
VISUALSTYLE
  5
FB
102
{ACAD_REACTORS
330
EF
102
}
330
EF
100
AcDbVisualStyle
  2
Brighten
 70
    12
 71
     2
 72
     2
 73
     1
 90
        0
 40
-0.6
 41
-30.0
 62
     5
 63
     7
 74
     1
 91
        4
 64
     7
 65
   257
 75
     1
175
     1
 42
1.0
 92
        8
 66
     7
 43
1.0
 76
     1
 77
     6
 78
     2
 67
     7
 79
     5
170
     0
171
     0
290
     0
174
     0
 93
        1
 44
50.0
173
     0
291
     1
 45
0.0
1001
ACAD
1000
AcDbSavedByObjectVersion
1070
     0
1000
AcDbSavedByObjectVersion
1070
     0
1000
AcDbSavedByObjectVersion
1070
     0
  0
VISUALSTYLE
  5
FF
102
{ACAD_REACTORS
330
EF
102
}
330
EF
100
AcDbVisualStyle
  2
ColorChange
 70
    16
 71
     2
 72
     2
 73
     3
 90
        0
 40
-0.6
 41
-30.0
 62
     5
 63
     8
 74
     1
 91
        4
 64
     7
 65
   257
 75
     1
175
     1
 42
1.0
 92
        8
 66
     8
 43
1.0
 76
     1
 77
     6
 78
     2
 67
     7
 79
     5
170
     0
171
     0
290
     0
174
     0
 93
        1
 44
0.0
173
     0
291
     1
 45
0.0
1001
ACAD
1000
AcDbSavedByObjectVersion
1070
     0
1000
AcDbSavedByObjectVersion
1070
     0
1000
AcDbSavedByObjectVersion
1070
     0
  0
VISUALSTYLE
  5
F8
102
{ACAD_REACTORS
330
EF
102
}
330
EF
100
AcDbVisualStyle
  2
Conceptual
 70
     9
 71
     3
 72
     2
 73
     1
 90
        0
 40
-0.6
 41
-30.0
 62
     5
 63
     7
 74
     2
 91
        2
 64
     7
 65
   257
 75
     1
175
     1
 42
40.0
 92
        8
 66
     7
 43
1.0
 76
     1
 77
     6
 78
     2
 67
     7
 79
     3
170
     0
171
     0
290
     0
174
     0
 93
        1
 44
0.0
173
     0
291
     0
 45
0.0
1001
ACAD
1000
AcDbSavedByObjectVersion
1070
     0
1000
AcDbSavedByObjectVersion
1070
     0
1000
AcDbSavedByObjectVersion
1070
     0
  0
VISUALSTYLE
  5
FA
102
{ACAD_REACTORS
330
EF
102
}
330
EF
100
AcDbVisualStyle
  2
Dim
 70
    11
 71
     2
 72
     2
 73
     1
 90
        0
 40
-0.6
 41
-30.0
 62
     5
 63
     7
 74
     1
 91
        4
 64
     7
 65
   257
 75
     1
175
     1
 42
1.0
 92
        8
 66
     7
 43
1.0
 76
     1
 77
     6
 78
     2
 67
     7
 79
     5
170
     0
171
     0
290
     0
174
     0
 93
        1
 44
-50.0
173
     0
291
     1
 45
0.0
1001
ACAD
1000
AcDbSavedByObjectVersion
1070
     0
1000
AcDbSavedByObjectVersion
1070
     0
1000
AcDbSavedByObjectVersion
1070
     0
  0
VISUALSTYLE
  5
FE
102
{ACAD_REACTORS
330
EF
102
}
330
EF
100
AcDbVisualStyle
  2
Facepattern
 70
    15
 71
     2
 72
     2
 73
     1
 90
        0
 40
-0.6
 41
-30.0
 62
     5
 63
     7
 74
     1
 91
        4
 64
     7
 65
   257
 75
     1
175
     1
 42
1.0
 92
        8
 66
     7
 43
1.0
 76
     1
 77
     6
 78
     2
 67
     7
 79
     5
170
     0
171
     0
290
     0
174
     0
 93
        1
 44
0.0
173
     0
291
     1
 45
0.0
1001
ACAD
1000
AcDbSavedByObjectVersion
1070
     0
1000
AcDbSavedByObjectVersion
1070
     0
1000
AcDbSavedByObjectVersion
1070
     0
  0
VISUALSTYLE
  5
F0
102
{ACAD_REACTORS
330
EF
102
}
330
EF
100
AcDbVisualStyle
  2
Flat
 70
     0
 71
     2
 72
     1
 73
     1
 90
        2
 40
-0.6
 41
30.0
 62
     5
 63
     7
 74
     0
 91
        4
 64
     7
 65
   257
 75
     1
175
     1
 42
1.0
 92
        8
 66
     7
 43
1.0
 76
     1
 77
     6
 78
     2
 67
     7
 79
     5
170
     0
171
     0
290
     0
174
     0
 93
       13
 44
0.0
173
     0
291
     1
 45
0.0
1001
ACAD
1000
AcDbSavedByObjectVersion
1070
     0
1000
AcDbSavedByObjectVersion
1070
     0
1000
AcDbSavedByObjectVersion
1070
     0
  0
VISUALSTYLE
  5
F1
102
{ACAD_REACTORS
330
EF
102
}
330
EF
100
AcDbVisualStyle
  2
FlatWithEdges
 70
     1
 71
     2
 72
     1
 73
     1
 90
        2
 40
-0.6
 41
30.0
 62
     5
 63
     7
 74
     1
 91
        4
 64
     7
 65
   257
 75
     1
175
     1
 42
1.0
 92
        0
 66
   257
 43
1.0
 76
     1
 77
     6
 78
     2
 67
     7
 79
     5
170
     0
171
     0
290
     0
174
     0
 93
       13
 44
0.0
173
     0
291
     1
 45
0.0
1001
ACAD
1000
AcDbSavedByObjectVersion
1070
     0
1000
AcDbSavedByObjectVersion
1070
     0
1000
AcDbSavedByObjectVersion
1070
     0
  0
VISUALSTYLE
  5
F2
102
{ACAD_REACTORS
330
EF
102
}
330
EF
100
AcDbVisualStyle
  2
Gouraud
 70
     2
 71
     2
 72
     2
 73
     1
 90
        2
 40
-0.6
 41
30.0
 62
     5
 63
     7
 74
     0
 91
        4
 64
     7
 65
   257
 75
     1
175
     1
 42
1.0
 92
        0
 66
     7
 43
1.0
 76
     1
 77
     6
 78
     2
 67
     7
 79
     5
170
     0
171
     0
290
     0
174
     0
 93
       13
 44
0.0
173
     0
291
     1
 45
0.0
1001
ACAD
1000
AcDbSavedByObjectVersion
1070
     0
1000
AcDbSavedByObjectVersion
1070
     0
1000
AcDbSavedByObjectVersion
1070
     0
  0
VISUALSTYLE
  5
F3
102
{ACAD_REACTORS
330
EF
102
}
330
EF
100
AcDbVisualStyle
  2
GouraudWithEdges
 70
     3
 71
     2
 72
     2
 73
     1
 90
        2
 40
-0.6
 41
30.0
 62
     5
 63
     7
 74
     1
 91
        4
 64
     7
 65
   257
 75
     1
175
     1
 42
1.0
 92
        0
 66
   257
 43
1.0
 76
     1
 77
     6
 78
     2
 67
     7
 79
     5
170
     0
171
     0
290
     0
174
     0
 93
       13
 44
0.0
173
     0
291
     1
 45
0.0
1001
ACAD
1000
AcDbSavedByObjectVersion
1070
     0
1000
AcDbSavedByObjectVersion
1070
     0
1000
AcDbSavedByObjectVersion
1070
     0
  0
VISUALSTYLE
  5
FD
102
{ACAD_REACTORS
330
EF
102
}
330
EF
100
AcDbVisualStyle
  2
Linepattern
 70
    14
 71
     2
 72
     2
 73
     1
 90
        0
 40
-0.6
 41
-30.0
 62
     5
 63
     7
 74
     1
 91
        4
 64
     7
 65
   257
 75
     7
175
     7
 42
1.0
 92
        8
 66
     7
 43
1.0
 76
     1
 77
     6
 78
     2
 67
     7
 79
     5
170
     0
171
     0
290
     0
174
     0
 93
        1
 44
0.0
173
     0
291
     1
 45
0.0
1001
ACAD
1000
AcDbSavedByObjectVersion
1070
     0
1000
AcDbSavedByObjectVersion
1070
     0
1000
AcDbSavedByObjectVersion
1070
     0
  0
VISUALSTYLE
  5
F9
102
{ACAD_REACTORS
330
EF
102
}
330
EF
100
AcDbVisualStyle
  2
Realistic
 70
     8
 71
     2
 72
     2
 73
     1
 90
        0
 40
-0.6
 41
-30.0
 62
     5
 63
     7
 74
     1
 91
        0
 64
     7
 65
   257
 75
     1
175
     1
 42
1.0
 92
        8
 66
     8
 43
1.0
 76
     1
 77
     6
 78
     2
 67
     7
 79
     5
170
     0
171
     0
290
     0
174
     0
 93
       13
 44
0.0
173
     0
291
     0
 45
0.0
1001
ACAD
1000
AcDbSavedByObjectVersion
1070
     0
1000
AcDbSavedByObjectVersion
1070
     0
1000
AcDbSavedByObjectVersion
1070
     0
  0
VISUALSTYLE
  5
FC
102
{ACAD_REACTORS
330
EF
102
}
330
EF
100
AcDbVisualStyle
  2
Thicken
 70
    13
 71
     2
 72
     2
 73
     1
 90
        0
 40
-0.6
 41
-30.0
 62
     5
 63
     7
 74
     1
 91
        4
 64
     7
 65
   257
 75
     1
175
     1
 42
1.0
 92
       12
 66
     7
 43
1.0
 76
     1
 77
     6
 78
     2
 67
     7
 79
     5
170
     0
171
     0
290
     0
174
     0
 93
        1
 44
0.0
173
     0
291
     1
 45
0.0
1001
ACAD
1000
AcDbSavedByObjectVersion
1070
     0
1000
AcDbSavedByObjectVersion
1070
     0
1000
AcDbSavedByObjectVersion
1070
     0
  0
DICTIONARYVAR
  5
84
102
{ACAD_REACTORS
330
5E
102
}
330
5E
100
DictionaryVariables
280
     0
  1
STANDARD
  0
DICTIONARYVAR
  5
5F
102
{ACAD_REACTORS
330
5E
102
}
330
5E
100
DictionaryVariables
280
     0
  1
2
  0
DICTIONARYVAR
  5
63
102
{ACAD_REACTORS
330
5E
102
}
330
5E
100
DictionaryVariables
280
     0
  1
1
  0
DICTIONARYVAR
  5
327
102
{ACAD_REACTORS
330
5E
102
}
330
5E
100
DictionaryVariables
280
     0
  1
0
  0
DICTIONARYVAR
  5
560
102
{ACAD_REACTORS
330
5E
102
}
330
5E
100
DictionaryVariables
280
     0
  1
80.000000
  0
DICTIONARYVAR
  5
55F
102
{ACAD_REACTORS
330
5E
102
}
330
5E
100
DictionaryVariables
280
     0
  1
5.000000
  0
DICTIONARYVAR
  5
326
102
{ACAD_REACTORS
330
5E
102
}
330
5E
100
DictionaryVariables
280
     0
  1
127
  0
DICTIONARY
  5
335
330
ED
100
AcDbDictionary
280
     1
281
     1
  3
ACAD_XREC_ROUNDTRIP
360
336
  0
DICTIONARY
  5
333
330
EC
100
AcDbDictionary
280
     1
281
     1
  3
ACAD_XREC_ROUNDTRIP
360
334
  0
DICTIONARY
  5
337
330
EE
100
AcDbDictionary
280
     1
281
     1
  3
ACAD_XREC_ROUNDTRIP
360
338
  0
DICTIONARY
  5
561
330
7F
100
AcDbDictionary
280
     1
281
     1
  3
ACAD_XREC_ROUNDTRIP
360
562
  0
XRECORD
  5
336
102
{ACAD_REACTORS
330
335
102
}
330
335
100
AcDbXrecord
280
     1
102
MATERIAL
148
0.0
149
0.0
149
0.0
 93
        0
 94
       63
282
     0
 72
     1
 77
     1
171
     1
175
     1
179
     1
273
     0
  0
XRECORD
  5
334
102
{ACAD_REACTORS
330
333
102
}
330
333
100
AcDbXrecord
280
     1
102
MATERIAL
148
0.0
149
0.0
149
0.0
 93
        0
 94
       63
282
     0
 72
     1
 77
     1
171
     1
175
     1
179
     1
273
     0
  0
XRECORD
  5
338
102
{ACAD_REACTORS
330
337
102
}
330
337
100
AcDbXrecord
280
     1
102
MATERIAL
148
0.0
149
0.0
149
0.0
 93
        0
 94
       63
282
     0
 72
     1
 77
     1
171
     1
175
     1
179
     1
273
     0
  0
XRECORD
  5
562
102
{ACAD_REACTORS
330
561
102
}
330
561
100
AcDbXrecord
280
     1
102
ACAD_ROUNDTRIP_PRE2007_TABLESTYLE
 90
      512
 91
        0
  1

 92
      512
 93
        0
  2

 94
      512
 95
        0
  3

  0
ENDSEC
  0
EOF
