  0
SECTION
  2
HEADER
  9
$ACADVER
  1
AC1015
  9
$ACADMAINTVER
 70
    20
  9
$DWGCODEPAGE
  3
ANSI_1252
  9
$INSBASE
 10
0.0
 20
0.0
 30
0.0
  9
$EXTMIN
 10
-78856.10696312747
 20
-74713.7445872184
 30
-0.0000000000000043
  9
$EXTMAX
 10
-77806.10180999679
 20
-74191.7494795548
 30
0.0000000000001013
  9
$LIMMIN
 10
0.0
 20
0.0
  9
$LIMMAX
 10
1189.0
 20
841.0
  9
$ORTHOMODE
 70
     0
  9
$REGENMODE
 70
     1
  9
$FILLMODE
 70
     1
  9
$QTEXTMODE
 70
     0
  9
$MIRRTEXT
 70
     1
  9
$LTSCALE
 40
1.0
  9
$ATTMODE
 70
     1
  9
$TEXTSIZE
 40
30.0
  9
$TRACEWID
 40
1.0
  9
$TEXTSTYLE
  7
ROMANS
  9
$CLAYER
  8
0
  9
$CELTYPE
  6
BYLAYER
  9
$CECOLOR
 62
   256
  9
$CELTSCALE
 40
1.0
  9
$DISPSILH
 70
     0
  9
$DIMSCALE
 40
1.0
  9
$DIMASZ
 40
30.0
  9
$DIMEXO
 40
0.0
  9
$DIMDLI
 40
3.75
  9
$DIMRND
 40
0.0
  9
$DIMDLE
 40
0.0
  9
$DIMEXE
 40
10.0
  9
$DIMTP
 40
0.0
  9
$DIMTM
 40
0.0
  9
$DIMTXT
 40
30.0
  9
$DIMCEN
 40
2.5
  9
$DIMTSZ
 40
0.0
  9
$DIMTOL
 70
     0
  9
$DIMLIM
 70
     0
  9
$DIMTIH
 70
     0
  9
$DIMTOH
 70
     0
  9
$DIMSE1
 70
     0
  9
$DIMSE2
 70
     0
  9
$DIMTAD
 70
     1
  9
$DIMZIN
 70
     0
  9
$DIMBLK
  1

  9
$DIMASO
 70
     1
  9
$DIMSHO
 70
     1
  9
$DIMPOST
  1

  9
$DIMAPOST
  1

  9
$DIMALT
 70
     0
  9
$DIMALTD
 70
     2
  9
$DIMALTF
 40
25.4
  9
$DIMLFAC
 40
1.0
  9
$DIMTOFL
 70
     1
  9
$DIMTVP
 40
0.0
  9
$DIMTIX
 70
     0
  9
$DIMSOXD
 70
     0
  9
$DIMSAH
 70
     0
  9
$DIMBLK1
  1

  9
$DIMBLK2
  1

  9
$DIMSTYLE
  2
STANDARD
  9
$DIMCLRD
 70
     0
  9
$DIMCLRE
 70
     0
  9
$DIMCLRT
 70
     0
  9
$DIMTFAC
 40
1.0
  9
$DIMGAP
 40
10.0
  9
$DIMJUST
 70
     0
  9
$DIMSD1
 70
     0
  9
$DIMSD2
 70
     0
  9
$DIMTOLJ
 70
     1
  9
$DIMTZIN
 70
     0
  9
$DIMALTZ
 70
     0
  9
$DIMALTTZ
 70
     0
  9
$DIMUPT
 70
     0
  9
$DIMDEC
 70
     0
  9
$DIMTDEC
 70
     0
  9
$DIMALTU
 70
     2
  9
$DIMALTTD
 70
     2
  9
$DIMTXSTY
  7
STANDARD
  9
$DIMAUNIT
 70
     0
  9
$DIMADEC
 70
     0
  9
$DIMALTRND
 40
0.0
  9
$DIMAZIN
 70
     0
  9
$DIMDSEP
 70
    46
  9
$DIMATFIT
 70
     3
  9
$DIMFRAC
 70
     0
  9
$DIMLDRBLK
  1

  9
$DIMLUNIT
 70
     2
  9
$DIMLWD
 70
    -2
  9
$DIMLWE
 70
    -2
  9
$DIMTMOVE
 70
     0
  9
$LUNITS
 70
     2
  9
$LUPREC
 70
     4
  9
$SKETCHINC
 40
1.0
  9
$FILLETRAD
 40
0.0
  9
$AUNITS
 70
     0
  9
$AUPREC
 70
     0
  9
$MENU
  1
C:\ACADR13\WIN\SUPPORT\ACADFULL
  9
$ELEVATION
 40
0.0
  9
$PELEVATION
 40
0.0
  9
$THICKNESS
 40
0.0
  9
$LIMCHECK
 70
     0
  9
$CHAMFERA
 40
10.0
  9
$CHAMFERB
 40
10.0
  9
$CHAMFERC
 40
0.0
  9
$CHAMFERD
 40
0.0
  9
$SKPOLY
 70
     0
  9
$TDCREATE
 40
2450382.434570139
  9
$TDUCREATE
 40
2450382.351236806
  9
$TDUPDATE
 40
2456468.507048878
  9
$TDUUPDATE
 40
2456468.423715544
  9
$TDINDWG
 40
0.8092995370
  9
$TDUSRTIMER
 40
0.8092952199
  9
$USRTIMER
 70
     1
  9
$ANGBASE
 50
0.0
  9
$ANGDIR
 70
     0
  9
$PDMODE
 70
     0
  9
$PDSIZE
 40
0.0
  9
$PLINEWID
 40
0.0
  9
$SPLFRAME
 70
     0
  9
$SPLINETYPE
 70
     6
  9
$SPLINESEGS
 70
     8
  9
$HANDSEED
  5
3D874
  9
$SURFTAB1
 70
     6
  9
$SURFTAB2
 70
     6
  9
$SURFTYPE
 70
     6
  9
$SURFU
 70
     6
  9
$SURFV
 70
     6
  9
$UCSBASE
  2

  9
$UCSNAME
  2

  9
$UCSORG
 10
0.0
 20
0.0
 30
0.0
  9
$UCSXDIR
 10
1.0
 20
0.0
 30
0.0
  9
$UCSYDIR
 10
0.0
 20
1.0
 30
0.0
  9
$UCSORTHOREF
  2

  9
$UCSORTHOVIEW
 70
     0
  9
$UCSORGTOP
 10
0.0
 20
0.0
 30
0.0
  9
$UCSORGBOTTOM
 10
0.0
 20
0.0
 30
0.0
  9
$UCSORGLEFT
 10
0.0
 20
0.0
 30
0.0
  9
$UCSORGRIGHT
 10
0.0
 20
0.0
 30
0.0
  9
$UCSORGFRONT
 10
0.0
 20
0.0
 30
0.0
  9
$UCSORGBACK
 10
0.0
 20
0.0
 30
0.0
  9
$PUCSBASE
  2

  9
$PUCSNAME
  2

  9
$PUCSORG
 10
0.0
 20
0.0
 30
0.0
  9
$PUCSXDIR
 10
1.0
 20
0.0
 30
0.0
  9
$PUCSYDIR
 10
0.0
 20
1.0
 30
0.0
  9
$PUCSORTHOREF
  2

  9
$PUCSORTHOVIEW
 70
     0
  9
$PUCSORGTOP
 10
0.0
 20
0.0
 30
0.0
  9
$PUCSORGBOTTOM
 10
0.0
 20
0.0
 30
0.0
  9
$PUCSORGLEFT
 10
0.0
 20
0.0
 30
0.0
  9
$PUCSORGRIGHT
 10
0.0
 20
0.0
 30
0.0
  9
$PUCSORGFRONT
 10
0.0
 20
0.0
 30
0.0
  9
$PUCSORGBACK
 10
0.0
 20
0.0
 30
0.0
  9
$USERI1
 70
     0
  9
$USERI2
 70
     0
  9
$USERI3
 70
     0
  9
$USERI4
 70
     0
  9
$USERI5
 70
     0
  9
$USERR1
 40
0.0
  9
$USERR2
 40
0.0
  9
$USERR3
 40
0.0
  9
$USERR4
 40
0.0
  9
$USERR5
 40
0.0
  9
$WORLDVIEW
 70
     1
  9
$SHADEDGE
 70
     3
  9
$SHADEDIF
 70
    70
  9
$TILEMODE
 70
     1
  9
$MAXACTVP
 70
    16
  9
$PINSBASE
 10
0.0
 20
0.0
 30
0.0
  9
$PLIMCHECK
 70
     0
  9
$PEXTMIN
 10
12.55000000000001
 20
41.32999999999998
 30
0.0
  9
$PEXTMAX
 10
195.5499999999999
 20
284.67
 30
0.0
  9
$PLIMMIN
 10
-0.0980265521206203
 20
-3.678311471965383
  9
$PLIMMAX
 10
207.2988188848241
 20
289.6460551372062
  9
$UNITMODE
 70
     0
  9
$VISRETAIN
 70
     0
  9
$PLINEGEN
 70
     0
  9
$PSLTSCALE
 70
     1
  9
$TREEDEPTH
 70
  3020
  9
$CMLSTYLE
  2
STANDARD
  9
$CMLJUST
 70
     0
  9
$CMLSCALE
 40
1.0
  9
$PROXYGRAPHICS
 70
     1
  9
$MEASUREMENT
 70
     0
  9
$CELWEIGHT
370
    -1
  9
$ENDCAPS
280
     0
  9
$JOINSTYLE
280
     0
  9
$LWDISPLAY
290
     0
  9
$INSUNITS
 70
     0
  9
$HYPERLINKBASE
  1

  9
$STYLESHEET
  1

  9
$XEDIT
290
     1
  9
$CEPSNTYPE
380
     0
  9
$PSTYLEMODE
290
     1
  9
$FINGERPRINTGUID
  2
{408A79E2-F00F-47E2-9806-578BB6257B10}
  9
$VERSIONGUID
  2
{73D245BE-3407-4C24-991C-9731875BC358}
  9
$EXTNAMES
290
     1
  9
$PSVPSCALE
 40
0.0
  9
$OLESTARTUP
290
     0
  0
ENDSEC
  0
SECTION
  2
CLASSES
  0
CLASS
  1
DICTIONARYVAR
  2
AcDbDictionaryVar
  3
ObjectDBX Classes
 90
        0
280
     0
281
     0
  0
CLASS
  1
ACDBDICTIONARYWDFLT
  2
AcDbDictionaryWithDefault
  3
ObjectDBX Classes
 90
        0
280
     0
281
     0
  0
CLASS
  1
ACDBPLACEHOLDER
  2
AcDbPlaceHolder
  3
ObjectDBX Classes
 90
        0
280
     0
281
     0
  0
CLASS
  1
LAYOUT
  2
AcDbLayout
  3
ObjectDBX Classes
 90
        0
280
     0
281
     0
  0
CLASS
  1
MATERIAL
  2
AcDbMaterial
  3
ObjectDBX Classes
 90
     1024
280
     0
281
     0
  0
CLASS
  1
VISUALSTYLE
  2
AcDbVisualStyle
  3
ObjectDBX Classes
 90
     4095
280
     0
281
     0
  0
CLASS
  1
TABLESTYLE
  2
AcDbTableStyle
  3
ObjectDBX Classes
 90
     4095
280
     0
281
     0
  0
CLASS
  1
SORTENTSTABLE
  2
AcDbSortentsTable
  3
ObjectDBX Classes
 90
        0
280
     0
281
     0
  0
ENDSEC
  0
SECTION
  2
TABLES
  0
TABLE
  2
VPORT
  5
8
330
0
100
AcDbSymbolTable
 70
     1
  0
VPORT
  5
39C01
330
8
100
AcDbSymbolTableRecord
100
AcDbViewportTableRecord
  2
*Active
 70
     0
 10
0.0
 20
0.0
 11
1.0
 21
1.0
 12
-78155.56689627954
 22
-74503.50491051065
 13
0.0
 23
0.0
 14
10.0
 24
10.0
 15
10.0
 25
10.0
 16
0.0
 26
0.0
 36
1.0
 17
0.0
 27
0.0
 37
0.0
 40
856.5383145858858
 41
1.801178203240058
 42
50.0
 43
0.0
 44
0.0
 50
0.0
 51
0.0
 71
     0
 72
 20000
 73
     1
 74
     1
 75
     0
 76
     0
 77
     0
 78
     0
281
     0
 65
     1
110
0.0
120
0.0
130
0.0
111
1.0
121
0.0
131
0.0
112
0.0
122
1.0
132
0.0
 79
     0
146
0.0
  0
ENDTAB
  0
TABLE
  2
LTYPE
  5
5
330
0
100
AcDbSymbolTable
 70
     1
  0
LTYPE
  5
14
330
5
100
AcDbSymbolTableRecord
100
AcDbLinetypeTableRecord
  2
BYBLOCK
 70
     0
  3

 72
    65
 73
     0
 40
0.0
  0
LTYPE
  5
15
330
5
100
AcDbSymbolTableRecord
100
AcDbLinetypeTableRecord
  2
BYLAYER
 70
     0
  3

 72
    65
 73
     0
 40
0.0
  0
LTYPE
  5
16
330
5
100
AcDbSymbolTableRecord
100
AcDbLinetypeTableRecord
  2
CONTINUOUS
 70
     0
  3
Solid line
 72
    65
 73
     0
 40
0.0
  0
ENDTAB
  0
TABLE
  2
LAYER
  5
2
102
{ACAD_XDICTIONARY
360
39C3D
102
}
330
0
100
AcDbSymbolTable
 70
     4
  0
LAYER
  5
F
330
2
100
AcDbSymbolTableRecord
100
AcDbLayerTableRecord
  2
0
 70
     0
 62
     7
  6
CONTINUOUS
370
    -3
390
39BF2
  0
LAYER
  5
3FD
330
2
100
AcDbSymbolTableRecord
100
AcDbLayerTableRecord
  2
DEFPOINTS
 70
     0
 62
     7
  6
CONTINUOUS
290
     0
370
    -3
390
39BF2
  0
LAYER
  5
3CAA4
330
2
100
AcDbSymbolTableRecord
100
AcDbLayerTableRecord
  2
HEWI
 70
     0
 62
     7
  6
CONTINUOUS
370
    -3
390
39BF2
  0
LAYER
  5
3CFAF
330
2
100
AcDbSymbolTableRecord
100
AcDbLayerTableRecord
  2
1
 70
     0
 62
     7
  6
CONTINUOUS
370
    -3
390
39BF2
  0
ENDTAB
  0
TABLE
  2
STYLE
  5
3
330
0
100
AcDbSymbolTable
 70
     3
  0
STYLE
  5
10
330
3
100
AcDbSymbolTableRecord
100
AcDbTextStyleTableRecord
  2
STANDARD
 70
     0
 40
0.0
 41
1.0
 50
0.0
 71
     0
 42
2.5
  3
ISOCP
  4

  0
STYLE
  5
3F
330
3
100
AcDbSymbolTableRecord
100
AcDbTextStyleTableRecord
  2
ROMANS
 70
     0
 40
0.0
 41
0.8
 50
0.0
 71
     0
 42
30.0
  3
romans.shx
  4

  0
STYLE
  5
3D411
330
3
100
AcDbSymbolTableRecord
100
AcDbTextStyleTableRecord
  2
blockfont
 70
     0
 40
0.0
 41
1.0
 50
0.0
 71
     0
 42
0.2
  3
simplex.shx
  4

  0
ENDTAB
  0
TABLE
  2
VIEW
  5
6
330
0
100
AcDbSymbolTable
 70
     0
  0
ENDTAB
  0
TABLE
  2
UCS
  5
7
330
0
100
AcDbSymbolTable
 70
     0
  0
ENDTAB
  0
TABLE
  2
APPID
  5
9
330
0
100
AcDbSymbolTable
 70
     6
  0
APPID
  5
11
330
9
100
AcDbSymbolTableRecord
100
AcDbRegAppTableRecord
  2
ACAD
 70
     0
  0
APPID
  5
36496
330
9
100
AcDbSymbolTableRecord
100
AcDbRegAppTableRecord
  2
ACADIGES
 70
     0
  0
APPID
  5
36497
330
9
100
AcDbSymbolTableRecord
100
AcDbRegAppTableRecord
  2
AUTOCAD_POSTSCRIPT_FIGURE
 70
     0
  0
APPID
  5
3A910
330
9
100
AcDbSymbolTableRecord
100
AcDbRegAppTableRecord
  2
ACAD_PSEXT
 70
     0
  0
APPID
  5
3AB52
330
9
100
AcDbSymbolTableRecord
100
AcDbRegAppTableRecord
  2
AcAecLayerStandard
 70
     0
  0
APPID
  5
3CECD
330
9
100
AcDbSymbolTableRecord
100
AcDbRegAppTableRecord
  2
ACAD_EXEMPT_FROM_CAD_STANDARDS
 70
     0
  0
ENDTAB
  0
TABLE
  2
DIMSTYLE
  5
A
330
0
100
AcDbSymbolTable
 70
     1
100
AcDbDimStyleTable
 71
     1
340
1D
  0
DIMSTYLE
105
1D
330
A
100
AcDbSymbolTableRecord
100
AcDbDimStyleTableRecord
  2
STANDARD
 70
     0
340
10
  0
ENDTAB
  0
TABLE
  2
BLOCK_RECORD
  5
1
330
0
100
AcDbSymbolTable
 70
    13
  0
BLOCK_RECORD
  5
1A
102
{ACAD_XDICTIONARY
360
3B151
102
}
330
1
100
AcDbSymbolTableRecord
100
AcDbBlockTableRecord
  2
*MODEL_SPACE
340
39BF5
  0
BLOCK_RECORD
  5
17
330
1
100
AcDbSymbolTableRecord
100
AcDbBlockTableRecord
  2
*PAPER_SPACE
340
39BF6
  0
BLOCK_RECORD
  5
3D12F
330
1
100
AcDbSymbolTableRecord
100
AcDbBlockTableRecord
  2
A$C03152663
340
0
1001
ACAD
1000
DesignCenter Data
1002
{
1070
     1
1070
     4
1002
}
  0
BLOCK_RECORD
  5
3D27D
330
1
100
AcDbSymbolTableRecord
100
AcDbBlockTableRecord
  2
DimnDraft3D1
340
0
  0
BLOCK_RECORD
  5
3D2CC
330
1
100
AcDbSymbolTableRecord
100
AcDbBlockTableRecord
  2
_DOT
340
0
102
{BLKREFS
331
3D842
331
3D843
331
3D84B
331
3D84C
331
3D854
331
3D855
331
3D85D
331
3D85E
331
3D866
331
3D867
102
}
  0
BLOCK_RECORD
  5
3D2D4
330
1
100
AcDbSymbolTableRecord
100
AcDbBlockTableRecord
  2
DimnDraft3D2
340
0
  0
BLOCK_RECORD
  5
3D323
330
1
100
AcDbSymbolTableRecord
100
AcDbBlockTableRecord
  2
DimnDraft3D3
340
0
  0
BLOCK_RECORD
  5
3D372
330
1
100
AcDbSymbolTableRecord
100
AcDbBlockTableRecord
  2
DimnDraft3D4
340
0
  0
BLOCK_RECORD
  5
3D3C2
330
1
100
AcDbSymbolTableRecord
100
AcDbBlockTableRecord
  2
DimnDraft3D5
340
0
  0
BLOCK_RECORD
  5
3D7D0
330
1
100
AcDbSymbolTableRecord
100
AcDbBlockTableRecord
  2
*D8
340
0
  0
BLOCK_RECORD
  5
3D7DE
330
1
100
AcDbSymbolTableRecord
100
AcDbBlockTableRecord
  2
*D9
340
0
  0
BLOCK_RECORD
  5
3D7EA
330
1
100
AcDbSymbolTableRecord
100
AcDbBlockTableRecord
  2
*D10
340
0
  0
BLOCK_RECORD
  5
3D7F6
330
1
100
AcDbSymbolTableRecord
100
AcDbBlockTableRecord
  2
*D11
340
0
  0
BLOCK_RECORD
  5
3D802
330
1
100
AcDbSymbolTableRecord
100
AcDbBlockTableRecord
  2
*D12
340
0
  0
ENDTAB
  0
ENDSEC
  0
SECTION
  2
BLOCKS
  0
BLOCK
  5
1B
330
1A
100
AcDbEntity
  8
0
100
AcDbBlockBegin
  2
*MODEL_SPACE
 70
     0
 10
0.0
 20
0.0
 30
0.0
  3
*MODEL_SPACE
  1

  0
ENDBLK
  5
1C
330
1A
100
AcDbEntity
  8
0
100
AcDbBlockEnd
  0
BLOCK
  5
18
330
17
100
AcDbEntity
 67
     1
  8
0
100
AcDbBlockBegin
  2
*PAPER_SPACE
 70
     0
 10
0.0
 20
0.0
 30
0.0
  3
*PAPER_SPACE
  1

  0
ENDBLK
  5
19
330
17
100
AcDbEntity
 67
     1
  8
0
100
AcDbBlockEnd
  0
BLOCK
  5
3D18F
330
3D12F
100
AcDbEntity
  8
0
100
AcDbBlockBegin
  2
A$C03152663
 70
     0
 10
0.0
 20
0.0
 30
0.0
  3
A$C03152663
  1

  0
LINE
  5
3D130
330
3D12F
100
AcDbEntity
  8
1
  6
Continuous
 62
   155
100
AcDbLine
 10
143.050340507849
 20
149.593104878611
 30
0.0
 11
143.050340507849
 21
148.571625878611
 31
0.0
  0
LINE
  5
3D131
330
3D12F
100
AcDbEntity
  8
1
  6
Continuous
 62
   155
100
AcDbLine
 10
143.050340507849
 20
148.062454878611
 30
0.0
 11
142.811737507849
 21
148.062454878611
 31
0.0
  0
LINE
  5
3D132
330
3D12F
100
AcDbEntity
  8
1
  6
Continuous
 62
   155
100
AcDbLine
 10
143.050340507849
 20
148.571625878611
 30
0.0
 11
143.050340507849
 21
148.062454878611
 31
0.0
  0
LINE
  5
3D133
330
3D12F
100
AcDbEntity
  8
1
  6
Continuous
 62
   155
100
AcDbLine
 10
143.050340507849
 20
148.571625878611
 30
0.0
 11
142.811448507849
 21
148.571625878611
 31
0.0
  0
LINE
  5
3D134
330
3D12F
100
AcDbEntity
  8
1
  6
Continuous
 62
   155
100
AcDbLine
 10
143.050340507849
 20
150.102275878611
 30
0.0
 11
142.810553507849
 21
150.102275878611
 31
0.0
  0
LINE
  5
3D135
330
3D12F
100
AcDbEntity
  8
1
  6
Continuous
 62
   155
100
AcDbLine
 10
143.050340507849
 20
149.593104878611
 30
0.0
 11
142.810855507849
 21
149.593104878611
 31
0.0
  0
LINE
  5
3D136
330
3D12F
100
AcDbEntity
  8
1
  6
Continuous
 62
   155
100
AcDbLine
 10
143.050340507849
 20
150.102275878611
 30
0.0
 11
143.050340507849
 21
149.593104878611
 31
0.0
  0
LINE
  5
3D137
330
3D12F
100
AcDbEntity
  8
1
  6
Continuous
 62
   155
100
AcDbLine
 10
143.050340507849
 20
154.368496878611
 30
0.0
 11
143.050340507849
 21
154.8207258786111
 31
0.0
  0
LINE
  5
3D138
330
3D12F
100
AcDbEntity
  8
1
  6
Continuous
 62
   155
100
AcDbLine
 10
143.050340507849
 20
152.638600878611
 30
0.0
 11
143.050340507849
 21
153.078179878611
 31
0.0
  0
LINE
  5
3D139
330
3D12F
100
AcDbEntity
  8
1
  6
Continuous
 62
   155
100
AcDbLine
 10
143.050340507849
 20
155.516475878611
 30
0.0
 11
142.807085507849
 21
155.516475878611
 31
0.0
  0
LINE
  5
3D13A
330
3D12F
100
AcDbEntity
  8
1
  6
Continuous
 62
   155
100
AcDbLine
 10
143.050340507849
 20
156.041450878611
 30
0.0
 11
142.806724507849
 21
156.041450878611
 31
0.0
  0
LINE
  5
3D13B
330
3D12F
100
AcDbEntity
  8
1
  6
Continuous
 62
   155
100
AcDbLine
 10
143.050340507849
 20
156.041450878611
 30
0.0
 11
143.050340507849
 21
155.516475878611
 31
0.0
  0
LINE
  5
3D13C
330
3D12F
100
AcDbEntity
  8
1
  6
Continuous
 62
   155
100
AcDbLine
 10
143.050340507849
 20
152.1009758786111
 30
0.0
 11
142.809328507849
 21
152.1009758786111
 31
0.0
  0
LINE
  5
3D13D
330
3D12F
100
AcDbEntity
  8
1
  6
Continuous
 62
   155
100
AcDbLine
 10
143.050340507849
 20
152.1009758786111
 30
0.0
 11
143.050340507849
 21
152.638600878611
 31
0.0
  0
LINE
  5
3D13E
330
3D12F
100
AcDbEntity
  8
1
  6
Continuous
 62
   155
100
AcDbLine
 10
143.050340507849
 20
152.638600878611
 30
0.0
 11
142.808987507849
 21
152.638600878611
 31
0.0
  0
LINE
  5
3D13F
330
3D12F
100
AcDbEntity
  8
1
  6
Continuous
 62
   155
100
AcDbLine
 10
143.050340507849
 20
150.4438258786111
 30
0.0
 11
142.810348507849
 21
150.4438258786111
 31
0.0
  0
LINE
  5
3D140
330
3D12F
100
AcDbEntity
  8
1
  6
Continuous
 62
   155
100
AcDbLine
 10
143.050340507849
 20
152.025075878611
 30
0.0
 11
142.809375507849
 21
152.025075878611
 31
0.0
  0
LINE
  5
3D141
330
3D12F
100
AcDbEntity
  8
1
  6
Continuous
 62
   155
100
AcDbLine
 10
143.050340507849
 20
152.025075878611
 30
0.0
 11
143.050340507849
 21
150.4438258786111
 31
0.0
  0
LINE
  5
3D142
330
3D12F
100
AcDbEntity
  8
1
  6
Continuous
 62
   155
100
AcDbLine
 10
143.050340507849
 20
153.982654878611
 30
0.0
 11
143.050340507849
 21
154.368496878611
 31
0.0
  0
LINE
  5
3D143
330
3D12F
100
AcDbEntity
  8
1
  6
Continuous
 62
   155
100
AcDbLine
 10
143.050340507849
 20
154.368496878611
 30
0.0
 11
142.838662507849
 21
154.368496878611
 31
0.0
  0
LINE
  5
3D144
330
3D12F
100
AcDbEntity
  8
1
  6
Continuous
 62
   155
100
AcDbLine
 10
143.050340507849
 20
153.078179878611
 30
0.0
 11
142.839287507849
 21
153.078179878611
 31
0.0
  0
LINE
  5
3D145
330
3D12F
100
AcDbEntity
  8
1
  6
Continuous
 62
   155
100
AcDbLine
 10
143.050340507849
 20
153.078179878611
 30
0.0
 11
143.050340507849
 21
153.467175878611
 31
0.0
  0
LINE
  5
3D146
330
3D12F
100
AcDbEntity
  8
1
  6
Continuous
 62
   155
100
AcDbLine
 10
143.050340507849
 20
153.467175878611
 30
0.0
 11
142.808453507849
 21
153.467175878611
 31
0.0
  0
LINE
  5
3D147
330
3D12F
100
AcDbEntity
  8
1
  6
Continuous
 62
   155
100
AcDbLine
 10
143.050340507849
 20
153.467175878611
 30
0.0
 11
143.050340507849
 21
153.982654878611
 31
0.0
  0
LINE
  5
3D148
330
3D12F
100
AcDbEntity
  8
1
  6
Continuous
 62
   155
100
AcDbLine
 10
143.050340507849
 20
154.8207258786111
 30
0.0
 11
142.807557507849
 21
154.8207258786111
 31
0.0
  0
LINE
  5
3D149
330
3D12F
100
AcDbEntity
  8
1
  6
Continuous
 62
   155
100
AcDbLine
 10
143.050340507849
 20
153.982654878611
 30
0.0
 11
142.808115507849
 21
153.982654878611
 31
0.0
  0
LINE
  5
3D14A
330
3D12F
100
AcDbEntity
  8
1
  6
Continuous
 62
   155
100
AcDbLine
 10
143.050340507849
 20
154.8207258786111
 30
0.0
 11
143.050340507849
 21
155.380496878611
 31
0.0
  0
LINE
  5
3D14B
330
3D12F
100
AcDbEntity
  8
1
  6
Continuous
 62
   155
100
AcDbLine
 10
143.050340507849
 20
155.380496878611
 30
0.0
 11
142.807178507849
 21
155.380496878611
 31
0.0
  0
LINE
  5
3D14C
330
3D12F
100
AcDbEntity
  8
1
  6
Continuous
 62
     7
370
     5
100
AcDbLine
 10
195.232865507849
 20
92.55056387861108
 30
0.0
 11
195.232855507849
 21
92.54941987861107
 31
0.0
  0
LINE
  5
3D14D
330
3D12F
100
AcDbEntity
  8
1
  6
Continuous
 62
     7
370
     5
100
AcDbLine
 10
50.95003950784903
 20
0.1345268786110658
 30
0.0
 11
50.95118450784903
 21
0.1345378786110629
 31
0.0
  0
LINE
  5
3D14E
330
3D12F
100
AcDbEntity
  8
1
  6
Continuous
 62
   155
100
AcDbLine
 10
99.91876850784905
 20
0.0318478786110639
 30
0.0
 11
99.91876450784907
 21
0.0318618786110641
 31
0.0
  0
LINE
  5
3D14F
330
3D12F
100
AcDbEntity
  8
1
  6
Continuous
 62
   155
100
AcDbLine
 10
143.050340507849
 20
24.84047987861107
 30
0.0
 11
142.850885507849
 21
24.84047987861107
 31
0.0
  0
LINE
  5
3D150
330
3D12F
100
AcDbEntity
  8
1
  6
Continuous
 62
   155
100
AcDbLine
 10
143.050340507849
 20
24.84047987861107
 30
0.0
 11
143.050340507849
 21
22.31047987861106
 31
0.0
  0
LINE
  5
3D151
330
3D12F
100
AcDbEntity
  8
1
  6
Continuous
 62
   155
100
AcDbLine
 10
143.050340507849
 20
22.31047987861106
 30
0.0
 11
142.806724507849
 21
22.31047987861106
 31
0.0
  0
CIRCLE
  5
3D152
330
3D12F
100
AcDbEntity
  8
1
  6
Continuous
 62
   155
100
AcDbCircle
 10
-71.45034050784906
 20
113.062454878611
 30
0.0
 40
28.5
210
0.0
220
0.0
230
-1.0
  0
ARC
  5
3D153
330
3D12F
100
AcDbEntity
  8
1
  6
Continuous
 62
   155
100
AcDbCircle
 10
-888.823086492151
 20
113.062454878611
 30
0.0
 40
1084.350000000004
100
AcDbArc
 50
1.531127999999945
 51
2.496998000000061
  0
ARC
  5
3D154
330
3D12F
100
AcDbEntity
  8
1
  6
Continuous
 62
   155
100
AcDbCircle
 10
-888.823086492151
 20
113.062454878611
 30
0.0
 40
1084.350000000004
100
AcDbArc
 50
357.5029949999998
 51
358.468662
  0
ARC
  5
3D155
330
3D12F
100
AcDbEntity
  8
1
  6
Continuous
 62
   155
100
AcDbCircle
 10
-910.177253492151
 20
112.562454878611
 30
0.0
 40
1105.704166666671
100
AcDbArc
 50
1.374271999999997
 51
1.500851000000061
  0
ARC
  5
3D156
330
3D12F
100
AcDbEntity
  8
1
  6
Continuous
 62
   155
100
AcDbCircle
 10
-910.177253492151
 20
112.562454878611
 30
0.0
 40
1105.704166666671
100
AcDbArc
 50
358.551671
 51
358.678358
  0
ARC
  5
3D157
330
3D12F
100
AcDbEntity
  8
1
  6
Continuous
 62
   155
100
AcDbCircle
 10
-4.383350507849042
 20
4.913224878611066
 30
0.0
 40
4.0
210
0.0
220
0.0
230
-1.0
100
AcDbArc
 50
271.828913
 51
359.717526
  0
ARC
  5
3D158
330
3D12F
100
AcDbEntity
  8
1
  6
Continuous
 62
   155
100
AcDbCircle
 10
-138.517330507849
 20
4.913224878611066
 30
0.0
 40
4.0
210
0.0
220
0.0
230
-1.0
100
AcDbArc
 50
180.282474
 51
268.1960269999998
  0
ARC
  5
3D159
330
3D12F
100
AcDbEntity
  8
1
  6
Continuous
 62
   155
100
AcDbCircle
 10
71.45034050784906
 20
2100.857145878611
 30
0.0
 40
2101.01666666706
100
AcDbArc
 50
268.1672480000001
 51
269.2095740000001
  0
ARC
  5
3D15A
330
3D12F
100
AcDbEntity
  8
1
  6
Continuous
 62
   155
100
AcDbCircle
 10
71.45034050784906
 20
2100.857145878611
 30
0.0
 40
2101.01666666706
100
AcDbArc
 50
270.7906919999999
 51
271.8327539999999
  0
ARC
  5
3D15B
330
3D12F
100
AcDbEntity
  8
1
  6
Continuous
 62
   155
100
AcDbCircle
 10
71.45034050784906
 20
2118.644645878612
 30
0.0
 40
2118.804166666661
100
AcDbArc
 50
269.230706
 51
269.2969219999999
  0
SPLINE
  5
3D15C
330
3D12F
100
AcDbEntity
  8
1
  6
Continuous
 62
   155
100
AcDbSpline
210
0.0
220
0.0
230
1.0
 70
    11
 71
     3
 72
    38
 73
    34
 74
     0
 42
0.0000000001
 43
0.0000000001
 40
0.0
 40
0.0
 40
0.0
 40
0.0
 40
0.0625
 40
0.0625
 40
0.1249999999999999
 40
0.1249999999999999
 40
0.1874999999999999
 40
0.1874999999999999
 40
0.2499999999999999
 40
0.2499999999999999
 40
0.3124999999999999
 40
0.3124999999999999
 40
0.3749999999999998
 40
0.3749999999999998
 40
0.4375
 40
0.4375
 40
0.5
 40
0.5
 40
0.5625
 40
0.5625
 40
0.625
 40
0.625
 40
0.6874999999999997
 40
0.6874999999999997
 40
0.7499999999999997
 40
0.7499999999999997
 40
0.8124999999999996
 40
0.8124999999999996
 40
0.8749999999999996
 40
0.8749999999999996
 40
0.9374999999999998
 40
0.9374999999999998
 40
1.0
 40
1.0
 40
1.0
 40
1.0
 10
50.95118445659035
 20
92.54941972411932
 30
0.0
 10
53.66153653364145
 20
89.84090143566536
 30
0.0
 10
56.85429541150664
 20
87.71668143728467
 30
0.0
 10
63.88049333262395
 20
84.81090307975906
 30
0.0
 10
67.67898723194014
 20
84.06083839035224
 30
0.0
 10
75.24650925994496
 20
84.06407617687904
 30
0.0
 10
79.06181591037875
 20
84.82534815359505
 30
0.0
 10
86.04117818821933
 20
87.71731316658387
 30
0.0
 10
89.27735388821544
 20
89.87830504997544
 30
0.0
 10
94.62762587754795
 20
95.22651785225187
 30
0.0
 10
96.78380836391596
 20
98.44569697168481
 30
0.0
 10
99.69408425620684
 20
105.4647485849646
 30
0.0
 10
100.4496712889213
 20
109.2293312583294
 30
0.0
 10
100.4510088497464
 20
116.885445114509
 30
0.0
 10
99.69799674522954
 20
120.6481118673933
 30
0.0
 10
96.78573134438721
 20
127.6771817829264
 30
0.0
 10
94.63310832645722
 20
130.8917995650791
 30
0.0
 10
89.28038318972388
 20
136.2446858094377
 30
0.0
 10
86.04606357617615
 20
138.4047997168845
 30
0.0
 10
79.06704008669606
 20
141.2981673685671
 30
0.0
 10
75.25016306548454
 20
142.0600567416199
 30
0.0
 10
67.68720756313095
 20
142.064840912381
 30
0.0
 10
63.88332986268584
 20
141.3141294829715
 30
0.0
 10
56.86514002857514
 20
138.4137604943686
 30
0.0
 10
53.66430779139005
 20
136.2849237564009
 30
0.0
 10
48.25210930567713
 20
130.8800891860284
 30
0.0
 10
46.12041628254025
 20
127.6873551927456
 30
0.0
 10
43.20395521395396
 20
120.6541932678553
 30
0.0
 10
42.45208866298333
 20
116.8623622398506
 30
0.0
 10
42.44859852022
 20
109.289276977724
 30
0.0
 10
43.20651153621462
 20
105.4757757266845
 30
0.0
 10
46.09271924111384
 20
98.49321938969648
 30
0.0
 10
48.24083237953924
 20
95.25793801257334
 30
0.0
 10
50.95118445659035
 20
92.54941972411932
 30
0.0
  0
SPLINE
  5
3D15D
330
3D12F
100
AcDbEntity
  8
1
  6
Continuous
 62
   155
100
AcDbSpline
210
0.0
220
0.0
230
1.0
 70
     8
 71
     3
 72
     8
 73
     4
 74
     0
 42
0.0000000001
 43
0.0000000001
 40
0.0
 40
0.0
 40
0.0
 40
0.0
 40
1.0
 40
1.0
 40
1.0
 40
1.0
 10
142.8093757904045
 20
152.0250755625461
 30
0.0
 10
142.8097067304652
 20
151.4979922333632
 30
0.0
 10
142.8100309923941
 20
150.970908899945
 30
0.0
 10
142.8103485770308
 20
150.4438255625457
 30
0.0
  0
SPLINE
  5
3D15E
330
3D12F
100
AcDbEntity
  8
1
  6
Continuous
 62
   155
100
AcDbSpline
210
0.0
220
0.0
230
1.0
 70
     8
 71
     3
 72
    10
 73
     6
 74
     0
 42
0.0000000001
 43
0.0000000001
 40
0.0
 40
0.0
 40
0.0
 40
0.0
 40
0.5004227377312153
 40
0.5004227377312153
 40
1.0
 40
1.0
 40
1.0
 40
1.0
 10
142.8093280888734
 20
152.1009755625535
 30
0.0
 10
142.8092716724099
 20
152.1906554875876
 30
0.0
 10
142.8092150626074
 20
152.2803354125003
 30
0.0
 10
142.8091015522597
 20
152.4595437458318
 30
0.0
 10
142.8090446523672
 20
152.5490721542514
 30
0.0
 10
142.8089875597499
 20
152.638600562548
 30
0.0
  0
SPLINE
  5
3D15F
330
3D12F
100
AcDbEntity
  8
1
  6
Continuous
 62
   155
100
AcDbSpline
210
0.0
220
0.0
230
1.0
 70
     8
 71
     3
 72
     8
 73
     4
 74
     0
 42
0.0000000001
 43
0.0000000001
 40
0.0
 40
0.0
 40
0.0
 40
0.0
 40
1.0
 40
1.0
 40
1.0
 40
1.0
 10
142.8089875597499
 20
152.638600562548
 30
0.0
 10
142.819088024623
 20
152.7851269159941
 30
0.0
 10
142.8291879734533
 20
152.9316532715448
 30
0.0
 10
142.8392874061283
 20
153.0781796292044
 30
0.0
  0
SPLINE
  5
3D160
330
3D12F
100
AcDbEntity
  8
1
  6
Continuous
 62
   155
100
AcDbSpline
210
0.0
220
0.0
230
1.0
 70
     8
 71
     3
 72
     8
 73
     4
 74
     0
 42
0.0000000001
 43
0.0000000001
 40
0.0
 40
0.0
 40
0.0
 40
0.0
 40
1.0
 40
1.0
 40
1.0
 40
1.0
 10
142.8392874061283
 20
153.0781796292047
 30
0.0
 10
142.8290098987159
 20
153.20784494179
 30
0.0
 10
142.8187319870313
 20
153.3375102528694
 30
0.0
 10
142.8084536709785
 20
153.4671755624431
 30
0.0
  0
SPLINE
  5
3D161
330
3D12F
100
AcDbEntity
  8
1
  6
Continuous
 62
   155
100
AcDbSpline
210
0.0
220
0.0
230
1.0
 70
     8
 71
     3
 72
     8
 73
     4
 74
     0
 42
0.0000000001
 43
0.0000000001
 40
0.0
 40
0.0
 40
0.0
 40
0.0
 40
1.0
 40
1.0
 40
1.0
 40
1.0
 10
142.8084536709785
 20
153.4671755624439
 30
0.0
 10
142.8083418139854
 20
153.6390019184463
 30
0.0
 10
142.8082292467748
 20
153.8108282739879
 30
0.0
 10
142.8081159690813
 20
153.9826546290597
 30
0.0
  0
SPLINE
  5
3D162
330
3D12F
100
AcDbEntity
  8
1
  6
Continuous
 62
   155
100
AcDbSpline
210
0.0
220
0.0
230
1.0
 70
     8
 71
     3
 72
     8
 73
     4
 74
     0
 42
0.0000000001
 43
0.0000000001
 40
0.0
 40
0.0
 40
0.0
 40
0.0
 40
1.0
 40
1.0
 40
1.0
 40
1.0
 10
142.8081159690813
 20
153.9826546290593
 30
0.0
 10
142.8182986871413
 20
154.1112685831334
 30
0.0
 10
142.8284810072945
 20
154.2398825386469
 30
0.0
 10
142.8386629294119
 20
154.3684964955959
 30
0.0
  0
SPLINE
  5
3D163
330
3D12F
100
AcDbEntity
  8
1
  6
Continuous
 62
   155
100
AcDbSpline
210
0.0
220
0.0
230
1.0
 70
     8
 71
     3
 72
     8
 73
     4
 74
     0
 42
0.0000000001
 43
0.0000000001
 40
0.0
 40
0.0
 40
0.0
 40
0.0
 40
1.0
 40
1.0
 40
1.0
 40
1.0
 10
142.8386629294119
 20
154.3684964955956
 30
0.0
 10
142.8282951098413
 20
154.5192395203699
 30
0.0
 10
142.8179267433772
 20
154.6699825428259
 30
0.0
 10
142.807557829784
 20
154.8207255629629
 30
0.0
  0
SPLINE
  5
3D164
330
3D12F
100
AcDbEntity
  8
1
  6
Continuous
 62
   155
100
AcDbSpline
210
0.0
220
0.0
230
1.0
 70
     8
 71
     3
 72
     8
 73
     4
 74
     0
 42
0.0000000001
 43
0.0000000001
 40
0.0
 40
0.0
 40
0.0
 40
0.0
 40
1.0
 40
1.0
 40
1.0
 40
1.0
 10
142.807557829784
 20
154.8207255629625
 30
0.0
 10
142.8074323092062
 20
155.0073158739687
 30
0.0
 10
142.8073059501745
 20
155.1939061844129
 30
0.0
 10
142.8071787521814
 20
155.3804964942834
 30
0.0
  0
SPLINE
  5
3D165
330
3D12F
100
AcDbEntity
  8
1
  6
Continuous
 62
   155
100
AcDbSpline
210
0.0
220
0.0
230
1.0
 70
    11
 71
     3
 72
    38
 73
    34
 74
     0
 42
0.0000000001
 43
0.0000000001
 40
0.0
 40
0.0
 40
0.0
 40
0.0
 40
0.0625
 40
0.0625
 40
0.125
 40
0.125
 40
0.1875000000000001
 40
0.1875000000000001
 40
0.2500000000000001
 40
0.2500000000000001
 40
0.3125000000000001
 40
0.3125000000000001
 40
0.3750000000000001
 40
0.3750000000000001
 40
0.4375000000000001
 40
0.4375000000000001
 40
0.5000000000000001
 40
0.5000000000000001
 40
0.5625000000000001
 40
0.5625000000000001
 40
0.6250000000000001
 40
0.6250000000000001
 40
0.6875000000000001
 40
0.6875000000000001
 40
0.7500000000000002
 40
0.7500000000000002
 40
0.8125000000000001
 40
0.8125000000000001
 40
0.8750000000000001
 40
0.8750000000000001
 40
0.9375
 40
0.9375
 40
1.0
 40
1.0
 40
1.0
 40
1.0
 10
53.77091338412499
 20
95.38654287248709
 30
0.0
 10
56.10641060458036
 20
93.05058117023936
 30
0.0
 10
58.85800726204704
 20
91.21814439820647
 30
0.0
 10
64.91397976873364
 20
88.71051970858083
 30
0.0
 10
68.18827342074445
 20
88.06248300611143
 30
0.0
 10
74.71197263676756
 20
88.06242625432671
 30
0.0
 10
78.00131916508043
 20
88.71725733061358
 30
0.0
 10
84.01908747330955
 20
91.20769421774848
 30
0.0
 10
86.80972294796507
 20
93.06940591441776
 30
0.0
 10
91.42404913378886
 20
97.67793027459235
 30
0.0
 10
93.28405057036396
 20
100.4522941734497
 30
0.0
 10
95.79554968624274
 20
106.5021320841402
 30
0.0
 10
96.44832606649844
 20
109.7471719320493
 30
0.0
 10
96.45234568459438
 20
116.3472862071461
 30
0.0
 10
95.80461201879964
 20
119.5912107208735
 30
0.0
 10
93.29668670769951
 20
125.651829301141
 30
0.0
 10
91.45228401989244
 20
128.415395235474
 30
0.0
 10
86.80719700782594
 20
133.0613917989827
 30
0.0
 10
84.04399654673463
 20
134.9063357717684
 30
0.0
 10
77.98383416606384
 20
137.4154580654446
 30
0.0
 10
74.74000035243013
 20
138.0638213247304
 30
0.0
 10
68.13994076682674
 20
138.0610836323792
 30
0.0
 10
64.89475554048604
 20
137.4089368760639
 30
0.0
 10
58.84446901481576
 20
134.8986378101709
 30
0.0
 10
56.06974961415684
 20
133.0391903263191
 30
0.0
 10
51.46033209299915
 20
128.4257911446801
 30
0.0
 10
49.59807473386195
 20
125.6355382580025
 30
0.0
 10
47.10644381286273
 20
119.6182646536439
 30
0.0
 10
46.45096045678321
 20
116.3290615639859
 30
0.0
 10
46.44972146876241
 20
109.80534372143
 30
0.0
 10
47.0971044537154
 20
106.5309391884448
 30
0.0
 10
49.60353241080925
 20
100.4744533481499
 30
0.0
 10
51.43541616366964
 20
97.72250457473477
 30
0.0
 10
53.77091338412499
 20
95.38654287248709
 30
0.0
  0
SPLINE
  5
3D166
330
3D12F
100
AcDbEntity
  8
1
  6
Continuous
 62
   155
100
AcDbSpline
210
0.0
220
0.0
230
1.0
 70
    11
 71
     3
 72
    38
 73
    34
 74
     0
 42
0.0000000001
 43
0.0000000001
 40
0.0
 40
0.0
 40
0.0
 40
0.0
 40
0.0625000000000001
 40
0.0625000000000001
 40
0.1250000000000001
 40
0.1250000000000001
 40
0.1875000000000001
 40
0.1875000000000001
 40
0.2500000000000002
 40
0.2500000000000002
 40
0.3125000000000002
 40
0.3125000000000002
 40
0.3750000000000002
 40
0.3750000000000002
 40
0.4375000000000002
 40
0.4375000000000002
 40
0.5000000000000002
 40
0.5000000000000002
 40
0.5625000000000006
 40
0.5625000000000006
 40
0.6250000000000002
 40
0.6250000000000002
 40
0.6875000000000002
 40
0.6875000000000002
 40
0.7500000000000001
 40
0.7500000000000001
 40
0.8125000000000001
 40
0.8125000000000001
 40
0.8750000000000001
 40
0.8750000000000001
 40
0.9375
 40
0.9375
 40
1.0
 40
1.0
 40
1.0
 40
1.0
 10
42.98191019964487
 20
113.0624550705367
 30
0.0
 10
42.98193984328739
 20
109.3006946635676
 30
0.0
 10
43.72238363849833
 20
105.6094435027925
 30
0.0
 10
46.58008457820268
 20
98.71370711472394
 30
0.0
 10
48.69492844520606
 20
95.55539503577469
 30
0.0
 10
53.94818240782296
 20
90.30232515908876
 30
0.0
 10
57.12423363533026
 20
88.18098596893014
 30
0.0
 10
63.97560156288886
 20
85.34091158803803
 30
0.0
 10
67.72205509293114
 20
84.59313420371037
 30
0.0
 10
75.14885117576596
 20
84.58924999143915
 30
0.0
 10
78.88068406549464
 20
85.32609887212855
 30
0.0
 10
85.77422331497794
 20
88.17649787740736
 30
0.0
 10
88.91253079873072
 20
90.26450805295656
 30
0.0
 10
94.22945883342457
 20
95.57695771417817
 30
0.0
 10
96.31945005457994
 20
98.71107303607637
 30
0.0
 10
99.17914832704395
 20
105.6113646652411
 30
0.0
 10
99.91749844414473
 20
109.3370440074983
 30
0.0
 10
99.92003987607256
 20
116.7688401725781
 30
0.0
 10
99.17566273497817
 20
120.513864841957
 30
0.0
 10
96.34207264207496
 20
127.368181413976
 30
0.0
 10
94.22266899850573
 20
130.5474652160849
 30
0.0
 10
88.97820403652454
 20
135.8028670633924
 30
0.0
 10
85.81739082377485
 20
137.9236119147515
 30
0.0
 10
78.93333754318977
 20
140.7847863076
 30
0.0
 10
75.23367909866293
 20
141.5303527382734
 30
0.0
 10
67.72467594561906
 20
141.5379597824862
 30
0.0
 10
64.02815468973836
 20
140.8024658458714
 30
0.0
 10
57.12047835475964
 20
137.9465561832031
 30
0.0
 10
53.96585431045806
 20
135.8370571135603
 30
0.0
 10
48.70513303970774
 20
130.583796912011
 30
0.0
 10
46.58322474495999
 20
127.411001833426
 30
0.0
 10
43.73771819657984
 20
120.5610923100554
 30
0.0
 10
42.98188055600235
 20
116.8242154775057
 30
0.0
 10
42.98191019964487
 20
113.0624550705367
 30
0.0
  0
SPLINE
  5
3D167
330
3D12F
100
AcDbEntity
  8
1
  6
Continuous
 62
   155
100
AcDbSpline
210
0.0
220
0.0
230
1.0
 70
     8
 71
     3
 72
     8
 73
     4
 74
     0
 42
0.0000000001
 43
0.0000000001
 40
0.0
 40
0.0
 40
0.0
 40
0.0
 40
1.0
 40
1.0
 40
1.0
 40
1.0
 10
142.8067246720285
 20
156.0414505610064
 30
0.0
 10
142.806845822089
 20
155.8664588948337
 30
0.0
 10
142.8069662336418
 20
155.6914672281481
 30
0.0
 10
142.8070859071747
 20
155.5164755609593
 30
0.0
  0
SPLINE
  5
3D168
330
3D12F
100
AcDbEntity
  8
1
  6
Continuous
 62
   155
100
AcDbSpline
210
0.0
220
0.0
230
1.0
 70
     8
 71
     3
 72
     8
 73
     4
 74
     0
 42
0.0000000001
 43
0.0000000001
 40
0.0
 40
0.0
 40
0.0
 40
0.0
 40
1.0
 40
1.0
 40
1.0
 40
1.0
 10
142.8114485500186
 20
148.5716255626472
 30
0.0
 10
142.8115457208329
 20
148.4019019185846
 30
0.0
 10
142.8116421987873
 20
148.232178274124
 30
0.0
 10
142.8117379836443
 20
148.0624546292736
 30
0.0
  0
SPLINE
  5
3D169
330
3D12F
100
AcDbEntity
  8
1
  6
Continuous
 62
   155
100
AcDbSpline
210
0.0
220
0.0
230
1.0
 70
     8
 71
     3
 72
     8
 73
     4
 74
     0
 42
0.0000000001
 43
0.0000000001
 40
0.0
 40
0.0
 40
0.0
 40
0.0
 40
1.0
 40
1.0
 40
1.0
 40
1.0
 10
142.8284645447948
 20
149.5931046286466
 30
0.0
 10
142.8286650607079
 20
149.2526116082769
 30
0.0
 10
142.8288627894834
 20
148.9121185862546
 30
0.0
 10
142.8290577297653
 20
148.5716255626472
 30
0.0
  0
SPLINE
  5
3D16A
330
3D12F
100
AcDbEntity
  8
1
  6
Continuous
 62
   155
100
AcDbSpline
210
0.0
220
0.0
230
1.0
 70
     8
 71
     3
 72
     8
 73
     4
 74
     0
 42
0.0000000001
 43
0.0000000001
 40
0.0
 40
0.0
 40
0.0
 40
0.0
 40
1.0
 40
1.0
 40
1.0
 40
1.0
 10
142.8105534372006
 20
150.1022755620205
 30
0.0
 10
142.8106547722181
 20
149.9325519179748
 30
0.0
 10
142.8107554148109
 20
149.7628282735143
 30
0.0
 10
142.8108553648809
 20
149.5931046286474
 30
0.0
  0
SPLINE
  5
3D16B
330
3D12F
100
AcDbEntity
  8
1
  6
Continuous
 62
   155
100
AcDbSpline
210
0.0
220
0.0
230
1.0
 70
     8
 71
     3
 72
    17
 73
    13
 74
     0
 42
0.0000000001
 43
0.0000000001
 40
0.0
 40
0.0
 40
0.0
 40
0.0
 40
0.2151383940353085
 40
0.2151383940353085
 40
0.4302794347138275
 40
0.4302794347138275
 40
0.6453836822619126
 40
0.6453836822619126
 40
0.8604717623334725
 40
0.8604717623334725
 40
0.8604717623334725
 40
1.0
 40
1.0
 40
1.0
 40
1.0
 10
0.0181292892172707
 20
160.4975570962244
 30
0.0
 10
0.018471541102862
 20
160.9452230082931
 30
0.0
 10
0.0960924109704138
 20
161.3990044295149
 30
0.0
 10
0.3930796261163749
 20
162.2436488353546
 30
0.0
 10
0.6165449113453719
 20
162.6461592843115
 30
0.0
 10
1.176368400442619
 20
163.3447972861339
 30
0.0
 10
1.520427637472039
 20
163.6505770163067
 30
0.0
 10
2.279866809807002
 20
164.1244533711543
 30
0.0
 10
2.705711659717883
 20
164.2990945527284
 30
0.0
 10
3.142434009295433
 20
164.3970032860491
 30
0.0
 10
3.428077837371638
 20
164.4610417430114
 30
0.0
 10
3.722541707087721
 20
164.4937254360236
 30
0.0
 10
4.015275875803752
 20
164.4938896135852
 30
0.0
  0
SPLINE
  5
3D16C
330
3D12F
100
AcDbEntity
  8
1
  6
Continuous
 62
   155
100
AcDbSpline
210
0.0
220
0.0
230
1.0
 70
     8
 71
     3
 72
    12
 73
     8
 74
     0
 42
0.0000000001
 43
0.0000000001
 40
0.0
 40
0.0
 40
0.0
 40
0.0
 40
0.4509341918030592
 40
0.4509341918030592
 40
0.7402737926401607
 40
0.7402737926401607
 40
1.0
 40
1.0
 40
1.0
 40
1.0
 10
4.015275875803729
 20
164.4938896135849
 30
0.0
 10
24.2877908330356
 20
164.5052592876109
 30
0.0
 10
44.56030931592131
 20
164.5114963765811
 30
0.0
 10
77.84058452908976
 20
164.5133267547315
 30
0.0
 10
90.84834191454843
 20
164.5119329996692
 30
0.0
 10
115.5325344531516
 20
164.5052838483539
 30
0.0
 10
127.2089700118745
 20
164.5004382465624
 30
0.0
 10
138.8854044916645
 20
164.4938896139529
 30
0.0
  0
SPLINE
  5
3D16D
330
3D12F
100
AcDbEntity
  8
1
  6
Continuous
 62
   155
100
AcDbSpline
210
0.0
220
0.0
230
1.0
 70
     8
 71
     3
 72
    17
 73
    13
 74
     0
 42
0.0000000001
 43
0.0000000001
 40
0.0
 40
0.0
 40
0.0
 40
0.0
 40
0.2151383545060049
 40
0.2151383545060049
 40
0.4302793556560057
 40
0.4302793556560057
 40
0.6453835636628046
 40
0.6453835636628046
 40
0.860471604173974
 40
0.860471604173974
 40
0.860471604173974
 40
1.0
 40
1.0
 40
1.0
 40
1.0
 10
138.8854044916643
 20
164.4938896139529
 30
0.0
 10
139.3330704641985
 20
164.4936385441601
 30
0.0
 10
139.7868676861261
 20
164.4161101036153
 30
0.0
 10
140.6315725658725
 20
164.119294934601
 30
0.0
 10
141.034128522676
 20
163.8959116386587
 30
0.0
 10
141.7328805367441
 20
163.3362304620501
 30
0.0
 10
142.038730339698
 20
162.9922335143794
 30
0.0
 10
142.512761369755
 20
162.2328908785229
 30
0.0
 10
142.6874892851627
 20
161.8070816089731
 30
0.0
 10
142.7854869694773
 20
161.3703792108674
 30
0.0
 10
142.8495836893999
 20
161.0847480605329
 30
0.0
 10
142.882327360401
 20
160.7902904569256
 30
0.0
 10
142.882551079152
 20
160.4975559466675
 30
0.0
  0
SPLINE
  5
3D16E
330
3D12F
100
AcDbEntity
  8
1
  6
Continuous
 62
   155
100
AcDbSpline
210
0.0
220
0.0
230
1.0
 70
     8
 71
     3
 72
    17
 73
    13
 74
     0
 42
0.0000000001
 43
0.0000000001
 40
0.0
 40
0.0
 40
0.0
 40
0.0
 40
0.2151383545066051
 40
0.2151383545066051
 40
0.4302793556572795
 40
0.4302793556572795
 40
0.6453835636646442
 40
0.6453835636646442
 40
0.8604716041763854
 40
0.8604716041763854
 40
0.8604716041763854
 40
1.0
 40
1.0
 40
1.0
 40
1.0
 10
4.015276532116606
 20
61.63101964457696
 30
0.0
 10
3.567610559582504
 20
61.63127071437187
 30
0.0
 10
3.113813337655095
 20
61.70879915491783
 30
0.0
 10
2.269108457910121
 20
62.00561432393612
 30
0.0
 10
1.86655250110823
 20
62.22899761988161
 30
0.0
 10
1.167800487042922
 20
62.78867879649343
 30
0.0
 10
0.8619506840905373
 20
63.13267574416535
 30
0.0
 10
0.3879196540371978
 20
63.8920183800237
 30
0.0
 10
0.2131917386310818
 20
64.31782764957391
 30
0.0
 10
0.1151940543184011
 20
64.75453004767992
 30
0.0
 10
0.0510973343985555
 20
65.04016119800811
 30
0.0
 10
0.0183536633990116
 20
65.33461880160873
 30
0.0
 10
0.0181299446478605
 20
65.62735331186027
 30
0.0
  0
SPLINE
  5
3D16F
330
3D12F
100
AcDbEntity
  8
1
  6
Continuous
 62
   155
100
AcDbSpline
210
0.0
220
0.0
230
1.0
 70
     8
 71
     3
 72
    12
 73
     8
 74
     0
 42
0.0000000001
 43
0.0000000001
 40
0.0
 40
0.0
 40
0.0
 40
0.0
 40
0.4509341918032707
 40
0.4509341918032707
 40
0.7402737926401865
 40
0.7402737926401865
 40
1.0
 40
1.0
 40
1.0
 40
1.0
 10
138.8854051480446
 20
61.6310196449451
 30
0.0
 10
118.6128901907932
 20
61.61964997082908
 30
0.0
 10
98.34037170788796
 20
61.61341288180543
 30
0.0
 10
65.06009649470176
 20
61.61158250363953
 30
0.0
 10
52.05233910924495
 20
61.61297625871353
 30
0.0
 10
27.36814657063896
 20
61.61962541008406
 30
0.0
 10
15.69171101191136
 20
61.62447101191546
 30
0.0
 10
4.015276532116763
 20
61.63101964457698
 30
0.0
  0
SPLINE
  5
3D170
330
3D12F
100
AcDbEntity
  8
1
  6
Continuous
 62
   155
100
AcDbSpline
210
0.0
220
0.0
230
1.0
 70
     8
 71
     3
 72
    17
 73
    13
 74
     0
 42
0.0000000001
 43
0.0000000001
 40
0.0
 40
0.0
 40
0.0
 40
0.0
 40
0.2151383940369066
 40
0.2151383940369066
 40
0.4302794347170393
 40
0.4302794347170393
 40
0.6453836822667313
 40
0.6453836822667313
 40
0.8604717623399102
 40
0.8604717623399102
 40
0.8604717623399102
 40
1.0
 40
1.0
 40
1.0
 40
1.0
 10
142.8825517346129
 20
65.62735216227689
 30
0.0
 10
142.8822094827241
 20
65.17968625020812
 30
0.0
 10
142.8045886128533
 20
64.72590482898699
 30
0.0
 10
142.5076013977013
 20
63.88126042314944
 30
0.0
 10
142.2841361124695
 20
63.47874997419406
 30
0.0
 10
141.7243126233671
 20
62.78011197237553
 30
0.0
 10
141.3802533863357
 20
62.47433224220532
 30
0.0
 10
140.6208142139973
 20
62.00045588736308
 30
0.0
 10
140.1949693640852
 20
61.82581470579215
 30
0.0
 10
139.7582470145069
 20
61.72790597247447
 30
0.0
 10
139.4726031864454
 20
61.66386751551771
 30
0.0
 10
139.1781393167453
 20
61.63118382250758
 30
0.0
 10
138.8854051480448
 20
61.63101964494458
 30
0.0
  0
SPLINE
  5
3D171
330
3D12F
100
AcDbEntity
  8
1
  6
Continuous
 62
   155
100
AcDbSpline
210
0.0
220
0.0
230
1.0
 70
     8
 71
     3
 72
    12
 73
     8
 74
     0
 42
0.0000000001
 43
0.0000000001
 40
0.0
 40
0.0
 40
0.0
 40
0.0
 40
0.3836433329925004
 40
0.3836433329925004
 40
0.7914727166094413
 40
0.7914727166094413
 40
1.0
 40
1.0
 40
1.0
 40
1.0
 10
142.8825517346129
 20
65.62735216227721
 30
0.0
 10
142.8906112457507
 20
76.16920312911126
 30
0.0
 10
142.8959759893453
 20
86.71105649602685
 30
0.0
 10
142.9015211655715
 20
108.459354691549
 30
0.0
 10
142.901341735136
 20
119.6658003674811
 30
0.0
 10
142.8964827778173
 20
136.6022129803262
 30
0.0
 10
142.8940434877187
 20
142.3321810656524
 30
0.0
 10
142.8908109664664
 20
148.0621486884905
 30
0.0
  0
SPLINE
  5
3D172
330
3D12F
100
AcDbEntity
  8
1
  6
Continuous
 62
   155
100
AcDbSpline
210
0.0
220
0.0
230
1.0
 70
     8
 71
     3
 72
     8
 73
     4
 74
     0
 42
0.0000000001
 43
0.0000000001
 40
0.0
 40
0.0
 40
0.0
 40
0.0
 40
1.0
 40
1.0
 40
1.0
 40
1.0
 10
142.8896267769908
 20
150.1018583667766
 30
0.0
 10
142.8895589310196
 20
150.215505013203
 30
0.0
 10
142.8894907731106
 20
150.329151659432
 30
0.0
 10
142.8894223032806
 20
150.4427983054613
 30
0.0
  0
SPLINE
  5
3D173
330
3D12F
100
AcDbEntity
  8
1
  6
Continuous
 62
   155
100
AcDbSpline
210
0.0
220
0.0
230
1.0
 70
     8
 71
     3
 72
     8
 73
     4
 74
     0
 42
0.0000000001
 43
0.0000000001
 40
0.0
 40
0.0
 40
0.0
 40
0.0
 40
1.0
 40
1.0
 40
1.0
 40
1.0
 10
142.8884492452118
 20
152.0244620061004
 30
0.0
 10
142.888433421066
 20
152.0496620011329
 30
0.0
 10
142.8884175815874
 20
152.0748619961549
 30
0.0
 10
142.8884017267761
 20
152.1000619911664
 30
0.0
  0
SPLINE
  5
3D174
330
3D12F
100
AcDbEntity
  8
1
  6
Continuous
 62
   155
100
AcDbSpline
210
0.0
220
0.0
230
1.0
 70
     8
 71
     3
 72
     8
 73
     4
 74
     0
 42
0.0000000001
 43
0.0000000001
 40
0.0
 40
0.0
 40
0.0
 40
0.0
 40
1.0
 40
1.0
 40
1.0
 40
1.0
 10
142.8862512186296
 20
155.3804952858961
 30
0.0
 10
142.8862205550557
 20
155.4254599421111
 30
0.0
 10
142.8861898426916
 20
155.4704245982891
 30
0.0
 10
142.8861590815382
 20
155.5153892544297
 30
0.0
  0
SPLINE
  5
3D175
330
3D12F
100
AcDbEntity
  8
1
  6
Continuous
 62
   155
100
AcDbSpline
210
0.0
220
0.0
230
1.0
 70
     8
 71
     3
 72
     8
 73
     4
 74
     0
 42
0.0000000001
 43
0.0000000001
 40
0.0
 40
0.0
 40
0.0
 40
0.0
 40
1.0
 40
1.0
 40
1.0
 40
1.0
 10
142.8857978755432
 20
156.0401391301122
 30
0.0
 10
142.8847688658322
 20
157.5259447788905
 30
0.0
 10
142.8836865877876
 20
159.0117503863191
 30
0.0
 10
142.882551079152
 20
160.4975559466697
 30
0.0
  0
SPLINE
  5
3D176
330
3D12F
100
AcDbEntity
  8
1
  6
Continuous
 62
   155
100
AcDbSpline
210
0.0
220
0.0
230
1.0
 70
     8
 71
     3
 72
    12
 73
     8
 74
     0
 42
0.0000000001
 43
0.0000000001
 40
0.0
 40
0.0
 40
0.0
 40
0.0
 40
0.3333560826619642
 40
0.3333560826619642
 40
0.6877279536827166
 40
0.6877279536827166
 40
1.0
 40
1.0
 40
1.0
 40
1.0
 10
0.0181292892172707
 20
160.4975570962241
 30
0.0
 10
0.0100697781545733
 20
149.9557061294056
 30
0.0
 10
0.0047050345212298
 20
139.4138527625059
 30
0.0
 10
-0.0008401417746242
 20
117.6655545669995
 30
0.0
 10
-0.0006607113356765
 20
106.4591088910672
 30
0.0
 10
0.00538746129304
 20
85.37755981053036
 30
0.0
 10
0.0105830191698644
 20
75.50245552140076
 30
0.0
 10
0.0181299446478605
 20
65.62735331186046
 30
0.0
  0
SPLINE
  5
3D177
330
3D12F
100
AcDbEntity
  8
1
  6
Continuous
 62
   155
100
AcDbSpline
210
0.0
220
0.0
230
1.0
 70
    24
 71
     3
 72
     8
 73
     4
 74
     0
 42
0.0000000001
 43
0.0000000001
 40
0.0
 40
0.0
 40
0.0
 40
0.0
 40
1.0
 40
1.0
 40
1.0
 40
1.0
 10
190.5708587098471
 20
61.99689536125932
 30
0.0
 10
190.5630999017276
 20
61.99689512024622
 30
0.0
 10
190.2053911403555
 20
61.99688400868708
 30
0.0
 10
189.4977267103645
 20
61.99686202640465
 30
0.0
  0
SPLINE
  5
3D178
330
3D12F
100
AcDbEntity
  8
1
  6
Continuous
 62
   155
100
AcDbSpline
210
0.0
220
0.0
230
1.0
 70
    24
 71
     3
 72
     8
 73
     4
 74
     0
 42
0.0000000001
 43
0.0000000001
 40
0.0
 40
0.0
 40
0.0
 40
0.0
 40
1.0
 40
1.0
 40
1.0
 40
1.0
 10
189.4977267103634
 20
164.1280472321341
 30
0.0
 10
190.2054177496897
 20
164.1280252489841
 30
0.0
 10
190.5631306549171
 20
164.1280141372754
 30
0.0
 10
190.5708597098456
 20
164.1280138971859
 30
0.0
  0
SPLINE
  5
3D179
330
3D12F
100
AcDbEntity
  8
1
  6
Continuous
 62
   155
100
AcDbSpline
210
0.0
220
0.0
230
1.0
 70
     8
 71
     3
 72
    10
 73
     6
 74
     0
 42
0.0000000001
 43
0.0000000001
 40
0.0
 40
0.0
 40
0.0
 40
0.0
 40
0.500161213824304
 40
0.500161213824304
 40
1.0
 40
1.0
 40
1.0
 40
1.0
 10
195.2328550880628
 20
92.54941972411936
 30
0.0
 10
195.2080534819278
 20
89.84090143566536
 30
0.0
 10
195.1838580322266
 20
87.71668143728467
 30
0.0
 10
195.1491026250211
 20
84.81183968105606
 30
0.0
 10
195.1390458874836
 20
84.06180573699655
 30
0.0
 10
195.1390538500225
 20
84.06245508988858
 30
0.0
  0
SPLINE
  5
3D17A
330
3D12F
100
AcDbEntity
  8
1
  6
Continuous
 62
   155
100
AcDbSpline
210
0.0
220
0.0
230
1.0
 70
     8
 71
     3
 72
    20
 73
    16
 74
     0
 42
0.0000000001
 43
0.0000000001
 40
0.0
 40
0.0
 40
0.0
 40
0.0
 40
0.0001937956563515
 40
0.0001937956563515
 40
0.166832076370956
 40
0.166832076370956
 40
0.3334703570855608
 40
0.3334703570855608
 40
0.5001086378001656
 40
0.5001086378001656
 40
0.6667469185147704
 40
0.6667469185147704
 40
0.8333851992293752
 40
0.8333851992293752
 40
1.0
 40
1.0
 40
1.0
 40
1.0
 10
195.1390540680851
 20
142.0624373996639
 30
0.0
 10
195.1390540045553
 20
142.0624422359207
 30
0.0
 10
195.1390539547774
 20
142.0624460450721
 30
0.0
 10
195.1390229452947
 20
142.064840912381
 30
0.0
 10
195.1490881094431
 20
141.3141294829715
 30
0.0
 10
195.1837936663535
 20
138.4137604943686
 30
0.0
 10
195.2080366152139
 20
136.2849237564009
 30
0.0
 10
195.2575450322753
 20
130.8800891860284
 30
0.0
 10
195.2817914659505
 20
127.6873551927456
 30
0.0
 10
195.3166611845459
 20
120.6541932678553
 30
0.0
 10
195.3267397696943
 20
116.8623622398506
 30
0.0
 10
195.3267849409456
 20
109.289276977724
 30
0.0
 10
195.3166387462173
 20
105.4757757266845
 30
0.0
 10
195.2821169938781
 20
98.49371132357537
 30
0.0
 10
195.2576635864611
 20
95.25884974364307
 30
0.0
 10
195.2328655719537
 20
92.55056467592963
 30
0.0
  0
SPLINE
  5
3D17B
330
3D12F
100
AcDbEntity
  8
1
  6
Continuous
 62
   155
100
AcDbSpline
210
0.0
220
0.0
230
1.0
 70
    24
 71
     1
 72
     4
 73
     2
 74
     0
 42
0.0000000001
 43
0.0000000001
 40
0.0
 40
0.0
 40
1.0
 40
1.0
 10
168.5269286813201
 20
61.61211620994283
 30
0.0
 10
190.5323441550837
 20
61.99622216586172
 30
0.0
  0
SPLINE
  5
3D17C
330
3D12F
100
AcDbEntity
  8
1
  6
Continuous
 62
   155
100
AcDbSpline
210
0.0
220
0.0
230
1.0
 70
     8
 71
     3
 72
    20
 73
    16
 74
     0
 42
0.0000000001
 43
0.0000000001
 40
0.0
 40
0.0
 40
0.0
 40
0.0
 40
0.0106445826376583
 40
0.0594144978242229
 40
0.0880903532229683
 40
0.1362742129583876
 40
0.1986856569577981
 40
0.30875538819084
 40
0.4214064615464893
 40
0.5237492351108855
 40
0.6325117311760036
 40
0.7467140446228389
 40
0.8637989994488876
 40
0.9823370328690396
 40
1.0
 40
1.0
 40
1.0
 40
1.0
 10
190.6955055251772
 20
62.0182354293346
 30
0.0
 10
190.698330107832
 20
62.0183243130828
 30
0.0
 10
190.719416631538
 20
62.01933368992825
 30
0.0
 10
190.7895154111784
 20
62.02291621867725
 30
0.0
 10
190.9831077738243
 20
62.04081657222472
 30
0.0
 10
191.2615569371611
 20
62.08136101804367
 30
0.0
 10
191.7012572825769
 20
62.18519387143397
 30
0.0
 10
192.255248529188
 20
62.39631441173363
 30
0.0
 10
192.834787121226
 20
62.74203874928115
 30
0.0
 10
193.3470423015165
 20
63.17714932920956
 30
0.0
 10
193.7829704630792
 20
63.69274543251745
 30
0.0
 10
194.142549486784
 20
64.30256515407315
 30
0.0
 10
194.3817178366692
 20
64.98554440772558
 30
0.0
 10
194.4969492285547
 20
65.50484314397142
 30
0.0
 10
194.488759089001
 20
65.78617911776946
 30
0.0
 10
194.4869252171162
 20
65.82274275397449
 30
0.0
  0
SPLINE
  5
3D17D
330
3D12F
100
AcDbEntity
  8
1
  6
Continuous
 62
   155
100
AcDbSpline
210
0.0
220
0.0
230
1.0
 70
    24
 71
     1
 72
     4
 73
     2
 74
     0
 42
0.0000000001
 43
0.0000000001
 40
0.0
 40
0.0
 40
1.0
 40
1.0
 10
190.5323441550702
 20
164.128687092615
 30
0.0
 10
168.52692868132
 20
164.5127930484326
 30
0.0
  0
SPLINE
  5
3D17E
330
3D12F
100
AcDbEntity
  8
1
  6
Continuous
 62
   155
100
AcDbSpline
210
0.0
220
0.0
230
1.0
 70
     8
 71
     3
 72
    14
 73
    10
 74
     0
 42
0.0000000001
 43
0.0000000001
 40
0.0
 40
0.0
 40
0.0
 40
0.0
 40
0.250014740096496
 40
0.250014740096496
 40
0.500029480192992
 40
0.500029480192992
 40
0.750044220289488
 40
0.750044220289488
 40
1.0
 40
1.0
 40
1.0
 40
1.0
 10
195.3355393298039
 20
113.0624550705368
 30
0.0
 10
195.3372409533913
 20
109.3006946635676
 30
0.0
 10
195.3294678217542
 20
105.6094435027925
 30
0.0
 10
195.3000687765348
 20
98.71370711472394
 30
0.0
 10
195.2786551620496
 20
95.55539503577469
 30
0.0
 10
195.2352719870521
 20
90.30232515908876
 30
0.0
 10
195.2133102124014
 20
88.18098596893014
 30
0.0
 10
195.182275165249
 20
85.34124647205656
 30
0.0
 10
195.1730859848778
 20
84.59348693424866
 30
0.0
 10
195.1730586181165
 20
84.59119359601888
 30
0.0
  0
SPLINE
  5
3D17F
330
3D12F
100
AcDbEntity
  8
1
  6
Continuous
 62
   155
100
AcDbSpline
210
0.0
220
0.0
230
1.0
 70
     8
 71
     3
 72
    14
 73
    10
 74
     0
 42
0.0000000001
 43
0.0000000001
 40
0.0
 40
0.0
 40
0.0
 40
0.0
 40
0.2499882896982552
 40
0.2499882896982552
 40
0.4999921931321703
 40
0.4999921931321703
 40
0.7499960965660849
 40
0.7499960965660849
 40
1.0
 40
1.0
 40
1.0
 40
1.0
 10
195.1472889554217
 20
141.5341569643642
 30
0.0
 10
195.1472415924614
 20
141.5378679107564
 30
0.0
 10
195.1569622215375
 20
140.8023766644267
 30
0.0
 10
195.1907713070786
 20
137.9465561832031
 30
0.0
 10
195.214528935484
 20
135.8370571135603
 30
0.0
 10
195.2627006960329
 20
130.583796912011
 30
0.0
 10
195.2870541227893
 20
127.411001833426
 30
0.0
 10
195.3225228430803
 20
120.5610923100554
 30
0.0
 10
195.3338377062165
 20
116.8242154775057
 30
0.0
 10
195.3355393298039
 20
113.0624550705368
 30
0.0
  0
SPLINE
  5
3D180
330
3D12F
100
AcDbEntity
  8
1
  6
Continuous
 62
   155
100
AcDbSpline
210
0.0
220
0.0
230
1.0
 70
    24
 71
     3
 72
    16
 73
    12
 74
     0
 42
0.0000000001
 43
0.0000000001
 40
0.0
 40
0.0
 40
0.0
 40
0.0
 40
0.2151383940353085
 40
0.2151383940353085
 40
0.4302794347138275
 40
0.4302794347138275
 40
0.6453836822619126
 40
0.6453836822619126
 40
0.8604717623334725
 40
0.8604717623334725
 40
1.0
 40
1.0
 40
1.0
 40
1.0
 10
168.5269131302159
 20
160.4975570962244
 30
0.0
 10
168.5269131302159
 20
160.9452230082931
 30
0.0
 10
168.526913130216
 20
161.3990044295149
 30
0.0
 10
168.526913130216
 20
162.2436488353546
 30
0.0
 10
168.526913130216
 20
162.6461592843115
 30
0.0
 10
168.526913130216
 20
163.3447972861339
 30
0.0
 10
168.526913130216
 20
163.6505770163067
 30
0.0
 10
168.526913130216
 20
164.1244533711543
 30
0.0
 10
168.526913130216
 20
164.2990945527284
 30
0.0
 10
168.526913130216
 20
164.4610417430114
 30
0.0
 10
168.526913130216
 20
164.4937254360236
 30
0.0
 10
168.526913130216
 20
164.4938896135852
 30
0.0
  0
SPLINE
  5
3D181
330
3D12F
100
AcDbEntity
  8
1
  6
Continuous
 62
   155
100
AcDbSpline
210
0.0
220
0.0
230
1.0
 70
    24
 71
     3
 72
    17
 73
    13
 74
     0
 42
0.0000000001
 43
0.0000000001
 40
0.0
 40
0.0
 40
0.0
 40
0.0
 40
0.2151383545066051
 40
0.2151383545066051
 40
0.4302793556572795
 40
0.4302793556572795
 40
0.6453835636646442
 40
0.6453835636646442
 40
0.8604716041763854
 40
0.8604716041763854
 40
0.8604716041763854
 40
1.0
 40
1.0
 40
1.0
 40
1.0
 10
168.526913130216
 20
61.63101964457696
 30
0.0
 10
168.526913130216
 20
61.63127071437187
 30
0.0
 10
168.526913130216
 20
61.70879915491783
 30
0.0
 10
168.526913130216
 20
62.00561432393612
 30
0.0
 10
168.526913130216
 20
62.22899761988161
 30
0.0
 10
168.526913130216
 20
62.78867879649343
 30
0.0
 10
168.526913130216
 20
63.13267574416535
 30
0.0
 10
168.526913130216
 20
63.8920183800237
 30
0.0
 10
168.526913130216
 20
64.31782764957391
 30
0.0
 10
168.526913130216
 20
64.75453004767992
 30
0.0
 10
168.526913130216
 20
65.04016119800811
 30
0.0
 10
168.526913130216
 20
65.33461880160873
 30
0.0
 10
168.526913130216
 20
65.62735331186027
 30
0.0
  0
SPLINE
  5
3D182
330
3D12F
100
AcDbEntity
  8
1
  6
Continuous
 62
   155
100
AcDbSpline
210
0.0
220
0.0
230
1.0
 70
    24
 71
     3
 72
    12
 73
     8
 74
     0
 42
0.0000000001
 43
0.0000000001
 40
0.0
 40
0.0
 40
0.0
 40
0.0
 40
0.3333560826619642
 40
0.3333560826619642
 40
0.6877279536827166
 40
0.6877279536827166
 40
1.0
 40
1.0
 40
1.0
 40
1.0
 10
168.526913130216
 20
160.4975570962241
 30
0.0
 10
168.526913130216
 20
149.9557061294056
 30
0.0
 10
168.526913130216
 20
139.4138527625059
 30
0.0
 10
168.526913130216
 20
117.6655545669995
 30
0.0
 10
168.526913130216
 20
106.4591088910672
 30
0.0
 10
168.526913130216
 20
85.37755981053036
 30
0.0
 10
168.526913130216
 20
75.50245552140076
 30
0.0
 10
168.526913130216
 20
65.62735331186046
 30
0.0
  0
SPLINE
  5
3D183
330
3D12F
100
AcDbEntity
  8
1
  6
Continuous
 62
   155
100
AcDbSpline
210
0.0
220
0.0
230
1.0
 70
     8
 71
     3
 72
    22
 73
    18
 74
     0
 42
0.0000000001
 43
0.0000000001
 40
0.0
 40
0.0
 40
0.0
 40
0.0
 40
0.0529405875971439
 40
0.172234995974395
 40
0.2837407756374566
 40
0.3884912467060264
 40
0.4868476475370422
 40
0.5787532472070978
 40
0.663803940774849
 40
0.7412246399173994
 40
0.8096889457316828
 40
0.8664921511264921
 40
0.9073840192760975
 40
0.9372452457076942
 40
0.9607652857918923
 40
0.9921732972462967
 40
1.0
 40
1.0
 40
1.0
 40
1.0
 10
194.477121868331
 20
160.3034531943464
 30
0.0
 10
194.4801628839971
 20
160.4135959102839
 30
0.0
 10
194.4710372335601
 20
160.7689170635259
 30
0.0
 10
194.325084687279
 20
161.3438826046774
 30
0.0
 10
194.0572571953516
 20
161.9850697807649
 30
0.0
 10
193.7039386443235
 20
162.5348018389724
 30
0.0
 10
193.2974523770946
 20
162.9918532990996
 30
0.0
 10
192.8594522798929
 20
163.3577451189865
 30
0.0
 10
192.4126829518645
 20
163.6371196975191
 30
0.0
 10
191.9788881680515
 20
163.837613177265
 30
0.0
 10
191.5814081507949
 20
163.9692650767122
 30
0.0
 10
191.2493649906582
 20
164.0446698853611
 30
0.0
 10
190.9980538390876
 20
164.0820838994059
 30
0.0
 10
190.8433435769165
 20
164.0972436476021
 30
0.0
 10
190.7544792204233
 20
164.1036309821432
 30
0.0
 10
190.7107600528318
 20
164.10603485799
 30
0.0
 10
190.6976539619218
 20
164.1066131777711
 30
0.0
 10
190.6955281844014
 20
164.1066897496765
 30
0.0
  0
SPLINE
  5
3D184
330
3D12F
100
AcDbEntity
  8
1
  6
Continuous
 62
   155
100
AcDbSpline
210
-0.0000000026906152
220
0.000000000000192
230
1.0
 70
     8
 71
     3
 72
     8
 73
     4
 74
     0
 42
0.0000000001
 43
0.0000000001
 40
0.0
 40
0.0
 40
0.0
 40
0.0
 40
1.0
 40
1.0
 40
1.0
 40
1.0
 10
142.5167829657381
 20
5.869665879856832
 30
0.0000000000000006
 10
142.5167308400371
 20
5.185041858876092
 30
0.000000000000001
 10
142.5167088975209
 20
4.842988143289074
 30
0.0000000000000012
 10
142.5167109825018
 20
4.843504047982973
 30
0.0000000000000012
  0
SPLINE
  5
3D185
330
3D12F
100
AcDbEntity
  8
1
  6
Continuous
 62
   155
100
AcDbSpline
210
0.0
220
0.0
230
1.0
 70
     8
 71
     3
 72
    24
 73
    20
 74
     0
 42
0.0000000001
 43
0.0000000001
 40
0.0
 40
0.0
 40
0.0
 40
0.0
 40
0.0001137458809331
 40
0.0001137458809331
 40
0.1251179178288188
 40
0.1251179178288188
 40
0.2501220897767046
 40
0.2501220897767046
 40
0.3751262617245904
 40
0.3751262617245904
 40
0.5001304336724762
 40
0.5001304336724762
 40
0.6251346056203621
 40
0.6251346056203621
 40
0.7501387775682477
 40
0.7501387775682477
 40
0.8751429495161334
 40
0.8751429495161334
 40
1.0
 40
1.0
 40
1.0
 40
1.0
 10
100.4503363685497
 20
0.0406302495159068
 30
0.0000000000000016
 10
100.4503382271774
 20
0.040630224891455
 30
0.0000000000000016
 10
100.450339460786
 20
0.0406302086400956
 30
0.0000000000000016
 10
100.4510088497464
 20
0.0406215450576184
 30
0.0000000000000016
 10
99.69799674522954
 20
0.0507140199002549
 30
0.0000000000000016
 10
96.78573134438721
 20
0.0855379497829532
 30
0.0000000000000016
 10
94.63310832645722
 20
0.1099719199745053
 30
0.0000000000000016
 10
89.28038318972388
 20
0.1589703906075428
 30
0.0000000000000016
 10
86.04606357617615
 20
0.1834997895916039
 30
0.0000000000000016
 10
79.06704008669606
 20
0.2181054593222811
 30
0.0000000000000016
 10
75.25016306548454
 20
0.2283076979975043
 30
0.0000000000000016
 10
67.68720756313095
 20
0.2283696449202068
 30
0.0000000000000016
 10
63.88332986268584
 20
0.2183044807717422
 30
0.0000000000000016
 10
56.86514002857514
 20
0.1835989238615667
 30
0.0000000000000016
 10
53.66430779139005
 20
0.1593559750010627
 30
0.0000000000000016
 10
48.25210930567713
 20
0.109847557939645
 30
0.0000000000000016
 10
46.12041628254025
 20
0.0856011242645636
 30
0.0000000000000016
 10
43.20567145276213
 20
0.0507519253203839
 30
0.0000000000000016
 10
42.45385943367324
 20
0.0406765543377645
 30
0.0000000000000016
 10
42.45035287016081
 20
0.0406303564236374
 30
0.0000000000000016
  0
SPLINE
  5
3D186
330
3D12F
100
AcDbEntity
  8
1
  6
Continuous
 62
   155
100
AcDbSpline
210
0.0000000026271349
220
0.0000000000001823
230
1.0
 70
     8
 71
     3
 72
     8
 73
     4
 74
     0
 42
0.0000000001
 43
0.0000000001
 40
0.0
 40
0.0
 40
0.0
 40
0.0
 40
1.0
 40
1.0
 40
1.0
 40
1.0
 10
0.3839700421173617
 20
4.843503882442401
 30
0.0000000000000012
 10
0.3839679656270149
 20
4.843939765182962
 30
0.0000000000000012
 10
0.3839419276233329
 20
5.185993991741778
 30
0.000000000000001
 10
0.3838980580779108
 20
5.869665879856206
 30
0.0000000000000006
  0
SPLINE
  5
3D187
330
3D12F
100
AcDbEntity
  8
1
  6
Continuous
 62
   155
100
AcDbSpline
210
0.0
220
0.0
230
1.0
 70
     8
 71
     3
 72
    22
 73
    18
 74
     0
 42
0.0000000001
 43
0.0000000001
 40
0.0
 40
0.0
 40
0.0
 40
0.0
 40
0.1247253624435646
 40
0.1247253624435646
 40
0.2497645963801981
 40
0.2497645963801981
 40
0.3748038303168318
 40
0.3748038303168318
 40
0.4998430642534653
 40
0.4998430642534653
 40
0.624882298190099
 40
0.624882298190099
 40
0.7499215321267327
 40
0.7499215321267327
 40
0.8749607660633659
 40
0.8749607660633659
 40
1.0
 40
1.0
 40
1.0
 40
1.0
 10
99.91876463542453
 20
0.0318616993595455
 30
0.0000000000000016
 10
99.91629859186872
 20
0.0335707212276546
 30
0.0000000000000016
 10
99.17210631862305
 20
0.0447367822095366
 30
0.0000000000000016
 10
96.34207264207496
 20
0.0800504204943664
 30
0.0000000000000016
 10
94.22266899850573
 20
0.1043991129210333
 30
0.0000000000000016
 10
88.97820403652454
 20
0.1525102983018733
 30
0.0000000000000016
 10
85.81739082377485
 20
0.1763623268697749
 30
0.0000000000000016
 10
78.93333754318977
 20
0.2102096279953436
 30
0.0000000000000016
 10
75.23367909866293
 20
0.2200550396236522
 30
0.0000000000000016
 10
67.72467594561906
 20
0.2201522119850985
 30
0.0000000000000016
 10
64.02815468973836
 20
0.2104314244661438
 30
0.0000000000000016
 10
57.12047835475964
 20
0.1766212831363454
 30
0.0000000000000016
 10
53.96585431045806
 20
0.1528636547309468
 30
0.0000000000000016
 10
48.70513303970774
 20
0.1046918941821673
 30
0.0000000000000016
 10
46.58322474495999
 20
0.0803384674256158
 30
0.0000000000000016
 10
43.73771819657982
 20
0.0448697471346336
 30
0.0000000000000016
 10
42.98188055600234
 20
0.0335548839982955
 30
0.0000000000000016
 10
42.98191019964483
 20
0.0318532604109443
 30
0.0000000000000016
  0
SPLINE
  5
3D188
330
3D12F
100
AcDbEntity
  8
1
  6
Continuous
 62
   155
100
AcDbSpline
210
0.0
220
0.0
230
1.0
 70
    24
 71
     3
 72
     8
 73
     4
 74
     0
 42
0.0000000001
 43
0.0000000001
 40
0.0
 40
0.0
 40
0.0
 40
0.0
 40
1.0
 40
1.0
 40
1.0
 40
1.0
 10
142.8508859968736
 20
24.84047945999899
 30
0.0000000000000001
 10
142.8361655552586
 20
23.99714612666565
 30
0.0000000000000002
 10
142.8214451136435
 20
23.15381279333228
 30
0.0000000000000002
 10
142.8067246720285
 20
22.31047945999893
 30
0.0000000000000003
  0
SPLINE
  5
3D189
330
3D12F
100
AcDbEntity
  8
1
  6
Continuous
 62
   155
100
AcDbSpline
210
0.0
220
0.0
230
1.0
 70
    24
 71
     1
 72
     4
 73
     2
 74
     0
 42
0.0000000001
 43
0.0000000001
 40
0.0
 40
0.0
 40
1.0
 40
1.0
 10
142.5167248312705
 20
4.843634891690472
 30
0.0000000000000013
 10
142.8216096280741
 20
22.31047320237736
 30
0.0000000000000003
  0
SPLINE
  5
3D18A
330
3D12F
100
AcDbEntity
  8
1
  6
Continuous
 62
   155
100
AcDbSpline
210
0.0
220
0.0
230
1.0
 70
    24
 71
     1
 72
     4
 73
     2
 74
     0
 42
0.0000000001
 43
0.0000000001
 40
0.0
 40
0.0
 40
1.0
 40
1.0
 10
142.8657705288275
 20
24.84044951211624
 30
0.0000000000000001
 10
142.9006804901619
 20
26.84043985749906
 30
0.0
  0
SPLINE
  5
3D18B
330
3D12F
100
AcDbEntity
  8
1
  6
Continuous
 62
   155
100
AcDbSpline
210
0.0
220
0.0
230
1.0
 70
    24
 71
     1
 72
     4
 73
     2
 74
     0
 42
0.0000000001
 43
0.0000000001
 40
0.0
 40
0.0
 40
1.0
 40
1.0
 10
0.0000005336384135
 20
26.84043985749876
 30
0.0
 10
0.3839561925298724
 20
4.843634891689492
 30
0.0000000000000013
  0
SPLINE
  5
3D18C
330
3D12F
100
AcDbEntity
  8
1
  6
Continuous
 62
   155
100
AcDbSpline
210
0.0
220
0.0
230
1.0
 70
    24
 71
     3
 72
    17
 73
    13
 74
     0
 42
0.0000000001
 43
0.0000000001
 40
0.0
 40
0.0
 40
0.0
 40
0.0
 40
0.2151383940353085
 40
0.2151383940353085
 40
0.4302794347138275
 40
0.4302794347138275
 40
0.6453836822619126
 40
0.6453836822619126
 40
0.8604717623334725
 40
0.8604717623334725
 40
0.8604717623334725
 40
1.0
 40
1.0
 40
1.0
 40
1.0
 10
0.0181292892172635
 20
26.840479459999
 30
0.0
 10
0.018471541102862
 20
26.840479459999
 30
0.0
 10
0.0960924109704138
 20
26.84047945999897
 30
0.0
 10
0.3930796261163749
 20
26.84047945999897
 30
0.0
 10
0.6165449113453576
 20
26.84047945999897
 30
0.0
 10
1.176368400442619
 20
26.84047945999897
 30
0.0
 10
1.520427637472018
 20
26.84047945999897
 30
0.0
 10
2.279866809807002
 20
26.84047945999897
 30
0.0
 10
2.705711659717875
 20
26.84047945999897
 30
0.0
 10
3.142434009295428
 20
26.84047945999897
 30
0.0
 10
3.428077837371631
 20
26.84047945999897
 30
0.0
 10
3.722541707087721
 20
26.84047945999897
 30
0.0
 10
4.015275875803729
 20
26.84047945999897
 30
0.0
  0
SPLINE
  5
3D18D
330
3D12F
100
AcDbEntity
  8
1
  6
Continuous
 62
   155
100
AcDbSpline
210
0.0
220
0.0
230
1.0
 70
    24
 71
     3
 72
    12
 73
     8
 74
     0
 42
0.0000000001
 43
0.0000000001
 40
0.0
 40
0.0
 40
0.0
 40
0.0
 40
0.4509341918030592
 40
0.4509341918030592
 40
0.7402737926401607
 40
0.7402737926401607
 40
1.0
 40
1.0
 40
1.0
 40
1.0
 10
4.015275875803729
 20
26.84047945999897
 30
0.0
 10
24.2877908330356
 20
26.84047945999897
 30
0.0
 10
44.56030931592131
 20
26.84047945999897
 30
0.0
 10
77.84058452908976
 20
26.84047945999897
 30
0.0
 10
90.84834191454843
 20
26.84047945999895
 30
0.0
 10
115.5325344531516
 20
26.84047945999895
 30
0.0
 10
127.2089700118745
 20
26.84047945999897
 30
0.0
 10
138.8854044916645
 20
26.84047945999897
 30
0.0
  0
SPLINE
  5
3D18E
330
3D12F
100
AcDbEntity
  8
1
  6
Continuous
 62
   155
100
AcDbSpline
210
0.0
220
0.0
230
1.0
 70
    24
 71
     3
 72
    16
 73
    12
 74
     0
 42
0.0000000001
 43
0.0000000001
 40
0.0
 40
0.0
 40
0.0
 40
0.0
 40
0.2151383545060049
 40
0.2151383545060049
 40
0.4302793556560057
 40
0.4302793556560057
 40
0.6453835636628046
 40
0.6453835636628046
 40
0.860471604173974
 40
0.860471604173974
 40
1.0
 40
1.0
 40
1.0
 40
1.0
 10
138.8854044916643
 20
26.84047945999898
 30
0.0
 10
139.3330704641985
 20
26.84047945999898
 30
0.0
 10
139.7868676861261
 20
26.84047945999897
 30
0.0
 10
140.6315725658725
 20
26.84047945999897
 30
0.0
 10
141.034128522676
 20
26.84047945999897
 30
0.0
 10
141.7328805367441
 20
26.84047945999897
 30
0.0
 10
142.038730339698
 20
26.84047945999897
 30
0.0
 10
142.512761369755
 20
26.84047945999897
 30
0.0
 10
142.6874892851627
 20
26.84047945999897
 30
0.0
 10
142.8495836893999
 20
26.84047945999897
 30
0.0
 10
142.882327360401
 20
26.84047945999897
 30
0.0
 10
142.882551079152
 20
26.84047945999897
 30
0.0
  0
ENDBLK
  5
3D190
330
3D12F
100
AcDbEntity
  8
0
100
AcDbBlockEnd
  0
BLOCK
  5
3D27E
330
3D27D
100
AcDbEntity
  8
0
100
AcDbBlockBegin
  2
DimnDraft3D1
 70
     0
 10
0.0
 20
0.0
 30
0.0
  3
DimnDraft3D1
  1

  0
MTEXT
  5
3D27F
330
3D27D
100
AcDbEntity
  8
1
  6
Continuous
 62
    35
100
AcDbMText
 10
7.736152
 20
118.629934
 30
0.0
 40
3.5
 41
0.0
 71
     7
 72
     5
  1
\W01.000;\W00.714;10 
  7
blockfont
 11
0.0000000000000001
 21
1.0
 31
0.0
 73
     2
 44
0.9036139999999999
1001
ACAD
1000
MTEXTBEGIN
1070
    73
1070
     2
1070
    44
1040
0.9036139999999999
1070
    74
1070
     0
1000
MTEXTEND
1000
ACAD_MTEXT_DEFINED_HEIGHT_BEGIN
1070
    46
1040
0.2
1000
ACAD_MTEXT_DEFINED_HEIGHT_END
  0
LINE
  5
3D280
330
3D27D
100
AcDbEntity
  8
1
  6
Continuous
 62
    35
370
     5
100
AcDbLine
 10
27.610005
 20
122.718059
 30
0.0
 11
6.355944
 21
122.718059
 31
0.0
  0
LINE
  5
3D281
330
3D27D
100
AcDbEntity
  8
1
  6
Continuous
 62
    35
370
     5
100
AcDbLine
 10
13.111005
 20
117.718059
 30
0.0
 11
6.355944
 21
117.718059
 31
0.0
  0
LINE
  5
3D282
330
3D27D
100
AcDbEntity
  8
1
  6
Continuous
 62
    35
370
     5
100
AcDbLine
 10
8.355944
 20
131.468059
 30
0.0
 11
8.355944
 21
108.968059
 31
0.0
  0
SOLID
  5
3D283
330
3D27D
100
AcDbEntity
  8
1
  6
Continuous
 62
    35
370
     5
100
AcDbTrace
 10
8.355944
 20
122.718059
 30
0.0
 11
9.105944
 21
122.718059
 31
0.0
 12
9.094549999999999
 22
122.848295
 32
0.0
 13
9.094549999999999
 23
122.848295
 33
0.0
  0
SOLID
  5
3D284
330
3D27D
100
AcDbEntity
  8
1
  6
Continuous
 62
    35
370
     5
100
AcDbTrace
 10
8.355944
 20
122.718059
 30
0.0
 11
9.094549999999999
 21
122.848295
 31
0.0
 12
9.060712999999999
 22
122.974574
 32
0.0
 13
9.060712999999999
 23
122.974574
 33
0.0
  0
SOLID
  5
3D285
330
3D27D
100
AcDbEntity
  8
1
  6
Continuous
 62
    35
370
     5
100
AcDbTrace
 10
8.355944
 20
122.718059
 30
0.0
 11
9.060712999999999
 21
122.974574
 31
0.0
 12
9.005463
 22
123.093059
 32
0.0
 13
9.005463
 23
123.093059
 33
0.0
  0
SOLID
  5
3D286
330
3D27D
100
AcDbEntity
  8
1
  6
Continuous
 62
    35
370
     5
100
AcDbTrace
 10
8.355944
 20
122.718059
 30
0.0
 11
9.005463
 21
123.093059
 31
0.0
 12
8.930476999999999
 22
123.200149
 32
0.0
 13
8.930476999999999
 23
123.200149
 33
0.0
  0
SOLID
  5
3D287
330
3D27D
100
AcDbEntity
  8
1
  6
Continuous
 62
    35
370
     5
100
AcDbTrace
 10
8.355944
 20
122.718059
 30
0.0
 11
8.930476999999999
 21
123.200149
 31
0.0
 12
8.838035000000001
 22
123.292592
 32
0.0
 13
8.838035000000001
 23
123.292592
 33
0.0
  0
SOLID
  5
3D288
330
3D27D
100
AcDbEntity
  8
1
  6
Continuous
 62
    35
370
     5
100
AcDbTrace
 10
8.355944
 20
122.718059
 30
0.0
 11
8.838035000000001
 21
123.292592
 31
0.0
 12
8.730944
 22
123.367578
 32
0.0
 13
8.730944
 23
123.367578
 33
0.0
  0
SOLID
  5
3D289
330
3D27D
100
AcDbEntity
  8
1
  6
Continuous
 62
    35
370
     5
100
AcDbTrace
 10
8.355944
 20
122.718059
 30
0.0
 11
8.730944
 21
123.367578
 31
0.0
 12
8.612458999999999
 22
123.422828
 32
0.0
 13
8.612458999999999
 23
123.422828
 33
0.0
  0
SOLID
  5
3D28A
330
3D27D
100
AcDbEntity
  8
1
  6
Continuous
 62
    35
370
     5
100
AcDbTrace
 10
8.355944
 20
122.718059
 30
0.0
 11
8.612458999999999
 21
123.422828
 31
0.0
 12
8.48618
 22
123.456664
 32
0.0
 13
8.48618
 23
123.456664
 33
0.0
  0
SOLID
  5
3D28B
330
3D27D
100
AcDbEntity
  8
1
  6
Continuous
 62
    35
370
     5
100
AcDbTrace
 10
8.355944
 20
122.718059
 30
0.0
 11
8.48618
 21
123.456664
 31
0.0
 12
8.355944
 22
123.468059
 32
0.0
 13
8.355944
 23
123.468059
 33
0.0
  0
SOLID
  5
3D28C
330
3D27D
100
AcDbEntity
  8
1
  6
Continuous
 62
    35
370
     5
100
AcDbTrace
 10
8.355944
 20
122.718059
 30
0.0
 11
8.355944
 21
123.468059
 31
0.0
 12
8.225708
 22
123.456664
 32
0.0
 13
8.225708
 23
123.456664
 33
0.0
  0
SOLID
  5
3D28D
330
3D27D
100
AcDbEntity
  8
1
  6
Continuous
 62
    35
370
     5
100
AcDbTrace
 10
8.355944
 20
122.718059
 30
0.0
 11
8.225708
 21
123.456664
 31
0.0
 12
8.099428999999998
 22
123.422828
 32
0.0
 13
8.099428999999998
 23
123.422828
 33
0.0
  0
SOLID
  5
3D28E
330
3D27D
100
AcDbEntity
  8
1
  6
Continuous
 62
    35
370
     5
100
AcDbTrace
 10
8.355944
 20
122.718059
 30
0.0
 11
8.099428999999998
 21
123.422828
 31
0.0
 12
7.980944
 22
123.367578
 32
0.0
 13
7.980944
 23
123.367578
 33
0.0
  0
SOLID
  5
3D28F
330
3D27D
100
AcDbEntity
  8
1
  6
Continuous
 62
    35
370
     5
100
AcDbTrace
 10
8.355944
 20
122.718059
 30
0.0
 11
7.980944
 21
123.367578
 31
0.0
 12
7.873852999999999
 22
123.292592
 32
0.0
 13
7.873852999999999
 23
123.292592
 33
0.0
  0
SOLID
  5
3D290
330
3D27D
100
AcDbEntity
  8
1
  6
Continuous
 62
    35
370
     5
100
AcDbTrace
 10
8.355944
 20
122.718059
 30
0.0
 11
7.873852999999999
 21
123.292592
 31
0.0
 12
7.781411
 22
123.200149
 32
0.0
 13
7.781411
 23
123.200149
 33
0.0
  0
SOLID
  5
3D291
330
3D27D
100
AcDbEntity
  8
1
  6
Continuous
 62
    35
370
     5
100
AcDbTrace
 10
8.355944
 20
122.718059
 30
0.0
 11
7.781411
 21
123.200149
 31
0.0
 12
7.706425
 22
123.093059
 32
0.0
 13
7.706425
 23
123.093059
 33
0.0
  0
SOLID
  5
3D292
330
3D27D
100
AcDbEntity
  8
1
  6
Continuous
 62
    35
370
     5
100
AcDbTrace
 10
8.355944
 20
122.718059
 30
0.0
 11
7.706425
 21
123.093059
 31
0.0
 12
7.651175
 22
122.974574
 32
0.0
 13
7.651175
 23
122.974574
 33
0.0
  0
SOLID
  5
3D293
330
3D27D
100
AcDbEntity
  8
1
  6
Continuous
 62
    35
370
     5
100
AcDbTrace
 10
8.355944
 20
122.718059
 30
0.0
 11
7.651175
 21
122.974574
 31
0.0
 12
7.617338
 22
122.848295
 32
0.0
 13
7.617338
 23
122.848295
 33
0.0
  0
SOLID
  5
3D294
330
3D27D
100
AcDbEntity
  8
1
  6
Continuous
 62
    35
370
     5
100
AcDbTrace
 10
8.355944
 20
122.718059
 30
0.0
 11
7.617338
 21
122.848295
 31
0.0
 12
7.605944
 22
122.718059
 32
0.0
 13
7.605944
 23
122.718059
 33
0.0
  0
SOLID
  5
3D295
330
3D27D
100
AcDbEntity
  8
1
  6
Continuous
 62
    35
370
     5
100
AcDbTrace
 10
8.355944
 20
122.718059
 30
0.0
 11
7.605944
 21
122.718059
 31
0.0
 12
7.617338
 22
122.587823
 32
0.0
 13
7.617338
 23
122.587823
 33
0.0
  0
SOLID
  5
3D296
330
3D27D
100
AcDbEntity
  8
1
  6
Continuous
 62
    35
370
     5
100
AcDbTrace
 10
8.355944
 20
122.718059
 30
0.0
 11
7.617338
 21
122.587823
 31
0.0
 12
7.651175
 22
122.461544
 32
0.0
 13
7.651175
 23
122.461544
 33
0.0
  0
SOLID
  5
3D297
330
3D27D
100
AcDbEntity
  8
1
  6
Continuous
 62
    35
370
     5
100
AcDbTrace
 10
8.355944
 20
122.718059
 30
0.0
 11
7.651175
 21
122.461544
 31
0.0
 12
7.706425
 22
122.343059
 32
0.0
 13
7.706425
 23
122.343059
 33
0.0
  0
SOLID
  5
3D298
330
3D27D
100
AcDbEntity
  8
1
  6
Continuous
 62
    35
370
     5
100
AcDbTrace
 10
8.355944
 20
122.718059
 30
0.0
 11
7.706425
 21
122.343059
 31
0.0
 12
7.781411
 22
122.235968
 32
0.0
 13
7.781411
 23
122.235968
 33
0.0
  0
SOLID
  5
3D299
330
3D27D
100
AcDbEntity
  8
1
  6
Continuous
 62
    35
370
     5
100
AcDbTrace
 10
8.355944
 20
122.718059
 30
0.0
 11
7.781411
 21
122.235968
 31
0.0
 12
7.873852999999999
 22
122.143525
 32
0.0
 13
7.873852999999999
 23
122.143525
 33
0.0
  0
SOLID
  5
3D29A
330
3D27D
100
AcDbEntity
  8
1
  6
Continuous
 62
    35
370
     5
100
AcDbTrace
 10
8.355944
 20
122.718059
 30
0.0
 11
7.873852999999999
 21
122.143525
 31
0.0
 12
7.980944
 22
122.06854
 32
0.0
 13
7.980944
 23
122.06854
 33
0.0
  0
SOLID
  5
3D29B
330
3D27D
100
AcDbEntity
  8
1
  6
Continuous
 62
    35
370
     5
100
AcDbTrace
 10
8.355944
 20
122.718059
 30
0.0
 11
7.980944
 21
122.06854
 31
0.0
 12
8.099428999999998
 22
122.013289
 32
0.0
 13
8.099428999999998
 23
122.013289
 33
0.0
  0
SOLID
  5
3D29C
330
3D27D
100
AcDbEntity
  8
1
  6
Continuous
 62
    35
370
     5
100
AcDbTrace
 10
8.355944
 20
122.718059
 30
0.0
 11
8.099428999999998
 21
122.013289
 31
0.0
 12
8.225708
 22
121.979453
 32
0.0
 13
8.225708
 23
121.979453
 33
0.0
  0
SOLID
  5
3D29D
330
3D27D
100
AcDbEntity
  8
1
  6
Continuous
 62
    35
370
     5
100
AcDbTrace
 10
8.355944
 20
122.718059
 30
0.0
 11
8.225708
 21
121.979453
 31
0.0
 12
8.355944
 22
121.968059
 32
0.0
 13
8.355944
 23
121.968059
 33
0.0
  0
SOLID
  5
3D29E
330
3D27D
100
AcDbEntity
  8
1
  6
Continuous
 62
    35
370
     5
100
AcDbTrace
 10
8.355944
 20
122.718059
 30
0.0
 11
8.355944
 21
121.968059
 31
0.0
 12
8.48618
 22
121.979453
 32
0.0
 13
8.48618
 23
121.979453
 33
0.0
  0
SOLID
  5
3D29F
330
3D27D
100
AcDbEntity
  8
1
  6
Continuous
 62
    35
370
     5
100
AcDbTrace
 10
8.355944
 20
122.718059
 30
0.0
 11
8.48618
 21
121.979453
 31
0.0
 12
8.612458999999999
 22
122.013289
 32
0.0
 13
8.612458999999999
 23
122.013289
 33
0.0
  0
SOLID
  5
3D2A0
330
3D27D
100
AcDbEntity
  8
1
  6
Continuous
 62
    35
370
     5
100
AcDbTrace
 10
8.355944
 20
122.718059
 30
0.0
 11
8.612458999999999
 21
122.013289
 31
0.0
 12
8.730944
 22
122.06854
 32
0.0
 13
8.730944
 23
122.06854
 33
0.0
  0
SOLID
  5
3D2A1
330
3D27D
100
AcDbEntity
  8
1
  6
Continuous
 62
    35
370
     5
100
AcDbTrace
 10
8.355944
 20
122.718059
 30
0.0
 11
8.730944
 21
122.06854
 31
0.0
 12
8.838035000000001
 22
122.143525
 32
0.0
 13
8.838035000000001
 23
122.143525
 33
0.0
  0
SOLID
  5
3D2A2
330
3D27D
100
AcDbEntity
  8
1
  6
Continuous
 62
    35
370
     5
100
AcDbTrace
 10
8.355944
 20
122.718059
 30
0.0
 11
8.838035000000001
 21
122.143525
 31
0.0
 12
8.930476999999999
 22
122.235968
 32
0.0
 13
8.930476999999999
 23
122.235968
 33
0.0
  0
SOLID
  5
3D2A3
330
3D27D
100
AcDbEntity
  8
1
  6
Continuous
 62
    35
370
     5
100
AcDbTrace
 10
8.355944
 20
122.718059
 30
0.0
 11
8.930476999999999
 21
122.235968
 31
0.0
 12
9.005463
 22
122.343059
 32
0.0
 13
9.005463
 23
122.343059
 33
0.0
  0
SOLID
  5
3D2A4
330
3D27D
100
AcDbEntity
  8
1
  6
Continuous
 62
    35
370
     5
100
AcDbTrace
 10
8.355944
 20
122.718059
 30
0.0
 11
9.005463
 21
122.343059
 31
0.0
 12
9.060712999999999
 22
122.461544
 32
0.0
 13
9.060712999999999
 23
122.461544
 33
0.0
  0
SOLID
  5
3D2A5
330
3D27D
100
AcDbEntity
  8
1
  6
Continuous
 62
    35
370
     5
100
AcDbTrace
 10
8.355944
 20
122.718059
 30
0.0
 11
9.060712999999999
 21
122.461544
 31
0.0
 12
9.094549999999999
 22
122.587823
 32
0.0
 13
9.094549999999999
 23
122.587823
 33
0.0
  0
SOLID
  5
3D2A6
330
3D27D
100
AcDbEntity
  8
1
  6
Continuous
 62
    35
370
     5
100
AcDbTrace
 10
8.355944
 20
122.718059
 30
0.0
 11
9.094549999999999
 21
122.587823
 31
0.0
 12
9.105944
 22
122.718059
 32
0.0
 13
9.105944
 23
122.718059
 33
0.0
  0
SOLID
  5
3D2A7
330
3D27D
100
AcDbEntity
  8
1
  6
Continuous
 62
    35
370
     5
100
AcDbTrace
 10
8.355944
 20
117.718059
 30
0.0
 11
9.105944
 21
117.718059
 31
0.0
 12
9.094549999999999
 22
117.848295
 32
0.0
 13
9.094549999999999
 23
117.848295
 33
0.0
  0
SOLID
  5
3D2A8
330
3D27D
100
AcDbEntity
  8
1
  6
Continuous
 62
    35
370
     5
100
AcDbTrace
 10
8.355944
 20
117.718059
 30
0.0
 11
9.094549999999999
 21
117.848295
 31
0.0
 12
9.060712999999999
 22
117.974574
 32
0.0
 13
9.060712999999999
 23
117.974574
 33
0.0
  0
SOLID
  5
3D2A9
330
3D27D
100
AcDbEntity
  8
1
  6
Continuous
 62
    35
370
     5
100
AcDbTrace
 10
8.355944
 20
117.718059
 30
0.0
 11
9.060712999999999
 21
117.974574
 31
0.0
 12
9.005463
 22
118.093059
 32
0.0
 13
9.005463
 23
118.093059
 33
0.0
  0
SOLID
  5
3D2AA
330
3D27D
100
AcDbEntity
  8
1
  6
Continuous
 62
    35
370
     5
100
AcDbTrace
 10
8.355944
 20
117.718059
 30
0.0
 11
9.005463
 21
118.093059
 31
0.0
 12
8.930476999999999
 22
118.200149
 32
0.0
 13
8.930476999999999
 23
118.200149
 33
0.0
  0
SOLID
  5
3D2AB
330
3D27D
100
AcDbEntity
  8
1
  6
Continuous
 62
    35
370
     5
100
AcDbTrace
 10
8.355944
 20
117.718059
 30
0.0
 11
8.930476999999999
 21
118.200149
 31
0.0
 12
8.838035000000001
 22
118.292592
 32
0.0
 13
8.838035000000001
 23
118.292592
 33
0.0
  0
SOLID
  5
3D2AC
330
3D27D
100
AcDbEntity
  8
1
  6
Continuous
 62
    35
370
     5
100
AcDbTrace
 10
8.355944
 20
117.718059
 30
0.0
 11
8.838035000000001
 21
118.292592
 31
0.0
 12
8.730944
 22
118.367578
 32
0.0
 13
8.730944
 23
118.367578
 33
0.0
  0
SOLID
  5
3D2AD
330
3D27D
100
AcDbEntity
  8
1
  6
Continuous
 62
    35
370
     5
100
AcDbTrace
 10
8.355944
 20
117.718059
 30
0.0
 11
8.730944
 21
118.367578
 31
0.0
 12
8.612458999999999
 22
118.422828
 32
0.0
 13
8.612458999999999
 23
118.422828
 33
0.0
  0
SOLID
  5
3D2AE
330
3D27D
100
AcDbEntity
  8
1
  6
Continuous
 62
    35
370
     5
100
AcDbTrace
 10
8.355944
 20
117.718059
 30
0.0
 11
8.612458999999999
 21
118.422828
 31
0.0
 12
8.48618
 22
118.456664
 32
0.0
 13
8.48618
 23
118.456664
 33
0.0
  0
SOLID
  5
3D2AF
330
3D27D
100
AcDbEntity
  8
1
  6
Continuous
 62
    35
370
     5
100
AcDbTrace
 10
8.355944
 20
117.718059
 30
0.0
 11
8.48618
 21
118.456664
 31
0.0
 12
8.355944
 22
118.468059
 32
0.0
 13
8.355944
 23
118.468059
 33
0.0
  0
SOLID
  5
3D2B0
330
3D27D
100
AcDbEntity
  8
1
  6
Continuous
 62
    35
370
     5
100
AcDbTrace
 10
8.355944
 20
117.718059
 30
0.0
 11
8.355944
 21
118.468059
 31
0.0
 12
8.225708
 22
118.456664
 32
0.0
 13
8.225708
 23
118.456664
 33
0.0
  0
SOLID
  5
3D2B1
330
3D27D
100
AcDbEntity
  8
1
  6
Continuous
 62
    35
370
     5
100
AcDbTrace
 10
8.355944
 20
117.718059
 30
0.0
 11
8.225708
 21
118.456664
 31
0.0
 12
8.099428999999998
 22
118.422828
 32
0.0
 13
8.099428999999998
 23
118.422828
 33
0.0
  0
SOLID
  5
3D2B2
330
3D27D
100
AcDbEntity
  8
1
  6
Continuous
 62
    35
370
     5
100
AcDbTrace
 10
8.355944
 20
117.718059
 30
0.0
 11
8.099428999999998
 21
118.422828
 31
0.0
 12
7.980944
 22
118.367578
 32
0.0
 13
7.980944
 23
118.367578
 33
0.0
  0
SOLID
  5
3D2B3
330
3D27D
100
AcDbEntity
  8
1
  6
Continuous
 62
    35
370
     5
100
AcDbTrace
 10
8.355944
 20
117.718059
 30
0.0
 11
7.980944
 21
118.367578
 31
0.0
 12
7.873852999999999
 22
118.292592
 32
0.0
 13
7.873852999999999
 23
118.292592
 33
0.0
  0
SOLID
  5
3D2B4
330
3D27D
100
AcDbEntity
  8
1
  6
Continuous
 62
    35
370
     5
100
AcDbTrace
 10
8.355944
 20
117.718059
 30
0.0
 11
7.873852999999999
 21
118.292592
 31
0.0
 12
7.781411
 22
118.200149
 32
0.0
 13
7.781411
 23
118.200149
 33
0.0
  0
SOLID
  5
3D2B5
330
3D27D
100
AcDbEntity
  8
1
  6
Continuous
 62
    35
370
     5
100
AcDbTrace
 10
8.355944
 20
117.718059
 30
0.0
 11
7.781411
 21
118.200149
 31
0.0
 12
7.706425
 22
118.093059
 32
0.0
 13
7.706425
 23
118.093059
 33
0.0
  0
SOLID
  5
3D2B6
330
3D27D
100
AcDbEntity
  8
1
  6
Continuous
 62
    35
370
     5
100
AcDbTrace
 10
8.355944
 20
117.718059
 30
0.0
 11
7.706425
 21
118.093059
 31
0.0
 12
7.651175
 22
117.974574
 32
0.0
 13
7.651175
 23
117.974574
 33
0.0
  0
SOLID
  5
3D2B7
330
3D27D
100
AcDbEntity
  8
1
  6
Continuous
 62
    35
370
     5
100
AcDbTrace
 10
8.355944
 20
117.718059
 30
0.0
 11
7.651175
 21
117.974574
 31
0.0
 12
7.617338
 22
117.848295
 32
0.0
 13
7.617338
 23
117.848295
 33
0.0
  0
SOLID
  5
3D2B8
330
3D27D
100
AcDbEntity
  8
1
  6
Continuous
 62
    35
370
     5
100
AcDbTrace
 10
8.355944
 20
117.718059
 30
0.0
 11
7.617338
 21
117.848295
 31
0.0
 12
7.605944
 22
117.718059
 32
0.0
 13
7.605944
 23
117.718059
 33
0.0
  0
SOLID
  5
3D2B9
330
3D27D
100
AcDbEntity
  8
1
  6
Continuous
 62
    35
370
     5
100
AcDbTrace
 10
8.355944
 20
117.718059
 30
0.0
 11
7.605944
 21
117.718059
 31
0.0
 12
7.617338
 22
117.587823
 32
0.0
 13
7.617338
 23
117.587823
 33
0.0
  0
SOLID
  5
3D2BA
330
3D27D
100
AcDbEntity
  8
1
  6
Continuous
 62
    35
370
     5
100
AcDbTrace
 10
8.355944
 20
117.718059
 30
0.0
 11
7.617338
 21
117.587823
 31
0.0
 12
7.651175
 22
117.461544
 32
0.0
 13
7.651175
 23
117.461544
 33
0.0
  0
SOLID
  5
3D2BB
330
3D27D
100
AcDbEntity
  8
1
  6
Continuous
 62
    35
370
     5
100
AcDbTrace
 10
8.355944
 20
117.718059
 30
0.0
 11
7.651175
 21
117.461544
 31
0.0
 12
7.706425
 22
117.343059
 32
0.0
 13
7.706425
 23
117.343059
 33
0.0
  0
SOLID
  5
3D2BC
330
3D27D
100
AcDbEntity
  8
1
  6
Continuous
 62
    35
370
     5
100
AcDbTrace
 10
8.355944
 20
117.718059
 30
0.0
 11
7.706425
 21
117.343059
 31
0.0
 12
7.781411
 22
117.235968
 32
0.0
 13
7.781411
 23
117.235968
 33
0.0
  0
SOLID
  5
3D2BD
330
3D27D
100
AcDbEntity
  8
1
  6
Continuous
 62
    35
370
     5
100
AcDbTrace
 10
8.355944
 20
117.718059
 30
0.0
 11
7.781411
 21
117.235968
 31
0.0
 12
7.873852999999999
 22
117.143525
 32
0.0
 13
7.873852999999999
 23
117.143525
 33
0.0
  0
SOLID
  5
3D2BE
330
3D27D
100
AcDbEntity
  8
1
  6
Continuous
 62
    35
370
     5
100
AcDbTrace
 10
8.355944
 20
117.718059
 30
0.0
 11
7.873852999999999
 21
117.143525
 31
0.0
 12
7.980944
 22
117.0685399999999
 32
0.0
 13
7.980944
 23
117.0685399999999
 33
0.0
  0
SOLID
  5
3D2BF
330
3D27D
100
AcDbEntity
  8
1
  6
Continuous
 62
    35
370
     5
100
AcDbTrace
 10
8.355944
 20
117.718059
 30
0.0
 11
7.980944
 21
117.0685399999999
 31
0.0
 12
8.099428999999998
 22
117.013289
 32
0.0
 13
8.099428999999998
 23
117.013289
 33
0.0
  0
SOLID
  5
3D2C0
330
3D27D
100
AcDbEntity
  8
1
  6
Continuous
 62
    35
370
     5
100
AcDbTrace
 10
8.355944
 20
117.718059
 30
0.0
 11
8.099428999999998
 21
117.013289
 31
0.0
 12
8.225708
 22
116.979453
 32
0.0
 13
8.225708
 23
116.979453
 33
0.0
  0
SOLID
  5
3D2C1
330
3D27D
100
AcDbEntity
  8
1
  6
Continuous
 62
    35
370
     5
100
AcDbTrace
 10
8.355944
 20
117.718059
 30
0.0
 11
8.225708
 21
116.979453
 31
0.0
 12
8.355944
 22
116.968059
 32
0.0
 13
8.355944
 23
116.968059
 33
0.0
  0
SOLID
  5
3D2C2
330
3D27D
100
AcDbEntity
  8
1
  6
Continuous
 62
    35
370
     5
100
AcDbTrace
 10
8.355944
 20
117.718059
 30
0.0
 11
8.355944
 21
116.968059
 31
0.0
 12
8.48618
 22
116.979453
 32
0.0
 13
8.48618
 23
116.979453
 33
0.0
  0
SOLID
  5
3D2C3
330
3D27D
100
AcDbEntity
  8
1
  6
Continuous
 62
    35
370
     5
100
AcDbTrace
 10
8.355944
 20
117.718059
 30
0.0
 11
8.48618
 21
116.979453
 31
0.0
 12
8.612458999999999
 22
117.013289
 32
0.0
 13
8.612458999999999
 23
117.013289
 33
0.0
  0
SOLID
  5
3D2C4
330
3D27D
100
AcDbEntity
  8
1
  6
Continuous
 62
    35
370
     5
100
AcDbTrace
 10
8.355944
 20
117.718059
 30
0.0
 11
8.612458999999999
 21
117.013289
 31
0.0
 12
8.730944
 22
117.0685399999999
 32
0.0
 13
8.730944
 23
117.0685399999999
 33
0.0
  0
SOLID
  5
3D2C5
330
3D27D
100
AcDbEntity
  8
1
  6
Continuous
 62
    35
370
     5
100
AcDbTrace
 10
8.355944
 20
117.718059
 30
0.0
 11
8.730944
 21
117.0685399999999
 31
0.0
 12
8.838035000000001
 22
117.143525
 32
0.0
 13
8.838035000000001
 23
117.143525
 33
0.0
  0
SOLID
  5
3D2C6
330
3D27D
100
AcDbEntity
  8
1
  6
Continuous
 62
    35
370
     5
100
AcDbTrace
 10
8.355944
 20
117.718059
 30
0.0
 11
8.838035000000001
 21
117.143525
 31
0.0
 12
8.930476999999999
 22
117.235968
 32
0.0
 13
8.930476999999999
 23
117.235968
 33
0.0
  0
SOLID
  5
3D2C7
330
3D27D
100
AcDbEntity
  8
1
  6
Continuous
 62
    35
370
     5
100
AcDbTrace
 10
8.355944
 20
117.718059
 30
0.0
 11
8.930476999999999
 21
117.235968
 31
0.0
 12
9.005463
 22
117.343059
 32
0.0
 13
9.005463
 23
117.343059
 33
0.0
  0
SOLID
  5
3D2C8
330
3D27D
100
AcDbEntity
  8
1
  6
Continuous
 62
    35
370
     5
100
AcDbTrace
 10
8.355944
 20
117.718059
 30
0.0
 11
9.005463
 21
117.343059
 31
0.0
 12
9.060712999999999
 22
117.461544
 32
0.0
 13
9.060712999999999
 23
117.461544
 33
0.0
  0
SOLID
  5
3D2C9
330
3D27D
100
AcDbEntity
  8
1
  6
Continuous
 62
    35
370
     5
100
AcDbTrace
 10
8.355944
 20
117.718059
 30
0.0
 11
9.060712999999999
 21
117.461544
 31
0.0
 12
9.094549999999999
 22
117.587823
 32
0.0
 13
9.094549999999999
 23
117.587823
 33
0.0
  0
SOLID
  5
3D2CA
330
3D27D
100
AcDbEntity
  8
1
  6
Continuous
 62
    35
370
     5
100
AcDbTrace
 10
8.355944
 20
117.718059
 30
0.0
 11
9.094549999999999
 21
117.587823
 31
0.0
 12
9.105944
 22
117.718059
 32
0.0
 13
9.105944
 23
117.718059
 33
0.0
  0
ENDBLK
  5
3D2CB
330
3D27D
100
AcDbEntity
  8
0
100
AcDbBlockEnd
  0
BLOCK
  5
3D2CD
330
3D2CC
100
AcDbEntity
  8
0
100
AcDbBlockBegin
  2
_DOT
 70
     0
 10
0.0
 20
0.0
 30
0.0
  3
_DOT
  1

  0
POLYLINE
  5
3D2CE
330
3D2CC
100
AcDbEntity
  8
0
  6
ByBlock
 62
     0
100
AcDb2dPolyline
 66
     1
 10
0.0
 20
0.0
 30
0.0
 70
     1
 40
0.5
 41
0.5
  0
VERTEX
  5
3D2CF
330
3D2CE
100
AcDbEntity
  8
0
  6
ByBlock
 62
     0
100
AcDbVertex
100
AcDb2dVertex
 10
-0.25
 20
0.0
 30
0.0
 42
1.0
  0
VERTEX
  5
3D2D0
330
3D2CE
100
AcDbEntity
  8
0
  6
ByBlock
 62
     0
100
AcDbVertex
100
AcDb2dVertex
 10
0.25
 20
0.0
 30
0.0
 42
1.0
  0
SEQEND
  5
3D2D1
330
3D2CE
100
AcDbEntity
  8
0
  6
ByBlock
 62
     0
  0
LINE
  5
3D2D2
330
3D2CC
100
AcDbEntity
  8
0
  6
ByBlock
 62
     0
370
    -2
100
AcDbLine
 10
-0.5
 20
0.0
 30
0.0
 11
-1.0
 21
0.0
 31
0.0
  0
ENDBLK
  5
3D2D3
330
3D2CC
100
AcDbEntity
  8
0
100
AcDbBlockEnd
  0
BLOCK
  5
3D2D5
330
3D2D4
100
AcDbEntity
  8
0
100
AcDbBlockBegin
  2
DimnDraft3D2
 70
     0
 10
0.0
 20
0.0
 30
0.0
  3
DimnDraft3D2
  1

  0
MTEXT
  5
3D2D6
330
3D2D4
100
AcDbEntity
  8
1
  6
Continuous
 62
    35
100
AcDbMText
 10
217.894682
 20
140.904626
 30
0.0
 40
3.5
 41
0.0
 71
     7
 72
     5
  1
\W01.000;\W00.642;35 
  7
blockfont
 73
     2
 44
0.9036139999999999
1001
ACAD
1000
MTEXTBEGIN
1070
    73
1070
     2
1070
    44
1040
0.9036139999999999
1070
    74
1070
     0
1000
MTEXTEND
1000
ACAD_MTEXT_DEFINED_HEIGHT_BEGIN
1070
    46
1040
0.2
1000
ACAD_MTEXT_DEFINED_HEIGHT_END
  0
LINE
  5
3D2D7
330
3D2D4
100
AcDbEntity
  8
1
  6
Continuous
 62
    35
370
     5
100
AcDbLine
 10
228.232807
 20
177.110907
 30
0.0
 11
228.232807
 21
138.284834
 31
0.0
  0
LINE
  5
3D2D8
330
3D2D4
100
AcDbEntity
  8
1
  6
Continuous
 62
    35
370
     5
100
AcDbLine
 10
210.732807
 20
157.610907
 30
0.0
 11
210.732807
 21
138.284834
 31
0.0
  0
LINE
  5
3D2D9
330
3D2D4
100
AcDbEntity
  8
1
  6
Continuous
 62
    35
370
     5
100
AcDbLine
 10
228.232807
 20
140.284834
 30
0.0
 11
210.732807
 21
140.284834
 31
0.0
  0
SOLID
  5
3D2DA
330
3D2D4
100
AcDbEntity
  8
1
  6
Continuous
 62
    35
370
     5
100
AcDbTrace
 10
228.232807
 20
140.284834
 30
0.0
 11
228.982807
 21
140.284834
 31
0.0
 12
228.971413
 22
140.41507
 32
0.0
 13
228.971413
 23
140.41507
 33
0.0
  0
SOLID
  5
3D2DB
330
3D2D4
100
AcDbEntity
  8
1
  6
Continuous
 62
    35
370
     5
100
AcDbTrace
 10
228.232807
 20
140.284834
 30
0.0
 11
228.971413
 21
140.41507
 31
0.0
 12
228.937576
 22
140.541349
 32
0.0
 13
228.937576
 23
140.541349
 33
0.0
  0
SOLID
  5
3D2DC
330
3D2D4
100
AcDbEntity
  8
1
  6
Continuous
 62
    35
370
     5
100
AcDbTrace
 10
228.232807
 20
140.284834
 30
0.0
 11
228.937576
 21
140.541349
 31
0.0
 12
228.882326
 22
140.659834
 32
0.0
 13
228.882326
 23
140.659834
 33
0.0
  0
SOLID
  5
3D2DD
330
3D2D4
100
AcDbEntity
  8
1
  6
Continuous
 62
    35
370
     5
100
AcDbTrace
 10
228.232807
 20
140.284834
 30
0.0
 11
228.882326
 21
140.659834
 31
0.0
 12
228.80734
 22
140.766925
 32
0.0
 13
228.80734
 23
140.766925
 33
0.0
  0
SOLID
  5
3D2DE
330
3D2D4
100
AcDbEntity
  8
1
  6
Continuous
 62
    35
370
     5
100
AcDbTrace
 10
228.232807
 20
140.284834
 30
0.0
 11
228.80734
 21
140.766925
 31
0.0
 12
228.714898
 22
140.859368
 32
0.0
 13
228.714898
 23
140.859368
 33
0.0
  0
SOLID
  5
3D2DF
330
3D2D4
100
AcDbEntity
  8
1
  6
Continuous
 62
    35
370
     5
100
AcDbTrace
 10
228.232807
 20
140.284834
 30
0.0
 11
228.714898
 21
140.859368
 31
0.0
 12
228.607807
 22
140.934353
 32
0.0
 13
228.607807
 23
140.934353
 33
0.0
  0
SOLID
  5
3D2E0
330
3D2D4
100
AcDbEntity
  8
1
  6
Continuous
 62
    35
370
     5
100
AcDbTrace
 10
228.232807
 20
140.284834
 30
0.0
 11
228.607807
 21
140.934353
 31
0.0
 12
228.489322
 22
140.989604
 32
0.0
 13
228.489322
 23
140.989604
 33
0.0
  0
SOLID
  5
3D2E1
330
3D2D4
100
AcDbEntity
  8
1
  6
Continuous
 62
    35
370
     5
100
AcDbTrace
 10
228.232807
 20
140.284834
 30
0.0
 11
228.489322
 21
140.989604
 31
0.0
 12
228.363043
 22
141.02344
 32
0.0
 13
228.363043
 23
141.02344
 33
0.0
  0
SOLID
  5
3D2E2
330
3D2D4
100
AcDbEntity
  8
1
  6
Continuous
 62
    35
370
     5
100
AcDbTrace
 10
228.232807
 20
140.284834
 30
0.0
 11
228.363043
 21
141.02344
 31
0.0
 12
228.232807
 22
141.034834
 32
0.0
 13
228.232807
 23
141.034834
 33
0.0
  0
SOLID
  5
3D2E3
330
3D2D4
100
AcDbEntity
  8
1
  6
Continuous
 62
    35
370
     5
100
AcDbTrace
 10
228.232807
 20
140.284834
 30
0.0
 11
228.232807
 21
141.034834
 31
0.0
 12
228.102571
 22
141.02344
 32
0.0
 13
228.102571
 23
141.02344
 33
0.0
  0
SOLID
  5
3D2E4
330
3D2D4
100
AcDbEntity
  8
1
  6
Continuous
 62
    35
370
     5
100
AcDbTrace
 10
228.232807
 20
140.284834
 30
0.0
 11
228.102571
 21
141.02344
 31
0.0
 12
227.976292
 22
140.989604
 32
0.0
 13
227.976292
 23
140.989604
 33
0.0
  0
SOLID
  5
3D2E5
330
3D2D4
100
AcDbEntity
  8
1
  6
Continuous
 62
    35
370
     5
100
AcDbTrace
 10
228.232807
 20
140.284834
 30
0.0
 11
227.976292
 21
140.989604
 31
0.0
 12
227.857807
 22
140.934353
 32
0.0
 13
227.857807
 23
140.934353
 33
0.0
  0
SOLID
  5
3D2E6
330
3D2D4
100
AcDbEntity
  8
1
  6
Continuous
 62
    35
370
     5
100
AcDbTrace
 10
228.232807
 20
140.284834
 30
0.0
 11
227.857807
 21
140.934353
 31
0.0
 12
227.750716
 22
140.859368
 32
0.0
 13
227.750716
 23
140.859368
 33
0.0
  0
SOLID
  5
3D2E7
330
3D2D4
100
AcDbEntity
  8
1
  6
Continuous
 62
    35
370
     5
100
AcDbTrace
 10
228.232807
 20
140.284834
 30
0.0
 11
227.750716
 21
140.859368
 31
0.0
 12
227.658274
 22
140.766925
 32
0.0
 13
227.658274
 23
140.766925
 33
0.0
  0
SOLID
  5
3D2E8
330
3D2D4
100
AcDbEntity
  8
1
  6
Continuous
 62
    35
370
     5
100
AcDbTrace
 10
228.232807
 20
140.284834
 30
0.0
 11
227.658274
 21
140.766925
 31
0.0
 12
227.583288
 22
140.659834
 32
0.0
 13
227.583288
 23
140.659834
 33
0.0
  0
SOLID
  5
3D2E9
330
3D2D4
100
AcDbEntity
  8
1
  6
Continuous
 62
    35
370
     5
100
AcDbTrace
 10
228.232807
 20
140.284834
 30
0.0
 11
227.583288
 21
140.659834
 31
0.0
 12
227.528037
 22
140.541349
 32
0.0
 13
227.528037
 23
140.541349
 33
0.0
  0
SOLID
  5
3D2EA
330
3D2D4
100
AcDbEntity
  8
1
  6
Continuous
 62
    35
370
     5
100
AcDbTrace
 10
228.232807
 20
140.284834
 30
0.0
 11
227.528037
 21
140.541349
 31
0.0
 12
227.494201
 22
140.41507
 32
0.0
 13
227.494201
 23
140.41507
 33
0.0
  0
SOLID
  5
3D2EB
330
3D2D4
100
AcDbEntity
  8
1
  6
Continuous
 62
    35
370
     5
100
AcDbTrace
 10
228.232807
 20
140.284834
 30
0.0
 11
227.494201
 21
140.41507
 31
0.0
 12
227.482807
 22
140.284834
 32
0.0
 13
227.482807
 23
140.284834
 33
0.0
  0
SOLID
  5
3D2EC
330
3D2D4
100
AcDbEntity
  8
1
  6
Continuous
 62
    35
370
     5
100
AcDbTrace
 10
228.232807
 20
140.284834
 30
0.0
 11
227.482807
 21
140.284834
 31
0.0
 12
227.494201
 22
140.154598
 32
0.0
 13
227.494201
 23
140.154598
 33
0.0
  0
SOLID
  5
3D2ED
330
3D2D4
100
AcDbEntity
  8
1
  6
Continuous
 62
    35
370
     5
100
AcDbTrace
 10
228.232807
 20
140.284834
 30
0.0
 11
227.494201
 21
140.154598
 31
0.0
 12
227.528037
 22
140.028319
 32
0.0
 13
227.528037
 23
140.028319
 33
0.0
  0
SOLID
  5
3D2EE
330
3D2D4
100
AcDbEntity
  8
1
  6
Continuous
 62
    35
370
     5
100
AcDbTrace
 10
228.232807
 20
140.284834
 30
0.0
 11
227.528037
 21
140.028319
 31
0.0
 12
227.583288
 22
139.909834
 32
0.0
 13
227.583288
 23
139.909834
 33
0.0
  0
SOLID
  5
3D2EF
330
3D2D4
100
AcDbEntity
  8
1
  6
Continuous
 62
    35
370
     5
100
AcDbTrace
 10
228.232807
 20
140.284834
 30
0.0
 11
227.583288
 21
139.909834
 31
0.0
 12
227.658274
 22
139.802744
 32
0.0
 13
227.658274
 23
139.802744
 33
0.0
  0
SOLID
  5
3D2F0
330
3D2D4
100
AcDbEntity
  8
1
  6
Continuous
 62
    35
370
     5
100
AcDbTrace
 10
228.232807
 20
140.284834
 30
0.0
 11
227.658274
 21
139.802744
 31
0.0
 12
227.750716
 22
139.710301
 32
0.0
 13
227.750716
 23
139.710301
 33
0.0
  0
SOLID
  5
3D2F1
330
3D2D4
100
AcDbEntity
  8
1
  6
Continuous
 62
    35
370
     5
100
AcDbTrace
 10
228.232807
 20
140.284834
 30
0.0
 11
227.750716
 21
139.710301
 31
0.0
 12
227.857807
 22
139.635315
 32
0.0
 13
227.857807
 23
139.635315
 33
0.0
  0
SOLID
  5
3D2F2
330
3D2D4
100
AcDbEntity
  8
1
  6
Continuous
 62
    35
370
     5
100
AcDbTrace
 10
228.232807
 20
140.284834
 30
0.0
 11
227.857807
 21
139.635315
 31
0.0
 12
227.976292
 22
139.580065
 32
0.0
 13
227.976292
 23
139.580065
 33
0.0
  0
SOLID
  5
3D2F3
330
3D2D4
100
AcDbEntity
  8
1
  6
Continuous
 62
    35
370
     5
100
AcDbTrace
 10
228.232807
 20
140.284834
 30
0.0
 11
227.976292
 21
139.580065
 31
0.0
 12
228.102571
 22
139.546228
 32
0.0
 13
228.102571
 23
139.546228
 33
0.0
  0
SOLID
  5
3D2F4
330
3D2D4
100
AcDbEntity
  8
1
  6
Continuous
 62
    35
370
     5
100
AcDbTrace
 10
228.232807
 20
140.284834
 30
0.0
 11
228.102571
 21
139.546228
 31
0.0
 12
228.232807
 22
139.534834
 32
0.0
 13
228.232807
 23
139.534834
 33
0.0
  0
SOLID
  5
3D2F5
330
3D2D4
100
AcDbEntity
  8
1
  6
Continuous
 62
    35
370
     5
100
AcDbTrace
 10
228.232807
 20
140.284834
 30
0.0
 11
228.232807
 21
139.534834
 31
0.0
 12
228.363043
 22
139.546228
 32
0.0
 13
228.363043
 23
139.546228
 33
0.0
  0
SOLID
  5
3D2F6
330
3D2D4
100
AcDbEntity
  8
1
  6
Continuous
 62
    35
370
     5
100
AcDbTrace
 10
228.232807
 20
140.284834
 30
0.0
 11
228.363043
 21
139.546228
 31
0.0
 12
228.489322
 22
139.580065
 32
0.0
 13
228.489322
 23
139.580065
 33
0.0
  0
SOLID
  5
3D2F7
330
3D2D4
100
AcDbEntity
  8
1
  6
Continuous
 62
    35
370
     5
100
AcDbTrace
 10
228.232807
 20
140.284834
 30
0.0
 11
228.489322
 21
139.580065
 31
0.0
 12
228.607807
 22
139.635315
 32
0.0
 13
228.607807
 23
139.635315
 33
0.0
  0
SOLID
  5
3D2F8
330
3D2D4
100
AcDbEntity
  8
1
  6
Continuous
 62
    35
370
     5
100
AcDbTrace
 10
228.232807
 20
140.284834
 30
0.0
 11
228.607807
 21
139.635315
 31
0.0
 12
228.714898
 22
139.710301
 32
0.0
 13
228.714898
 23
139.710301
 33
0.0
  0
SOLID
  5
3D2F9
330
3D2D4
100
AcDbEntity
  8
1
  6
Continuous
 62
    35
370
     5
100
AcDbTrace
 10
228.232807
 20
140.284834
 30
0.0
 11
228.714898
 21
139.710301
 31
0.0
 12
228.80734
 22
139.802744
 32
0.0
 13
228.80734
 23
139.802744
 33
0.0
  0
SOLID
  5
3D2FA
330
3D2D4
100
AcDbEntity
  8
1
  6
Continuous
 62
    35
370
     5
100
AcDbTrace
 10
228.232807
 20
140.284834
 30
0.0
 11
228.80734
 21
139.802744
 31
0.0
 12
228.882326
 22
139.909834
 32
0.0
 13
228.882326
 23
139.909834
 33
0.0
  0
SOLID
  5
3D2FB
330
3D2D4
100
AcDbEntity
  8
1
  6
Continuous
 62
    35
370
     5
100
AcDbTrace
 10
228.232807
 20
140.284834
 30
0.0
 11
228.882326
 21
139.909834
 31
0.0
 12
228.937576
 22
140.028319
 32
0.0
 13
228.937576
 23
140.028319
 33
0.0
  0
SOLID
  5
3D2FC
330
3D2D4
100
AcDbEntity
  8
1
  6
Continuous
 62
    35
370
     5
100
AcDbTrace
 10
228.232807
 20
140.284834
 30
0.0
 11
228.937576
 21
140.028319
 31
0.0
 12
228.971413
 22
140.154598
 32
0.0
 13
228.971413
 23
140.154598
 33
0.0
  0
SOLID
  5
3D2FD
330
3D2D4
100
AcDbEntity
  8
1
  6
Continuous
 62
    35
370
     5
100
AcDbTrace
 10
228.232807
 20
140.284834
 30
0.0
 11
228.971413
 21
140.154598
 31
0.0
 12
228.982807
 22
140.284834
 32
0.0
 13
228.982807
 23
140.284834
 33
0.0
  0
SOLID
  5
3D2FE
330
3D2D4
100
AcDbEntity
  8
1
  6
Continuous
 62
    35
370
     5
100
AcDbTrace
 10
210.732807
 20
140.284834
 30
0.0
 11
211.482807
 21
140.284834
 31
0.0
 12
211.471413
 22
140.41507
 32
0.0
 13
211.471413
 23
140.41507
 33
0.0
  0
SOLID
  5
3D2FF
330
3D2D4
100
AcDbEntity
  8
1
  6
Continuous
 62
    35
370
     5
100
AcDbTrace
 10
210.732807
 20
140.284834
 30
0.0
 11
211.471413
 21
140.41507
 31
0.0
 12
211.437576
 22
140.541349
 32
0.0
 13
211.437576
 23
140.541349
 33
0.0
  0
SOLID
  5
3D300
330
3D2D4
100
AcDbEntity
  8
1
  6
Continuous
 62
    35
370
     5
100
AcDbTrace
 10
210.732807
 20
140.284834
 30
0.0
 11
211.437576
 21
140.541349
 31
0.0
 12
211.382326
 22
140.659834
 32
0.0
 13
211.382326
 23
140.659834
 33
0.0
  0
SOLID
  5
3D301
330
3D2D4
100
AcDbEntity
  8
1
  6
Continuous
 62
    35
370
     5
100
AcDbTrace
 10
210.732807
 20
140.284834
 30
0.0
 11
211.382326
 21
140.659834
 31
0.0
 12
211.30734
 22
140.766925
 32
0.0
 13
211.30734
 23
140.766925
 33
0.0
  0
SOLID
  5
3D302
330
3D2D4
100
AcDbEntity
  8
1
  6
Continuous
 62
    35
370
     5
100
AcDbTrace
 10
210.732807
 20
140.284834
 30
0.0
 11
211.30734
 21
140.766925
 31
0.0
 12
211.214898
 22
140.859368
 32
0.0
 13
211.214898
 23
140.859368
 33
0.0
  0
SOLID
  5
3D303
330
3D2D4
100
AcDbEntity
  8
1
  6
Continuous
 62
    35
370
     5
100
AcDbTrace
 10
210.732807
 20
140.284834
 30
0.0
 11
211.214898
 21
140.859368
 31
0.0
 12
211.107807
 22
140.934353
 32
0.0
 13
211.107807
 23
140.934353
 33
0.0
  0
SOLID
  5
3D304
330
3D2D4
100
AcDbEntity
  8
1
  6
Continuous
 62
    35
370
     5
100
AcDbTrace
 10
210.732807
 20
140.284834
 30
0.0
 11
211.107807
 21
140.934353
 31
0.0
 12
210.989322
 22
140.989604
 32
0.0
 13
210.989322
 23
140.989604
 33
0.0
  0
SOLID
  5
3D305
330
3D2D4
100
AcDbEntity
  8
1
  6
Continuous
 62
    35
370
     5
100
AcDbTrace
 10
210.732807
 20
140.284834
 30
0.0
 11
210.989322
 21
140.989604
 31
0.0
 12
210.863043
 22
141.02344
 32
0.0
 13
210.863043
 23
141.02344
 33
0.0
  0
SOLID
  5
3D306
330
3D2D4
100
AcDbEntity
  8
1
  6
Continuous
 62
    35
370
     5
100
AcDbTrace
 10
210.732807
 20
140.284834
 30
0.0
 11
210.863043
 21
141.02344
 31
0.0
 12
210.732807
 22
141.034834
 32
0.0
 13
210.732807
 23
141.034834
 33
0.0
  0
SOLID
  5
3D307
330
3D2D4
100
AcDbEntity
  8
1
  6
Continuous
 62
    35
370
     5
100
AcDbTrace
 10
210.732807
 20
140.284834
 30
0.0
 11
210.732807
 21
141.034834
 31
0.0
 12
210.602571
 22
141.02344
 32
0.0
 13
210.602571
 23
141.02344
 33
0.0
  0
SOLID
  5
3D308
330
3D2D4
100
AcDbEntity
  8
1
  6
Continuous
 62
    35
370
     5
100
AcDbTrace
 10
210.732807
 20
140.284834
 30
0.0
 11
210.602571
 21
141.02344
 31
0.0
 12
210.476292
 22
140.989604
 32
0.0
 13
210.476292
 23
140.989604
 33
0.0
  0
SOLID
  5
3D309
330
3D2D4
100
AcDbEntity
  8
1
  6
Continuous
 62
    35
370
     5
100
AcDbTrace
 10
210.732807
 20
140.284834
 30
0.0
 11
210.476292
 21
140.989604
 31
0.0
 12
210.357807
 22
140.934353
 32
0.0
 13
210.357807
 23
140.934353
 33
0.0
  0
SOLID
  5
3D30A
330
3D2D4
100
AcDbEntity
  8
1
  6
Continuous
 62
    35
370
     5
100
AcDbTrace
 10
210.732807
 20
140.284834
 30
0.0
 11
210.357807
 21
140.934353
 31
0.0
 12
210.250716
 22
140.859368
 32
0.0
 13
210.250716
 23
140.859368
 33
0.0
  0
SOLID
  5
3D30B
330
3D2D4
100
AcDbEntity
  8
1
  6
Continuous
 62
    35
370
     5
100
AcDbTrace
 10
210.732807
 20
140.284834
 30
0.0
 11
210.250716
 21
140.859368
 31
0.0
 12
210.158274
 22
140.766925
 32
0.0
 13
210.158274
 23
140.766925
 33
0.0
  0
SOLID
  5
3D30C
330
3D2D4
100
AcDbEntity
  8
1
  6
Continuous
 62
    35
370
     5
100
AcDbTrace
 10
210.732807
 20
140.284834
 30
0.0
 11
210.158274
 21
140.766925
 31
0.0
 12
210.083288
 22
140.659834
 32
0.0
 13
210.083288
 23
140.659834
 33
0.0
  0
SOLID
  5
3D30D
330
3D2D4
100
AcDbEntity
  8
1
  6
Continuous
 62
    35
370
     5
100
AcDbTrace
 10
210.732807
 20
140.284834
 30
0.0
 11
210.083288
 21
140.659834
 31
0.0
 12
210.028037
 22
140.541349
 32
0.0
 13
210.028037
 23
140.541349
 33
0.0
  0
SOLID
  5
3D30E
330
3D2D4
100
AcDbEntity
  8
1
  6
Continuous
 62
    35
370
     5
100
AcDbTrace
 10
210.732807
 20
140.284834
 30
0.0
 11
210.028037
 21
140.541349
 31
0.0
 12
209.994201
 22
140.41507
 32
0.0
 13
209.994201
 23
140.41507
 33
0.0
  0
SOLID
  5
3D30F
330
3D2D4
100
AcDbEntity
  8
1
  6
Continuous
 62
    35
370
     5
100
AcDbTrace
 10
210.732807
 20
140.284834
 30
0.0
 11
209.994201
 21
140.41507
 31
0.0
 12
209.982807
 22
140.284834
 32
0.0
 13
209.982807
 23
140.284834
 33
0.0
  0
SOLID
  5
3D310
330
3D2D4
100
AcDbEntity
  8
1
  6
Continuous
 62
    35
370
     5
100
AcDbTrace
 10
210.732807
 20
140.284834
 30
0.0
 11
209.982807
 21
140.284834
 31
0.0
 12
209.994201
 22
140.154598
 32
0.0
 13
209.994201
 23
140.154598
 33
0.0
  0
SOLID
  5
3D311
330
3D2D4
100
AcDbEntity
  8
1
  6
Continuous
 62
    35
370
     5
100
AcDbTrace
 10
210.732807
 20
140.284834
 30
0.0
 11
209.994201
 21
140.154598
 31
0.0
 12
210.028037
 22
140.028319
 32
0.0
 13
210.028037
 23
140.028319
 33
0.0
  0
SOLID
  5
3D312
330
3D2D4
100
AcDbEntity
  8
1
  6
Continuous
 62
    35
370
     5
100
AcDbTrace
 10
210.732807
 20
140.284834
 30
0.0
 11
210.028037
 21
140.028319
 31
0.0
 12
210.083288
 22
139.909834
 32
0.0
 13
210.083288
 23
139.909834
 33
0.0
  0
SOLID
  5
3D313
330
3D2D4
100
AcDbEntity
  8
1
  6
Continuous
 62
    35
370
     5
100
AcDbTrace
 10
210.732807
 20
140.284834
 30
0.0
 11
210.083288
 21
139.909834
 31
0.0
 12
210.158274
 22
139.802744
 32
0.0
 13
210.158274
 23
139.802744
 33
0.0
  0
SOLID
  5
3D314
330
3D2D4
100
AcDbEntity
  8
1
  6
Continuous
 62
    35
370
     5
100
AcDbTrace
 10
210.732807
 20
140.284834
 30
0.0
 11
210.158274
 21
139.802744
 31
0.0
 12
210.250716
 22
139.710301
 32
0.0
 13
210.250716
 23
139.710301
 33
0.0
  0
SOLID
  5
3D315
330
3D2D4
100
AcDbEntity
  8
1
  6
Continuous
 62
    35
370
     5
100
AcDbTrace
 10
210.732807
 20
140.284834
 30
0.0
 11
210.250716
 21
139.710301
 31
0.0
 12
210.357807
 22
139.635315
 32
0.0
 13
210.357807
 23
139.635315
 33
0.0
  0
SOLID
  5
3D316
330
3D2D4
100
AcDbEntity
  8
1
  6
Continuous
 62
    35
370
     5
100
AcDbTrace
 10
210.732807
 20
140.284834
 30
0.0
 11
210.357807
 21
139.635315
 31
0.0
 12
210.476292
 22
139.580065
 32
0.0
 13
210.476292
 23
139.580065
 33
0.0
  0
SOLID
  5
3D317
330
3D2D4
100
AcDbEntity
  8
1
  6
Continuous
 62
    35
370
     5
100
AcDbTrace
 10
210.732807
 20
140.284834
 30
0.0
 11
210.476292
 21
139.580065
 31
0.0
 12
210.602571
 22
139.546228
 32
0.0
 13
210.602571
 23
139.546228
 33
0.0
  0
SOLID
  5
3D318
330
3D2D4
100
AcDbEntity
  8
1
  6
Continuous
 62
    35
370
     5
100
AcDbTrace
 10
210.732807
 20
140.284834
 30
0.0
 11
210.602571
 21
139.546228
 31
0.0
 12
210.732807
 22
139.534834
 32
0.0
 13
210.732807
 23
139.534834
 33
0.0
  0
SOLID
  5
3D319
330
3D2D4
100
AcDbEntity
  8
1
  6
Continuous
 62
    35
370
     5
100
AcDbTrace
 10
210.732807
 20
140.284834
 30
0.0
 11
210.732807
 21
139.534834
 31
0.0
 12
210.863043
 22
139.546228
 32
0.0
 13
210.863043
 23
139.546228
 33
0.0
  0
SOLID
  5
3D31A
330
3D2D4
100
AcDbEntity
  8
1
  6
Continuous
 62
    35
370
     5
100
AcDbTrace
 10
210.732807
 20
140.284834
 30
0.0
 11
210.863043
 21
139.546228
 31
0.0
 12
210.989322
 22
139.580065
 32
0.0
 13
210.989322
 23
139.580065
 33
0.0
  0
SOLID
  5
3D31B
330
3D2D4
100
AcDbEntity
  8
1
  6
Continuous
 62
    35
370
     5
100
AcDbTrace
 10
210.732807
 20
140.284834
 30
0.0
 11
210.989322
 21
139.580065
 31
0.0
 12
211.107807
 22
139.635315
 32
0.0
 13
211.107807
 23
139.635315
 33
0.0
  0
SOLID
  5
3D31C
330
3D2D4
100
AcDbEntity
  8
1
  6
Continuous
 62
    35
370
     5
100
AcDbTrace
 10
210.732807
 20
140.284834
 30
0.0
 11
211.107807
 21
139.635315
 31
0.0
 12
211.214898
 22
139.710301
 32
0.0
 13
211.214898
 23
139.710301
 33
0.0
  0
SOLID
  5
3D31D
330
3D2D4
100
AcDbEntity
  8
1
  6
Continuous
 62
    35
370
     5
100
AcDbTrace
 10
210.732807
 20
140.284834
 30
0.0
 11
211.214898
 21
139.710301
 31
0.0
 12
211.30734
 22
139.802744
 32
0.0
 13
211.30734
 23
139.802744
 33
0.0
  0
SOLID
  5
3D31E
330
3D2D4
100
AcDbEntity
  8
1
  6
Continuous
 62
    35
370
     5
100
AcDbTrace
 10
210.732807
 20
140.284834
 30
0.0
 11
211.30734
 21
139.802744
 31
0.0
 12
211.382326
 22
139.909834
 32
0.0
 13
211.382326
 23
139.909834
 33
0.0
  0
SOLID
  5
3D31F
330
3D2D4
100
AcDbEntity
  8
1
  6
Continuous
 62
    35
370
     5
100
AcDbTrace
 10
210.732807
 20
140.284834
 30
0.0
 11
211.382326
 21
139.909834
 31
0.0
 12
211.437576
 22
140.028319
 32
0.0
 13
211.437576
 23
140.028319
 33
0.0
  0
SOLID
  5
3D320
330
3D2D4
100
AcDbEntity
  8
1
  6
Continuous
 62
    35
370
     5
100
AcDbTrace
 10
210.732807
 20
140.284834
 30
0.0
 11
211.437576
 21
140.028319
 31
0.0
 12
211.471413
 22
140.154598
 32
0.0
 13
211.471413
 23
140.154598
 33
0.0
  0
SOLID
  5
3D321
330
3D2D4
100
AcDbEntity
  8
1
  6
Continuous
 62
    35
370
     5
100
AcDbTrace
 10
210.732807
 20
140.284834
 30
0.0
 11
211.471413
 21
140.154598
 31
0.0
 12
211.482807
 22
140.284834
 32
0.0
 13
211.482807
 23
140.284834
 33
0.0
  0
ENDBLK
  5
3D322
330
3D2D4
100
AcDbEntity
  8
0
100
AcDbBlockEnd
  0
BLOCK
  5
3D324
330
3D323
100
AcDbEntity
  8
0
100
AcDbBlockBegin
  2
DimnDraft3D3
 70
     0
 10
0.0
 20
0.0
 30
0.0
  3
DimnDraft3D3
  1

  0
MTEXT
  5
3D325
330
3D323
100
AcDbEntity
  8
1
  6
Continuous
 62
    35
100
AcDbMText
 10
69.87881699999999
 20
129.070261
 30
0.0
 40
3.5
 41
0.0
 71
     7
 72
     5
  1
\W01.000;\W00.709;180 
  7
blockfont
 73
     2
 44
0.9036139999999999
1001
ACAD
1000
MTEXTBEGIN
1070
    73
1070
     2
1070
    44
1040
0.9036139999999999
1070
    74
1070
     0
1000
MTEXTEND
1000
ACAD_MTEXT_DEFINED_HEIGHT_BEGIN
1070
    46
1040
0.2
1000
ACAD_MTEXT_DEFINED_HEIGHT_END
  0
LINE
  5
3D326
330
3D323
100
AcDbEntity
  8
1
  6
Continuous
 62
    35
370
     5
100
AcDbLine
 10
27.611005
 20
105.218059
 30
0.0
 11
27.611005
 21
130.45047
 31
0.0
  0
LINE
  5
3D327
330
3D323
100
AcDbEntity
  8
1
  6
Continuous
 62
    35
370
     5
100
AcDbLine
 10
117.611005
 20
105.218059
 30
0.0
 11
117.611005
 21
130.45047
 31
0.0
  0
LINE
  5
3D328
330
3D323
100
AcDbEntity
  8
1
  6
Continuous
 62
    35
370
     5
100
AcDbLine
 10
27.611005
 20
128.45047
 30
0.0
 11
117.611005
 21
128.45047
 31
0.0
  0
SOLID
  5
3D329
330
3D323
100
AcDbEntity
  8
1
  6
Continuous
 62
    35
370
     5
100
AcDbTrace
 10
27.611005
 20
128.45047
 30
0.0
 11
28.361005
 21
128.45047
 31
0.0
 12
28.349611
 22
128.580706
 32
0.0
 13
28.349611
 23
128.580706
 33
0.0
  0
SOLID
  5
3D32A
330
3D323
100
AcDbEntity
  8
1
  6
Continuous
 62
    35
370
     5
100
AcDbTrace
 10
27.611005
 20
128.45047
 30
0.0
 11
28.349611
 21
128.580706
 31
0.0
 12
28.315774
 22
128.706985
 32
0.0
 13
28.315774
 23
128.706985
 33
0.0
  0
SOLID
  5
3D32B
330
3D323
100
AcDbEntity
  8
1
  6
Continuous
 62
    35
370
     5
100
AcDbTrace
 10
27.611005
 20
128.45047
 30
0.0
 11
28.315774
 21
128.706985
 31
0.0
 12
28.260524
 22
128.82547
 32
0.0
 13
28.260524
 23
128.82547
 33
0.0
  0
SOLID
  5
3D32C
330
3D323
100
AcDbEntity
  8
1
  6
Continuous
 62
    35
370
     5
100
AcDbTrace
 10
27.611005
 20
128.45047
 30
0.0
 11
28.260524
 21
128.82547
 31
0.0
 12
28.185538
 22
128.93256
 32
0.0
 13
28.185538
 23
128.93256
 33
0.0
  0
SOLID
  5
3D32D
330
3D323
100
AcDbEntity
  8
1
  6
Continuous
 62
    35
370
     5
100
AcDbTrace
 10
27.611005
 20
128.45047
 30
0.0
 11
28.185538
 21
128.93256
 31
0.0
 12
28.093096
 22
129.025003
 32
0.0
 13
28.093096
 23
129.025003
 33
0.0
  0
SOLID
  5
3D32E
330
3D323
100
AcDbEntity
  8
1
  6
Continuous
 62
    35
370
     5
100
AcDbTrace
 10
27.611005
 20
128.45047
 30
0.0
 11
28.093096
 21
129.025003
 31
0.0
 12
27.986005
 22
129.099989
 32
0.0
 13
27.986005
 23
129.099989
 33
0.0
  0
SOLID
  5
3D32F
330
3D323
100
AcDbEntity
  8
1
  6
Continuous
 62
    35
370
     5
100
AcDbTrace
 10
27.611005
 20
128.45047
 30
0.0
 11
27.986005
 21
129.099989
 31
0.0
 12
27.86752
 22
129.155239
 32
0.0
 13
27.86752
 23
129.155239
 33
0.0
  0
SOLID
  5
3D330
330
3D323
100
AcDbEntity
  8
1
  6
Continuous
 62
    35
370
     5
100
AcDbTrace
 10
27.611005
 20
128.45047
 30
0.0
 11
27.86752
 21
129.155239
 31
0.0
 12
27.741241
 22
129.189075
 32
0.0
 13
27.741241
 23
129.189075
 33
0.0
  0
SOLID
  5
3D331
330
3D323
100
AcDbEntity
  8
1
  6
Continuous
 62
    35
370
     5
100
AcDbTrace
 10
27.611005
 20
128.45047
 30
0.0
 11
27.741241
 21
129.189075
 31
0.0
 12
27.611005
 22
129.20047
 32
0.0
 13
27.611005
 23
129.20047
 33
0.0
  0
SOLID
  5
3D332
330
3D323
100
AcDbEntity
  8
1
  6
Continuous
 62
    35
370
     5
100
AcDbTrace
 10
27.611005
 20
128.45047
 30
0.0
 11
27.611005
 21
129.20047
 31
0.0
 12
27.480769
 22
129.189075
 32
0.0
 13
27.480769
 23
129.189075
 33
0.0
  0
SOLID
  5
3D333
330
3D323
100
AcDbEntity
  8
1
  6
Continuous
 62
    35
370
     5
100
AcDbTrace
 10
27.611005
 20
128.45047
 30
0.0
 11
27.480769
 21
129.189075
 31
0.0
 12
27.35449
 22
129.155239
 32
0.0
 13
27.35449
 23
129.155239
 33
0.0
  0
SOLID
  5
3D334
330
3D323
100
AcDbEntity
  8
1
  6
Continuous
 62
    35
370
     5
100
AcDbTrace
 10
27.611005
 20
128.45047
 30
0.0
 11
27.35449
 21
129.155239
 31
0.0
 12
27.236005
 22
129.099989
 32
0.0
 13
27.236005
 23
129.099989
 33
0.0
  0
SOLID
  5
3D335
330
3D323
100
AcDbEntity
  8
1
  6
Continuous
 62
    35
370
     5
100
AcDbTrace
 10
27.611005
 20
128.45047
 30
0.0
 11
27.236005
 21
129.099989
 31
0.0
 12
27.128914
 22
129.025003
 32
0.0
 13
27.128914
 23
129.025003
 33
0.0
  0
SOLID
  5
3D336
330
3D323
100
AcDbEntity
  8
1
  6
Continuous
 62
    35
370
     5
100
AcDbTrace
 10
27.611005
 20
128.45047
 30
0.0
 11
27.128914
 21
129.025003
 31
0.0
 12
27.036472
 22
128.93256
 32
0.0
 13
27.036472
 23
128.93256
 33
0.0
  0
SOLID
  5
3D337
330
3D323
100
AcDbEntity
  8
1
  6
Continuous
 62
    35
370
     5
100
AcDbTrace
 10
27.611005
 20
128.45047
 30
0.0
 11
27.036472
 21
128.93256
 31
0.0
 12
26.961486
 22
128.82547
 32
0.0
 13
26.961486
 23
128.82547
 33
0.0
  0
SOLID
  5
3D338
330
3D323
100
AcDbEntity
  8
1
  6
Continuous
 62
    35
370
     5
100
AcDbTrace
 10
27.611005
 20
128.45047
 30
0.0
 11
26.961486
 21
128.82547
 31
0.0
 12
26.906235
 22
128.706985
 32
0.0
 13
26.906235
 23
128.706985
 33
0.0
  0
SOLID
  5
3D339
330
3D323
100
AcDbEntity
  8
1
  6
Continuous
 62
    35
370
     5
100
AcDbTrace
 10
27.611005
 20
128.45047
 30
0.0
 11
26.906235
 21
128.706985
 31
0.0
 12
26.872399
 22
128.580706
 32
0.0
 13
26.872399
 23
128.580706
 33
0.0
  0
SOLID
  5
3D33A
330
3D323
100
AcDbEntity
  8
1
  6
Continuous
 62
    35
370
     5
100
AcDbTrace
 10
27.611005
 20
128.45047
 30
0.0
 11
26.872399
 21
128.580706
 31
0.0
 12
26.861005
 22
128.45047
 32
0.0
 13
26.861005
 23
128.45047
 33
0.0
  0
SOLID
  5
3D33B
330
3D323
100
AcDbEntity
  8
1
  6
Continuous
 62
    35
370
     5
100
AcDbTrace
 10
27.611005
 20
128.45047
 30
0.0
 11
26.861005
 21
128.45047
 31
0.0
 12
26.872399
 22
128.320233
 32
0.0
 13
26.872399
 23
128.320233
 33
0.0
  0
SOLID
  5
3D33C
330
3D323
100
AcDbEntity
  8
1
  6
Continuous
 62
    35
370
     5
100
AcDbTrace
 10
27.611005
 20
128.45047
 30
0.0
 11
26.872399
 21
128.320233
 31
0.0
 12
26.906235
 22
128.193955
 32
0.0
 13
26.906235
 23
128.193955
 33
0.0
  0
SOLID
  5
3D33D
330
3D323
100
AcDbEntity
  8
1
  6
Continuous
 62
    35
370
     5
100
AcDbTrace
 10
27.611005
 20
128.45047
 30
0.0
 11
26.906235
 21
128.193955
 31
0.0
 12
26.961486
 22
128.07547
 32
0.0
 13
26.961486
 23
128.07547
 33
0.0
  0
SOLID
  5
3D33E
330
3D323
100
AcDbEntity
  8
1
  6
Continuous
 62
    35
370
     5
100
AcDbTrace
 10
27.611005
 20
128.45047
 30
0.0
 11
26.961486
 21
128.07547
 31
0.0
 12
27.036472
 22
127.968379
 32
0.0
 13
27.036472
 23
127.968379
 33
0.0
  0
SOLID
  5
3D33F
330
3D323
100
AcDbEntity
  8
1
  6
Continuous
 62
    35
370
     5
100
AcDbTrace
 10
27.611005
 20
128.45047
 30
0.0
 11
27.036472
 21
127.968379
 31
0.0
 12
27.128914
 22
127.875936
 32
0.0
 13
27.128914
 23
127.875936
 33
0.0
  0
SOLID
  5
3D340
330
3D323
100
AcDbEntity
  8
1
  6
Continuous
 62
    35
370
     5
100
AcDbTrace
 10
27.611005
 20
128.45047
 30
0.0
 11
27.128914
 21
127.875936
 31
0.0
 12
27.236005
 22
127.800951
 32
0.0
 13
27.236005
 23
127.800951
 33
0.0
  0
SOLID
  5
3D341
330
3D323
100
AcDbEntity
  8
1
  6
Continuous
 62
    35
370
     5
100
AcDbTrace
 10
27.611005
 20
128.45047
 30
0.0
 11
27.236005
 21
127.800951
 31
0.0
 12
27.35449
 22
127.7457
 32
0.0
 13
27.35449
 23
127.7457
 33
0.0
  0
SOLID
  5
3D342
330
3D323
100
AcDbEntity
  8
1
  6
Continuous
 62
    35
370
     5
100
AcDbTrace
 10
27.611005
 20
128.45047
 30
0.0
 11
27.35449
 21
127.7457
 31
0.0
 12
27.480769
 22
127.711864
 32
0.0
 13
27.480769
 23
127.711864
 33
0.0
  0
SOLID
  5
3D343
330
3D323
100
AcDbEntity
  8
1
  6
Continuous
 62
    35
370
     5
100
AcDbTrace
 10
27.611005
 20
128.45047
 30
0.0
 11
27.480769
 21
127.711864
 31
0.0
 12
27.611005
 22
127.70047
 32
0.0
 13
27.611005
 23
127.70047
 33
0.0
  0
SOLID
  5
3D344
330
3D323
100
AcDbEntity
  8
1
  6
Continuous
 62
    35
370
     5
100
AcDbTrace
 10
27.611005
 20
128.45047
 30
0.0
 11
27.611005
 21
127.70047
 31
0.0
 12
27.741241
 22
127.711864
 32
0.0
 13
27.741241
 23
127.711864
 33
0.0
  0
SOLID
  5
3D345
330
3D323
100
AcDbEntity
  8
1
  6
Continuous
 62
    35
370
     5
100
AcDbTrace
 10
27.611005
 20
128.45047
 30
0.0
 11
27.741241
 21
127.711864
 31
0.0
 12
27.86752
 22
127.7457
 32
0.0
 13
27.86752
 23
127.7457
 33
0.0
  0
SOLID
  5
3D346
330
3D323
100
AcDbEntity
  8
1
  6
Continuous
 62
    35
370
     5
100
AcDbTrace
 10
27.611005
 20
128.45047
 30
0.0
 11
27.86752
 21
127.7457
 31
0.0
 12
27.986005
 22
127.800951
 32
0.0
 13
27.986005
 23
127.800951
 33
0.0
  0
SOLID
  5
3D347
330
3D323
100
AcDbEntity
  8
1
  6
Continuous
 62
    35
370
     5
100
AcDbTrace
 10
27.611005
 20
128.45047
 30
0.0
 11
27.986005
 21
127.800951
 31
0.0
 12
28.093096
 22
127.875936
 32
0.0
 13
28.093096
 23
127.875936
 33
0.0
  0
SOLID
  5
3D348
330
3D323
100
AcDbEntity
  8
1
  6
Continuous
 62
    35
370
     5
100
AcDbTrace
 10
27.611005
 20
128.45047
 30
0.0
 11
28.093096
 21
127.875936
 31
0.0
 12
28.185538
 22
127.968379
 32
0.0
 13
28.185538
 23
127.968379
 33
0.0
  0
SOLID
  5
3D349
330
3D323
100
AcDbEntity
  8
1
  6
Continuous
 62
    35
370
     5
100
AcDbTrace
 10
27.611005
 20
128.45047
 30
0.0
 11
28.185538
 21
127.968379
 31
0.0
 12
28.260524
 22
128.07547
 32
0.0
 13
28.260524
 23
128.07547
 33
0.0
  0
SOLID
  5
3D34A
330
3D323
100
AcDbEntity
  8
1
  6
Continuous
 62
    35
370
     5
100
AcDbTrace
 10
27.611005
 20
128.45047
 30
0.0
 11
28.260524
 21
128.07547
 31
0.0
 12
28.315774
 22
128.193955
 32
0.0
 13
28.315774
 23
128.193955
 33
0.0
  0
SOLID
  5
3D34B
330
3D323
100
AcDbEntity
  8
1
  6
Continuous
 62
    35
370
     5
100
AcDbTrace
 10
27.611005
 20
128.45047
 30
0.0
 11
28.315774
 21
128.193955
 31
0.0
 12
28.349611
 22
128.320233
 32
0.0
 13
28.349611
 23
128.320233
 33
0.0
  0
SOLID
  5
3D34C
330
3D323
100
AcDbEntity
  8
1
  6
Continuous
 62
    35
370
     5
100
AcDbTrace
 10
27.611005
 20
128.45047
 30
0.0
 11
28.349611
 21
128.320233
 31
0.0
 12
28.361005
 22
128.45047
 32
0.0
 13
28.361005
 23
128.45047
 33
0.0
  0
SOLID
  5
3D34D
330
3D323
100
AcDbEntity
  8
1
  6
Continuous
 62
    35
370
     5
100
AcDbTrace
 10
117.611005
 20
128.45047
 30
0.0
 11
118.361005
 21
128.45047
 31
0.0
 12
118.349611
 22
128.580706
 32
0.0
 13
118.349611
 23
128.580706
 33
0.0
  0
SOLID
  5
3D34E
330
3D323
100
AcDbEntity
  8
1
  6
Continuous
 62
    35
370
     5
100
AcDbTrace
 10
117.611005
 20
128.45047
 30
0.0
 11
118.349611
 21
128.580706
 31
0.0
 12
118.315774
 22
128.706985
 32
0.0
 13
118.315774
 23
128.706985
 33
0.0
  0
SOLID
  5
3D34F
330
3D323
100
AcDbEntity
  8
1
  6
Continuous
 62
    35
370
     5
100
AcDbTrace
 10
117.611005
 20
128.45047
 30
0.0
 11
118.315774
 21
128.706985
 31
0.0
 12
118.260524
 22
128.82547
 32
0.0
 13
118.260524
 23
128.82547
 33
0.0
  0
SOLID
  5
3D350
330
3D323
100
AcDbEntity
  8
1
  6
Continuous
 62
    35
370
     5
100
AcDbTrace
 10
117.611005
 20
128.45047
 30
0.0
 11
118.260524
 21
128.82547
 31
0.0
 12
118.185538
 22
128.93256
 32
0.0
 13
118.185538
 23
128.93256
 33
0.0
  0
SOLID
  5
3D351
330
3D323
100
AcDbEntity
  8
1
  6
Continuous
 62
    35
370
     5
100
AcDbTrace
 10
117.611005
 20
128.45047
 30
0.0
 11
118.185538
 21
128.93256
 31
0.0
 12
118.093096
 22
129.025003
 32
0.0
 13
118.093096
 23
129.025003
 33
0.0
  0
SOLID
  5
3D352
330
3D323
100
AcDbEntity
  8
1
  6
Continuous
 62
    35
370
     5
100
AcDbTrace
 10
117.611005
 20
128.45047
 30
0.0
 11
118.093096
 21
129.025003
 31
0.0
 12
117.986005
 22
129.099989
 32
0.0
 13
117.986005
 23
129.099989
 33
0.0
  0
SOLID
  5
3D353
330
3D323
100
AcDbEntity
  8
1
  6
Continuous
 62
    35
370
     5
100
AcDbTrace
 10
117.611005
 20
128.45047
 30
0.0
 11
117.986005
 21
129.099989
 31
0.0
 12
117.86752
 22
129.155239
 32
0.0
 13
117.86752
 23
129.155239
 33
0.0
  0
SOLID
  5
3D354
330
3D323
100
AcDbEntity
  8
1
  6
Continuous
 62
    35
370
     5
100
AcDbTrace
 10
117.611005
 20
128.45047
 30
0.0
 11
117.86752
 21
129.155239
 31
0.0
 12
117.741241
 22
129.189075
 32
0.0
 13
117.741241
 23
129.189075
 33
0.0
  0
SOLID
  5
3D355
330
3D323
100
AcDbEntity
  8
1
  6
Continuous
 62
    35
370
     5
100
AcDbTrace
 10
117.611005
 20
128.45047
 30
0.0
 11
117.741241
 21
129.189075
 31
0.0
 12
117.611005
 22
129.20047
 32
0.0
 13
117.611005
 23
129.20047
 33
0.0
  0
SOLID
  5
3D356
330
3D323
100
AcDbEntity
  8
1
  6
Continuous
 62
    35
370
     5
100
AcDbTrace
 10
117.611005
 20
128.45047
 30
0.0
 11
117.611005
 21
129.20047
 31
0.0
 12
117.480769
 22
129.189075
 32
0.0
 13
117.480769
 23
129.189075
 33
0.0
  0
SOLID
  5
3D357
330
3D323
100
AcDbEntity
  8
1
  6
Continuous
 62
    35
370
     5
100
AcDbTrace
 10
117.611005
 20
128.45047
 30
0.0
 11
117.480769
 21
129.189075
 31
0.0
 12
117.35449
 22
129.155239
 32
0.0
 13
117.35449
 23
129.155239
 33
0.0
  0
SOLID
  5
3D358
330
3D323
100
AcDbEntity
  8
1
  6
Continuous
 62
    35
370
     5
100
AcDbTrace
 10
117.611005
 20
128.45047
 30
0.0
 11
117.35449
 21
129.155239
 31
0.0
 12
117.236005
 22
129.099989
 32
0.0
 13
117.236005
 23
129.099989
 33
0.0
  0
SOLID
  5
3D359
330
3D323
100
AcDbEntity
  8
1
  6
Continuous
 62
    35
370
     5
100
AcDbTrace
 10
117.611005
 20
128.45047
 30
0.0
 11
117.236005
 21
129.099989
 31
0.0
 12
117.128914
 22
129.025003
 32
0.0
 13
117.128914
 23
129.025003
 33
0.0
  0
SOLID
  5
3D35A
330
3D323
100
AcDbEntity
  8
1
  6
Continuous
 62
    35
370
     5
100
AcDbTrace
 10
117.611005
 20
128.45047
 30
0.0
 11
117.128914
 21
129.025003
 31
0.0
 12
117.036472
 22
128.93256
 32
0.0
 13
117.036472
 23
128.93256
 33
0.0
  0
SOLID
  5
3D35B
330
3D323
100
AcDbEntity
  8
1
  6
Continuous
 62
    35
370
     5
100
AcDbTrace
 10
117.611005
 20
128.45047
 30
0.0
 11
117.036472
 21
128.93256
 31
0.0
 12
116.961486
 22
128.82547
 32
0.0
 13
116.961486
 23
128.82547
 33
0.0
  0
SOLID
  5
3D35C
330
3D323
100
AcDbEntity
  8
1
  6
Continuous
 62
    35
370
     5
100
AcDbTrace
 10
117.611005
 20
128.45047
 30
0.0
 11
116.961486
 21
128.82547
 31
0.0
 12
116.906235
 22
128.706985
 32
0.0
 13
116.906235
 23
128.706985
 33
0.0
  0
SOLID
  5
3D35D
330
3D323
100
AcDbEntity
  8
1
  6
Continuous
 62
    35
370
     5
100
AcDbTrace
 10
117.611005
 20
128.45047
 30
0.0
 11
116.906235
 21
128.706985
 31
0.0
 12
116.872399
 22
128.580706
 32
0.0
 13
116.872399
 23
128.580706
 33
0.0
  0
SOLID
  5
3D35E
330
3D323
100
AcDbEntity
  8
1
  6
Continuous
 62
    35
370
     5
100
AcDbTrace
 10
117.611005
 20
128.45047
 30
0.0
 11
116.872399
 21
128.580706
 31
0.0
 12
116.861005
 22
128.45047
 32
0.0
 13
116.861005
 23
128.45047
 33
0.0
  0
SOLID
  5
3D35F
330
3D323
100
AcDbEntity
  8
1
  6
Continuous
 62
    35
370
     5
100
AcDbTrace
 10
117.611005
 20
128.45047
 30
0.0
 11
116.861005
 21
128.45047
 31
0.0
 12
116.872399
 22
128.320233
 32
0.0
 13
116.872399
 23
128.320233
 33
0.0
  0
SOLID
  5
3D360
330
3D323
100
AcDbEntity
  8
1
  6
Continuous
 62
    35
370
     5
100
AcDbTrace
 10
117.611005
 20
128.45047
 30
0.0
 11
116.872399
 21
128.320233
 31
0.0
 12
116.906235
 22
128.193955
 32
0.0
 13
116.906235
 23
128.193955
 33
0.0
  0
SOLID
  5
3D361
330
3D323
100
AcDbEntity
  8
1
  6
Continuous
 62
    35
370
     5
100
AcDbTrace
 10
117.611005
 20
128.45047
 30
0.0
 11
116.906235
 21
128.193955
 31
0.0
 12
116.961486
 22
128.07547
 32
0.0
 13
116.961486
 23
128.07547
 33
0.0
  0
SOLID
  5
3D362
330
3D323
100
AcDbEntity
  8
1
  6
Continuous
 62
    35
370
     5
100
AcDbTrace
 10
117.611005
 20
128.45047
 30
0.0
 11
116.961486
 21
128.07547
 31
0.0
 12
117.036472
 22
127.968379
 32
0.0
 13
117.036472
 23
127.968379
 33
0.0
  0
SOLID
  5
3D363
330
3D323
100
AcDbEntity
  8
1
  6
Continuous
 62
    35
370
     5
100
AcDbTrace
 10
117.611005
 20
128.45047
 30
0.0
 11
117.036472
 21
127.968379
 31
0.0
 12
117.128914
 22
127.875936
 32
0.0
 13
117.128914
 23
127.875936
 33
0.0
  0
SOLID
  5
3D364
330
3D323
100
AcDbEntity
  8
1
  6
Continuous
 62
    35
370
     5
100
AcDbTrace
 10
117.611005
 20
128.45047
 30
0.0
 11
117.128914
 21
127.875936
 31
0.0
 12
117.236005
 22
127.800951
 32
0.0
 13
117.236005
 23
127.800951
 33
0.0
  0
SOLID
  5
3D365
330
3D323
100
AcDbEntity
  8
1
  6
Continuous
 62
    35
370
     5
100
AcDbTrace
 10
117.611005
 20
128.45047
 30
0.0
 11
117.236005
 21
127.800951
 31
0.0
 12
117.35449
 22
127.7457
 32
0.0
 13
117.35449
 23
127.7457
 33
0.0
  0
SOLID
  5
3D366
330
3D323
100
AcDbEntity
  8
1
  6
Continuous
 62
    35
370
     5
100
AcDbTrace
 10
117.611005
 20
128.45047
 30
0.0
 11
117.35449
 21
127.7457
 31
0.0
 12
117.480769
 22
127.711864
 32
0.0
 13
117.480769
 23
127.711864
 33
0.0
  0
SOLID
  5
3D367
330
3D323
100
AcDbEntity
  8
1
  6
Continuous
 62
    35
370
     5
100
AcDbTrace
 10
117.611005
 20
128.45047
 30
0.0
 11
117.480769
 21
127.711864
 31
0.0
 12
117.611005
 22
127.70047
 32
0.0
 13
117.611005
 23
127.70047
 33
0.0
  0
SOLID
  5
3D368
330
3D323
100
AcDbEntity
  8
1
  6
Continuous
 62
    35
370
     5
100
AcDbTrace
 10
117.611005
 20
128.45047
 30
0.0
 11
117.611005
 21
127.70047
 31
0.0
 12
117.741241
 22
127.711864
 32
0.0
 13
117.741241
 23
127.711864
 33
0.0
  0
SOLID
  5
3D369
330
3D323
100
AcDbEntity
  8
1
  6
Continuous
 62
    35
370
     5
100
AcDbTrace
 10
117.611005
 20
128.45047
 30
0.0
 11
117.741241
 21
127.711864
 31
0.0
 12
117.86752
 22
127.7457
 32
0.0
 13
117.86752
 23
127.7457
 33
0.0
  0
SOLID
  5
3D36A
330
3D323
100
AcDbEntity
  8
1
  6
Continuous
 62
    35
370
     5
100
AcDbTrace
 10
117.611005
 20
128.45047
 30
0.0
 11
117.86752
 21
127.7457
 31
0.0
 12
117.986005
 22
127.800951
 32
0.0
 13
117.986005
 23
127.800951
 33
0.0
  0
SOLID
  5
3D36B
330
3D323
100
AcDbEntity
  8
1
  6
Continuous
 62
    35
370
     5
100
AcDbTrace
 10
117.611005
 20
128.45047
 30
0.0
 11
117.986005
 21
127.800951
 31
0.0
 12
118.093096
 22
127.875936
 32
0.0
 13
118.093096
 23
127.875936
 33
0.0
  0
SOLID
  5
3D36C
330
3D323
100
AcDbEntity
  8
1
  6
Continuous
 62
    35
370
     5
100
AcDbTrace
 10
117.611005
 20
128.45047
 30
0.0
 11
118.093096
 21
127.875936
 31
0.0
 12
118.185538
 22
127.968379
 32
0.0
 13
118.185538
 23
127.968379
 33
0.0
  0
SOLID
  5
3D36D
330
3D323
100
AcDbEntity
  8
1
  6
Continuous
 62
    35
370
     5
100
AcDbTrace
 10
117.611005
 20
128.45047
 30
0.0
 11
118.185538
 21
127.968379
 31
0.0
 12
118.260524
 22
128.07547
 32
0.0
 13
118.260524
 23
128.07547
 33
0.0
  0
SOLID
  5
3D36E
330
3D323
100
AcDbEntity
  8
1
  6
Continuous
 62
    35
370
     5
100
AcDbTrace
 10
117.611005
 20
128.45047
 30
0.0
 11
118.260524
 21
128.07547
 31
0.0
 12
118.315774
 22
128.193955
 32
0.0
 13
118.315774
 23
128.193955
 33
0.0
  0
SOLID
  5
3D36F
330
3D323
100
AcDbEntity
  8
1
  6
Continuous
 62
    35
370
     5
100
AcDbTrace
 10
117.611005
 20
128.45047
 30
0.0
 11
118.315774
 21
128.193955
 31
0.0
 12
118.349611
 22
128.320233
 32
0.0
 13
118.349611
 23
128.320233
 33
0.0
  0
SOLID
  5
3D370
330
3D323
100
AcDbEntity
  8
1
  6
Continuous
 62
    35
370
     5
100
AcDbTrace
 10
117.611005
 20
128.45047
 30
0.0
 11
118.349611
 21
128.320233
 31
0.0
 12
118.361005
 22
128.45047
 32
0.0
 13
118.361005
 23
128.45047
 33
0.0
  0
ENDBLK
  5
3D371
330
3D323
100
AcDbEntity
  8
0
100
AcDbBlockEnd
  0
BLOCK
  5
3D373
330
3D372
100
AcDbEntity
  8
0
100
AcDbBlockBegin
  2
DimnDraft3D4
 70
     0
 10
0.0
 20
0.0
 30
0.0
  3
DimnDraft3D4
  1

  0
MTEXT
  5
3D374
330
3D372
100
AcDbEntity
  8
1
  6
Continuous
 62
    35
100
AcDbMText
 10
29.77288
 20
199.362773
 30
0.0
 40
3.5
 41
0.0
 71
     7
 72
     5
  1
\W01.000;\W00.642;58 
  7
blockfont
 73
     2
 44
0.9036139999999999
1001
ACAD
1000
MTEXTBEGIN
1070
    73
1070
     2
1070
    44
1040
0.9036139999999999
1070
    74
1070
     0
1000
MTEXTEND
1000
ACAD_MTEXT_DEFINED_HEIGHT_BEGIN
1070
    46
1040
0.2
1000
ACAD_MTEXT_DEFINED_HEIGHT_END
  0
MTEXT
  5
3D375
330
3D372
100
AcDbEntity
  8
1
  6
Continuous
 62
    35
100
AcDbMText
 10
22.12288
 20
199.685689
 30
0.0
 40
2.5
 41
0.0
 71
     7
 72
     5
  1
\W01.000;%%c 
  7
blockfont
 73
     2
 44
0.9036139999999999
1001
ACAD
1000
MTEXTBEGIN
1070
    73
1070
     2
1070
    44
1040
0.9036139999999999
1070
    74
1070
     0
1000
MTEXTEND
1000
ACAD_MTEXT_DEFINED_HEIGHT_BEGIN
1070
    46
1040
0.2
1000
ACAD_MTEXT_DEFINED_HEIGHT_END
  0
LINE
  5
3D376
330
3D372
100
AcDbEntity
  8
1
  6
Continuous
 62
    35
370
     5
100
AcDbLine
 10
42.11100499999999
 20
172.110907
 30
0.0
 11
42.11100499999999
 21
200.117981
 31
0.0
  0
LINE
  5
3D377
330
3D372
100
AcDbEntity
  8
1
  6
Continuous
 62
    35
370
     5
100
AcDbLine
 10
13.111005
 20
172.110907
 30
0.0
 11
13.111005
 21
200.117981
 31
0.0
  0
LINE
  5
3D378
330
3D372
100
AcDbEntity
  8
1
  6
Continuous
 62
    35
370
     5
100
AcDbLine
 10
42.11100499999999
 20
198.117981
 30
0.0
 11
13.111005
 21
198.117981
 31
0.0
  0
SOLID
  5
3D379
330
3D372
100
AcDbEntity
  8
1
  6
Continuous
 62
    35
370
     5
100
AcDbTrace
 10
42.11100499999999
 20
198.117981
 30
0.0
 11
42.86100499999999
 21
198.117981
 31
0.0
 12
42.84961099999999
 22
198.248217
 32
0.0
 13
42.84961099999999
 23
198.248217
 33
0.0
  0
SOLID
  5
3D37A
330
3D372
100
AcDbEntity
  8
1
  6
Continuous
 62
    35
370
     5
100
AcDbTrace
 10
42.11100499999999
 20
198.117981
 30
0.0
 11
42.84961099999999
 21
198.248217
 31
0.0
 12
42.81577399999999
 22
198.374496
 32
0.0
 13
42.81577399999999
 23
198.374496
 33
0.0
  0
SOLID
  5
3D37B
330
3D372
100
AcDbEntity
  8
1
  6
Continuous
 62
    35
370
     5
100
AcDbTrace
 10
42.11100499999999
 20
198.117981
 30
0.0
 11
42.81577399999999
 21
198.374496
 31
0.0
 12
42.760524
 22
198.492981
 32
0.0
 13
42.760524
 23
198.492981
 33
0.0
  0
SOLID
  5
3D37C
330
3D372
100
AcDbEntity
  8
1
  6
Continuous
 62
    35
370
     5
100
AcDbTrace
 10
42.11100499999999
 20
198.117981
 30
0.0
 11
42.760524
 21
198.492981
 31
0.0
 12
42.685538
 22
198.600072
 32
0.0
 13
42.685538
 23
198.600072
 33
0.0
  0
SOLID
  5
3D37D
330
3D372
100
AcDbEntity
  8
1
  6
Continuous
 62
    35
370
     5
100
AcDbTrace
 10
42.11100499999999
 20
198.117981
 30
0.0
 11
42.685538
 21
198.600072
 31
0.0
 12
42.593096
 22
198.692514
 32
0.0
 13
42.593096
 23
198.692514
 33
0.0
  0
SOLID
  5
3D37E
330
3D372
100
AcDbEntity
  8
1
  6
Continuous
 62
    35
370
     5
100
AcDbTrace
 10
42.11100499999999
 20
198.117981
 30
0.0
 11
42.593096
 21
198.692514
 31
0.0
 12
42.486005
 22
198.7675
 32
0.0
 13
42.486005
 23
198.7675
 33
0.0
  0
SOLID
  5
3D37F
330
3D372
100
AcDbEntity
  8
1
  6
Continuous
 62
    35
370
     5
100
AcDbTrace
 10
42.11100499999999
 20
198.117981
 30
0.0
 11
42.486005
 21
198.7675
 31
0.0
 12
42.36752
 22
198.82275
 32
0.0
 13
42.36752
 23
198.82275
 33
0.0
  0
SOLID
  5
3D380
330
3D372
100
AcDbEntity
  8
1
  6
Continuous
 62
    35
370
     5
100
AcDbTrace
 10
42.11100499999999
 20
198.117981
 30
0.0
 11
42.36752
 21
198.82275
 31
0.0
 12
42.241241
 22
198.856587
 32
0.0
 13
42.241241
 23
198.856587
 33
0.0
  0
SOLID
  5
3D381
330
3D372
100
AcDbEntity
  8
1
  6
Continuous
 62
    35
370
     5
100
AcDbTrace
 10
42.11100499999999
 20
198.117981
 30
0.0
 11
42.241241
 21
198.856587
 31
0.0
 12
42.11100499999999
 22
198.867981
 32
0.0
 13
42.11100499999999
 23
198.867981
 33
0.0
  0
SOLID
  5
3D382
330
3D372
100
AcDbEntity
  8
1
  6
Continuous
 62
    35
370
     5
100
AcDbTrace
 10
42.11100499999999
 20
198.117981
 30
0.0
 11
42.11100499999999
 21
198.867981
 31
0.0
 12
41.980769
 22
198.856587
 32
0.0
 13
41.980769
 23
198.856587
 33
0.0
  0
SOLID
  5
3D383
330
3D372
100
AcDbEntity
  8
1
  6
Continuous
 62
    35
370
     5
100
AcDbTrace
 10
42.11100499999999
 20
198.117981
 30
0.0
 11
41.980769
 21
198.856587
 31
0.0
 12
41.85449000000001
 22
198.82275
 32
0.0
 13
41.85449000000001
 23
198.82275
 33
0.0
  0
SOLID
  5
3D384
330
3D372
100
AcDbEntity
  8
1
  6
Continuous
 62
    35
370
     5
100
AcDbTrace
 10
42.11100499999999
 20
198.117981
 30
0.0
 11
41.85449000000001
 21
198.82275
 31
0.0
 12
41.736005
 22
198.7675
 32
0.0
 13
41.736005
 23
198.7675
 33
0.0
  0
SOLID
  5
3D385
330
3D372
100
AcDbEntity
  8
1
  6
Continuous
 62
    35
370
     5
100
AcDbTrace
 10
42.11100499999999
 20
198.117981
 30
0.0
 11
41.736005
 21
198.7675
 31
0.0
 12
41.628914
 22
198.692514
 32
0.0
 13
41.628914
 23
198.692514
 33
0.0
  0
SOLID
  5
3D386
330
3D372
100
AcDbEntity
  8
1
  6
Continuous
 62
    35
370
     5
100
AcDbTrace
 10
42.11100499999999
 20
198.117981
 30
0.0
 11
41.628914
 21
198.692514
 31
0.0
 12
41.53647199999999
 22
198.600072
 32
0.0
 13
41.53647199999999
 23
198.600072
 33
0.0
  0
SOLID
  5
3D387
330
3D372
100
AcDbEntity
  8
1
  6
Continuous
 62
    35
370
     5
100
AcDbTrace
 10
42.11100499999999
 20
198.117981
 30
0.0
 11
41.53647199999999
 21
198.600072
 31
0.0
 12
41.461486
 22
198.492981
 32
0.0
 13
41.461486
 23
198.492981
 33
0.0
  0
SOLID
  5
3D388
330
3D372
100
AcDbEntity
  8
1
  6
Continuous
 62
    35
370
     5
100
AcDbTrace
 10
42.11100499999999
 20
198.117981
 30
0.0
 11
41.461486
 21
198.492981
 31
0.0
 12
41.40623499999999
 22
198.374496
 32
0.0
 13
41.40623499999999
 23
198.374496
 33
0.0
  0
SOLID
  5
3D389
330
3D372
100
AcDbEntity
  8
1
  6
Continuous
 62
    35
370
     5
100
AcDbTrace
 10
42.11100499999999
 20
198.117981
 30
0.0
 11
41.40623499999999
 21
198.374496
 31
0.0
 12
41.37239899999999
 22
198.248217
 32
0.0
 13
41.37239899999999
 23
198.248217
 33
0.0
  0
SOLID
  5
3D38A
330
3D372
100
AcDbEntity
  8
1
  6
Continuous
 62
    35
370
     5
100
AcDbTrace
 10
42.11100499999999
 20
198.117981
 30
0.0
 11
41.37239899999999
 21
198.248217
 31
0.0
 12
41.361005
 22
198.117981
 32
0.0
 13
41.361005
 23
198.117981
 33
0.0
  0
SOLID
  5
3D38B
330
3D372
100
AcDbEntity
  8
1
  6
Continuous
 62
    35
370
     5
100
AcDbTrace
 10
42.11100499999999
 20
198.117981
 30
0.0
 11
41.361005
 21
198.117981
 31
0.0
 12
41.37239899999999
 22
197.987745
 32
0.0
 13
41.37239899999999
 23
197.987745
 33
0.0
  0
SOLID
  5
3D38C
330
3D372
100
AcDbEntity
  8
1
  6
Continuous
 62
    35
370
     5
100
AcDbTrace
 10
42.11100499999999
 20
198.117981
 30
0.0
 11
41.37239899999999
 21
197.987745
 31
0.0
 12
41.40623499999999
 22
197.861466
 32
0.0
 13
41.40623499999999
 23
197.861466
 33
0.0
  0
SOLID
  5
3D38D
330
3D372
100
AcDbEntity
  8
1
  6
Continuous
 62
    35
370
     5
100
AcDbTrace
 10
42.11100499999999
 20
198.117981
 30
0.0
 11
41.40623499999999
 21
197.861466
 31
0.0
 12
41.461486
 22
197.742981
 32
0.0
 13
41.461486
 23
197.742981
 33
0.0
  0
SOLID
  5
3D38E
330
3D372
100
AcDbEntity
  8
1
  6
Continuous
 62
    35
370
     5
100
AcDbTrace
 10
42.11100499999999
 20
198.117981
 30
0.0
 11
41.461486
 21
197.742981
 31
0.0
 12
41.53647199999999
 22
197.63589
 32
0.0
 13
41.53647199999999
 23
197.63589
 33
0.0
  0
SOLID
  5
3D38F
330
3D372
100
AcDbEntity
  8
1
  6
Continuous
 62
    35
370
     5
100
AcDbTrace
 10
42.11100499999999
 20
198.117981
 30
0.0
 11
41.53647199999999
 21
197.63589
 31
0.0
 12
41.628914
 22
197.543448
 32
0.0
 13
41.628914
 23
197.543448
 33
0.0
  0
SOLID
  5
3D390
330
3D372
100
AcDbEntity
  8
1
  6
Continuous
 62
    35
370
     5
100
AcDbTrace
 10
42.11100499999999
 20
198.117981
 30
0.0
 11
41.628914
 21
197.543448
 31
0.0
 12
41.736005
 22
197.468462
 32
0.0
 13
41.736005
 23
197.468462
 33
0.0
  0
SOLID
  5
3D391
330
3D372
100
AcDbEntity
  8
1
  6
Continuous
 62
    35
370
     5
100
AcDbTrace
 10
42.11100499999999
 20
198.117981
 30
0.0
 11
41.736005
 21
197.468462
 31
0.0
 12
41.85449000000001
 22
197.413211
 32
0.0
 13
41.85449000000001
 23
197.413211
 33
0.0
  0
SOLID
  5
3D392
330
3D372
100
AcDbEntity
  8
1
  6
Continuous
 62
    35
370
     5
100
AcDbTrace
 10
42.11100499999999
 20
198.117981
 30
0.0
 11
41.85449000000001
 21
197.413211
 31
0.0
 12
41.980769
 22
197.379375
 32
0.0
 13
41.980769
 23
197.379375
 33
0.0
  0
SOLID
  5
3D393
330
3D372
100
AcDbEntity
  8
1
  6
Continuous
 62
    35
370
     5
100
AcDbTrace
 10
42.11100499999999
 20
198.117981
 30
0.0
 11
41.980769
 21
197.379375
 31
0.0
 12
42.11100499999999
 22
197.367981
 32
0.0
 13
42.11100499999999
 23
197.367981
 33
0.0
  0
SOLID
  5
3D394
330
3D372
100
AcDbEntity
  8
1
  6
Continuous
 62
    35
370
     5
100
AcDbTrace
 10
42.11100499999999
 20
198.117981
 30
0.0
 11
42.11100499999999
 21
197.367981
 31
0.0
 12
42.241241
 22
197.379375
 32
0.0
 13
42.241241
 23
197.379375
 33
0.0
  0
SOLID
  5
3D395
330
3D372
100
AcDbEntity
  8
1
  6
Continuous
 62
    35
370
     5
100
AcDbTrace
 10
42.11100499999999
 20
198.117981
 30
0.0
 11
42.241241
 21
197.379375
 31
0.0
 12
42.36752
 22
197.413211
 32
0.0
 13
42.36752
 23
197.413211
 33
0.0
  0
SOLID
  5
3D396
330
3D372
100
AcDbEntity
  8
1
  6
Continuous
 62
    35
370
     5
100
AcDbTrace
 10
42.11100499999999
 20
198.117981
 30
0.0
 11
42.36752
 21
197.413211
 31
0.0
 12
42.486005
 22
197.468462
 32
0.0
 13
42.486005
 23
197.468462
 33
0.0
  0
SOLID
  5
3D397
330
3D372
100
AcDbEntity
  8
1
  6
Continuous
 62
    35
370
     5
100
AcDbTrace
 10
42.11100499999999
 20
198.117981
 30
0.0
 11
42.486005
 21
197.468462
 31
0.0
 12
42.593096
 22
197.543448
 32
0.0
 13
42.593096
 23
197.543448
 33
0.0
  0
SOLID
  5
3D398
330
3D372
100
AcDbEntity
  8
1
  6
Continuous
 62
    35
370
     5
100
AcDbTrace
 10
42.11100499999999
 20
198.117981
 30
0.0
 11
42.593096
 21
197.543448
 31
0.0
 12
42.685538
 22
197.63589
 32
0.0
 13
42.685538
 23
197.63589
 33
0.0
  0
SOLID
  5
3D399
330
3D372
100
AcDbEntity
  8
1
  6
Continuous
 62
    35
370
     5
100
AcDbTrace
 10
42.11100499999999
 20
198.117981
 30
0.0
 11
42.685538
 21
197.63589
 31
0.0
 12
42.760524
 22
197.742981
 32
0.0
 13
42.760524
 23
197.742981
 33
0.0
  0
SOLID
  5
3D39A
330
3D372
100
AcDbEntity
  8
1
  6
Continuous
 62
    35
370
     5
100
AcDbTrace
 10
42.11100499999999
 20
198.117981
 30
0.0
 11
42.760524
 21
197.742981
 31
0.0
 12
42.81577399999999
 22
197.861466
 32
0.0
 13
42.81577399999999
 23
197.861466
 33
0.0
  0
SOLID
  5
3D39B
330
3D372
100
AcDbEntity
  8
1
  6
Continuous
 62
    35
370
     5
100
AcDbTrace
 10
42.11100499999999
 20
198.117981
 30
0.0
 11
42.81577399999999
 21
197.861466
 31
0.0
 12
42.84961099999999
 22
197.987745
 32
0.0
 13
42.84961099999999
 23
197.987745
 33
0.0
  0
SOLID
  5
3D39C
330
3D372
100
AcDbEntity
  8
1
  6
Continuous
 62
    35
370
     5
100
AcDbTrace
 10
42.11100499999999
 20
198.117981
 30
0.0
 11
42.84961099999999
 21
197.987745
 31
0.0
 12
42.86100499999999
 22
198.117981
 32
0.0
 13
42.86100499999999
 23
198.117981
 33
0.0
  0
SOLID
  5
3D39D
330
3D372
100
AcDbEntity
  8
1
  6
Continuous
 62
    35
370
     5
100
AcDbTrace
 10
13.111005
 20
198.117981
 30
0.0
 11
13.861005
 21
198.117981
 31
0.0
 12
13.849611
 22
198.248217
 32
0.0
 13
13.849611
 23
198.248217
 33
0.0
  0
SOLID
  5
3D39E
330
3D372
100
AcDbEntity
  8
1
  6
Continuous
 62
    35
370
     5
100
AcDbTrace
 10
13.111005
 20
198.117981
 30
0.0
 11
13.849611
 21
198.248217
 31
0.0
 12
13.815774
 22
198.374496
 32
0.0
 13
13.815774
 23
198.374496
 33
0.0
  0
SOLID
  5
3D39F
330
3D372
100
AcDbEntity
  8
1
  6
Continuous
 62
    35
370
     5
100
AcDbTrace
 10
13.111005
 20
198.117981
 30
0.0
 11
13.815774
 21
198.374496
 31
0.0
 12
13.760524
 22
198.492981
 32
0.0
 13
13.760524
 23
198.492981
 33
0.0
  0
SOLID
  5
3D3A0
330
3D372
100
AcDbEntity
  8
1
  6
Continuous
 62
    35
370
     5
100
AcDbTrace
 10
13.111005
 20
198.117981
 30
0.0
 11
13.760524
 21
198.492981
 31
0.0
 12
13.685538
 22
198.600072
 32
0.0
 13
13.685538
 23
198.600072
 33
0.0
  0
SOLID
  5
3D3A1
330
3D372
100
AcDbEntity
  8
1
  6
Continuous
 62
    35
370
     5
100
AcDbTrace
 10
13.111005
 20
198.117981
 30
0.0
 11
13.685538
 21
198.600072
 31
0.0
 12
13.593096
 22
198.692514
 32
0.0
 13
13.593096
 23
198.692514
 33
0.0
  0
SOLID
  5
3D3A2
330
3D372
100
AcDbEntity
  8
1
  6
Continuous
 62
    35
370
     5
100
AcDbTrace
 10
13.111005
 20
198.117981
 30
0.0
 11
13.593096
 21
198.692514
 31
0.0
 12
13.486005
 22
198.7675
 32
0.0
 13
13.486005
 23
198.7675
 33
0.0
  0
SOLID
  5
3D3A3
330
3D372
100
AcDbEntity
  8
1
  6
Continuous
 62
    35
370
     5
100
AcDbTrace
 10
13.111005
 20
198.117981
 30
0.0
 11
13.486005
 21
198.7675
 31
0.0
 12
13.36752
 22
198.82275
 32
0.0
 13
13.36752
 23
198.82275
 33
0.0
  0
SOLID
  5
3D3A4
330
3D372
100
AcDbEntity
  8
1
  6
Continuous
 62
    35
370
     5
100
AcDbTrace
 10
13.111005
 20
198.117981
 30
0.0
 11
13.36752
 21
198.82275
 31
0.0
 12
13.241241
 22
198.856587
 32
0.0
 13
13.241241
 23
198.856587
 33
0.0
  0
SOLID
  5
3D3A5
330
3D372
100
AcDbEntity
  8
1
  6
Continuous
 62
    35
370
     5
100
AcDbTrace
 10
13.111005
 20
198.117981
 30
0.0
 11
13.241241
 21
198.856587
 31
0.0
 12
13.111005
 22
198.867981
 32
0.0
 13
13.111005
 23
198.867981
 33
0.0
  0
SOLID
  5
3D3A6
330
3D372
100
AcDbEntity
  8
1
  6
Continuous
 62
    35
370
     5
100
AcDbTrace
 10
13.111005
 20
198.117981
 30
0.0
 11
13.111005
 21
198.867981
 31
0.0
 12
12.980769
 22
198.856587
 32
0.0
 13
12.980769
 23
198.856587
 33
0.0
  0
SOLID
  5
3D3A7
330
3D372
100
AcDbEntity
  8
1
  6
Continuous
 62
    35
370
     5
100
AcDbTrace
 10
13.111005
 20
198.117981
 30
0.0
 11
12.980769
 21
198.856587
 31
0.0
 12
12.85449
 22
198.82275
 32
0.0
 13
12.85449
 23
198.82275
 33
0.0
  0
SOLID
  5
3D3A8
330
3D372
100
AcDbEntity
  8
1
  6
Continuous
 62
    35
370
     5
100
AcDbTrace
 10
13.111005
 20
198.117981
 30
0.0
 11
12.85449
 21
198.82275
 31
0.0
 12
12.736005
 22
198.7675
 32
0.0
 13
12.736005
 23
198.7675
 33
0.0
  0
SOLID
  5
3D3A9
330
3D372
100
AcDbEntity
  8
1
  6
Continuous
 62
    35
370
     5
100
AcDbTrace
 10
13.111005
 20
198.117981
 30
0.0
 11
12.736005
 21
198.7675
 31
0.0
 12
12.628914
 22
198.692514
 32
0.0
 13
12.628914
 23
198.692514
 33
0.0
  0
SOLID
  5
3D3AA
330
3D372
100
AcDbEntity
  8
1
  6
Continuous
 62
    35
370
     5
100
AcDbTrace
 10
13.111005
 20
198.117981
 30
0.0
 11
12.628914
 21
198.692514
 31
0.0
 12
12.536472
 22
198.600072
 32
0.0
 13
12.536472
 23
198.600072
 33
0.0
  0
SOLID
  5
3D3AB
330
3D372
100
AcDbEntity
  8
1
  6
Continuous
 62
    35
370
     5
100
AcDbTrace
 10
13.111005
 20
198.117981
 30
0.0
 11
12.536472
 21
198.600072
 31
0.0
 12
12.461486
 22
198.492981
 32
0.0
 13
12.461486
 23
198.492981
 33
0.0
  0
SOLID
  5
3D3AC
330
3D372
100
AcDbEntity
  8
1
  6
Continuous
 62
    35
370
     5
100
AcDbTrace
 10
13.111005
 20
198.117981
 30
0.0
 11
12.461486
 21
198.492981
 31
0.0
 12
12.406235
 22
198.374496
 32
0.0
 13
12.406235
 23
198.374496
 33
0.0
  0
SOLID
  5
3D3AD
330
3D372
100
AcDbEntity
  8
1
  6
Continuous
 62
    35
370
     5
100
AcDbTrace
 10
13.111005
 20
198.117981
 30
0.0
 11
12.406235
 21
198.374496
 31
0.0
 12
12.372399
 22
198.248217
 32
0.0
 13
12.372399
 23
198.248217
 33
0.0
  0
SOLID
  5
3D3AE
330
3D372
100
AcDbEntity
  8
1
  6
Continuous
 62
    35
370
     5
100
AcDbTrace
 10
13.111005
 20
198.117981
 30
0.0
 11
12.372399
 21
198.248217
 31
0.0
 12
12.361005
 22
198.117981
 32
0.0
 13
12.361005
 23
198.117981
 33
0.0
  0
SOLID
  5
3D3AF
330
3D372
100
AcDbEntity
  8
1
  6
Continuous
 62
    35
370
     5
100
AcDbTrace
 10
13.111005
 20
198.117981
 30
0.0
 11
12.361005
 21
198.117981
 31
0.0
 12
12.372399
 22
197.987745
 32
0.0
 13
12.372399
 23
197.987745
 33
0.0
  0
SOLID
  5
3D3B0
330
3D372
100
AcDbEntity
  8
1
  6
Continuous
 62
    35
370
     5
100
AcDbTrace
 10
13.111005
 20
198.117981
 30
0.0
 11
12.372399
 21
197.987745
 31
0.0
 12
12.406235
 22
197.861466
 32
0.0
 13
12.406235
 23
197.861466
 33
0.0
  0
SOLID
  5
3D3B1
330
3D372
100
AcDbEntity
  8
1
  6
Continuous
 62
    35
370
     5
100
AcDbTrace
 10
13.111005
 20
198.117981
 30
0.0
 11
12.406235
 21
197.861466
 31
0.0
 12
12.461486
 22
197.742981
 32
0.0
 13
12.461486
 23
197.742981
 33
0.0
  0
SOLID
  5
3D3B2
330
3D372
100
AcDbEntity
  8
1
  6
Continuous
 62
    35
370
     5
100
AcDbTrace
 10
13.111005
 20
198.117981
 30
0.0
 11
12.461486
 21
197.742981
 31
0.0
 12
12.536472
 22
197.63589
 32
0.0
 13
12.536472
 23
197.63589
 33
0.0
  0
SOLID
  5
3D3B3
330
3D372
100
AcDbEntity
  8
1
  6
Continuous
 62
    35
370
     5
100
AcDbTrace
 10
13.111005
 20
198.117981
 30
0.0
 11
12.536472
 21
197.63589
 31
0.0
 12
12.628914
 22
197.543448
 32
0.0
 13
12.628914
 23
197.543448
 33
0.0
  0
SOLID
  5
3D3B4
330
3D372
100
AcDbEntity
  8
1
  6
Continuous
 62
    35
370
     5
100
AcDbTrace
 10
13.111005
 20
198.117981
 30
0.0
 11
12.628914
 21
197.543448
 31
0.0
 12
12.736005
 22
197.468462
 32
0.0
 13
12.736005
 23
197.468462
 33
0.0
  0
SOLID
  5
3D3B5
330
3D372
100
AcDbEntity
  8
1
  6
Continuous
 62
    35
370
     5
100
AcDbTrace
 10
13.111005
 20
198.117981
 30
0.0
 11
12.736005
 21
197.468462
 31
0.0
 12
12.85449
 22
197.413211
 32
0.0
 13
12.85449
 23
197.413211
 33
0.0
  0
SOLID
  5
3D3B6
330
3D372
100
AcDbEntity
  8
1
  6
Continuous
 62
    35
370
     5
100
AcDbTrace
 10
13.111005
 20
198.117981
 30
0.0
 11
12.85449
 21
197.413211
 31
0.0
 12
12.980769
 22
197.379375
 32
0.0
 13
12.980769
 23
197.379375
 33
0.0
  0
SOLID
  5
3D3B7
330
3D372
100
AcDbEntity
  8
1
  6
Continuous
 62
    35
370
     5
100
AcDbTrace
 10
13.111005
 20
198.117981
 30
0.0
 11
12.980769
 21
197.379375
 31
0.0
 12
13.111005
 22
197.367981
 32
0.0
 13
13.111005
 23
197.367981
 33
0.0
  0
SOLID
  5
3D3B8
330
3D372
100
AcDbEntity
  8
1
  6
Continuous
 62
    35
370
     5
100
AcDbTrace
 10
13.111005
 20
198.117981
 30
0.0
 11
13.111005
 21
197.367981
 31
0.0
 12
13.241241
 22
197.379375
 32
0.0
 13
13.241241
 23
197.379375
 33
0.0
  0
SOLID
  5
3D3B9
330
3D372
100
AcDbEntity
  8
1
  6
Continuous
 62
    35
370
     5
100
AcDbTrace
 10
13.111005
 20
198.117981
 30
0.0
 11
13.241241
 21
197.379375
 31
0.0
 12
13.36752
 22
197.413211
 32
0.0
 13
13.36752
 23
197.413211
 33
0.0
  0
SOLID
  5
3D3BA
330
3D372
100
AcDbEntity
  8
1
  6
Continuous
 62
    35
370
     5
100
AcDbTrace
 10
13.111005
 20
198.117981
 30
0.0
 11
13.36752
 21
197.413211
 31
0.0
 12
13.486005
 22
197.468462
 32
0.0
 13
13.486005
 23
197.468462
 33
0.0
  0
SOLID
  5
3D3BB
330
3D372
100
AcDbEntity
  8
1
  6
Continuous
 62
    35
370
     5
100
AcDbTrace
 10
13.111005
 20
198.117981
 30
0.0
 11
13.486005
 21
197.468462
 31
0.0
 12
13.593096
 22
197.543448
 32
0.0
 13
13.593096
 23
197.543448
 33
0.0
  0
SOLID
  5
3D3BC
330
3D372
100
AcDbEntity
  8
1
  6
Continuous
 62
    35
370
     5
100
AcDbTrace
 10
13.111005
 20
198.117981
 30
0.0
 11
13.593096
 21
197.543448
 31
0.0
 12
13.685538
 22
197.63589
 32
0.0
 13
13.685538
 23
197.63589
 33
0.0
  0
SOLID
  5
3D3BD
330
3D372
100
AcDbEntity
  8
1
  6
Continuous
 62
    35
370
     5
100
AcDbTrace
 10
13.111005
 20
198.117981
 30
0.0
 11
13.685538
 21
197.63589
 31
0.0
 12
13.760524
 22
197.742981
 32
0.0
 13
13.760524
 23
197.742981
 33
0.0
  0
SOLID
  5
3D3BE
330
3D372
100
AcDbEntity
  8
1
  6
Continuous
 62
    35
370
     5
100
AcDbTrace
 10
13.111005
 20
198.117981
 30
0.0
 11
13.760524
 21
197.742981
 31
0.0
 12
13.815774
 22
197.861466
 32
0.0
 13
13.815774
 23
197.861466
 33
0.0
  0
SOLID
  5
3D3BF
330
3D372
100
AcDbEntity
  8
1
  6
Continuous
 62
    35
370
     5
100
AcDbTrace
 10
13.111005
 20
198.117981
 30
0.0
 11
13.815774
 21
197.861466
 31
0.0
 12
13.849611
 22
197.987745
 32
0.0
 13
13.849611
 23
197.987745
 33
0.0
  0
SOLID
  5
3D3C0
330
3D372
100
AcDbEntity
  8
1
  6
Continuous
 62
    35
370
     5
100
AcDbTrace
 10
13.111005
 20
198.117981
 30
0.0
 11
13.849611
 21
197.987745
 31
0.0
 12
13.861005
 22
198.117981
 32
0.0
 13
13.861005
 23
198.117981
 33
0.0
  0
ENDBLK
  5
3D3C1
330
3D372
100
AcDbEntity
  8
0
100
AcDbBlockEnd
  0
BLOCK
  5
3D3C3
330
3D3C2
100
AcDbEntity
  8
0
100
AcDbBlockBegin
  2
DimnDraft3D5
 70
     0
 10
0.0
 20
0.0
 30
0.0
  3
DimnDraft3D5
  1

  0
MTEXT
  5
3D3C4
330
3D3C2
100
AcDbEntity
  8
1
  6
Continuous
 62
    35
100
AcDbMText
 10
263.000619
 20
140.839467
 30
0.0
 40
3.5
 41
0.0
 71
     7
 72
     5
  1
\W01.000;\W00.709;150 
  7
blockfont
 73
     2
 44
0.9036139999999999
1001
ACAD
1000
MTEXTBEGIN
1070
    73
1070
     2
1070
    44
1040
0.9036139999999999
1070
    74
1070
     0
1000
MTEXTEND
1000
ACAD_MTEXT_DEFINED_HEIGHT_BEGIN
1070
    46
1040
0.2
1000
ACAD_MTEXT_DEFINED_HEIGHT_END
  0
LINE
  5
3D3C5
330
3D3C2
100
AcDbEntity
  8
1
  6
Continuous
 62
    35
370
     5
100
AcDbLine
 10
228.232807
 20
177.110907
 30
0.0
 11
228.232807
 21
138.219675
 31
0.0
  0
LINE
  5
3D3C6
330
3D3C2
100
AcDbEntity
  8
1
  6
Continuous
 62
    35
370
     5
100
AcDbLine
 10
303.232807
 20
167.110907
 30
0.0
 11
303.232807
 21
138.219675
 31
0.0
  0
LINE
  5
3D3C7
330
3D3C2
100
AcDbEntity
  8
1
  6
Continuous
 62
    35
370
     5
100
AcDbLine
 10
228.232807
 20
140.219675
 30
0.0
 11
303.232807
 21
140.219675
 31
0.0
  0
SOLID
  5
3D3C8
330
3D3C2
100
AcDbEntity
  8
1
  6
Continuous
 62
    35
370
     5
100
AcDbTrace
 10
228.232807
 20
140.219675
 30
0.0
 11
228.982807
 21
140.219675
 31
0.0
 12
228.971413
 22
140.349911
 32
0.0
 13
228.971413
 23
140.349911
 33
0.0
  0
SOLID
  5
3D3C9
330
3D3C2
100
AcDbEntity
  8
1
  6
Continuous
 62
    35
370
     5
100
AcDbTrace
 10
228.232807
 20
140.219675
 30
0.0
 11
228.971413
 21
140.349911
 31
0.0
 12
228.937576
 22
140.47619
 32
0.0
 13
228.937576
 23
140.47619
 33
0.0
  0
SOLID
  5
3D3CA
330
3D3C2
100
AcDbEntity
  8
1
  6
Continuous
 62
    35
370
     5
100
AcDbTrace
 10
228.232807
 20
140.219675
 30
0.0
 11
228.937576
 21
140.47619
 31
0.0
 12
228.882326
 22
140.594675
 32
0.0
 13
228.882326
 23
140.594675
 33
0.0
  0
SOLID
  5
3D3CB
330
3D3C2
100
AcDbEntity
  8
1
  6
Continuous
 62
    35
370
     5
100
AcDbTrace
 10
228.232807
 20
140.219675
 30
0.0
 11
228.882326
 21
140.594675
 31
0.0
 12
228.80734
 22
140.701766
 32
0.0
 13
228.80734
 23
140.701766
 33
0.0
  0
SOLID
  5
3D3CC
330
3D3C2
100
AcDbEntity
  8
1
  6
Continuous
 62
    35
370
     5
100
AcDbTrace
 10
228.232807
 20
140.219675
 30
0.0
 11
228.80734
 21
140.701766
 31
0.0
 12
228.714898
 22
140.794208
 32
0.0
 13
228.714898
 23
140.794208
 33
0.0
  0
SOLID
  5
3D3CD
330
3D3C2
100
AcDbEntity
  8
1
  6
Continuous
 62
    35
370
     5
100
AcDbTrace
 10
228.232807
 20
140.219675
 30
0.0
 11
228.714898
 21
140.794208
 31
0.0
 12
228.607807
 22
140.869194
 32
0.0
 13
228.607807
 23
140.869194
 33
0.0
  0
SOLID
  5
3D3CE
330
3D3C2
100
AcDbEntity
  8
1
  6
Continuous
 62
    35
370
     5
100
AcDbTrace
 10
228.232807
 20
140.219675
 30
0.0
 11
228.607807
 21
140.869194
 31
0.0
 12
228.489322
 22
140.924444
 32
0.0
 13
228.489322
 23
140.924444
 33
0.0
  0
SOLID
  5
3D3CF
330
3D3C2
100
AcDbEntity
  8
1
  6
Continuous
 62
    35
370
     5
100
AcDbTrace
 10
228.232807
 20
140.219675
 30
0.0
 11
228.489322
 21
140.924444
 31
0.0
 12
228.363043
 22
140.958281
 32
0.0
 13
228.363043
 23
140.958281
 33
0.0
  0
SOLID
  5
3D3D0
330
3D3C2
100
AcDbEntity
  8
1
  6
Continuous
 62
    35
370
     5
100
AcDbTrace
 10
228.232807
 20
140.219675
 30
0.0
 11
228.363043
 21
140.958281
 31
0.0
 12
228.232807
 22
140.969675
 32
0.0
 13
228.232807
 23
140.969675
 33
0.0
  0
SOLID
  5
3D3D1
330
3D3C2
100
AcDbEntity
  8
1
  6
Continuous
 62
    35
370
     5
100
AcDbTrace
 10
228.232807
 20
140.219675
 30
0.0
 11
228.232807
 21
140.969675
 31
0.0
 12
228.102571
 22
140.958281
 32
0.0
 13
228.102571
 23
140.958281
 33
0.0
  0
SOLID
  5
3D3D2
330
3D3C2
100
AcDbEntity
  8
1
  6
Continuous
 62
    35
370
     5
100
AcDbTrace
 10
228.232807
 20
140.219675
 30
0.0
 11
228.102571
 21
140.958281
 31
0.0
 12
227.976292
 22
140.924444
 32
0.0
 13
227.976292
 23
140.924444
 33
0.0
  0
SOLID
  5
3D3D3
330
3D3C2
100
AcDbEntity
  8
1
  6
Continuous
 62
    35
370
     5
100
AcDbTrace
 10
228.232807
 20
140.219675
 30
0.0
 11
227.976292
 21
140.924444
 31
0.0
 12
227.857807
 22
140.869194
 32
0.0
 13
227.857807
 23
140.869194
 33
0.0
  0
SOLID
  5
3D3D4
330
3D3C2
100
AcDbEntity
  8
1
  6
Continuous
 62
    35
370
     5
100
AcDbTrace
 10
228.232807
 20
140.219675
 30
0.0
 11
227.857807
 21
140.869194
 31
0.0
 12
227.750716
 22
140.794208
 32
0.0
 13
227.750716
 23
140.794208
 33
0.0
  0
SOLID
  5
3D3D5
330
3D3C2
100
AcDbEntity
  8
1
  6
Continuous
 62
    35
370
     5
100
AcDbTrace
 10
228.232807
 20
140.219675
 30
0.0
 11
227.750716
 21
140.794208
 31
0.0
 12
227.658274
 22
140.701766
 32
0.0
 13
227.658274
 23
140.701766
 33
0.0
  0
SOLID
  5
3D3D6
330
3D3C2
100
AcDbEntity
  8
1
  6
Continuous
 62
    35
370
     5
100
AcDbTrace
 10
228.232807
 20
140.219675
 30
0.0
 11
227.658274
 21
140.701766
 31
0.0
 12
227.583288
 22
140.594675
 32
0.0
 13
227.583288
 23
140.594675
 33
0.0
  0
SOLID
  5
3D3D7
330
3D3C2
100
AcDbEntity
  8
1
  6
Continuous
 62
    35
370
     5
100
AcDbTrace
 10
228.232807
 20
140.219675
 30
0.0
 11
227.583288
 21
140.594675
 31
0.0
 12
227.528037
 22
140.47619
 32
0.0
 13
227.528037
 23
140.47619
 33
0.0
  0
SOLID
  5
3D3D8
330
3D3C2
100
AcDbEntity
  8
1
  6
Continuous
 62
    35
370
     5
100
AcDbTrace
 10
228.232807
 20
140.219675
 30
0.0
 11
227.528037
 21
140.47619
 31
0.0
 12
227.494201
 22
140.349911
 32
0.0
 13
227.494201
 23
140.349911
 33
0.0
  0
SOLID
  5
3D3D9
330
3D3C2
100
AcDbEntity
  8
1
  6
Continuous
 62
    35
370
     5
100
AcDbTrace
 10
228.232807
 20
140.219675
 30
0.0
 11
227.494201
 21
140.349911
 31
0.0
 12
227.482807
 22
140.219675
 32
0.0
 13
227.482807
 23
140.219675
 33
0.0
  0
SOLID
  5
3D3DA
330
3D3C2
100
AcDbEntity
  8
1
  6
Continuous
 62
    35
370
     5
100
AcDbTrace
 10
228.232807
 20
140.219675
 30
0.0
 11
227.482807
 21
140.219675
 31
0.0
 12
227.494201
 22
140.089439
 32
0.0
 13
227.494201
 23
140.089439
 33
0.0
  0
SOLID
  5
3D3DB
330
3D3C2
100
AcDbEntity
  8
1
  6
Continuous
 62
    35
370
     5
100
AcDbTrace
 10
228.232807
 20
140.219675
 30
0.0
 11
227.494201
 21
140.089439
 31
0.0
 12
227.528037
 22
139.96316
 32
0.0
 13
227.528037
 23
139.96316
 33
0.0
  0
SOLID
  5
3D3DC
330
3D3C2
100
AcDbEntity
  8
1
  6
Continuous
 62
    35
370
     5
100
AcDbTrace
 10
228.232807
 20
140.219675
 30
0.0
 11
227.528037
 21
139.96316
 31
0.0
 12
227.583288
 22
139.844675
 32
0.0
 13
227.583288
 23
139.844675
 33
0.0
  0
SOLID
  5
3D3DD
330
3D3C2
100
AcDbEntity
  8
1
  6
Continuous
 62
    35
370
     5
100
AcDbTrace
 10
228.232807
 20
140.219675
 30
0.0
 11
227.583288
 21
139.844675
 31
0.0
 12
227.658274
 22
139.737584
 32
0.0
 13
227.658274
 23
139.737584
 33
0.0
  0
SOLID
  5
3D3DE
330
3D3C2
100
AcDbEntity
  8
1
  6
Continuous
 62
    35
370
     5
100
AcDbTrace
 10
228.232807
 20
140.219675
 30
0.0
 11
227.658274
 21
139.737584
 31
0.0
 12
227.750716
 22
139.645142
 32
0.0
 13
227.750716
 23
139.645142
 33
0.0
  0
SOLID
  5
3D3DF
330
3D3C2
100
AcDbEntity
  8
1
  6
Continuous
 62
    35
370
     5
100
AcDbTrace
 10
228.232807
 20
140.219675
 30
0.0
 11
227.750716
 21
139.645142
 31
0.0
 12
227.857807
 22
139.570156
 32
0.0
 13
227.857807
 23
139.570156
 33
0.0
  0
SOLID
  5
3D3E0
330
3D3C2
100
AcDbEntity
  8
1
  6
Continuous
 62
    35
370
     5
100
AcDbTrace
 10
228.232807
 20
140.219675
 30
0.0
 11
227.857807
 21
139.570156
 31
0.0
 12
227.976292
 22
139.514905
 32
0.0
 13
227.976292
 23
139.514905
 33
0.0
  0
SOLID
  5
3D3E1
330
3D3C2
100
AcDbEntity
  8
1
  6
Continuous
 62
    35
370
     5
100
AcDbTrace
 10
228.232807
 20
140.219675
 30
0.0
 11
227.976292
 21
139.514905
 31
0.0
 12
228.102571
 22
139.481069
 32
0.0
 13
228.102571
 23
139.481069
 33
0.0
  0
SOLID
  5
3D3E2
330
3D3C2
100
AcDbEntity
  8
1
  6
Continuous
 62
    35
370
     5
100
AcDbTrace
 10
228.232807
 20
140.219675
 30
0.0
 11
228.102571
 21
139.481069
 31
0.0
 12
228.232807
 22
139.469675
 32
0.0
 13
228.232807
 23
139.469675
 33
0.0
  0
SOLID
  5
3D3E3
330
3D3C2
100
AcDbEntity
  8
1
  6
Continuous
 62
    35
370
     5
100
AcDbTrace
 10
228.232807
 20
140.219675
 30
0.0
 11
228.232807
 21
139.469675
 31
0.0
 12
228.363043
 22
139.481069
 32
0.0
 13
228.363043
 23
139.481069
 33
0.0
  0
SOLID
  5
3D3E4
330
3D3C2
100
AcDbEntity
  8
1
  6
Continuous
 62
    35
370
     5
100
AcDbTrace
 10
228.232807
 20
140.219675
 30
0.0
 11
228.363043
 21
139.481069
 31
0.0
 12
228.489322
 22
139.514905
 32
0.0
 13
228.489322
 23
139.514905
 33
0.0
  0
SOLID
  5
3D3E5
330
3D3C2
100
AcDbEntity
  8
1
  6
Continuous
 62
    35
370
     5
100
AcDbTrace
 10
228.232807
 20
140.219675
 30
0.0
 11
228.489322
 21
139.514905
 31
0.0
 12
228.607807
 22
139.570156
 32
0.0
 13
228.607807
 23
139.570156
 33
0.0
  0
SOLID
  5
3D3E6
330
3D3C2
100
AcDbEntity
  8
1
  6
Continuous
 62
    35
370
     5
100
AcDbTrace
 10
228.232807
 20
140.219675
 30
0.0
 11
228.607807
 21
139.570156
 31
0.0
 12
228.714898
 22
139.645142
 32
0.0
 13
228.714898
 23
139.645142
 33
0.0
  0
SOLID
  5
3D3E7
330
3D3C2
100
AcDbEntity
  8
1
  6
Continuous
 62
    35
370
     5
100
AcDbTrace
 10
228.232807
 20
140.219675
 30
0.0
 11
228.714898
 21
139.645142
 31
0.0
 12
228.80734
 22
139.737584
 32
0.0
 13
228.80734
 23
139.737584
 33
0.0
  0
SOLID
  5
3D3E8
330
3D3C2
100
AcDbEntity
  8
1
  6
Continuous
 62
    35
370
     5
100
AcDbTrace
 10
228.232807
 20
140.219675
 30
0.0
 11
228.80734
 21
139.737584
 31
0.0
 12
228.882326
 22
139.844675
 32
0.0
 13
228.882326
 23
139.844675
 33
0.0
  0
SOLID
  5
3D3E9
330
3D3C2
100
AcDbEntity
  8
1
  6
Continuous
 62
    35
370
     5
100
AcDbTrace
 10
228.232807
 20
140.219675
 30
0.0
 11
228.882326
 21
139.844675
 31
0.0
 12
228.937576
 22
139.96316
 32
0.0
 13
228.937576
 23
139.96316
 33
0.0
  0
SOLID
  5
3D3EA
330
3D3C2
100
AcDbEntity
  8
1
  6
Continuous
 62
    35
370
     5
100
AcDbTrace
 10
228.232807
 20
140.219675
 30
0.0
 11
228.937576
 21
139.96316
 31
0.0
 12
228.971413
 22
140.089439
 32
0.0
 13
228.971413
 23
140.089439
 33
0.0
  0
SOLID
  5
3D3EB
330
3D3C2
100
AcDbEntity
  8
1
  6
Continuous
 62
    35
370
     5
100
AcDbTrace
 10
228.232807
 20
140.219675
 30
0.0
 11
228.971413
 21
140.089439
 31
0.0
 12
228.982807
 22
140.219675
 32
0.0
 13
228.982807
 23
140.219675
 33
0.0
  0
SOLID
  5
3D3EC
330
3D3C2
100
AcDbEntity
  8
1
  6
Continuous
 62
    35
370
     5
100
AcDbTrace
 10
303.232807
 20
140.219675
 30
0.0
 11
303.982807
 21
140.219675
 31
0.0
 12
303.971413
 22
140.349911
 32
0.0
 13
303.971413
 23
140.349911
 33
0.0
  0
SOLID
  5
3D3ED
330
3D3C2
100
AcDbEntity
  8
1
  6
Continuous
 62
    35
370
     5
100
AcDbTrace
 10
303.232807
 20
140.219675
 30
0.0
 11
303.971413
 21
140.349911
 31
0.0
 12
303.937576
 22
140.47619
 32
0.0
 13
303.937576
 23
140.47619
 33
0.0
  0
SOLID
  5
3D3EE
330
3D3C2
100
AcDbEntity
  8
1
  6
Continuous
 62
    35
370
     5
100
AcDbTrace
 10
303.232807
 20
140.219675
 30
0.0
 11
303.937576
 21
140.47619
 31
0.0
 12
303.882326
 22
140.594675
 32
0.0
 13
303.882326
 23
140.594675
 33
0.0
  0
SOLID
  5
3D3EF
330
3D3C2
100
AcDbEntity
  8
1
  6
Continuous
 62
    35
370
     5
100
AcDbTrace
 10
303.232807
 20
140.219675
 30
0.0
 11
303.882326
 21
140.594675
 31
0.0
 12
303.80734
 22
140.701766
 32
0.0
 13
303.80734
 23
140.701766
 33
0.0
  0
SOLID
  5
3D3F0
330
3D3C2
100
AcDbEntity
  8
1
  6
Continuous
 62
    35
370
     5
100
AcDbTrace
 10
303.232807
 20
140.219675
 30
0.0
 11
303.80734
 21
140.701766
 31
0.0
 12
303.714898
 22
140.794208
 32
0.0
 13
303.714898
 23
140.794208
 33
0.0
  0
SOLID
  5
3D3F1
330
3D3C2
100
AcDbEntity
  8
1
  6
Continuous
 62
    35
370
     5
100
AcDbTrace
 10
303.232807
 20
140.219675
 30
0.0
 11
303.714898
 21
140.794208
 31
0.0
 12
303.607807
 22
140.869194
 32
0.0
 13
303.607807
 23
140.869194
 33
0.0
  0
SOLID
  5
3D3F2
330
3D3C2
100
AcDbEntity
  8
1
  6
Continuous
 62
    35
370
     5
100
AcDbTrace
 10
303.232807
 20
140.219675
 30
0.0
 11
303.607807
 21
140.869194
 31
0.0
 12
303.489322
 22
140.924444
 32
0.0
 13
303.489322
 23
140.924444
 33
0.0
  0
SOLID
  5
3D3F3
330
3D3C2
100
AcDbEntity
  8
1
  6
Continuous
 62
    35
370
     5
100
AcDbTrace
 10
303.232807
 20
140.219675
 30
0.0
 11
303.489322
 21
140.924444
 31
0.0
 12
303.363043
 22
140.958281
 32
0.0
 13
303.363043
 23
140.958281
 33
0.0
  0
SOLID
  5
3D3F4
330
3D3C2
100
AcDbEntity
  8
1
  6
Continuous
 62
    35
370
     5
100
AcDbTrace
 10
303.232807
 20
140.219675
 30
0.0
 11
303.363043
 21
140.958281
 31
0.0
 12
303.232807
 22
140.969675
 32
0.0
 13
303.232807
 23
140.969675
 33
0.0
  0
SOLID
  5
3D3F5
330
3D3C2
100
AcDbEntity
  8
1
  6
Continuous
 62
    35
370
     5
100
AcDbTrace
 10
303.232807
 20
140.219675
 30
0.0
 11
303.232807
 21
140.969675
 31
0.0
 12
303.102571
 22
140.958281
 32
0.0
 13
303.102571
 23
140.958281
 33
0.0
  0
SOLID
  5
3D3F6
330
3D3C2
100
AcDbEntity
  8
1
  6
Continuous
 62
    35
370
     5
100
AcDbTrace
 10
303.232807
 20
140.219675
 30
0.0
 11
303.102571
 21
140.958281
 31
0.0
 12
302.976292
 22
140.924444
 32
0.0
 13
302.976292
 23
140.924444
 33
0.0
  0
SOLID
  5
3D3F7
330
3D3C2
100
AcDbEntity
  8
1
  6
Continuous
 62
    35
370
     5
100
AcDbTrace
 10
303.232807
 20
140.219675
 30
0.0
 11
302.976292
 21
140.924444
 31
0.0
 12
302.857807
 22
140.869194
 32
0.0
 13
302.857807
 23
140.869194
 33
0.0
  0
SOLID
  5
3D3F8
330
3D3C2
100
AcDbEntity
  8
1
  6
Continuous
 62
    35
370
     5
100
AcDbTrace
 10
303.232807
 20
140.219675
 30
0.0
 11
302.857807
 21
140.869194
 31
0.0
 12
302.750716
 22
140.794208
 32
0.0
 13
302.750716
 23
140.794208
 33
0.0
  0
SOLID
  5
3D3F9
330
3D3C2
100
AcDbEntity
  8
1
  6
Continuous
 62
    35
370
     5
100
AcDbTrace
 10
303.232807
 20
140.219675
 30
0.0
 11
302.750716
 21
140.794208
 31
0.0
 12
302.658274
 22
140.701766
 32
0.0
 13
302.658274
 23
140.701766
 33
0.0
  0
SOLID
  5
3D3FA
330
3D3C2
100
AcDbEntity
  8
1
  6
Continuous
 62
    35
370
     5
100
AcDbTrace
 10
303.232807
 20
140.219675
 30
0.0
 11
302.658274
 21
140.701766
 31
0.0
 12
302.583288
 22
140.594675
 32
0.0
 13
302.583288
 23
140.594675
 33
0.0
  0
SOLID
  5
3D3FB
330
3D3C2
100
AcDbEntity
  8
1
  6
Continuous
 62
    35
370
     5
100
AcDbTrace
 10
303.232807
 20
140.219675
 30
0.0
 11
302.583288
 21
140.594675
 31
0.0
 12
302.528037
 22
140.47619
 32
0.0
 13
302.528037
 23
140.47619
 33
0.0
  0
SOLID
  5
3D3FC
330
3D3C2
100
AcDbEntity
  8
1
  6
Continuous
 62
    35
370
     5
100
AcDbTrace
 10
303.232807
 20
140.219675
 30
0.0
 11
302.528037
 21
140.47619
 31
0.0
 12
302.494201
 22
140.349911
 32
0.0
 13
302.494201
 23
140.349911
 33
0.0
  0
SOLID
  5
3D3FD
330
3D3C2
100
AcDbEntity
  8
1
  6
Continuous
 62
    35
370
     5
100
AcDbTrace
 10
303.232807
 20
140.219675
 30
0.0
 11
302.494201
 21
140.349911
 31
0.0
 12
302.482807
 22
140.219675
 32
0.0
 13
302.482807
 23
140.219675
 33
0.0
  0
SOLID
  5
3D3FE
330
3D3C2
100
AcDbEntity
  8
1
  6
Continuous
 62
    35
370
     5
100
AcDbTrace
 10
303.232807
 20
140.219675
 30
0.0
 11
302.482807
 21
140.219675
 31
0.0
 12
302.494201
 22
140.089439
 32
0.0
 13
302.494201
 23
140.089439
 33
0.0
  0
SOLID
  5
3D3FF
330
3D3C2
100
AcDbEntity
  8
1
  6
Continuous
 62
    35
370
     5
100
AcDbTrace
 10
303.232807
 20
140.219675
 30
0.0
 11
302.494201
 21
140.089439
 31
0.0
 12
302.528037
 22
139.96316
 32
0.0
 13
302.528037
 23
139.96316
 33
0.0
  0
SOLID
  5
3D400
330
3D3C2
100
AcDbEntity
  8
1
  6
Continuous
 62
    35
370
     5
100
AcDbTrace
 10
303.232807
 20
140.219675
 30
0.0
 11
302.528037
 21
139.96316
 31
0.0
 12
302.583288
 22
139.844675
 32
0.0
 13
302.583288
 23
139.844675
 33
0.0
  0
SOLID
  5
3D401
330
3D3C2
100
AcDbEntity
  8
1
  6
Continuous
 62
    35
370
     5
100
AcDbTrace
 10
303.232807
 20
140.219675
 30
0.0
 11
302.583288
 21
139.844675
 31
0.0
 12
302.658274
 22
139.737584
 32
0.0
 13
302.658274
 23
139.737584
 33
0.0
  0
SOLID
  5
3D402
330
3D3C2
100
AcDbEntity
  8
1
  6
Continuous
 62
    35
370
     5
100
AcDbTrace
 10
303.232807
 20
140.219675
 30
0.0
 11
302.658274
 21
139.737584
 31
0.0
 12
302.750716
 22
139.645142
 32
0.0
 13
302.750716
 23
139.645142
 33
0.0
  0
SOLID
  5
3D403
330
3D3C2
100
AcDbEntity
  8
1
  6
Continuous
 62
    35
370
     5
100
AcDbTrace
 10
303.232807
 20
140.219675
 30
0.0
 11
302.750716
 21
139.645142
 31
0.0
 12
302.857807
 22
139.570156
 32
0.0
 13
302.857807
 23
139.570156
 33
0.0
  0
SOLID
  5
3D404
330
3D3C2
100
AcDbEntity
  8
1
  6
Continuous
 62
    35
370
     5
100
AcDbTrace
 10
303.232807
 20
140.219675
 30
0.0
 11
302.857807
 21
139.570156
 31
0.0
 12
302.976292
 22
139.514905
 32
0.0
 13
302.976292
 23
139.514905
 33
0.0
  0
SOLID
  5
3D405
330
3D3C2
100
AcDbEntity
  8
1
  6
Continuous
 62
    35
370
     5
100
AcDbTrace
 10
303.232807
 20
140.219675
 30
0.0
 11
302.976292
 21
139.514905
 31
0.0
 12
303.102571
 22
139.481069
 32
0.0
 13
303.102571
 23
139.481069
 33
0.0
  0
SOLID
  5
3D406
330
3D3C2
100
AcDbEntity
  8
1
  6
Continuous
 62
    35
370
     5
100
AcDbTrace
 10
303.232807
 20
140.219675
 30
0.0
 11
303.102571
 21
139.481069
 31
0.0
 12
303.232807
 22
139.469675
 32
0.0
 13
303.232807
 23
139.469675
 33
0.0
  0
SOLID
  5
3D407
330
3D3C2
100
AcDbEntity
  8
1
  6
Continuous
 62
    35
370
     5
100
AcDbTrace
 10
303.232807
 20
140.219675
 30
0.0
 11
303.232807
 21
139.469675
 31
0.0
 12
303.363043
 22
139.481069
 32
0.0
 13
303.363043
 23
139.481069
 33
0.0
  0
SOLID
  5
3D408
330
3D3C2
100
AcDbEntity
  8
1
  6
Continuous
 62
    35
370
     5
100
AcDbTrace
 10
303.232807
 20
140.219675
 30
0.0
 11
303.363043
 21
139.481069
 31
0.0
 12
303.489322
 22
139.514905
 32
0.0
 13
303.489322
 23
139.514905
 33
0.0
  0
SOLID
  5
3D409
330
3D3C2
100
AcDbEntity
  8
1
  6
Continuous
 62
    35
370
     5
100
AcDbTrace
 10
303.232807
 20
140.219675
 30
0.0
 11
303.489322
 21
139.514905
 31
0.0
 12
303.607807
 22
139.570156
 32
0.0
 13
303.607807
 23
139.570156
 33
0.0
  0
SOLID
  5
3D40A
330
3D3C2
100
AcDbEntity
  8
1
  6
Continuous
 62
    35
370
     5
100
AcDbTrace
 10
303.232807
 20
140.219675
 30
0.0
 11
303.607807
 21
139.570156
 31
0.0
 12
303.714898
 22
139.645142
 32
0.0
 13
303.714898
 23
139.645142
 33
0.0
  0
SOLID
  5
3D40B
330
3D3C2
100
AcDbEntity
  8
1
  6
Continuous
 62
    35
370
     5
100
AcDbTrace
 10
303.232807
 20
140.219675
 30
0.0
 11
303.714898
 21
139.645142
 31
0.0
 12
303.80734
 22
139.737584
 32
0.0
 13
303.80734
 23
139.737584
 33
0.0
  0
SOLID
  5
3D40C
330
3D3C2
100
AcDbEntity
  8
1
  6
Continuous
 62
    35
370
     5
100
AcDbTrace
 10
303.232807
 20
140.219675
 30
0.0
 11
303.80734
 21
139.737584
 31
0.0
 12
303.882326
 22
139.844675
 32
0.0
 13
303.882326
 23
139.844675
 33
0.0
  0
SOLID
  5
3D40D
330
3D3C2
100
AcDbEntity
  8
1
  6
Continuous
 62
    35
370
     5
100
AcDbTrace
 10
303.232807
 20
140.219675
 30
0.0
 11
303.882326
 21
139.844675
 31
0.0
 12
303.937576
 22
139.96316
 32
0.0
 13
303.937576
 23
139.96316
 33
0.0
  0
SOLID
  5
3D40E
330
3D3C2
100
AcDbEntity
  8
1
  6
Continuous
 62
    35
370
     5
100
AcDbTrace
 10
303.232807
 20
140.219675
 30
0.0
 11
303.937576
 21
139.96316
 31
0.0
 12
303.971413
 22
140.089439
 32
0.0
 13
303.971413
 23
140.089439
 33
0.0
  0
SOLID
  5
3D40F
330
3D3C2
100
AcDbEntity
  8
1
  6
Continuous
 62
    35
370
     5
100
AcDbTrace
 10
303.232807
 20
140.219675
 30
0.0
 11
303.971413
 21
140.089439
 31
0.0
 12
303.982807
 22
140.219675
 32
0.0
 13
303.982807
 23
140.219675
 33
0.0
  0
ENDBLK
  5
3D410
330
3D3C2
100
AcDbEntity
  8
0
100
AcDbBlockEnd
  0
BLOCK
  5
3D7DC
330
3D7D0
100
AcDbEntity
  8
0
100
AcDbBlockBegin
  2
*D8
 70
     1
 10
0.0
 20
0.0
 30
0.0
  3
*D8
  1

  0
LINE
  5
3D83D
330
3D7D0
100
AcDbEntity
  8
1
  6
Continuous
 62
    35
370
    -2
100
AcDbLine
 10
-78561.94601361288
 20
-74514.53517589463
 30
0.0
 11
-78604.45413561289
 21
-74514.53517589463
 31
0.0
  0
LINE
  5
3D83E
330
3D7D0
100
AcDbEntity
  8
1
  6
Continuous
 62
    35
370
    -2
100
AcDbLine
 10
-78590.94401361289
 20
-74524.53517589463
 30
0.0
 11
-78604.45413561289
 21
-74524.53517589463
 31
0.0
  0
LINE
  5
3D83F
330
3D7D0
100
AcDbEntity
  8
1
  6
Continuous
 62
    35
370
    -2
100
AcDbLine
 10
-78600.45413561289
 20
-74507.53517589463
 30
0.0
 11
-78600.45413561289
 21
-74500.53517589464
 31
0.0
  0
LINE
  5
3D840
330
3D7D0
100
AcDbEntity
  8
1
  6
Continuous
 62
    35
370
    -2
100
AcDbLine
 10
-78600.45413561289
 20
-74531.53517589464
 30
0.0
 11
-78600.45413561289
 21
-74538.53517589464
 31
0.0
  0
LINE
  5
3D841
330
3D7D0
100
AcDbEntity
  8
1
  6
Continuous
 62
    35
370
    -2
100
AcDbLine
 10
-78600.45413561289
 20
-74514.53517589463
 30
0.0
 11
-78600.45413561289
 21
-74524.53517589463
 31
0.0
  0
INSERT
  5
3D842
330
3D7D0
100
AcDbEntity
  8
1
  6
Continuous
 62
    35
370
    -2
100
AcDbBlockReference
  2
_DOT
 10
-78600.45413561289
 20
-74514.53517589463
 30
0.0
 41
7.0
 42
7.0
 43
7.0
 50
270.0
  0
INSERT
  5
3D843
330
3D7D0
100
AcDbEntity
  8
1
  6
Continuous
 62
    35
370
    -2
100
AcDbBlockReference
  2
_DOT
 10
-78600.45413561289
 20
-74524.53517589463
 30
0.0
 41
7.0
 42
7.0
 43
7.0
 50
90.0
  0
MTEXT
  5
3D844
330
3D7D0
100
AcDbEntity
  8
1
  6
Continuous
 62
    35
370
    -3
100
AcDbMText
 10
-78607.45413561287
 20
-74519.53517589465
 30
0.0
 40
7.0
 41
0.0
 71
     5
 72
     1
  1
\A1;\C35;10
  7
blockfont
 11
0.0000000000000001
 21
1.0
 31
0.0
 73
     1
 44
1.0
1001
ACAD
1000
MTEXTBEGIN
1070
    73
1070
     1
1070
    44
1040
1.0
1070
    74
1070
     0
1000
MTEXTEND
  0
POINT
  5
3D845
330
3D7D0
100
AcDbEntity
  8
DEFPOINTS
  6
Continuous
 62
     0
100
AcDbPoint
 10
-78561.94601361288
 20
-74514.53517589463
 30
0.0
  0
POINT
  5
3D846
330
3D7D0
100
AcDbEntity
  8
DEFPOINTS
  6
Continuous
 62
     0
100
AcDbPoint
 10
-78590.94401361289
 20
-74524.53517589463
 30
0.0
  0
POINT
  5
3D847
330
3D7D0
100
AcDbEntity
  8
DEFPOINTS
  6
Continuous
 62
     0
100
AcDbPoint
 10
-78600.45413561289
 20
-74524.53517589463
 30
0.0
  0
ENDBLK
  5
3D7DD
330
3D7D0
100
AcDbEntity
  8
0
100
AcDbBlockEnd
  0
BLOCK
  5
3D7E8
330
3D7DE
100
AcDbEntity
  8
0
100
AcDbBlockBegin
  2
*D9
 70
     1
 10
0.0
 20
0.0
 30
0.0
  3
*D9
  1

  0
LINE
  5
3D848
330
3D7DE
100
AcDbEntity
  8
1
  6
Continuous
 62
    35
370
    -2
100
AcDbLine
 10
-78160.70040961288
 20
-74405.74947989463
 30
0.0
 11
-78160.70040961288
 21
-74483.40162589463
 31
0.0
  0
LINE
  5
3D849
330
3D7DE
100
AcDbEntity
  8
1
  6
Continuous
 62
    35
370
    -2
100
AcDbLine
 10
-78195.70040961288
 20
-74444.74947989463
 30
0.0
 11
-78195.70040961288
 21
-74483.40162589463
 31
0.0
  0
LINE
  5
3D84A
330
3D7DE
100
AcDbEntity
  8
1
  6
Continuous
 62
    35
370
    -2
100
AcDbLine
 10
-78167.70040961288
 20
-74479.40162589463
 30
0.0
 11
-78188.70040961288
 21
-74479.40162589463
 31
0.0
  0
INSERT
  5
3D84B
330
3D7DE
100
AcDbEntity
  8
1
  6
Continuous
 62
    35
370
    -2
100
AcDbBlockReference
  2
_DOT
 10
-78160.70040961288
 20
-74479.40162589463
 30
0.0
 41
7.0
 42
7.0
 43
7.0
  0
INSERT
  5
3D84C
330
3D7DE
100
AcDbEntity
  8
1
  6
Continuous
 62
    35
370
    -2
100
AcDbBlockReference
  2
_DOT
 10
-78195.70040961288
 20
-74479.40162589463
 30
0.0
 41
7.0
 42
7.0
 43
7.0
 50
180.0
  0
MTEXT
  5
3D84D
330
3D7DE
100
AcDbEntity
  8
1
  6
Continuous
 62
    35
370
    -3
100
AcDbMText
 10
-78178.20040961288
 20
-74472.40162589463
 30
0.0
 40
7.0
 41
0.0
 71
     5
 72
     1
  1
\A1;\C35;35
  7
blockfont
 73
     1
 44
1.0
1001
ACAD
1000
MTEXTBEGIN
1070
    73
1070
     1
1070
    44
1040
1.0
1070
    74
1070
     0
1000
MTEXTEND
  0
POINT
  5
3D84E
330
3D7DE
100
AcDbEntity
  8
DEFPOINTS
  6
Continuous
 62
     0
100
AcDbPoint
 10
-78160.70040961288
 20
-74405.74947989463
 30
0.0
  0
POINT
  5
3D84F
330
3D7DE
100
AcDbEntity
  8
DEFPOINTS
  6
Continuous
 62
     0
100
AcDbPoint
 10
-78195.70040961288
 20
-74444.74947989463
 30
0.0
  0
POINT
  5
3D850
330
3D7DE
100
AcDbEntity
  8
DEFPOINTS
  6
Continuous
 62
     0
100
AcDbPoint
 10
-78195.70040961288
 20
-74479.40162589463
 30
0.0
  0
ENDBLK
  5
3D7E9
330
3D7DE
100
AcDbEntity
  8
0
100
AcDbBlockEnd
  0
BLOCK
  5
3D7F4
330
3D7EA
100
AcDbEntity
  8
0
100
AcDbBlockBegin
  2
*D10
 70
     1
 10
0.0
 20
0.0
 30
0.0
  3
*D10
  1

  0
LINE
  5
3D851
330
3D7EA
100
AcDbEntity
  8
1
  6
Continuous
 62
    35
370
    -2
100
AcDbLine
 10
-78561.9440136129
 20
-74549.53517589463
 30
0.0
 11
-78561.9440136129
 21
-74499.07035389462
 31
0.0
  0
LINE
  5
3D852
330
3D7EA
100
AcDbEntity
  8
1
  6
Continuous
 62
    35
370
    -2
100
AcDbLine
 10
-78381.9440136129
 20
-74549.53517589463
 30
0.0
 11
-78381.9440136129
 21
-74499.07035389462
 31
0.0
  0
LINE
  5
3D853
330
3D7EA
100
AcDbEntity
  8
1
  6
Continuous
 62
    35
370
    -2
100
AcDbLine
 10
-78554.9440136129
 20
-74503.07035389462
 30
0.0
 11
-78388.94401361289
 21
-74503.07035389462
 31
0.0
  0
INSERT
  5
3D854
330
3D7EA
100
AcDbEntity
  8
1
  6
Continuous
 62
    35
370
    -2
100
AcDbBlockReference
  2
_DOT
 10
-78561.9440136129
 20
-74503.07035389462
 30
0.0
 41
7.0
 42
7.0
 43
7.0
 50
180.0
  0
INSERT
  5
3D855
330
3D7EA
100
AcDbEntity
  8
1
  6
Continuous
 62
    35
370
    -2
100
AcDbBlockReference
  2
_DOT
 10
-78381.9440136129
 20
-74503.07035389462
 30
0.0
 41
7.0
 42
7.0
 43
7.0
  0
MTEXT
  5
3D856
330
3D7EA
100
AcDbEntity
  8
1
  6
Continuous
 62
    35
370
    -3
100
AcDbMText
 10
-78471.94401361289
 20
-74496.07035389463
 30
0.0
 40
7.0
 41
0.0
 71
     5
 72
     1
  1
\A1;\C35;180
  7
blockfont
 73
     1
 44
1.0
1001
ACAD
1000
MTEXTBEGIN
1070
    73
1070
     1
1070
    44
1040
1.0
1070
    74
1070
     0
1000
MTEXTEND
  0
POINT
  5
3D857
330
3D7EA
100
AcDbEntity
  8
DEFPOINTS
  6
Continuous
 62
     0
100
AcDbPoint
 10
-78561.9440136129
 20
-74549.53517589463
 30
0.0
  0
POINT
  5
3D858
330
3D7EA
100
AcDbEntity
  8
DEFPOINTS
  6
Continuous
 62
     0
100
AcDbPoint
 10
-78381.9440136129
 20
-74549.53517589463
 30
0.0
  0
POINT
  5
3D859
330
3D7EA
100
AcDbEntity
  8
DEFPOINTS
  6
Continuous
 62
     0
100
AcDbPoint
 10
-78381.9440136129
 20
-74503.07035389462
 30
0.0
  0
ENDBLK
  5
3D7F5
330
3D7EA
100
AcDbEntity
  8
0
100
AcDbBlockEnd
  0
BLOCK
  5
3D800
330
3D7F6
100
AcDbEntity
  8
0
100
AcDbBlockBegin
  2
*D11
 70
     1
 10
0.0
 20
0.0
 30
0.0
  3
*D11
  1

  0
LINE
  5
3D85A
330
3D7F6
100
AcDbEntity
  8
1
  6
Continuous
 62
    35
370
    -2
100
AcDbLine
 10
-78532.94401361289
 20
-74415.74947989463
 30
0.0
 11
-78532.94401361289
 21
-74359.73533189461
 31
0.0
  0
LINE
  5
3D85B
330
3D7F6
100
AcDbEntity
  8
1
  6
Continuous
 62
    35
370
    -2
100
AcDbLine
 10
-78590.94401361289
 20
-74415.74947989463
 30
0.0
 11
-78590.94401361289
 21
-74359.73533189461
 31
0.0
  0
LINE
  5
3D85C
330
3D7F6
100
AcDbEntity
  8
1
  6
Continuous
 62
    35
370
    -2
100
AcDbLine
 10
-78539.9440136129
 20
-74363.73533189461
 30
0.0
 11
-78583.9440136129
 21
-74363.73533189461
 31
0.0
  0
INSERT
  5
3D85D
330
3D7F6
100
AcDbEntity
  8
1
  6
Continuous
 62
    35
370
    -2
100
AcDbBlockReference
  2
_DOT
 10
-78532.94401361289
 20
-74363.73533189461
 30
0.0
 41
7.0
 42
7.0
 43
7.0
  0
INSERT
  5
3D85E
330
3D7F6
100
AcDbEntity
  8
1
  6
Continuous
 62
    35
370
    -2
100
AcDbBlockReference
  2
_DOT
 10
-78590.94401361289
 20
-74363.73533189461
 30
0.0
 41
7.0
 42
7.0
 43
7.0
 50
180.0
  0
MTEXT
  5
3D85F
330
3D7F6
100
AcDbEntity
  8
1
  6
Continuous
 62
    35
370
    -3
100
AcDbMText
 10
-78561.9440136129
 20
-74356.73533189461
 30
0.0
 40
7.0
 41
0.0
 71
     5
 72
     1
  1
\A1; \C35;%%c\C35;58
  7
blockfont
 73
     1
 44
1.0
1001
ACAD
1000
MTEXTBEGIN
1070
    73
1070
     1
1070
    44
1040
1.0
1070
    74
1070
     0
1000
MTEXTEND
  0
POINT
  5
3D860
330
3D7F6
100
AcDbEntity
  8
DEFPOINTS
  6
Continuous
 62
     0
100
AcDbPoint
 10
-78532.94401361289
 20
-74415.74947989463
 30
0.0
  0
POINT
  5
3D861
330
3D7F6
100
AcDbEntity
  8
DEFPOINTS
  6
Continuous
 62
     0
100
AcDbPoint
 10
-78590.94401361289
 20
-74415.74947989463
 30
0.0
  0
POINT
  5
3D862
330
3D7F6
100
AcDbEntity
  8
DEFPOINTS
  6
Continuous
 62
     0
100
AcDbPoint
 10
-78590.94401361289
 20
-74363.73533189461
 30
0.0
  0
ENDBLK
  5
3D801
330
3D7F6
100
AcDbEntity
  8
0
100
AcDbBlockEnd
  0
BLOCK
  5
3D80C
330
3D802
100
AcDbEntity
  8
0
100
AcDbBlockBegin
  2
*D12
 70
     1
 10
0.0
 20
0.0
 30
0.0
  3
*D12
  1

  0
LINE
  5
3D863
330
3D802
100
AcDbEntity
  8
1
  6
Continuous
 62
    35
370
    -2
100
AcDbLine
 10
-78160.70040961288
 20
-74405.74947989463
 30
0.0
 11
-78160.70040961288
 21
-74483.53194389461
 31
0.0
  0
LINE
  5
3D864
330
3D802
100
AcDbEntity
  8
1
  6
Continuous
 62
    35
370
    -2
100
AcDbLine
 10
-78010.70040961288
 20
-74425.74947989463
 30
0.0
 11
-78010.70040961288
 21
-74483.53194389461
 31
0.0
  0
LINE
  5
3D865
330
3D802
100
AcDbEntity
  8
1
  6
Continuous
 62
    35
370
    -2
100
AcDbLine
 10
-78153.70040961288
 20
-74479.53194389461
 30
0.0
 11
-78017.70040961288
 21
-74479.53194389461
 31
0.0
  0
INSERT
  5
3D866
330
3D802
100
AcDbEntity
  8
1
  6
Continuous
 62
    35
370
    -2
100
AcDbBlockReference
  2
_DOT
 10
-78160.70040961288
 20
-74479.53194389461
 30
0.0
 41
7.0
 42
7.0
 43
7.0
 50
180.0
  0
INSERT
  5
3D867
330
3D802
100
AcDbEntity
  8
1
  6
Continuous
 62
    35
370
    -2
100
AcDbBlockReference
  2
_DOT
 10
-78010.70040961288
 20
-74479.53194389461
 30
0.0
 41
7.0
 42
7.0
 43
7.0
  0
MTEXT
  5
3D868
330
3D802
100
AcDbEntity
  8
1
  6
Continuous
 62
    35
370
    -3
100
AcDbMText
 10
-78085.70040961288
 20
-74472.53194389461
 30
0.0
 40
7.0
 41
0.0
 71
     5
 72
     1
  1
\A1;\C35;150
  7
blockfont
 73
     1
 44
1.0
1001
ACAD
1000
MTEXTBEGIN
1070
    73
1070
     1
1070
    44
1040
1.0
1070
    74
1070
     0
1000
MTEXTEND
  0
POINT
  5
3D869
330
3D802
100
AcDbEntity
  8
DEFPOINTS
  6
Continuous
 62
     0
100
AcDbPoint
 10
-78160.70040961288
 20
-74405.74947989463
 30
0.0
  0
POINT
  5
3D86A
330
3D802
100
AcDbEntity
  8
DEFPOINTS
  6
Continuous
 62
     0
100
AcDbPoint
 10
-78010.70040961288
 20
-74425.74947989463
 30
0.0
  0
POINT
  5
3D86B
330
3D802
100
AcDbEntity
  8
DEFPOINTS
  6
Continuous
 62
     0
100
AcDbPoint
 10
-78010.70040961288
 20
-74479.53194389461
 30
0.0
  0
ENDBLK
  5
3D80D
330
3D802
100
AcDbEntity
  8
0
100
AcDbBlockEnd
  0
ENDSEC
  0
SECTION
  2
ENTITIES
  0
LINE
  5
3D5F3
330
1A
100
AcDbEntity
  8
HEWI
  6
Continuous
100
AcDbLine
 10
-78391.94401361289
 20
-74442.24537989463
 30
0.0
 11
-78391.94401361289
 21
-74446.24947989463
 31
0.0
  0
LINE
  5
3D5F4
330
1A
100
AcDbEntity
  8
HEWI
  6
Continuous
100
AcDbLine
 10
-78273.49900961289
 20
-74295.74947989463
 30
0.0
 11
-78272.9440136129
 21
-74295.74947989463
 31
0.0
  0
LINE
  5
3D5F5
330
1A
100
AcDbEntity
  8
HEWI
  6
Continuous
100
AcDbLine
 10
-78559.4440136129
 20
-74426.24947989463
 30
0.0
 11
-78559.4440136129
 21
-74425.74941589463
 31
0.0
  0
LINE
  5
3D5F6
330
1A
100
AcDbEntity
  8
HEWI
  6
Continuous
100
AcDbLine
 10
-78391.94401361289
 20
-74426.24947989463
 30
0.0
 11
-78391.94401361289
 21
-74430.26410189461
 31
0.0
  0
LINE
  5
3D5F7
330
1A
100
AcDbEntity
  8
HEWI
  6
Continuous
100
AcDbLine
 10
-78277.4440136129
 20
-74296.24947989463
 30
0.0
 11
-78276.51987361288
 21
-74296.24947989463
 31
0.0
  0
LINE
  5
3D5F8
330
1A
100
AcDbEntity
  8
HEWI
  6
Continuous
100
AcDbLine
 10
-78371.9440136129
 20
-74425.74947989463
 30
0.0
 11
-78371.9440136129
 21
-74405.74947989463
 31
0.0
  0
LINE
  5
3D5F9
330
1A
100
AcDbEntity
  8
HEWI
  6
Continuous
100
AcDbLine
 10
-78564.44401361289
 20
-74425.74941589463
 30
0.0
 11
-78564.44401361289
 21
-74426.24947989463
 31
0.0
  0
LINE
  5
3D5FA
330
1A
100
AcDbEntity
  8
HEWI
  6
Continuous
100
AcDbLine
 10
-78490.94401361289
 20
-74295.74947989463
 30
0.0
 11
-78490.4440136129
 21
-74295.74947989463
 31
0.0
  0
LINE
  5
3D5FB
330
1A
100
AcDbEntity
  8
HEWI
  6
Continuous
100
AcDbLine
 10
-78391.94401361289
 20
-74405.74947989463
 30
0.0
 11
-78391.94401361289
 21
-74425.74947989463
 31
0.0
  0
LINE
  5
3D5FC
330
1A
100
AcDbEntity
  8
HEWI
  6
Continuous
100
AcDbLine
 10
-78371.9440136129
 20
-74446.24947989463
 30
0.0
 11
-78371.9440136129
 21
-74426.24947989463
 31
0.0
  0
LINE
  5
3D5FD
330
1A
100
AcDbEntity
  8
HEWI
  6
Continuous
100
AcDbLine
 10
-78272.9440136129
 20
-74287.74947989463
 30
0.0
 11
-78273.4440136129
 21
-74287.74947989463
 31
0.0
  0
LINE
  5
3D5FE
330
1A
100
AcDbEntity
  8
HEWI
  6
Continuous
100
AcDbLine
 10
-78487.36815361289
 20
-74296.24947989463
 30
0.0
 11
-78486.4440136129
 21
-74296.24947989463
 31
0.0
  0
LINE
  5
3D5FF
330
1A
100
AcDbEntity
  8
HEWI
  6
Continuous
100
AcDbLine
 10
-78391.93527561289
 20
-74430.24947989463
 30
0.0
 11
-78551.94645961289
 21
-74430.24947989463
 31
0.0
  0
LINE
  5
3D600
330
1A
100
AcDbEntity
  8
HEWI
  6
Continuous
100
AcDbLine
 10
-78486.4440136129
 20
-74287.24947989462
 30
0.0
 11
-78487.44401361289
 21
-74287.24947989462
 31
0.0
  0
LINE
  5
3D601
330
1A
100
AcDbEntity
  8
HEWI
  6
Continuous
100
AcDbLine
 10
-78571.94401361289
 20
-74405.74947989463
 30
0.0
 11
-78571.94401361289
 21
-74425.74947989463
 31
0.0
  0
LINE
  5
3D602
330
1A
100
AcDbEntity
  8
HEWI
  6
Continuous
100
AcDbLine
 10
-78551.94401361289
 20
-74430.25357789463
 30
0.0
 11
-78551.94401361289
 21
-74426.24947989463
 31
0.0
  0
LINE
  5
3D603
330
1A
100
AcDbEntity
  8
HEWI
  6
Continuous
100
AcDbLine
 10
-78551.94401361289
 20
-74446.24947989463
 30
0.0
 11
-78551.94401361289
 21
-74442.23485589462
 31
0.0
  0
LINE
  5
3D604
330
1A
100
AcDbEntity
  8
HEWI
  6
Continuous
100
AcDbLine
 10
-78571.94401361289
 20
-74426.24947989463
 30
0.0
 11
-78571.94401361289
 21
-74446.24947989463
 31
0.0
  0
LINE
  5
3D605
330
1A
100
AcDbEntity
  8
HEWI
  6
Continuous
100
AcDbLine
 10
-78551.95275161287
 20
-74442.24947989463
 30
0.0
 11
-78391.9415676129
 21
-74442.24947989463
 31
0.0
  0
LINE
  5
3D606
330
1A
100
AcDbEntity
  8
HEWI
  6
Continuous
100
AcDbLine
 10
-78384.44401361289
 20
-74425.74947989463
 30
0.0
 11
-78384.44401361289
 21
-74426.24954189463
 31
0.0
  0
LINE
  5
3D607
330
1A
100
AcDbEntity
  8
HEWI
  6
Continuous
100
AcDbLine
 10
-78379.4440136129
 20
-74426.24954189463
 30
0.0
 11
-78379.4440136129
 21
-74425.74947989463
 31
0.0
  0
LINE
  5
3D608
330
1A
100
AcDbEntity
  8
HEWI
  6
Continuous
100
AcDbLine
 10
-78490.94401361289
 20
-74284.24947989463
 30
0.0
 11
-78497.9440136129
 21
-74284.24947989463
 31
0.0
  0
LINE
  5
3D609
330
1A
100
AcDbEntity
  8
HEWI
  6
Continuous
100
AcDbLine
 10
-78497.9440136129
 20
-74299.24947989463
 30
0.0
 11
-78490.94401361289
 21
-74299.24947989463
 31
0.0
  0
LINE
  5
3D60A
330
1A
100
AcDbEntity
  8
HEWI
  6
Continuous
100
AcDbLine
 10
-78265.9440136129
 20
-74284.24947989463
 30
0.0
 11
-78272.9440136129
 21
-74284.24947989463
 31
0.0
  0
LINE
  5
3D60B
330
1A
100
AcDbEntity
  8
HEWI
  6
Continuous
100
AcDbLine
 10
-78272.9440136129
 20
-74299.24947989463
 30
0.0
 11
-78265.9440136129
 21
-74299.24947989463
 31
0.0
  0
LINE
  5
3D60C
330
1A
100
AcDbEntity
  8
HEWI
  6
Continuous
100
AcDbLine
 10
-78487.44401361289
 20
-74285.74947989463
 30
0.0
 11
-78490.4440136129
 21
-74285.74947989463
 31
0.0
  0
LINE
  5
3D60D
330
1A
100
AcDbEntity
  8
HEWI
  6
Continuous
100
AcDbLine
 10
-78273.4440136129
 20
-74285.74947989463
 30
0.0
 11
-78276.4440136129
 21
-74285.74947989463
 31
0.0
  0
LINE
  5
3D60E
330
1A
100
AcDbEntity
  8
HEWI
  6
Continuous
100
AcDbLine
 10
-78376.94401361289
 20
-74405.74939389462
 30
0.0
 11
-78376.94401361289
 21
-74400.63712589462
 31
0.0
  0
LINE
  5
3D60F
330
1A
100
AcDbEntity
  8
HEWI
  6
Continuous
100
AcDbLine
 10
-78276.4440136129
 20
-74287.24947989462
 30
0.0
 11
-78277.4440136129
 21
-74287.24947989462
 31
0.0
  0
LINE
  5
3D610
330
1A
100
AcDbEntity
  8
HEWI
  6
Continuous
100
AcDbLine
 10
-78386.9440136129
 20
-74400.63712589462
 30
0.0
 11
-78386.9440136129
 21
-74405.74939389462
 31
0.0
  0
LINE
  5
3D611
330
1A
100
AcDbEntity
  8
HEWI
  6
Continuous
100
AcDbLine
 10
-78490.4440136129
 20
-74287.74947989463
 30
0.0
 11
-78490.94401361289
 21
-74287.74947989463
 31
0.0
  0
LINE
  5
3D612
330
1A
100
AcDbEntity
  8
HEWI
  6
Continuous
100
AcDbLine
 10
-78551.94401361289
 20
-74425.74947989463
 30
0.0
 11
-78551.94401361289
 21
-74405.74947989463
 31
0.0
  0
LINE
  5
3D613
330
1A
100
AcDbEntity
  8
HEWI
  6
Continuous
100
AcDbLine
 10
-78559.29150761288
 20
-74391.74947989463
 30
0.0
 11
-78559.73401361287
 21
-74391.74947989463
 31
0.0
  0
LINE
  5
3D614
330
1A
100
AcDbEntity
  8
HEWI
  6
Continuous
100
AcDbLine
 10
-78551.94401361289
 20
-74405.74947989463
 30
0.0
 11
-78561.9440136129
 21
-74405.74947989463
 31
0.0
  0
LINE
  5
3D615
330
1A
100
AcDbEntity
  8
HEWI
  6
Continuous
100
AcDbLine
 10
-78561.9440136129
 20
-74405.74947989463
 30
0.0
 11
-78571.94401361289
 21
-74405.74947989463
 31
0.0
  0
LINE
  5
3D616
330
1A
100
AcDbEntity
  8
HEWI
  6
Continuous
100
AcDbLine
 10
-78371.9440136129
 20
-74425.74947989463
 30
0.0
 11
-78391.94401361289
 21
-74425.74947989463
 31
0.0
  0
LINE
  5
3D617
330
1A
100
AcDbEntity
  8
HEWI
  6
Continuous
100
AcDbLine
 10
-78565.07651961289
 20
-74393.74947989462
 30
0.0
 11
-78565.07651961289
 21
-74391.74947989463
 31
0.0
  0
LINE
  5
3D618
330
1A
100
AcDbEntity
  8
HEWI
  6
Continuous
100
AcDbLine
 10
-78565.07651961289
 20
-74393.74947989462
 30
0.0
 11
-78564.67401361288
 21
-74393.74947989462
 31
0.0
  0
LINE
  5
3D619
330
1A
100
AcDbEntity
  8
HEWI
  6
Continuous
100
AcDbLine
 10
-78558.76901361288
 20
-74393.74947989462
 30
0.0
 11
-78558.76901361288
 21
-74391.74947989463
 31
0.0
  0
LINE
  5
3D61A
330
1A
100
AcDbEntity
  8
HEWI
  6
Continuous
100
AcDbLine
 10
-78561.9440136129
 20
-74393.74947989462
 30
0.0
 11
-78561.9440136129
 21
-74393.41447989463
 31
0.0
  0
LINE
  5
3D61B
330
1A
100
AcDbEntity
  8
HEWI
  6
Continuous
100
AcDbLine
 10
-78551.94401361289
 20
-74425.74947989463
 30
0.0
 11
-78571.94401361289
 21
-74425.74947989463
 31
0.0
  0
LINE
  5
3D61C
330
1A
100
AcDbEntity
  8
HEWI
  6
Continuous
100
AcDbLine
 10
-78371.9440136129
 20
-74446.24947989463
 30
0.0
 11
-78391.94401361289
 21
-74446.24947989463
 31
0.0
  0
LINE
  5
3D61D
330
1A
100
AcDbEntity
  8
HEWI
  6
Continuous
100
AcDbLine
 10
-78381.9440136129
 20
-74405.74947989463
 30
0.0
 11
-78371.9440136129
 21
-74405.74947989463
 31
0.0
  0
LINE
  5
3D61E
330
1A
100
AcDbEntity
  8
HEWI
  6
Continuous
100
AcDbLine
 10
-78391.94401361289
 20
-74405.74947989463
 30
0.0
 11
-78381.9440136129
 21
-74405.74947989463
 31
0.0
  0
LINE
  5
3D61F
330
1A
100
AcDbEntity
  8
HEWI
  6
Continuous
100
AcDbLine
 10
-78497.9440136129
 20
-74299.24947989463
 30
0.0
 11
-78497.9440136129
 21
-74284.24947989463
 31
0.0
  0
LINE
  5
3D620
330
1A
100
AcDbEntity
  8
HEWI
  6
Continuous
100
AcDbLine
 10
-78490.94401361289
 20
-74284.24947989463
 30
0.0
 11
-78490.94401361289
 21
-74299.24947989463
 31
0.0
  0
LINE
  5
3D621
330
1A
100
AcDbEntity
  8
HEWI
  6
Continuous
100
AcDbLine
 10
-78265.9440136129
 20
-74284.24947989463
 30
0.0
 11
-78265.9440136129
 21
-74299.24947989463
 31
0.0
  0
LINE
  5
3D622
330
1A
100
AcDbEntity
  8
HEWI
  6
Continuous
100
AcDbLine
 10
-78272.9440136129
 20
-74299.24947989463
 30
0.0
 11
-78272.9440136129
 21
-74284.24947989463
 31
0.0
  0
LINE
  5
3D623
330
1A
100
AcDbEntity
  8
HEWI
  6
Continuous
100
AcDbLine
 10
-78273.4440136129
 20
-74291.74947989463
 30
0.0
 11
-78276.4440136129
 21
-74291.74947989463
 31
0.0
  0
LINE
  5
3D624
330
1A
100
AcDbEntity
  8
HEWI
  6
Continuous
100
AcDbLine
 10
-78276.4440136129
 20
-74285.74947989463
 30
0.0
 11
-78276.4440136129
 21
-74291.74947989463
 31
0.0
  0
LINE
  5
3D625
330
1A
100
AcDbEntity
  8
HEWI
  6
Continuous
100
AcDbLine
 10
-78273.4440136129
 20
-74285.74947989463
 30
0.0
 11
-78273.4440136129
 21
-74291.74947989463
 31
0.0
  0
LINE
  5
3D626
330
1A
100
AcDbEntity
  8
HEWI
  6
Continuous
100
AcDbLine
 10
-78487.44401361289
 20
-74291.74947989463
 30
0.0
 11
-78490.4440136129
 21
-74291.74947989463
 31
0.0
  0
LINE
  5
3D627
330
1A
100
AcDbEntity
  8
HEWI
  6
Continuous
100
AcDbLine
 10
-78490.4440136129
 20
-74291.74947989463
 30
0.0
 11
-78490.4440136129
 21
-74285.74947989463
 31
0.0
  0
LINE
  5
3D628
330
1A
100
AcDbEntity
  8
HEWI
  6
Continuous
100
AcDbLine
 10
-78487.44401361289
 20
-74291.74947989463
 30
0.0
 11
-78487.44401361289
 21
-74285.74947989463
 31
0.0
  0
LINE
  5
3D629
330
1A
100
AcDbEntity
  8
HEWI
  6
Continuous
100
AcDbLine
 10
-78490.4440136129
 20
-74292.24947989463
 30
0.0
 11
-78490.4440136129
 21
-74291.74947989463
 31
0.0
  0
LINE
  5
3D62A
330
1A
100
AcDbEntity
  8
HEWI
  6
Continuous
100
AcDbLine
 10
-78487.44401361289
 20
-74291.74947989463
 30
0.0
 11
-78487.44401361289
 21
-74292.24947989463
 31
0.0
  0
LINE
  5
3D62B
330
1A
100
AcDbEntity
  8
HEWI
  6
Continuous
100
AcDbLine
 10
-78276.4440136129
 20
-74291.74947989463
 30
0.0
 11
-78276.4440136129
 21
-74292.24947989463
 31
0.0
  0
LINE
  5
3D62C
330
1A
100
AcDbEntity
  8
HEWI
  6
Continuous
100
AcDbLine
 10
-78273.4440136129
 20
-74292.24947989463
 30
0.0
 11
-78273.4440136129
 21
-74291.74947989463
 31
0.0
  0
LINE
  5
3D62D
330
1A
100
AcDbEntity
  8
HEWI
  6
Continuous
100
AcDbLine
 10
-78277.4440136129
 20
-74296.24947989463
 30
0.0
 11
-78277.4440136129
 21
-74287.24947989462
 31
0.0
  0
LINE
  5
3D62E
330
1A
100
AcDbEntity
  8
HEWI
  6
Continuous
100
AcDbLine
 10
-78486.4440136129
 20
-74287.24947989462
 30
0.0
 11
-78486.4440136129
 21
-74296.24947989463
 31
0.0
  0
LINE
  5
3D62F
330
1A
100
AcDbEntity
  8
HEWI
  6
Continuous
100
AcDbLine
 10
-78551.94401361289
 20
-74446.24947989463
 30
0.0
 11
-78571.94401361289
 21
-74446.24947989463
 31
0.0
  0
LINE
  5
3D630
330
1A
100
AcDbEntity
  8
HEWI
  6
Continuous
100
AcDbLine
 10
-78551.94401361289
 20
-74426.24947989463
 30
0.0
 11
-78561.9440136129
 21
-74426.24947989463
 31
0.0
  0
LINE
  5
3D631
330
1A
100
AcDbEntity
  8
HEWI
  6
Continuous
100
AcDbLine
 10
-78561.9440136129
 20
-74426.24947989463
 30
0.0
 11
-78571.94401361289
 21
-74426.24947989463
 31
0.0
  0
LINE
  5
3D632
330
1A
100
AcDbEntity
  8
HEWI
  6
Continuous
100
AcDbLine
 10
-78371.9440136129
 20
-74426.24947989463
 30
0.0
 11
-78381.9440136129
 21
-74426.24947989463
 31
0.0
  0
LINE
  5
3D633
330
1A
100
AcDbEntity
  8
HEWI
  6
Continuous
100
AcDbLine
 10
-78381.9440136129
 20
-74426.24947989463
 30
0.0
 11
-78391.94401361289
 21
-74426.24947989463
 31
0.0
  0
LINE
  5
3D634
330
1A
100
AcDbEntity
  8
HEWI
  6
Continuous
100
AcDbLine
 10
-78561.1115196129
 20
-74393.13447989464
 30
0.0
 11
-78561.45901361288
 21
-74391.74947989463
 31
0.0
  0
LINE
  5
3D635
330
1A
100
AcDbEntity
  8
HEWI
  6
Continuous
100
AcDbLine
 10
-78562.01150761289
 20
-74392.54697189461
 30
0.0
 11
-78562.79150761288
 21
-74392.54697189461
 31
0.0
  0
LINE
  5
3D636
330
1A
100
AcDbEntity
  8
HEWI
  6
Continuous
100
AcDbLine
 10
-78560.60401361287
 20
-74392.38447989463
 30
0.0
 11
-78560.2840136129
 21
-74393.74947989462
 31
0.0
  0
LINE
  5
3D637
330
1A
100
AcDbEntity
  8
HEWI
  6
Continuous
100
AcDbLine
 10
-78561.9440136129
 20
-74392.09947989463
 30
0.0
 11
-78561.9440136129
 21
-74391.74947989463
 31
0.0
  0
LINE
  5
3D638
330
1A
100
AcDbEntity
  8
HEWI
  6
Continuous
100
AcDbLine
 10
-78563.46401361289
 20
-74393.74947989462
 30
0.0
 11
-78563.46401361289
 21
-74391.74947989463
 31
0.0
  0
LINE
  5
3D639
330
1A
100
AcDbEntity
  8
HEWI
  6
Continuous
100
AcDbLine
 10
-78560.92901361289
 20
-74393.74947989462
 30
0.0
 11
-78560.60401361287
 21
-74392.38447989463
 31
0.0
  0
LINE
  5
3D63A
330
1A
100
AcDbEntity
  8
HEWI
  6
Continuous
100
AcDbLine
 10
-78560.09150761287
 20
-74393.14447989461
 30
0.0
 11
-78560.3965196129
 21
-74391.74947989463
 31
0.0
  0
LINE
  5
3D63B
330
1A
100
AcDbEntity
  8
HEWI
  6
Continuous
100
AcDbLine
 10
-78564.67401361288
 20
-74392.86447989462
 30
0.0
 11
-78563.8665196129
 21
-74392.86447989462
 31
0.0
  0
LINE
  5
3D63C
330
1A
100
AcDbEntity
  8
HEWI
  6
Continuous
100
AcDbLine
 10
-78562.79150761288
 20
-74393.41447989463
 30
0.0
 11
-78562.79150761288
 21
-74392.86447989462
 31
0.0
  0
LINE
  5
3D63D
330
1A
100
AcDbEntity
  8
HEWI
  6
Continuous
100
AcDbLine
 10
-78564.67401361288
 20
-74391.74947989463
 30
0.0
 11
-78564.67401361288
 21
-74392.54697189461
 31
0.0
  0
LINE
  5
3D63E
330
1A
100
AcDbEntity
  8
HEWI
  6
Continuous
100
AcDbLine
 10
-78563.1940136129
 20
-74393.74947989462
 30
0.0
 11
-78561.9440136129
 21
-74393.74947989462
 31
0.0
  0
LINE
  5
3D63F
330
1A
100
AcDbEntity
  8
HEWI
  6
Continuous
100
AcDbLine
 10
-78559.18401361289
 20
-74393.74947989462
 30
0.0
 11
-78558.76901361288
 21
-74393.74947989462
 31
0.0
  0
LINE
  5
3D640
330
1A
100
AcDbEntity
  8
HEWI
  6
Continuous
100
AcDbLine
 10
-78561.8840136129
 20
-74391.74947989463
 30
0.0
 11
-78561.32151961289
 21
-74393.74947989462
 31
0.0
  0
LINE
  5
3D641
330
1A
100
AcDbEntity
  8
HEWI
  6
Continuous
100
AcDbLine
 10
-78562.79150761288
 20
-74392.09947989463
 30
0.0
 11
-78561.9440136129
 21
-74392.09947989463
 31
0.0
  0
LINE
  5
3D642
330
1A
100
AcDbEntity
  8
HEWI
  6
Continuous
100
AcDbLine
 10
-78561.32151961289
 20
-74393.74947989462
 30
0.0
 11
-78560.92901361289
 21
-74393.74947989462
 31
0.0
  0
LINE
  5
3D643
330
1A
100
AcDbEntity
  8
HEWI
  6
Continuous
100
AcDbLine
 10
-78563.8665196129
 20
-74393.74947989462
 30
0.0
 11
-78563.46401361289
 21
-74393.74947989462
 31
0.0
  0
LINE
  5
3D644
330
1A
100
AcDbEntity
  8
HEWI
  6
Continuous
100
AcDbLine
 10
-78562.01150761289
 20
-74392.86447989462
 30
0.0
 11
-78562.01150761289
 21
-74392.54697189461
 31
0.0
  0
LINE
  5
3D645
330
1A
100
AcDbEntity
  8
HEWI
  6
Continuous
100
AcDbLine
 10
-78561.9440136129
 20
-74393.41447989463
 30
0.0
 11
-78562.79150761288
 21
-74393.41447989463
 31
0.0
  0
LINE
  5
3D646
330
1A
100
AcDbEntity
  8
HEWI
  6
Continuous
100
AcDbLine
 10
-78563.8665196129
 20
-74392.54697189461
 30
0.0
 11
-78563.8665196129
 21
-74391.74947989463
 31
0.0
  0
LINE
  5
3D647
330
1A
100
AcDbEntity
  8
HEWI
  6
Continuous
100
AcDbLine
 10
-78561.45901361288
 20
-74391.74947989463
 30
0.0
 11
-78561.8840136129
 21
-74391.74947989463
 31
0.0
  0
LINE
  5
3D648
330
1A
100
AcDbEntity
  8
HEWI
  6
Continuous
100
AcDbLine
 10
-78564.67401361288
 20
-74393.74947989462
 30
0.0
 11
-78564.67401361288
 21
-74392.86447989462
 31
0.0
  0
LINE
  5
3D649
330
1A
100
AcDbEntity
  8
HEWI
  6
Continuous
100
AcDbLine
 10
-78563.8665196129
 20
-74392.86447989462
 30
0.0
 11
-78563.8665196129
 21
-74393.74947989462
 31
0.0
  0
LINE
  5
3D64A
330
1A
100
AcDbEntity
  8
HEWI
  6
Continuous
100
AcDbLine
 10
-78560.3965196129
 20
-74391.74947989463
 30
0.0
 11
-78560.80401361288
 21
-74391.74947989463
 31
0.0
  0
LINE
  5
3D64B
330
1A
100
AcDbEntity
  8
HEWI
  6
Continuous
100
AcDbLine
 10
-78558.76901361288
 20
-74391.74947989463
 30
0.0
 11
-78559.18401361289
 21
-74391.74947989463
 31
0.0
  0
LINE
  5
3D64C
330
1A
100
AcDbEntity
  8
HEWI
  6
Continuous
100
AcDbLine
 10
-78562.79150761288
 20
-74392.54697189461
 30
0.0
 11
-78562.79150761288
 21
-74392.09947989463
 31
0.0
  0
LINE
  5
3D64D
330
1A
100
AcDbEntity
  8
HEWI
  6
Continuous
100
AcDbLine
 10
-78559.89150761289
 20
-74393.74947989462
 30
0.0
 11
-78559.29150761288
 21
-74391.74947989463
 31
0.0
  0
LINE
  5
3D64E
330
1A
100
AcDbEntity
  8
HEWI
  6
Continuous
100
AcDbLine
 10
-78562.79150761288
 20
-74392.86447989462
 30
0.0
 11
-78562.01150761289
 21
-74392.86447989462
 31
0.0
  0
LINE
  5
3D64F
330
1A
100
AcDbEntity
  8
HEWI
  6
Continuous
100
AcDbLine
 10
-78565.07651961289
 20
-74391.74947989463
 30
0.0
 11
-78564.67401361288
 21
-74391.74947989463
 31
0.0
  0
LINE
  5
3D650
330
1A
100
AcDbEntity
  8
HEWI
  6
Continuous
100
AcDbLine
 10
-78559.18401361289
 20
-74391.74947989463
 30
0.0
 11
-78559.18401361289
 21
-74393.74947989462
 31
0.0
  0
LINE
  5
3D651
330
1A
100
AcDbEntity
  8
HEWI
  6
Continuous
100
AcDbLine
 10
-78560.80401361288
 20
-74391.74947989463
 30
0.0
 11
-78561.1115196129
 21
-74393.13447989464
 31
0.0
  0
LINE
  5
3D652
330
1A
100
AcDbEntity
  8
HEWI
  6
Continuous
100
AcDbLine
 10
-78559.73401361287
 20
-74391.74947989463
 30
0.0
 11
-78560.09150761287
 21
-74393.14447989461
 31
0.0
  0
LINE
  5
3D653
330
1A
100
AcDbEntity
  8
HEWI
  6
Continuous
100
AcDbLine
 10
-78563.1940136129
 20
-74391.74947989463
 30
0.0
 11
-78563.1940136129
 21
-74393.74947989462
 31
0.0
  0
LINE
  5
3D654
330
1A
100
AcDbEntity
  8
HEWI
  6
Continuous
100
AcDbLine
 10
-78560.2840136129
 20
-74393.74947989462
 30
0.0
 11
-78559.89150761289
 21
-74393.74947989462
 31
0.0
  0
LINE
  5
3D655
330
1A
100
AcDbEntity
  8
HEWI
  6
Continuous
100
AcDbLine
 10
-78564.67401361288
 20
-74392.54697189461
 30
0.0
 11
-78563.8665196129
 21
-74392.54697189461
 31
0.0
  0
LINE
  5
3D656
330
1A
100
AcDbEntity
  8
HEWI
  6
Continuous
100
AcDbLine
 10
-78561.9440136129
 20
-74391.74947989463
 30
0.0
 11
-78563.1940136129
 21
-74391.74947989463
 31
0.0
  0
LINE
  5
3D657
330
1A
100
AcDbEntity
  8
HEWI
  6
Continuous
100
AcDbLine
 10
-78563.8665196129
 20
-74391.74947989463
 30
0.0
 11
-78563.46401361289
 21
-74391.74947989463
 31
0.0
  0
LINE
  5
3D658
330
1A
100
AcDbEntity
  8
HEWI
  6
Continuous
100
AcDbLine
 10
-78185.6904096129
 20
-74398.94947989461
 30
0.0
 11
-78185.70040961288
 21
-74398.94947989461
 31
0.0
  0
LINE
  5
3D659
330
1A
100
AcDbEntity
  8
HEWI
  6
Continuous
100
AcDbLine
 10
-78195.70040961288
 20
-74444.74947989463
 30
0.0
 11
-78185.70040961288
 21
-74444.74947989463
 31
0.0
  0
LINE
  5
3D65A
330
1A
100
AcDbEntity
  8
HEWI
  6
Continuous
100
AcDbLine
 10
-78185.70040961288
 20
-74386.74947989463
 30
0.0
 11
-78195.70040961288
 21
-74386.74947989463
 31
0.0
  0
LINE
  5
3D65B
330
1A
100
AcDbEntity
  8
HEWI
  6
Continuous
100
AcDbLine
 10
-78150.70040961288
 20
-74425.74947989463
 30
0.0
 11
-78150.70040961288
 21
-74405.74947989463
 31
0.0
  0
LINE
  5
3D65C
330
1A
100
AcDbEntity
  8
HEWI
  6
Continuous
100
AcDbLine
 10
-78170.70040961288
 20
-74426.24947989463
 30
0.0
 11
-78170.70040961288
 21
-74446.24947989463
 31
0.0
  0
LINE
  5
3D65D
330
1A
100
AcDbEntity
  8
HEWI
  6
Continuous
100
AcDbLine
 10
-78150.70040961288
 20
-74446.24947989463
 30
0.0
 11
-78150.70040961288
 21
-74426.24947989463
 31
0.0
  0
LINE
  5
3D65E
330
1A
100
AcDbEntity
  8
HEWI
  6
Continuous
100
AcDbLine
 10
-78163.20040961288
 20
-74425.74941589463
 30
0.0
 11
-78163.20040961288
 21
-74426.24947989463
 31
0.0
  0
LINE
  5
3D65F
330
1A
100
AcDbEntity
  8
HEWI
  6
Continuous
100
AcDbLine
 10
-78158.20040961288
 20
-74426.24947989463
 30
0.0
 11
-78158.20040961288
 21
-74425.74941589463
 31
0.0
  0
LINE
  5
3D660
330
1A
100
AcDbEntity
  8
HEWI
  6
Continuous
100
AcDbLine
 10
-78003.53813161287
 20
-74191.74947989462
 30
0.0
 11
-78017.70040961288
 21
-74191.74947989462
 31
0.0
  0
LINE
  5
3D661
330
1A
100
AcDbEntity
  8
HEWI
  6
Continuous
100
AcDbLine
 10
-78017.70040961288
 20
-74391.74947989463
 30
0.0
 11
-78016.70019961288
 21
-74391.74947989463
 31
0.0
  0
LINE
  5
3D662
330
1A
100
AcDbEntity
  8
HEWI
  6
Continuous
100
AcDbLine
 10
-78004.7005456129
 20
-74391.74947989463
 30
0.0
 11
-78003.53813161287
 21
-74391.74947989463
 31
0.0
  0
LINE
  5
3D663
330
1A
100
AcDbEntity
  8
HEWI
  6
Continuous
100
AcDbLine
 10
-78005.70040961288
 20
-74400.74947989463
 30
0.0
 11
-78004.70040961288
 21
-74400.74947989463
 31
0.0
  0
LINE
  5
3D664
330
1A
100
AcDbEntity
  8
HEWI
  6
Continuous
100
AcDbLine
 10
-78016.70040961288
 20
-74400.74947989463
 30
0.0
 11
-78015.70040961288
 21
-74400.74947989463
 31
0.0
  0
LINE
  5
3D665
330
1A
100
AcDbEntity
  8
HEWI
  6
Continuous
100
AcDbLine
 10
-78170.65098161288
 20
-74408.24947989463
 30
0.0
 11
-78185.6904096129
 21
-74408.24947989463
 31
0.0
  0
LINE
  5
3D666
330
1A
100
AcDbEntity
  8
HEWI
  6
Continuous
100
AcDbLine
 10
-78185.6904096129
 20
-74423.24947989463
 30
0.0
 11
-78170.70040961288
 21
-74423.24947989463
 31
0.0
  0
LINE
  5
3D667
330
1A
100
AcDbEntity
  8
HEWI
  6
Continuous
100
AcDbLine
 10
-78000.70040961288
 20
-74425.74947989463
 30
0.0
 11
-78000.70040961288
 21
-74405.74947989463
 31
0.0
  0
LINE
  5
3D668
330
1A
100
AcDbEntity
  8
HEWI
  6
Continuous
100
AcDbLine
 10
-78020.70040961288
 20
-74421.71720189463
 30
0.0
 11
-78020.70040961288
 21
-74425.74947989463
 31
0.0
  0
LINE
  5
3D669
330
1A
100
AcDbEntity
  8
HEWI
  6
Continuous
100
AcDbLine
 10
-78020.70040961288
 20
-74405.74947989463
 30
0.0
 11
-78020.70040961288
 21
-74409.75807189462
 31
0.0
  0
LINE
  5
3D66A
330
1A
100
AcDbEntity
  8
HEWI
  6
Continuous
100
AcDbLine
 10
-78170.70040961288
 20
-74405.74947989463
 30
0.0
 11
-78170.70040961288
 21
-74408.31581789463
 31
0.0
  0
LINE
  5
3D66B
330
1A
100
AcDbEntity
  8
HEWI
  6
Continuous
100
AcDbLine
 10
-78185.70040961288
 20
-74432.54947989461
 30
0.0
 11
-78185.6904096129
 21
-74432.54947989461
 31
0.0
  0
LINE
  5
3D66C
330
1A
100
AcDbEntity
  8
HEWI
  6
Continuous
100
AcDbLine
 10
-78170.70040961288
 20
-74423.24947989463
 30
0.0
 11
-78170.70040961288
 21
-74425.74947989463
 31
0.0
  0
LINE
  5
3D66D
330
1A
100
AcDbEntity
  8
HEWI
  6
Continuous
100
AcDbLine
 10
-78005.70040961288
 20
-74405.74947989463
 30
0.0
 11
-78005.70040961288
 21
-74400.74947989463
 31
0.0
  0
LINE
  5
3D66E
330
1A
100
AcDbEntity
  8
HEWI
  6
Continuous
100
AcDbLine
 10
-78015.70040961288
 20
-74400.74947989463
 30
0.0
 11
-78015.70040961288
 21
-74405.74947989463
 31
0.0
  0
LINE
  5
3D66F
330
1A
100
AcDbEntity
  8
HEWI
  6
Continuous
100
AcDbLine
 10
-78150.69933961288
 20
-74421.74947989463
 30
0.0
 11
-78020.68150961289
 21
-74421.74947989463
 31
0.0
  0
LINE
  5
3D670
330
1A
100
AcDbEntity
  8
HEWI
  6
Continuous
100
AcDbLine
 10
-78020.69538361288
 20
-74409.74947989463
 30
0.0
 11
-78150.69899361289
 21
-74409.74947989463
 31
0.0
  0
LINE
  5
3D671
330
1A
100
AcDbEntity
  8
HEWI
  6
Continuous
100
AcDbLine
 10
-78000.70040961288
 20
-74388.91175589462
 30
0.0
 11
-78000.70040961288
 21
-74194.58720189462
 31
0.0
  0
LINE
  5
3D672
330
1A
100
AcDbEntity
  8
HEWI
  6
Continuous
100
AcDbLine
 10
-78021.70040961287
 20
-74198.92105189462
 30
0.0
 11
-78021.70040961287
 21
-74384.57790589462
 31
0.0
  0
LINE
  5
3D673
330
1A
100
AcDbEntity
  8
HEWI
  6
Continuous
100
AcDbLine
 10
-78150.70040961288
 20
-74405.74947989463
 30
0.0
 11
-78170.70040961288
 21
-74405.74947989463
 31
0.0
  0
LINE
  5
3D674
330
1A
100
AcDbEntity
  8
HEWI
  6
Continuous
100
AcDbLine
 10
-78000.70040961288
 20
-74425.74947989463
 30
0.0
 11
-78020.70040961288
 21
-74425.74947989463
 31
0.0
  0
LINE
  5
3D675
330
1A
100
AcDbEntity
  8
HEWI
  6
Continuous
100
AcDbLine
 10
-78003.53813161287
 20
-74391.74947989463
 30
0.0
 11
-78003.53813161287
 21
-74293.97786189463
 31
0.0
  0
LINE
  5
3D676
330
1A
100
AcDbEntity
  8
HEWI
  6
Continuous
100
AcDbLine
 10
-78003.53813161287
 20
-74289.53091189462
 30
0.0
 11
-78003.53813161287
 21
-74191.74947989462
 31
0.0
  0
LINE
  5
3D677
330
1A
100
AcDbEntity
  8
HEWI
  6
Continuous
100
AcDbLine
 10
-78185.70040961288
 20
-74444.74947989463
 30
0.0
 11
-78185.70040961288
 21
-74386.74947989463
 31
0.0
  0
LINE
  5
3D678
330
1A
100
AcDbEntity
  8
HEWI
  6
Continuous
100
AcDbLine
 10
-78195.70040961288
 20
-74386.74947989463
 30
0.0
 11
-78195.70040961288
 21
-74444.74947989463
 31
0.0
  0
LINE
  5
3D679
330
1A
100
AcDbEntity
  8
HEWI
  6
Continuous
100
AcDbLine
 10
-78185.70040961288
 20
-74393.74947989462
 30
0.0
 11
-78185.70040961288
 21
-74391.74947989463
 31
0.0
  0
LINE
  5
3D67A
330
1A
100
AcDbEntity
  8
HEWI
  6
Continuous
100
AcDbLine
 10
-78185.70040961288
 20
-74393.74947989462
 30
0.0
 11
-78185.70040961288
 21
-74391.74947989463
 31
0.0
  0
LINE
  5
3D67B
330
1A
100
AcDbEntity
  8
HEWI
  6
Continuous
100
AcDbLine
 10
-78185.70040961288
 20
-74393.74947989462
 30
0.0
 11
-78185.70040961288
 21
-74393.41447989463
 31
0.0
  0
LINE
  5
3D67C
330
1A
100
AcDbEntity
  8
HEWI
  6
Continuous
100
AcDbLine
 10
-78170.70040961288
 20
-74425.74947989463
 30
0.0
 11
-78150.70040961288
 21
-74425.74947989463
 31
0.0
  0
LINE
  5
3D67D
330
1A
100
AcDbEntity
  8
HEWI
  6
Continuous
100
AcDbLine
 10
-78185.6904096129
 20
-74432.54947989461
 30
0.0
 11
-78185.6904096129
 21
-74398.94947989461
 31
0.0
  0
LINE
  5
3D67E
330
1A
100
AcDbEntity
  8
HEWI
  6
Continuous
100
AcDbLine
 10
-78000.70040961288
 20
-74405.74947989463
 30
0.0
 11
-78020.70040961288
 21
-74405.74947989463
 31
0.0
  0
LINE
  5
3D67F
330
1A
100
AcDbEntity
  8
HEWI
  6
Continuous
100
AcDbLine
 10
-78004.70040961288
 20
-74400.74947989463
 30
0.0
 11
-78004.70040961288
 21
-74296.25370789463
 31
0.0
  0
LINE
  5
3D680
330
1A
100
AcDbEntity
  8
HEWI
  6
Continuous
100
AcDbLine
 10
-78170.70040961288
 20
-74446.24947989463
 30
0.0
 11
-78150.70040961288
 21
-74446.24947989463
 31
0.0
  0
LINE
  5
3D681
330
1A
100
AcDbEntity
  8
HEWI
  6
Continuous
100
AcDbLine
 10
-78150.70040961288
 20
-74426.24947989463
 30
0.0
 11
-78170.70040961288
 21
-74426.24947989463
 31
0.0
  0
LINE
  5
3D682
330
1A
100
AcDbEntity
  8
HEWI
  6
Continuous
100
AcDbLine
 10
-78019.70040961288
 20
-74389.74947989462
 30
0.0
 11
-78019.70040961288
 21
-74193.74947989463
 31
0.0
  0
LINE
  5
3D683
330
1A
100
AcDbEntity
  8
HEWI
  6
Continuous
100
AcDbLine
 10
-78017.70040961288
 20
-74391.74947989463
 30
0.0
 11
-78017.70040961288
 21
-74294.44895789462
 31
0.0
  0
LINE
  5
3D684
330
1A
100
AcDbEntity
  8
HEWI
  6
Continuous
100
AcDbLine
 10
-78017.70040961288
 20
-74289.05981389464
 30
0.0
 11
-78017.70040961288
 21
-74191.74947989462
 31
0.0
  0
LINE
  5
3D685
330
1A
100
AcDbEntity
  8
HEWI
  6
Continuous
100
AcDbLine
 10
-78020.91979961289
 20
-74386.59639789462
 30
0.0
 11
-78020.91979961289
 21
-74196.90255989461
 31
0.0
  0
LINE
  5
3D686
330
1A
100
AcDbEntity
  8
HEWI
  6
Continuous
100
AcDbLine
 10
-78016.70040961288
 20
-74296.25370789463
 30
0.0
 11
-78016.70040961288
 21
-74400.74947989463
 31
0.0
  0
LINE
  5
3D687
330
1A
100
AcDbEntity
  8
HEWI
  6
Continuous
100
AcDbLine
 10
-78185.70040961288
 20
-74393.13447989464
 30
0.0
 11
-78185.70040961288
 21
-74391.74947989463
 31
0.0
  0
LINE
  5
3D688
330
1A
100
AcDbEntity
  8
HEWI
  6
Continuous
100
AcDbLine
 10
-78185.70040961288
 20
-74392.38447989463
 30
0.0
 11
-78185.70040961288
 21
-74393.74947989462
 31
0.0
  0
LINE
  5
3D689
330
1A
100
AcDbEntity
  8
HEWI
  6
Continuous
100
AcDbLine
 10
-78185.70040961288
 20
-74392.09947989463
 30
0.0
 11
-78185.70040961288
 21
-74391.74947989463
 31
0.0
  0
LINE
  5
3D68A
330
1A
100
AcDbEntity
  8
HEWI
  6
Continuous
100
AcDbLine
 10
-78185.70040961288
 20
-74393.74947989462
 30
0.0
 11
-78185.70040961288
 21
-74391.74947989463
 31
0.0
  0
LINE
  5
3D68B
330
1A
100
AcDbEntity
  8
HEWI
  6
Continuous
100
AcDbLine
 10
-78185.70040961288
 20
-74393.74947989462
 30
0.0
 11
-78185.70040961288
 21
-74392.38447989463
 31
0.0
  0
LINE
  5
3D68C
330
1A
100
AcDbEntity
  8
HEWI
  6
Continuous
100
AcDbLine
 10
-78185.70040961288
 20
-74393.14447989461
 30
0.0
 11
-78185.70040961288
 21
-74391.74947989463
 31
0.0
  0
LINE
  5
3D68D
330
1A
100
AcDbEntity
  8
HEWI
  6
Continuous
100
AcDbLine
 10
-78185.70040961288
 20
-74393.41447989463
 30
0.0
 11
-78185.70040961288
 21
-74392.86447989462
 31
0.0
  0
LINE
  5
3D68E
330
1A
100
AcDbEntity
  8
HEWI
  6
Continuous
100
AcDbLine
 10
-78185.70040961288
 20
-74391.74947989463
 30
0.0
 11
-78185.70040961288
 21
-74392.54697189461
 31
0.0
  0
LINE
  5
3D68F
330
1A
100
AcDbEntity
  8
HEWI
  6
Continuous
100
AcDbLine
 10
-78185.70040961288
 20
-74391.74947989463
 30
0.0
 11
-78185.70040961288
 21
-74393.74947989462
 31
0.0
  0
LINE
  5
3D690
330
1A
100
AcDbEntity
  8
HEWI
  6
Continuous
100
AcDbLine
 10
-78185.70040961288
 20
-74392.86447989462
 30
0.0
 11
-78185.70040961288
 21
-74392.54697189461
 31
0.0
  0
LINE
  5
3D691
330
1A
100
AcDbEntity
  8
HEWI
  6
Continuous
100
AcDbLine
 10
-78185.70040961288
 20
-74392.54697189461
 30
0.0
 11
-78185.70040961288
 21
-74391.74947989463
 31
0.0
  0
LINE
  5
3D692
330
1A
100
AcDbEntity
  8
HEWI
  6
Continuous
100
AcDbLine
 10
-78185.70040961288
 20
-74393.74947989462
 30
0.0
 11
-78185.70040961288
 21
-74392.86447989462
 31
0.0
  0
LINE
  5
3D693
330
1A
100
AcDbEntity
  8
HEWI
  6
Continuous
100
AcDbLine
 10
-78185.70040961288
 20
-74392.86447989462
 30
0.0
 11
-78185.70040961288
 21
-74393.74947989462
 31
0.0
  0
LINE
  5
3D694
330
1A
100
AcDbEntity
  8
HEWI
  6
Continuous
100
AcDbLine
 10
-78185.70040961288
 20
-74392.54697189461
 30
0.0
 11
-78185.70040961288
 21
-74392.09947989463
 31
0.0
  0
LINE
  5
3D695
330
1A
100
AcDbEntity
  8
HEWI
  6
Continuous
100
AcDbLine
 10
-78185.70040961288
 20
-74393.74947989462
 30
0.0
 11
-78185.70040961288
 21
-74391.74947989463
 31
0.0
  0
LINE
  5
3D696
330
1A
100
AcDbEntity
  8
HEWI
  6
Continuous
100
AcDbLine
 10
-78185.70040961288
 20
-74391.74947989463
 30
0.0
 11
-78185.70040961288
 21
-74393.74947989462
 31
0.0
  0
LINE
  5
3D697
330
1A
100
AcDbEntity
  8
HEWI
  6
Continuous
100
AcDbLine
 10
-78185.70040961288
 20
-74391.74947989463
 30
0.0
 11
-78185.70040961288
 21
-74393.13447989464
 31
0.0
  0
LINE
  5
3D698
330
1A
100
AcDbEntity
  8
HEWI
  6
Continuous
100
AcDbLine
 10
-78185.70040961288
 20
-74391.74947989463
 30
0.0
 11
-78185.70040961288
 21
-74393.14447989461
 31
0.0
  0
LINE
  5
3D699
330
1A
100
AcDbEntity
  8
HEWI
  6
Continuous
100
AcDbLine
 10
-78185.70040961288
 20
-74391.74947989463
 30
0.0
 11
-78185.70040961288
 21
-74393.74947989462
 31
0.0
  0
LINE
  5
3D69A
330
1A
100
AcDbEntity
  8
HEWI
  6
Continuous
100
AcDbLine
 10
-78532.94401361289
 20
-74524.53517589463
 30
0.0
 11
-78532.94401361289
 21
-74514.53517589463
 31
0.0
  0
LINE
  5
3D69B
330
1A
100
AcDbEntity
  8
HEWI
  6
Continuous
100
AcDbLine
 10
-78590.94401361289
 20
-74514.53517589463
 30
0.0
 11
-78590.94401361289
 21
-74524.53517589463
 31
0.0
  0
LINE
  5
3D69C
330
1A
100
AcDbEntity
  8
HEWI
  6
Continuous
100
AcDbLine
 10
-78389.9440136129
 20
-74543.53517589463
 30
0.0
 11
-78553.9440136129
 21
-74543.53517589463
 31
0.0
  0
LINE
  5
3D69D
330
1A
100
AcDbEntity
  8
HEWI
  6
Continuous
100
AcDbLine
 10
-78553.94336161288
 20
-74555.53517589463
 30
0.0
 11
-78389.94466561288
 21
-74555.53517589463
 31
0.0
  0
LINE
  5
3D69E
330
1A
100
AcDbEntity
  8
HEWI
  6
Continuous
100
AcDbLine
 10
-78281.94401361289
 20
-74706.69745389463
 30
0.0
 11
-78281.94401361289
 21
-74692.53517589463
 31
0.0
  0
LINE
  5
3D69F
330
1A
100
AcDbEntity
  8
HEWI
  6
Continuous
100
AcDbLine
 10
-78481.9440136129
 20
-74692.53517589463
 30
0.0
 11
-78481.9440136129
 21
-74706.69745389463
 31
0.0
  0
LINE
  5
3D6A0
330
1A
100
AcDbEntity
  8
HEWI
  6
Continuous
100
AcDbLine
 10
-78265.9440136129
 20
-74692.03517589463
 30
0.0
 11
-78272.9440136129
 21
-74692.03517589463
 31
0.0
  0
LINE
  5
3D6A1
330
1A
100
AcDbEntity
  8
HEWI
  6
Continuous
100
AcDbLine
 10
-78272.9440136129
 20
-74707.03517589464
 30
0.0
 11
-78265.9440136129
 21
-74707.03517589464
 31
0.0
  0
LINE
  5
3D6A2
330
1A
100
AcDbEntity
  8
HEWI
  6
Continuous
100
AcDbLine
 10
-78486.4440136129
 20
-74695.03517589464
 30
0.0
 11
-78487.44401361289
 21
-74695.03517589464
 31
0.0
  0
LINE
  5
3D6A3
330
1A
100
AcDbEntity
  8
HEWI
  6
Continuous
100
AcDbLine
 10
-78487.44401361289
 20
-74704.03517589463
 30
0.0
 11
-78486.4440136129
 21
-74704.03517589463
 31
0.0
  0
LINE
  5
3D6A4
330
1A
100
AcDbEntity
  8
HEWI
  6
Continuous
100
AcDbLine
 10
-78277.4440136129
 20
-74704.03517589463
 30
0.0
 11
-78276.4440136129
 21
-74704.03517589463
 31
0.0
  0
LINE
  5
3D6A5
330
1A
100
AcDbEntity
  8
HEWI
  6
Continuous
100
AcDbLine
 10
-78276.4440136129
 20
-74695.03517589464
 30
0.0
 11
-78277.4440136129
 21
-74695.03517589464
 31
0.0
  0
LINE
  5
3D6A6
330
1A
100
AcDbEntity
  8
HEWI
  6
Continuous
100
AcDbLine
 10
-78490.94401361289
 20
-74703.53517589463
 30
0.0
 11
-78490.4440136129
 21
-74703.53517589463
 31
0.0
  0
LINE
  5
3D6A7
330
1A
100
AcDbEntity
  8
HEWI
  6
Continuous
100
AcDbLine
 10
-78490.4440136129
 20
-74695.53517589464
 30
0.0
 11
-78490.94401361289
 21
-74695.53517589464
 31
0.0
  0
LINE
  5
3D6A8
330
1A
100
AcDbEntity
  8
HEWI
  6
Continuous
100
AcDbLine
 10
-78375.9440136129
 20
-74688.53360589461
 30
0.0
 11
-78375.9440136129
 21
-74557.53646189462
 31
0.0
  0
LINE
  5
3D6A9
330
1A
100
AcDbEntity
  8
HEWI
  6
Continuous
100
AcDbLine
 10
-78387.9440136129
 20
-74557.53517589463
 30
0.0
 11
-78387.9440136129
 21
-74688.53483189463
 31
0.0
  0
LINE
  5
3D6AA
330
1A
100
AcDbEntity
  8
HEWI
  6
Continuous
100
AcDbLine
 10
-78554.4440136129
 20
-74542.85513189462
 30
0.0
 11
-78554.4440136129
 21
-74524.54517589461
 31
0.0
  0
LINE
  5
3D6AB
330
1A
100
AcDbEntity
  8
HEWI
  6
Continuous
100
AcDbLine
 10
-78569.4440136129
 20
-74524.54517589461
 30
0.0
 11
-78569.4440136129
 21
-74542.88241589464
 31
0.0
  0
LINE
  5
3D6AC
330
1A
100
AcDbEntity
  8
HEWI
  6
Continuous
100
AcDbLine
 10
-78545.14401361288
 20
-74524.54517589461
 30
0.0
 11
-78545.14401361288
 21
-74524.53517589463
 31
0.0
  0
LINE
  5
3D6AD
330
1A
100
AcDbEntity
  8
HEWI
  6
Continuous
100
AcDbLine
 10
-78578.74401361288
 20
-74524.53517589463
 30
0.0
 11
-78578.74401361288
 21
-74524.54517589461
 31
0.0
  0
LINE
  5
3D6AE
330
1A
100
AcDbEntity
  8
HEWI
  6
Continuous
100
AcDbLine
 10
-78497.9440136129
 20
-74707.03517589464
 30
0.0
 11
-78490.94401361289
 21
-74707.03517589464
 31
0.0
  0
LINE
  5
3D6AF
330
1A
100
AcDbEntity
  8
HEWI
  6
Continuous
100
AcDbLine
 10
-78490.94401361289
 20
-74692.03517589463
 30
0.0
 11
-78497.9440136129
 21
-74692.03517589463
 31
0.0
  0
LINE
  5
3D6B0
330
1A
100
AcDbEntity
  8
HEWI
  6
Continuous
100
AcDbLine
 10
-78272.9440136129
 20
-74695.53517589464
 30
0.0
 11
-78273.4440136129
 21
-74695.53517589464
 31
0.0
  0
LINE
  5
3D6B1
330
1A
100
AcDbEntity
  8
HEWI
  6
Continuous
100
AcDbLine
 10
-78273.4440136129
 20
-74703.53517589463
 30
0.0
 11
-78272.9440136129
 21
-74703.53517589463
 31
0.0
  0
LINE
  5
3D6B2
330
1A
100
AcDbEntity
  8
HEWI
  6
Continuous
100
AcDbLine
 10
-78479.10629161287
 20
-74709.53517589463
 30
0.0
 11
-78284.78173561289
 21
-74709.53517589463
 31
0.0
  0
LINE
  5
3D6B3
330
1A
100
AcDbEntity
  8
HEWI
  6
Continuous
100
AcDbLine
 10
-78289.11558761287
 20
-74688.53517589463
 30
0.0
 11
-78474.77244161288
 21
-74688.53517589463
 31
0.0
  0
LINE
  5
3D6B4
330
1A
100
AcDbEntity
  8
HEWI
  6
Continuous
100
AcDbLine
 10
-78559.29150761288
 20
-74524.53517589463
 30
0.0
 11
-78559.73401361287
 21
-74524.53517589463
 31
0.0
  0
LINE
  5
3D6B5
330
1A
100
AcDbEntity
  8
HEWI
  6
Continuous
100
AcDbLine
 10
-78381.9440136129
 20
-74706.69745389463
 30
0.0
 11
-78281.94401361289
 21
-74706.69745389463
 31
0.0
  0
LINE
  5
3D6B6
330
1A
100
AcDbEntity
  8
HEWI
  6
Continuous
100
AcDbLine
 10
-78481.9440136129
 20
-74706.69745389463
 30
0.0
 11
-78381.9440136129
 21
-74706.69745389463
 31
0.0
  0
LINE
  5
3D6B7
330
1A
100
AcDbEntity
  8
HEWI
  6
Continuous
100
AcDbLine
 10
-78532.94401361289
 20
-74524.53517589463
 30
0.0
 11
-78561.9440136129
 21
-74524.53517589463
 31
0.0
  0
LINE
  5
3D6B8
330
1A
100
AcDbEntity
  8
HEWI
  6
Continuous
100
AcDbLine
 10
-78561.9440136129
 20
-74524.53517589463
 30
0.0
 11
-78590.94401361289
 21
-74524.53517589463
 31
0.0
  0
LINE
  5
3D6B9
330
1A
100
AcDbEntity
  8
HEWI
  6
Continuous
100
AcDbLine
 10
-78532.94401361289
 20
-74514.53517589463
 30
0.0
 11
-78590.94401361289
 21
-74514.53517589463
 31
0.0
  0
LINE
  5
3D6BA
330
1A
100
AcDbEntity
  8
HEWI
  6
Continuous
100
AcDbLine
 10
-78565.07651961289
 20
-74524.53517589463
 30
0.0
 11
-78564.67401361288
 21
-74524.53517589463
 31
0.0
  0
LINE
  5
3D6BB
330
1A
100
AcDbEntity
  8
HEWI
  6
Continuous
100
AcDbLine
 10
-78545.14401361288
 20
-74524.54517589461
 30
0.0
 11
-78578.74401361288
 21
-74524.54517589461
 31
0.0
  0
LINE
  5
3D6BC
330
1A
100
AcDbEntity
  8
HEWI
  6
Continuous
100
AcDbLine
 10
-78497.9440136129
 20
-74699.53517589464
 30
0.0
 11
-78497.9440136129
 21
-74692.03517589463
 31
0.0
  0
LINE
  5
3D6BD
330
1A
100
AcDbEntity
  8
HEWI
  6
Continuous
100
AcDbLine
 10
-78497.9440136129
 20
-74707.03517589464
 30
0.0
 11
-78497.9440136129
 21
-74699.53517589464
 31
0.0
  0
LINE
  5
3D6BE
330
1A
100
AcDbEntity
  8
HEWI
  6
Continuous
100
AcDbLine
 10
-78490.94401361289
 20
-74707.03517589464
 30
0.0
 11
-78490.94401361289
 21
-74692.03517589463
 31
0.0
  0
LINE
  5
3D6BF
330
1A
100
AcDbEntity
  8
HEWI
  6
Continuous
100
AcDbLine
 10
-78265.9440136129
 20
-74707.03517589464
 30
0.0
 11
-78265.9440136129
 21
-74692.03517589463
 31
0.0
  0
LINE
  5
3D6C0
330
1A
100
AcDbEntity
  8
HEWI
  6
Continuous
100
AcDbLine
 10
-78272.9440136129
 20
-74699.53517589464
 30
0.0
 11
-78272.9440136129
 21
-74692.03517589463
 31
0.0
  0
LINE
  5
3D6C1
330
1A
100
AcDbEntity
  8
HEWI
  6
Continuous
100
AcDbLine
 10
-78272.9440136129
 20
-74707.03517589464
 30
0.0
 11
-78272.9440136129
 21
-74699.53517589464
 31
0.0
  0
LINE
  5
3D6C2
330
1A
100
AcDbEntity
  8
HEWI
  6
Continuous
100
AcDbLine
 10
-78273.4440136129
 20
-74705.53517589463
 30
0.0
 11
-78276.4440136129
 21
-74705.53517589463
 31
0.0
  0
LINE
  5
3D6C3
330
1A
100
AcDbEntity
  8
HEWI
  6
Continuous
100
AcDbLine
 10
-78276.4440136129
 20
-74705.53517589463
 30
0.0
 11
-78276.4440136129
 21
-74693.53517589463
 31
0.0
  0
LINE
  5
3D6C4
330
1A
100
AcDbEntity
  8
HEWI
  6
Continuous
100
AcDbLine
 10
-78273.4440136129
 20
-74693.53517589463
 30
0.0
 11
-78273.4440136129
 21
-74705.53517589463
 31
0.0
  0
LINE
  5
3D6C5
330
1A
100
AcDbEntity
  8
HEWI
  6
Continuous
100
AcDbLine
 10
-78487.44401361289
 20
-74705.53517589463
 30
0.0
 11
-78490.4440136129
 21
-74705.53517589463
 31
0.0
  0
LINE
  5
3D6C6
330
1A
100
AcDbEntity
  8
HEWI
  6
Continuous
100
AcDbLine
 10
-78490.4440136129
 20
-74705.53517589463
 30
0.0
 11
-78490.4440136129
 21
-74693.53517589463
 31
0.0
  0
LINE
  5
3D6C7
330
1A
100
AcDbEntity
  8
HEWI
  6
Continuous
100
AcDbLine
 10
-78487.44401361289
 20
-74693.53517589463
 30
0.0
 11
-78487.44401361289
 21
-74705.53517589463
 31
0.0
  0
LINE
  5
3D6C8
330
1A
100
AcDbEntity
  8
HEWI
  6
Continuous
100
AcDbLine
 10
-78276.4440136129
 20
-74705.53517589463
 30
0.0
 11
-78281.94563961288
 21
-74705.53517589463
 31
0.0
  0
LINE
  5
3D6C9
330
1A
100
AcDbEntity
  8
HEWI
  6
Continuous
100
AcDbLine
 10
-78481.94238761289
 20
-74705.53517589463
 30
0.0
 11
-78487.44401361289
 21
-74705.53517589463
 31
0.0
  0
LINE
  5
3D6CA
330
1A
100
AcDbEntity
  8
HEWI
  6
Continuous
100
AcDbLine
 10
-78277.4440136129
 20
-74695.03517589464
 30
0.0
 11
-78277.4440136129
 21
-74704.03517589463
 31
0.0
  0
LINE
  5
3D6CB
330
1A
100
AcDbEntity
  8
HEWI
  6
Continuous
100
AcDbLine
 10
-78486.4440136129
 20
-74695.03517589464
 30
0.0
 11
-78486.4440136129
 21
-74699.53517589464
 31
0.0
  0
LINE
  5
3D6CC
330
1A
100
AcDbEntity
  8
HEWI
  6
Continuous
100
AcDbLine
 10
-78486.4440136129
 20
-74699.53517589464
 30
0.0
 11
-78486.4440136129
 21
-74704.03517589463
 31
0.0
  0
LINE
  5
3D6CD
330
1A
100
AcDbEntity
  8
HEWI
  6
Continuous
100
AcDbLine
 10
-78283.9440136129
 20
-74690.53517589463
 30
0.0
 11
-78479.94401361289
 21
-74690.53517589463
 31
0.0
  0
LINE
  5
3D6CE
330
1A
100
AcDbEntity
  8
HEWI
  6
Continuous
100
AcDbLine
 10
-78381.9440136129
 20
-74692.53517589463
 30
0.0
 11
-78281.94401361289
 21
-74692.53517589463
 31
0.0
  0
LINE
  5
3D6CF
330
1A
100
AcDbEntity
  8
HEWI
  6
Continuous
100
AcDbLine
 10
-78481.9440136129
 20
-74692.53517589463
 30
0.0
 11
-78381.9440136129
 21
-74692.53517589463
 31
0.0
  0
LINE
  5
3D6D0
330
1A
100
AcDbEntity
  8
HEWI
  6
Continuous
100
AcDbLine
 10
-78287.09709561287
 20
-74689.31578789463
 30
0.0
 11
-78476.79093361288
 21
-74689.31578789463
 31
0.0
  0
LINE
  5
3D6D1
330
1A
100
AcDbEntity
  8
HEWI
  6
Continuous
100
AcDbLine
 10
-78276.4440136129
 20
-74693.53517589463
 30
0.0
 11
-78273.4440136129
 21
-74693.53517589463
 31
0.0
  0
LINE
  5
3D6D2
330
1A
100
AcDbEntity
  8
HEWI
  6
Continuous
100
AcDbLine
 10
-78490.4440136129
 20
-74693.53517589463
 30
0.0
 11
-78487.44401361289
 21
-74693.53517589463
 31
0.0
  0
LINE
  5
3D6D3
330
1A
100
AcDbEntity
  8
HEWI
  6
Continuous
100
AcDbLine
 10
-78487.44401361289
 20
-74693.53517589463
 30
0.0
 11
-78481.94238761289
 21
-74693.53517589463
 31
0.0
  0
LINE
  5
3D6D4
330
1A
100
AcDbEntity
  8
HEWI
  6
Continuous
100
AcDbLine
 10
-78281.94563961288
 20
-74693.53517589463
 30
0.0
 11
-78276.4440136129
 21
-74693.53517589463
 31
0.0
  0
LINE
  5
3D6D5
330
1A
100
AcDbEntity
  8
HEWI
  6
Continuous
100
AcDbLine
 10
-78561.1115196129
 20
-74524.53517589463
 30
0.0
 11
-78561.45901361288
 21
-74524.53517589463
 31
0.0
  0
LINE
  5
3D6D6
330
1A
100
AcDbEntity
  8
HEWI
  6
Continuous
100
AcDbLine
 10
-78562.01150761289
 20
-74524.53517589463
 30
0.0
 11
-78562.79150761288
 21
-74524.53517589463
 31
0.0
  0
LINE
  5
3D6D7
330
1A
100
AcDbEntity
  8
HEWI
  6
Continuous
100
AcDbLine
 10
-78560.60401361287
 20
-74524.53517589463
 30
0.0
 11
-78560.2840136129
 21
-74524.53517589463
 31
0.0
  0
LINE
  5
3D6D8
330
1A
100
AcDbEntity
  8
HEWI
  6
Continuous
100
AcDbLine
 10
-78560.92901361289
 20
-74524.53517589463
 30
0.0
 11
-78560.60401361287
 21
-74524.53517589463
 31
0.0
  0
LINE
  5
3D6D9
330
1A
100
AcDbEntity
  8
HEWI
  6
Continuous
100
AcDbLine
 10
-78560.09150761287
 20
-74524.53517589463
 30
0.0
 11
-78560.3965196129
 21
-74524.53517589463
 31
0.0
  0
LINE
  5
3D6DA
330
1A
100
AcDbEntity
  8
HEWI
  6
Continuous
100
AcDbLine
 10
-78564.67401361288
 20
-74524.53517589463
 30
0.0
 11
-78563.8665196129
 21
-74524.53517589463
 31
0.0
  0
LINE
  5
3D6DB
330
1A
100
AcDbEntity
  8
HEWI
  6
Continuous
100
AcDbLine
 10
-78563.1940136129
 20
-74524.53517589463
 30
0.0
 11
-78561.9440136129
 21
-74524.53517589463
 31
0.0
  0
LINE
  5
3D6DC
330
1A
100
AcDbEntity
  8
HEWI
  6
Continuous
100
AcDbLine
 10
-78559.18401361289
 20
-74524.53517589463
 30
0.0
 11
-78558.76901361288
 21
-74524.53517589463
 31
0.0
  0
LINE
  5
3D6DD
330
1A
100
AcDbEntity
  8
HEWI
  6
Continuous
100
AcDbLine
 10
-78561.8840136129
 20
-74524.53517589463
 30
0.0
 11
-78561.32151961289
 21
-74524.53517589463
 31
0.0
  0
LINE
  5
3D6DE
330
1A
100
AcDbEntity
  8
HEWI
  6
Continuous
100
AcDbLine
 10
-78562.79150761288
 20
-74524.53517589463
 30
0.0
 11
-78561.9440136129
 21
-74524.53517589463
 31
0.0
  0
LINE
  5
3D6DF
330
1A
100
AcDbEntity
  8
HEWI
  6
Continuous
100
AcDbLine
 10
-78561.32151961289
 20
-74524.53517589463
 30
0.0
 11
-78560.92901361289
 21
-74524.53517589463
 31
0.0
  0
LINE
  5
3D6E0
330
1A
100
AcDbEntity
  8
HEWI
  6
Continuous
100
AcDbLine
 10
-78563.8665196129
 20
-74524.53517589463
 30
0.0
 11
-78563.46401361289
 21
-74524.53517589463
 31
0.0
  0
LINE
  5
3D6E1
330
1A
100
AcDbEntity
  8
HEWI
  6
Continuous
100
AcDbLine
 10
-78561.9440136129
 20
-74524.53517589463
 30
0.0
 11
-78562.79150761288
 21
-74524.53517589463
 31
0.0
  0
LINE
  5
3D6E2
330
1A
100
AcDbEntity
  8
HEWI
  6
Continuous
100
AcDbLine
 10
-78561.45901361288
 20
-74524.53517589463
 30
0.0
 11
-78561.8840136129
 21
-74524.53517589463
 31
0.0
  0
LINE
  5
3D6E3
330
1A
100
AcDbEntity
  8
HEWI
  6
Continuous
100
AcDbLine
 10
-78560.3965196129
 20
-74524.53517589463
 30
0.0
 11
-78560.80401361288
 21
-74524.53517589463
 31
0.0
  0
LINE
  5
3D6E4
330
1A
100
AcDbEntity
  8
HEWI
  6
Continuous
100
AcDbLine
 10
-78558.76901361288
 20
-74524.53517589463
 30
0.0
 11
-78559.18401361289
 21
-74524.53517589463
 31
0.0
  0
LINE
  5
3D6E5
330
1A
100
AcDbEntity
  8
HEWI
  6
Continuous
100
AcDbLine
 10
-78559.89150761289
 20
-74524.53517589463
 30
0.0
 11
-78559.29150761288
 21
-74524.53517589463
 31
0.0
  0
LINE
  5
3D6E6
330
1A
100
AcDbEntity
  8
HEWI
  6
Continuous
100
AcDbLine
 10
-78562.79150761288
 20
-74524.53517589463
 30
0.0
 11
-78562.01150761289
 21
-74524.53517589463
 31
0.0
  0
LINE
  5
3D6E7
330
1A
100
AcDbEntity
  8
HEWI
  6
Continuous
100
AcDbLine
 10
-78565.07651961289
 20
-74524.53517589463
 30
0.0
 11
-78564.67401361288
 21
-74524.53517589463
 31
0.0
  0
LINE
  5
3D6E8
330
1A
100
AcDbEntity
  8
HEWI
  6
Continuous
100
AcDbLine
 10
-78560.80401361288
 20
-74524.53517589463
 30
0.0
 11
-78561.1115196129
 21
-74524.53517589463
 31
0.0
  0
LINE
  5
3D6E9
330
1A
100
AcDbEntity
  8
HEWI
  6
Continuous
100
AcDbLine
 10
-78559.73401361287
 20
-74524.53517589463
 30
0.0
 11
-78560.09150761287
 21
-74524.53517589463
 31
0.0
  0
LINE
  5
3D6EA
330
1A
100
AcDbEntity
  8
HEWI
  6
Continuous
100
AcDbLine
 10
-78560.2840136129
 20
-74524.53517589463
 30
0.0
 11
-78559.89150761289
 21
-74524.53517589463
 31
0.0
  0
LINE
  5
3D6EB
330
1A
100
AcDbEntity
  8
HEWI
  6
Continuous
100
AcDbLine
 10
-78564.67401361288
 20
-74524.53517589463
 30
0.0
 11
-78563.8665196129
 21
-74524.53517589463
 31
0.0
  0
LINE
  5
3D6EC
330
1A
100
AcDbEntity
  8
HEWI
  6
Continuous
100
AcDbLine
 10
-78561.9440136129
 20
-74524.53517589463
 30
0.0
 11
-78563.1940136129
 21
-74524.53517589463
 31
0.0
  0
LINE
  5
3D6ED
330
1A
100
AcDbEntity
  8
HEWI
  6
Continuous
100
AcDbLine
 10
-78563.8665196129
 20
-74524.53517589463
 30
0.0
 11
-78563.46401361289
 21
-74524.53517589463
 31
0.0
  0
LINE
  5
3D6EE
330
1A
100
AcDbEntity
  8
HEWI
  6
Continuous
100
AcDbLine
 10
-77974.25413561289
 20
-74597.46417789462
 30
0.0
 11
-77979.20388361288
 21
-74600.32191589461
 31
0.0
  0
LINE
  5
3D6EF
330
1A
100
AcDbEntity
  8
HEWI
  6
Continuous
100
AcDbLine
 10
-78136.0453316129
 20
-74648.20197789463
 30
0.0
 11
-78136.05240361288
 21
-74648.19789589463
 31
0.0
  0
LINE
  5
3D6F0
330
1A
100
AcDbEntity
  8
HEWI
  6
Continuous
100
AcDbLine
 10
-78133.40402161289
 20
-74660.46565389463
 30
0.0
 11
-78140.69533161289
 21
-74656.25601389461
 31
0.0
  0
LINE
  5
3D6F1
330
1A
100
AcDbEntity
  8
HEWI
  6
Continuous
100
AcDbLine
 10
-78148.19533161289
 20
-74669.24639589463
 30
0.0
 11
-78136.77490761288
 21
-74675.83997989462
 31
0.0
  0
LINE
  5
3D6F2
330
1A
100
AcDbEntity
  8
HEWI
  6
Continuous
100
AcDbLine
 10
-77971.70388361288
 20
-74613.31229789463
 30
0.0
 11
-77966.75413561289
 21
-74610.45455789463
 31
0.0
  0
LINE
  5
3D6F3
330
1A
100
AcDbEntity
  8
HEWI
  6
Continuous
100
AcDbLine
 10
-77971.02926161288
 20
-74597.33434789463
 30
0.0
 11
-77971.2541556129
 21
-74597.46418989463
 31
0.0
  0
LINE
  5
3D6F4
330
1A
100
AcDbEntity
  8
HEWI
  6
Continuous
100
AcDbLine
 10
-77951.92213761288
 20
-74651.38281989463
 30
0.0
 11
-77943.43685561288
 21
-74656.28179989463
 31
0.0
  0
LINE
  5
3D6F5
330
1A
100
AcDbEntity
  8
HEWI
  6
Continuous
100
AcDbLine
 10
-78009.4955136129
 20
-74608.04185189462
 30
0.0
 11
-78009.4955136129
 21
-74615.05223989462
 31
0.0
  0
LINE
  5
3D6F6
330
1A
100
AcDbEntity
  8
HEWI
  6
Continuous
100
AcDbLine
 10
-78129.9524036129
 20
-74637.63238589461
 30
0.0
 11
-78137.02347161289
 21
-74633.54990189463
 31
0.0
  0
LINE
  5
3D6F7
330
1A
100
AcDbEntity
  8
HEWI
  6
Continuous
100
AcDbLine
 10
-78116.7747336129
 20
-74681.11829589463
 30
0.0
 11
-78116.7747336129
 21
-74664.78836389463
 31
0.0
  0
LINE
  5
3D6F8
330
1A
100
AcDbEntity
  8
HEWI
  6
Continuous
100
AcDbLine
 10
-78136.77473361289
 20
-74681.52654389462
 30
0.0
 11
-78136.77473361289
 21
-74697.85647589461
 31
0.0
  0
LINE
  5
3D6F9
330
1A
100
AcDbEntity
  8
HEWI
  6
Continuous
100
AcDbLine
 10
-78116.7747336129
 20
-74697.85647589461
 30
0.0
 11
-78116.7747336129
 21
-74681.52654389462
 31
0.0
  0
LINE
  5
3D6FA
330
1A
100
AcDbEntity
  8
HEWI
  6
Continuous
100
AcDbLine
 10
-77838.3650016129
 20
-74475.78175189464
 30
0.0
 11
-77848.3792436129
 21
-74470.00002589462
 31
0.0
  0
LINE
  5
3D6FB
330
1A
100
AcDbEntity
  8
HEWI
  6
Continuous
100
AcDbLine
 10
-77816.87165561289
 20
-74520.45576789461
 30
0.0
 11
-77816.57973161287
 21
-74520.28722389463
 31
0.0
  0
LINE
  5
3D6FC
330
1A
100
AcDbEntity
  8
HEWI
  6
Continuous
100
AcDbLine
 10
-77883.42949561289
 20
-74668.87084589464
 30
0.0
 11
-77883.42949561289
 21
-74652.54091589462
 31
0.0
  0
LINE
  5
3D6FD
330
1A
100
AcDbEntity
  8
HEWI
  6
Continuous
100
AcDbLine
 10
-77989.4955136129
 20
-74598.31405989463
 30
0.0
 11
-77989.4955136129
 21
-74591.30367189464
 31
0.0
  0
LINE
  5
3D6FE
330
1A
100
AcDbEntity
  8
HEWI
  6
Continuous
100
AcDbLine
 10
-78136.77473361289
 20
-74674.83029389462
 30
0.0
 11
-78136.77473361289
 21
-74681.11829589463
 31
0.0
  0
LINE
  5
3D6FF
330
1A
100
AcDbEntity
  8
HEWI
  6
Continuous
100
AcDbLine
 10
-78136.77473361289
 20
-74664.78836389463
 30
0.0
 11
-78136.77473361289
 21
-74670.96651189462
 31
0.0
  0
LINE
  5
3D700
330
1A
100
AcDbEntity
  8
HEWI
  6
Continuous
100
AcDbLine
 10
-78166.02347161289
 20
-74683.77937589462
 30
0.0
 11
-78158.9524036129
 21
-74687.86185789462
 31
0.0
  0
LINE
  5
3D701
330
1A
100
AcDbEntity
  8
HEWI
  6
Continuous
100
AcDbLine
 10
-78152.8524036129
 20
-74677.29634989462
 30
0.0
 11
-78152.84533161289
 21
-74677.30043189462
 31
0.0
  0
LINE
  5
3D702
330
1A
100
AcDbEntity
  8
HEWI
  6
Continuous
100
AcDbLine
 10
-77948.3792436129
 20
-74643.20510789463
 30
0.0
 11
-77938.36500161289
 21
-74648.98683189463
 31
0.0
  0
LINE
  5
3D703
330
1A
100
AcDbEntity
  8
HEWI
  6
Continuous
100
AcDbLine
 10
-77903.42949561289
 20
-74657.59120189461
 30
0.0
 11
-77903.42949561289
 21
-74668.87084589464
 31
0.0
  0
LINE
  5
3D704
330
1A
100
AcDbEntity
  8
HEWI
  6
Continuous
100
AcDbLine
 10
-77980.74548361287
 20
-74603.36576789462
 30
0.0
 11
-77990.09661561289
 21
-74597.96688989461
 31
0.0
  0
LINE
  5
3D705
330
1A
100
AcDbEntity
  8
HEWI
  6
Continuous
100
AcDbLine
 10
-77996.09786961289
 20
-74608.35847189462
 30
0.0
 11
-77972.0043616129
 21
-74622.26886389461
 31
0.0
  0
LINE
  5
3D706
330
1A
100
AcDbEntity
  8
HEWI
  6
Continuous
100
AcDbLine
 10
-77908.18345761287
 20
-74659.11588189461
 30
0.0
 11
-77903.42975161289
 21
-74661.86043389463
 31
0.0
  0
LINE
  5
3D707
330
1A
100
AcDbEntity
  8
HEWI
  6
Continuous
100
AcDbLine
 10
-78009.4955136129
 20
-74591.30367189464
 30
0.0
 11
-78009.4955136129
 21
-74607.63360389463
 31
0.0
  0
LINE
  5
3D708
330
1A
100
AcDbEntity
  8
HEWI
  6
Continuous
100
AcDbLine
 10
-77815.15510961289
 20
-74505.60831189463
 30
0.0
 11
-77818.21498161289
 21
-74507.37492989462
 31
0.0
  0
LINE
  5
3D709
330
1A
100
AcDbEntity
  8
HEWI
  6
Continuous
100
AcDbLine
 10
-77812.52071161288
 20
-74521.40784989461
 30
0.0
 11
-77807.65510961288
 21
-74518.59869389461
 31
0.0
  0
LINE
  5
3D70A
330
1A
100
AcDbEntity
  8
HEWI
  6
Continuous
100
AcDbLine
 10
-77888.42949561288
 20
-74652.54088989463
 30
0.0
 11
-77888.42949561288
 21
-74650.46646589462
 31
0.0
  0
LINE
  5
3D70B
330
1A
100
AcDbEntity
  8
HEWI
  6
Continuous
100
AcDbLine
 10
-78008.89750761288
 20
-74614.70685789461
 30
0.0
 11
-78116.77384161288
 21
-74676.98928789461
 31
0.0
  0
LINE
  5
3D70C
330
1A
100
AcDbEntity
  8
HEWI
  6
Continuous
100
AcDbLine
 10
-78116.7742176129
 20
-74690.84591189462
 30
0.0
 11
-78002.8977616129
 21
-74625.09930989462
 31
0.0
  0
LINE
  5
3D70D
330
1A
100
AcDbEntity
  8
HEWI
  6
Continuous
100
AcDbLine
 10
-77989.4955136129
 20
-74624.37178189463
 30
0.0
 11
-77989.4955136129
 21
-74612.17051789462
 31
0.0
  0
LINE
  5
3D70E
330
1A
100
AcDbEntity
  8
HEWI
  6
Continuous
100
AcDbLine
 10
-78142.57679761288
 20
-74642.06832389462
 30
0.0
 11
-78142.88969761287
 21
-74642.24897589463
 31
0.0
  0
LINE
  5
3D70F
330
1A
100
AcDbEntity
  8
HEWI
  6
Continuous
100
AcDbLine
 10
-78146.66741961287
 20
-74646.06303789462
 30
0.0
 11
-78146.66741961287
 21
-74644.43004389464
 31
0.0
  0
LINE
  5
3D710
330
1A
100
AcDbEntity
  8
HEWI
  6
Continuous
100
AcDbLine
 10
-78146.66741961287
 20
-74646.06303789462
 30
0.0
 11
-78146.3828056129
 21
-74645.89871589462
 31
0.0
  0
LINE
  5
3D711
330
1A
100
AcDbEntity
  8
HEWI
  6
Continuous
100
AcDbLine
 10
-78142.20733961288
 20
-74643.48800989463
 30
0.0
 11
-78142.20733961288
 21
-74641.85501589462
 31
0.0
  0
LINE
  5
3D712
330
1A
100
AcDbEntity
  8
HEWI
  6
Continuous
100
AcDbLine
 10
-78144.4524036129
 20
-74644.78419789464
 30
0.0
 11
-78144.4524036129
 21
-74644.51067189463
 31
0.0
  0
LINE
  5
3D713
330
1A
100
AcDbEntity
  8
HEWI
  6
Continuous
100
AcDbLine
 10
-77812.4657696129
 20
-74517.61485589463
 30
0.0
 11
-77814.58708961287
 21
-74518.83959989464
 31
0.0
  0
LINE
  5
3D714
330
1A
100
AcDbEntity
  8
HEWI
  6
Continuous
100
AcDbLine
 10
-77963.78662161288
 20
-74604.97998989462
 30
0.0
 11
-77965.29047161288
 21
-74605.84823789464
 31
0.0
  0
LINE
  5
3D715
330
1A
100
AcDbEntity
  8
HEWI
  6
Continuous
100
AcDbLine
 10
-77963.78662161288
 20
-74604.97998989462
 30
0.0
 11
-77963.78662161288
 21
-74605.38823789462
 31
0.0
  0
LINE
  5
3D716
330
1A
100
AcDbEntity
  8
HEWI
  6
Continuous
100
AcDbLine
 10
-77814.58708961287
 20
-74518.83959989464
 30
0.0
 11
-77814.58708961287
 21
-74519.24784789463
 31
0.0
  0
LINE
  5
3D717
330
1A
100
AcDbEntity
  8
HEWI
  6
Continuous
100
AcDbLine
 10
-77812.4657696129
 20
-74518.02310389462
 30
0.0
 11
-77812.4657696129
 21
-74517.61485589463
 31
0.0
  0
LINE
  5
3D718
330
1A
100
AcDbEntity
  8
HEWI
  6
Continuous
100
AcDbLine
 10
-77998.08129961288
 20
-74605.18477589464
 30
0.0
 11
-77998.08129961288
 21
-74605.18411389463
 31
0.0
  0
LINE
  5
3D719
330
1A
100
AcDbEntity
  8
HEWI
  6
Continuous
100
AcDbLine
 10
-77815.6674536129
 20
-74518.62409989462
 30
0.0
 11
-77814.58708961287
 21
-74519.24784789463
 31
0.0
  0
LINE
  5
3D71A
330
1A
100
AcDbEntity
  8
HEWI
  6
Continuous
100
AcDbLine
 10
-78143.86374161288
 20
-74643.94218789461
 30
0.0
 11
-78144.10945761288
 21
-74642.95320389462
 31
0.0
  0
LINE
  5
3D71B
330
1A
100
AcDbEntity
  8
HEWI
  6
Continuous
100
AcDbLine
 10
-78144.50012761287
 20
-74643.82990789461
 30
0.0
 11
-78145.05167161289
 21
-74644.14834189462
 31
0.0
  0
LINE
  5
3D71C
330
1A
100
AcDbEntity
  8
HEWI
  6
Continuous
100
AcDbLine
 10
-78143.50487961288
 20
-74643.12262589462
 30
0.0
 11
-78143.2786056129
 21
-74644.10650589461
 31
0.0
  0
LINE
  5
3D71D
330
1A
100
AcDbEntity
  8
HEWI
  6
Continuous
100
AcDbLine
 10
-78144.4524036129
 20
-74643.43697789461
 30
0.0
 11
-78144.4524036129
 21
-74643.15120389462
 31
0.0
  0
LINE
  5
3D71E
330
1A
100
AcDbEntity
  8
HEWI
  6
Continuous
100
AcDbLine
 10
-78145.52720561289
 20
-74645.40473389461
 30
0.0
 11
-78145.52720561289
 21
-74643.77174189461
 31
0.0
  0
LINE
  5
3D71F
330
1A
100
AcDbEntity
  8
HEWI
  6
Continuous
100
AcDbLine
 10
-78143.73468961287
 20
-74644.36982589464
 30
0.0
 11
-78143.50487961288
 21
-74643.12262589462
 31
0.0
  0
LINE
  5
3D720
330
1A
100
AcDbEntity
  8
HEWI
  6
Continuous
100
AcDbLine
 10
-78143.1424836129
 20
-74643.53393389464
 30
0.0
 11
-78143.35815961289
 21
-74642.51944189462
 31
0.0
  0
LINE
  5
3D721
330
1A
100
AcDbEntity
  8
HEWI
  6
Continuous
100
AcDbLine
 10
-78146.3828056129
 20
-74645.17611589462
 30
0.0
 11
-78145.81182161288
 21
-74644.84645789461
 31
0.0
  0
LINE
  5
3D722
330
1A
100
AcDbEntity
  8
HEWI
  6
Continuous
100
AcDbLine
 10
-78145.05167161289
 20
-74644.85665789463
 30
0.0
 11
-78145.05167161289
 21
-74644.40758589462
 31
0.0
  0
LINE
  5
3D723
330
1A
100
AcDbEntity
  8
HEWI
  6
Continuous
100
AcDbLine
 10
-78146.3828056129
 20
-74644.26572189461
 30
0.0
 11
-78146.3828056129
 21
-74644.91687189463
 31
0.0
  0
LINE
  5
3D724
330
1A
100
AcDbEntity
  8
HEWI
  6
Continuous
100
AcDbLine
 10
-78145.33628761288
 20
-74645.29450789462
 30
0.0
 11
-78144.4524036129
 21
-74644.78419789464
 31
0.0
  0
LINE
  5
3D725
330
1A
100
AcDbEntity
  8
HEWI
  6
Continuous
100
AcDbLine
 10
-78142.50078961288
 20
-74643.65743189463
 30
0.0
 11
-78142.20733961288
 21
-74643.48800989463
 31
0.0
  0
LINE
  5
3D726
330
1A
100
AcDbEntity
  8
HEWI
  6
Continuous
100
AcDbLine
 10
-78144.4099776129
 20
-74643.12670989461
 30
0.0
 11
-78144.01223361288
 21
-74644.53006589463
 31
0.0
  0
LINE
  5
3D727
330
1A
100
AcDbEntity
  8
HEWI
  6
Continuous
100
AcDbLine
 10
-78145.05167161289
 20
-74643.78296589463
 30
0.0
 11
-78144.4524036129
 21
-74643.43697789461
 31
0.0
  0
LINE
  5
3D728
330
1A
100
AcDbEntity
  8
HEWI
  6
Continuous
100
AcDbLine
 10
-78144.01223361288
 20
-74644.53006589463
 30
0.0
 11
-78143.73468961287
 21
-74644.36982589464
 31
0.0
  0
LINE
  5
3D729
330
1A
100
AcDbEntity
  8
HEWI
  6
Continuous
100
AcDbLine
 10
-78145.81182161288
 20
-74645.56905789462
 30
0.0
 11
-78145.52720561289
 21
-74645.40473389461
 31
0.0
  0
LINE
  5
3D72A
330
1A
100
AcDbEntity
  8
HEWI
  6
Continuous
100
AcDbLine
 10
-78144.50012761287
 20
-74644.08915189463
 30
0.0
 11
-78144.50012761287
 21
-74643.82990789461
 31
0.0
  0
LINE
  5
3D72B
330
1A
100
AcDbEntity
  8
HEWI
  6
Continuous
100
AcDbLine
 10
-78144.4524036129
 20
-74644.51067189463
 30
0.0
 11
-78145.05167161289
 21
-74644.85665789463
 31
0.0
  0
LINE
  5
3D72C
330
1A
100
AcDbEntity
  8
HEWI
  6
Continuous
100
AcDbLine
 10
-78145.81182161288
 20
-74644.58721389463
 30
0.0
 11
-78145.81182161288
 21
-74643.93606389464
 31
0.0
  0
LINE
  5
3D72D
330
1A
100
AcDbEntity
  8
HEWI
  6
Continuous
100
AcDbLine
 10
-78144.10945761288
 20
-74642.95320389462
 30
0.0
 11
-78144.4099776129
 21
-74643.12670989461
 31
0.0
  0
LINE
  5
3D72E
330
1A
100
AcDbEntity
  8
HEWI
  6
Continuous
100
AcDbLine
 10
-78146.3828056129
 20
-74645.89871589462
 30
0.0
 11
-78146.3828056129
 21
-74645.17611589462
 31
0.0
  0
LINE
  5
3D72F
330
1A
100
AcDbEntity
  8
HEWI
  6
Continuous
100
AcDbLine
 10
-78145.81182161288
 20
-74644.84645789461
 30
0.0
 11
-78145.81182161288
 21
-74645.56905789462
 31
0.0
  0
LINE
  5
3D730
330
1A
100
AcDbEntity
  8
HEWI
  6
Continuous
100
AcDbLine
 10
-78143.35815961289
 20
-74642.51944189462
 30
0.0
 11
-78143.6463016129
 21
-74642.68580189462
 31
0.0
  0
LINE
  5
3D731
330
1A
100
AcDbEntity
  8
HEWI
  6
Continuous
100
AcDbLine
 10
-78142.20733961288
 20
-74641.85501589462
 30
0.0
 11
-78142.50078961288
 21
-74642.02443989464
 31
0.0
  0
LINE
  5
3D732
330
1A
100
AcDbEntity
  8
HEWI
  6
Continuous
100
AcDbLine
 10
-78145.05167161289
 20
-74644.14834189462
 30
0.0
 11
-78145.05167161289
 21
-74643.78296589463
 31
0.0
  0
LINE
  5
3D733
330
1A
100
AcDbEntity
  8
HEWI
  6
Continuous
100
AcDbLine
 10
-78143.00106161288
 20
-74643.94626589461
 30
0.0
 11
-78142.57679761288
 21
-74642.06832389462
 31
0.0
  0
LINE
  5
3D734
330
1A
100
AcDbEntity
  8
HEWI
  6
Continuous
100
AcDbLine
 10
-78145.05167161289
 20
-74644.40758589462
 30
0.0
 11
-78144.50012761287
 21
-74644.08915189463
 31
0.0
  0
LINE
  5
3D735
330
1A
100
AcDbEntity
  8
HEWI
  6
Continuous
100
AcDbLine
 10
-78146.66741961287
 20
-74644.43004389464
 30
0.0
 11
-78146.3828056129
 21
-74644.26572189461
 31
0.0
  0
LINE
  5
3D736
330
1A
100
AcDbEntity
  8
HEWI
  6
Continuous
100
AcDbLine
 10
-78142.50078961288
 20
-74642.02443989464
 30
0.0
 11
-78142.50078961288
 21
-74643.65743189463
 31
0.0
  0
LINE
  5
3D737
330
1A
100
AcDbEntity
  8
HEWI
  6
Continuous
100
AcDbLine
 10
-78143.6463016129
 20
-74642.68580189462
 30
0.0
 11
-78143.86374161288
 21
-74643.94218789461
 31
0.0
  0
LINE
  5
3D738
330
1A
100
AcDbEntity
  8
HEWI
  6
Continuous
100
AcDbLine
 10
-78142.88969761287
 20
-74642.24897589463
 30
0.0
 11
-78143.1424836129
 21
-74643.53393389464
 31
0.0
  0
LINE
  5
3D739
330
1A
100
AcDbEntity
  8
HEWI
  6
Continuous
100
AcDbLine
 10
-78145.33628761288
 20
-74643.66151389463
 30
0.0
 11
-78145.33628761288
 21
-74645.29450789462
 31
0.0
  0
LINE
  5
3D73A
330
1A
100
AcDbEntity
  8
HEWI
  6
Continuous
100
AcDbLine
 10
-78143.2786056129
 20
-74644.10650589461
 30
0.0
 11
-78143.00106161288
 21
-74643.94626589461
 31
0.0
  0
LINE
  5
3D73B
330
1A
100
AcDbEntity
  8
HEWI
  6
Continuous
100
AcDbLine
 10
-78146.3828056129
 20
-74644.91687189463
 30
0.0
 11
-78145.81182161288
 21
-74644.58721389463
 31
0.0
  0
LINE
  5
3D73C
330
1A
100
AcDbEntity
  8
HEWI
  6
Continuous
100
AcDbLine
 10
-78144.4524036129
 20
-74643.15120389462
 30
0.0
 11
-78145.33628761288
 21
-74643.66151389463
 31
0.0
  0
LINE
  5
3D73D
330
1A
100
AcDbEntity
  8
HEWI
  6
Continuous
100
AcDbLine
 10
-78145.81182161288
 20
-74643.93606389464
 30
0.0
 11
-78145.52720561289
 21
-74643.77174189461
 31
0.0
  0
ARC
  5
3D73F
330
1A
100
AcDbEntity
  8
HEWI
  6
Continuous
100
AcDbCircle
 10
-78277.4440136129
 20
-74291.74947989463
 30
0.0
 40
4.5
100
AcDbArc
 50
90.0
 51
270.0
  0
ARC
  5
3D740
330
1A
100
AcDbEntity
  8
HEWI
  6
Continuous
100
AcDbCircle
 10
-78486.4440136129
 20
-74291.74947989463
 30
0.0
 40
4.5
100
AcDbArc
 50
270.0
 51
90.0
  0
CIRCLE
  5
3D741
330
1A
100
AcDbEntity
  8
HEWI
  6
Continuous
100
AcDbCircle
 10
78381.9440136129
 20
-74291.74947989463
 30
0.0
 40
100.0
210
0.0
220
0.0
230
-1.0
  0
ARC
  5
3D742
330
1A
100
AcDbEntity
  8
HEWI
  6
Continuous
100
AcDbCircle
 10
78561.9440136129
 20
-74415.74947989463
 30
0.0
 40
29.0
210
0.0
220
0.0
230
-1.0
100
AcDbArc
 50
89.99999900031777
 51
180.0
  0
ARC
  5
3D743
330
1A
100
AcDbEntity
  8
HEWI
  6
Continuous
100
AcDbCircle
 10
78561.9440136129
 20
-74415.74947989463
 30
0.0
 40
29.0
210
0.0
220
0.0
230
-1.0
100
AcDbArc
 50
180.0
 51
210.0037489997653
  0
ARC
  5
3D744
330
1A
100
AcDbEntity
  8
HEWI
  6
Continuous
100
AcDbCircle
 10
78561.9440136129
 20
-74415.74947989463
 30
0.0
 40
29.0
210
0.0
220
0.0
230
-1.0
100
AcDbArc
 50
246.0374989995518
 51
249.8287489997924
  0
ARC
  5
3D745
330
1A
100
AcDbEntity
  8
HEWI
  6
Continuous
100
AcDbCircle
 10
78561.9440136129
 20
-74415.74947989463
 30
0.0
 40
29.0
210
0.0
220
0.0
230
-1.0
100
AcDbArc
 50
290.1712489998253
 51
89.99999900031777
  0
CIRCLE
  5
3D746
330
1A
100
AcDbEntity
  8
HEWI
  6
Continuous
100
AcDbCircle
 10
78381.9440136129
 20
-74291.74947989463
 30
0.0
 40
95.0
210
0.0
220
0.0
230
-1.0
  0
ARC
  5
3D747
330
1A
100
AcDbEntity
  8
HEWI
  6
Continuous
100
AcDbCircle
 10
-78561.9440136129
 20
-74415.74947989463
 30
0.0
 40
16.8
100
AcDbArc
 50
306.5343779998376
 51
233.4656260002944
  0
ARC
  5
3D748
330
1A
100
AcDbEntity
  8
HEWI
  6
Continuous
100
AcDbCircle
 10
-78381.9440136129
 20
-74292.24947989463
 30
0.0
 40
108.5
100
AcDbArc
 50
180.0
 51
0.0
  0
ARC
  5
3D749
330
1A
100
AcDbEntity
  8
HEWI
  6
Continuous
100
AcDbCircle
 10
78381.9440136129
 20
-74292.24947989463
 30
0.0
 40
105.5
210
0.0
220
0.0
230
-1.0
100
AcDbArc
 50
180.0
 51
0.0
  0
ARC
  5
3D74A
330
1A
100
AcDbEntity
  8
HEWI
  6
Continuous
100
AcDbCircle
 10
-78017.70040961288
 20
-74389.74947989462
 30
0.0
 40
2.0
100
AcDbArc
 50
180.0
 51
270.0
  0
ARC
  5
3D74B
330
1A
100
AcDbEntity
  8
HEWI
  6
Continuous
100
AcDbCircle
 10
-78017.70040961288
 20
-74193.74947989463
 30
0.0
 40
2.0
100
AcDbArc
 50
90.0
 51
180.0
  0
ARC
  5
3D74C
330
1A
100
AcDbEntity
  8
HEWI
  6
Continuous
100
AcDbCircle
 10
-78003.53813161287
 20
-74388.91175589462
 30
0.0
 40
2.837722339831626
100
AcDbArc
 50
270.0
 51
0.0
  0
ARC
  5
3D74D
330
1A
100
AcDbEntity
  8
HEWI
  6
Continuous
100
AcDbCircle
 10
78024.38670161288
 20
-74389.74947989462
 30
0.0
 40
4.686291501015257
210
0.0
220
0.0
230
-1.0
100
AcDbArc
 50
137.7140830000746
 51
180.0
  0
ARC
  5
3D74E
330
1A
100
AcDbEntity
  8
HEWI
  6
Continuous
100
AcDbCircle
 10
-78003.53813161287
 20
-74194.58720189462
 30
0.0
 40
2.837722339831626
100
AcDbArc
 50
0.0
 51
90.0
  0
ARC
  5
3D74F
330
1A
100
AcDbEntity
  8
HEWI
  6
Continuous
100
AcDbCircle
 10
78024.38670161288
 20
-74193.74947989463
 30
0.0
 40
4.686291501015257
210
0.0
220
0.0
230
-1.0
100
AcDbArc
 50
180.0
 51
222.2859169999254
  0
ARC
  5
3D750
330
1A
100
AcDbEntity
  8
HEWI
  6
Continuous
100
AcDbCircle
 10
-78018.70040961288
 20
-74198.92105189462
 30
0.0
 40
2.999999999999996
100
AcDbArc
 50
137.7140830000746
 51
180.0
  0
ARC
  5
3D751
330
1A
100
AcDbEntity
  8
HEWI
  6
Continuous
100
AcDbCircle
 10
-78018.70040961288
 20
-74384.57790589462
 30
0.0
 40
2.999999999999996
100
AcDbArc
 50
180.0
 51
222.2859169999254
  0
CIRCLE
  5
3D752
330
1A
100
AcDbEntity
  8
HEWI
  6
Continuous
100
AcDbCircle
 10
-78010.70040961288
 20
-74291.74947989463
 30
0.0
 40
7.5
  0
ARC
  5
3D753
330
1A
100
AcDbEntity
  8
HEWI
  6
Continuous
100
AcDbCircle
 10
-78486.4440136129
 20
-74699.53517589464
 30
0.0
 40
4.5
100
AcDbArc
 50
270.0
 51
90.0
  0
ARC
  5
3D754
330
1A
100
AcDbEntity
  8
HEWI
  6
Continuous
100
AcDbCircle
 10
-78277.4440136129
 20
-74699.53517589464
 30
0.0
 40
4.5
100
AcDbArc
 50
90.0
 51
270.0
  0
ARC
  5
3D755
330
1A
100
AcDbEntity
  8
HEWI
  6
Continuous
100
AcDbCircle
 10
-78479.10629161287
 20
-74706.69745389463
 30
0.0
 40
2.837722339831626
100
AcDbArc
 50
180.0
 51
270.0
  0
ARC
  5
3D756
330
1A
100
AcDbEntity
  8
HEWI
  6
Continuous
100
AcDbCircle
 10
-78284.78173561289
 20
-74706.69745389463
 30
0.0
 40
2.837722339831626
100
AcDbArc
 50
270.0
 51
0.0
  0
ARC
  5
3D757
330
1A
100
AcDbEntity
  8
HEWI
  6
Continuous
100
AcDbCircle
 10
-78479.94401361289
 20
-74692.53517589463
 30
0.0
 40
2.0
100
AcDbArc
 50
90.0
 51
180.0
  0
ARC
  5
3D758
330
1A
100
AcDbEntity
  8
HEWI
  6
Continuous
100
AcDbCircle
 10
-78283.9440136129
 20
-74692.53517589463
 30
0.0
 40
2.0
100
AcDbArc
 50
0.0
 51
90.0
  0
ARC
  5
3D759
330
1A
100
AcDbEntity
  8
HEWI
  6
Continuous
100
AcDbCircle
 10
78479.94401361289
 20
-74685.84888589462
 30
0.0000000000045777
 40
4.686291501015257
210
0.0
220
-0.0000000000000001
230
-1.0
100
AcDbArc
 50
227.7140830000746
 51
270.0
  0
ARC
  5
3D75A
330
1A
100
AcDbEntity
  8
HEWI
  6
Continuous
100
AcDbCircle
 10
78283.9440136129
 20
-74685.84888589462
 30
0.0000000000045777
 40
4.686291501015257
210
0.0
220
-0.0000000000000001
230
-1.0
100
AcDbArc
 50
270.0
 51
312.2859169999253
  0
ARC
  5
3D75B
330
1A
100
AcDbEntity
  8
HEWI
  6
Continuous
100
AcDbCircle
 10
-78474.77244161288
 20
-74691.53517589464
 30
0.0
 40
2.999999999999996
100
AcDbArc
 50
90.0
 51
132.2859169999254
  0
ARC
  5
3D75C
330
1A
100
AcDbEntity
  8
HEWI
  6
Continuous
100
AcDbCircle
 10
-78289.11558761287
 20
-74691.53517589464
 30
0.0
 40
2.999999999999996
100
AcDbArc
 50
47.71408300007464
 51
90.0
  0
CIRCLE
  5
3D75D
330
1A
100
AcDbEntity
  8
HEWI
  6
Continuous
100
AcDbCircle
 10
-78561.9440136129
 20
-74549.53517589463
 30
0.0
 40
10.0
  0
CIRCLE
  5
3D75E
330
1A
100
AcDbEntity
  8
HEWI
  6
Continuous
100
AcDbCircle
 10
-78381.9440136129
 20
-74549.53517589463
 30
0.0
 40
10.0
  0
ARC
  5
3D75F
330
1A
100
AcDbEntity
  8
HEWI
  6
Continuous
100
AcDbCircle
 10
-77967.3221556129
 20
-74602.12225189463
 30
0.0
 40
4.5
100
AcDbArc
 50
321.7743690001207
 51
98.22561800022121
  0
ELLIPSE
  5
3D760
330
1A
100
AcDbEntity
  8
HEWI
  6
Continuous
100
AcDbEllipse
 10
-78126.77473361289
 20
-74664.78836389463
 30
0.0
 11
-10.0
 21
0.0
 31
0.0
210
0.0
220
0.0000000000000001
230
1.0
 40
0.5773500000000001
 41
0.0
 42
6.283185307179585
  0
ELLIPSE
  5
3D761
330
1A
100
AcDbEntity
  8
HEWI
  6
Continuous
100
AcDbEllipse
 10
-77893.42949561288
 20
-74668.87084589464
 30
0.0
 11
10.0
 21
0.0
 31
0.0
210
0.0
220
0.0
230
1.0
 40
0.5773500000000001
 41
3.14159282590311
 42
6.283185307179585
  0
ELLIPSE
  5
3D762
330
1A
100
AcDbEntity
  8
HEWI
  6
Continuous
100
AcDbEllipse
 10
-77888.3650016129
 20
-74562.38429189463
 30
0.0
 11
-50.0
 21
-86.60254037844387
 31
0.0
210
0.0
220
0.0
230
1.0
 40
0.5773500000000001
 41
3.200890215947015
 42
3.926990828369954
  0
ELLIPSE
  5
3D763
330
1A
100
AcDbEntity
  8
HEWI
  6
Continuous
100
AcDbEllipse
 10
-77888.3650016129
 20
-74562.38429189463
 30
0.0
 11
-50.0
 21
-86.60254037844387
 31
0.0
210
0.0
220
0.0
230
1.0
 40
0.5773500000000001
 41
3.08298230655939
 42
3.20089021594702
  0
ELLIPSE
  5
3D764
330
1A
100
AcDbEntity
  8
HEWI
  6
Continuous
100
AcDbEllipse
 10
-77888.3650016129
 20
-74562.38429189463
 30
0.0
 11
-50.0
 21
-86.60254037844387
 31
0.0
210
0.0
220
0.0
230
1.0
 40
0.5773500000000001
 41
6.223396883850878
 42
6.283185307179585
  0
ELLIPSE
  5
3D765
330
1A
100
AcDbEntity
  8
HEWI
  6
Continuous
100
AcDbEllipse
 10
-77888.3650016129
 20
-74562.38429189463
 30
0.0
 11
-50.0
 21
-86.60254037844387
 31
0.0
210
0.0
220
0.0
230
1.0
 40
0.5773500000000001
 41
0.0
 42
0.0626354975329363
  0
ELLIPSE
  5
3D766
330
1A
100
AcDbEntity
  8
HEWI
  6
Continuous
100
AcDbEllipse
 10
-77888.3650016129
 20
-74562.38429189463
 30
0.0
 11
-50.0
 21
-86.60254037844387
 31
0.0
210
0.0
220
0.0
230
1.0
 40
0.5773500000000001
 41
3.926990828369976
 42
6.223396883850807
  0
ELLIPSE
  5
3D767
330
1A
100
AcDbEntity
  8
HEWI
  6
Continuous
100
AcDbEllipse
 10
-77999.4955136129
 20
-74591.30367189464
 30
0.0
 11
-10.0
 21
0.0
 31
0.0
210
0.0
220
0.0000000000000001
230
1.0
 40
0.5773500000000001
 41
0.0
 42
6.283185307179585
  0
ELLIPSE
  5
3D768
330
1A
100
AcDbEntity
  8
HEWI
  6
Continuous
100
AcDbEllipse
 10
-78144.4524036129
 20
-74662.74712189463
 30
0.0
 11
-14.49999999999999
 21
-25.11473670974873
 31
0.0
210
0.0
220
0.0
230
1.0
 40
0.5773500000000001
 41
2.030548744983808
 42
3.92699079965179
  0
ELLIPSE
  5
3D769
330
1A
100
AcDbEntity
  8
HEWI
  6
Continuous
100
AcDbEllipse
 10
-78144.4524036129
 20
-74662.74712189463
 30
0.0
 11
-14.49999999999999
 21
-25.11473670974873
 31
0.0
210
0.0
220
0.0
230
1.0
 40
0.5773500000000001
 41
3.926990799651823
 42
6.283185307179585
  0
ELLIPSE
  5
3D76A
330
1A
100
AcDbEntity
  8
HEWI
  6
Continuous
100
AcDbEllipse
 10
-78144.4524036129
 20
-74662.74712189463
 30
0.0
 11
-14.49999999999999
 21
-25.11473670974873
 31
0.0
210
0.0
220
0.0
230
1.0
 40
0.5773500000000001
 41
0.0
 42
1.169065162723764
  0
ELLIPSE
  5
3D76B
330
1A
100
AcDbEntity
  8
HEWI
  6
Continuous
100
AcDbEllipse
 10
-78151.52347161289
 20
-74658.66463989463
 30
0.0
 11
14.49999999999999
 21
25.11473670974873
 31
0.0
210
0.0
220
0.0
230
1.0
 40
0.5773500000000001
 41
0.0
 42
3.141592708234763
  0
ELLIPSE
  5
3D76C
330
1A
100
AcDbEntity
  8
HEWI
  6
Continuous
100
AcDbEllipse
 10
-77887.0655356129
 20
-74563.13453989463
 30
0.0
 11
-47.5
 21
-82.27241335952168
 31
0.0
210
0.0
220
0.0
230
1.0
 40
0.5773500000000001
 41
5.506132003568467
 42
6.283185307179585
  0
ELLIPSE
  5
3D76D
330
1A
100
AcDbEntity
  8
HEWI
  6
Continuous
100
AcDbEllipse
 10
-77887.0655356129
 20
-74563.13453989463
 30
0.0
 11
-47.5
 21
-82.27241335952168
 31
0.0
210
0.0
220
0.0
230
1.0
 40
0.5773500000000001
 41
0.0
 42
3.897145692436629
  0
ELLIPSE
  5
3D76E
330
1A
100
AcDbEntity
  8
HEWI
  6
Continuous
100
AcDbEllipse
 10
-78126.77473361289
 20
-74681.11829589463
 30
0.0
 11
10.0
 21
0.0
 31
0.0
210
0.0
220
0.0
230
1.0
 40
0.5773500000000001
 41
3.141690859978508
 42
6.283087273104107
  0
ELLIPSE
  5
3D76F
330
1A
100
AcDbEntity
  8
HEWI
  6
Continuous
100
AcDbEllipse
 10
-78144.44533161289
 20
-74662.75120389463
 30
0.0
 11
8.399999999999996
 21
14.54922678357857
 31
0.0
210
0.0
220
0.0
230
1.0
 40
0.5773500000000001
 41
3.926990838867799
 42
4.249691307283795
  0
ELLIPSE
  5
3D770
330
1A
100
AcDbEntity
  8
HEWI
  6
Continuous
100
AcDbEllipse
 10
-78144.44533161289
 20
-74662.75120389463
 30
0.0
 11
8.399999999999996
 21
14.54922678357857
 31
0.0
210
0.0
220
0.0
230
1.0
 40
0.5773500000000001
 41
5.193248986168129
 42
6.283185307179585
  0
ELLIPSE
  5
3D771
330
1A
100
AcDbEntity
  8
HEWI
  6
Continuous
100
AcDbEllipse
 10
-78144.44533161289
 20
-74662.75120389463
 30
0.0
 11
8.399999999999996
 21
14.54922678357857
 31
0.0
210
0.0
220
0.0
230
1.0
 40
0.5773500000000001
 41
0.0
 42
3.926990851793106
  0
ELLIPSE
  5
3D772
330
1A
100
AcDbEntity
  8
HEWI
  6
Continuous
100
AcDbEllipse
 10
-77999.4955136129
 20
-74624.37178189463
 30
0.0
 11
10.0
 21
0.0
 31
0.0
210
0.0
220
0.0
230
1.0
 40
0.5773500000000001
 41
3.775016399865576
 42
6.283185307179585
  0
ELLIPSE
  5
3D773
330
1A
100
AcDbEntity
  8
HEWI
  6
Continuous
100
AcDbEllipse
 10
-77893.42949561288
 20
-74652.54091589462
 30
0.0
 11
-10.0
 21
0.0
 31
0.0
210
0.0
220
0.0000000000000001
230
1.0
 40
0.5773500000000001
 41
2.356194379568881
 42
3.83774990991147
  0
ELLIPSE
  5
3D774
330
1A
100
AcDbEntity
  8
HEWI
  6
Continuous
100
AcDbEllipse
 10
-77893.42949561288
 20
-74652.54091589462
 30
0.0
 11
-10.0
 21
0.0
 31
0.0
210
0.0
220
0.0000000000000001
230
1.0
 40
0.5773500000000001
 41
0.7635051223229475
 42
2.356194379568881
  0
ELLIPSE
  5
3D775
330
1A
100
AcDbEntity
  8
HEWI
  6
Continuous
100
AcDbEllipse
 10
-77975.45388361288
 20
-74606.81710589463
 30
0.0
 11
3.75
 21
-6.495190528383288
 31
0.0
210
0.0
220
0.0
230
1.0
 40
0.5773500000000002
 41
0.0
 42
6.283185307179585
  0
ELLIPSE
  5
3D776
330
1A
100
AcDbEntity
  8
HEWI
  6
Continuous
100
AcDbEllipse
 10
-77970.50413561289
 20
-74603.95936789461
 30
0.0
 11
-3.75
 21
6.495190528383288
 31
0.0
210
0.0
220
0.0
230
1.0
 40
0.5773500000000002
 41
3.141592479492966
 42
6.283185307179585
  0
ELLIPSE
  5
3D777
330
1A
100
AcDbEntity
  8
HEWI
  6
Continuous
100
AcDbEllipse
 10
-77811.40510961289
 20
-74512.10350389462
 30
0.0
 11
-3.75
 21
6.495190528383288
 31
0.0
210
0.0
220
0.0
230
1.0
 40
0.5773500000000002
 41
3.14169085997852
 42
6.283087388574167
  0
ELLIPSE
  5
3D778
330
1A
100
AcDbEntity
  8
HEWI
  6
Continuous
100
AcDbEllipse
 10
-77816.3548576129
 20
-74514.96124189461
 30
0.0
 11
3.75
 21
-6.495190528383288
 31
0.0
210
0.0
220
0.0
230
1.0
 40
0.5773500000000002
 41
2.356194542868189
 42
2.689399662913395
  0
ELLIPSE
  5
3D779
330
1A
100
AcDbEntity
  8
HEWI
  6
Continuous
100
AcDbEllipse
 10
-77816.3548576129
 20
-74514.96124189461
 30
0.0
 11
3.75
 21
-6.495190528383288
 31
0.0
210
0.0
220
0.0
230
1.0
 40
0.5773500000000002
 41
0.0226782404755323
 42
2.356194542868193
  0
ELLIPSE
  5
3D77A
330
1A
100
AcDbEntity
  8
HEWI
  6
Continuous
100
AcDbEllipse
 10
-77818.82973161287
 20
-74516.39010989463
 30
0.0
 11
2.999999999999999
 21
-5.196152422706631
 31
0.0
210
0.0
220
0.0
230
1.0
 40
0.5773500000000001
 41
0.7853981633974462
 42
2.017098992031686
  0
ELLIPSE
  5
3D77B
330
1A
100
AcDbEntity
  8
HEWI
  6
Continuous
100
AcDbEllipse
 10
-77816.70840961288
 20
-74515.16536589463
 30
0.0
 11
-2.999999999999999
 21
5.196152422706631
 31
0.0
210
0.0
220
0.0
230
1.0
 40
0.5773500000000001
 41
3.926990816987241
 42
5.760257601899456
  0
ELLIPSE
  5
3D77C
330
1A
100
AcDbEntity
  8
HEWI
  6
Continuous
100
AcDbEllipse
 10
-77968.02926161289
 20
-74602.53049989463
 30
0.0
 11
-2.999999999999999
 21
5.196152422706631
 31
0.0
210
0.0
220
0.0
230
1.0
 40
0.5773500000000001
 41
3.926990816987241
 42
6.283185152517832
  0
ELLIPSE
  5
3D77D
330
1A
100
AcDbEntity
  8
HEWI
  6
Continuous
100
AcDbEllipse
 10
-77889.18685561287
 20
-74562.31804189463
 30
0.0
 11
54.24999999999998
 21
93.96375631061159
 31
0.0
210
0.0
220
0.0
230
1.0
 40
0.5773500000000001
 41
2.390261133234959
 42
5.497787143782137
  0
ELLIPSE
  5
3D77E
330
1A
100
AcDbEntity
  8
HEWI
  6
Continuous
100
AcDbEllipse
 10
-77889.18685561287
 20
-74562.31804189463
 30
0.0
 11
-52.74999999999999
 21
-91.36568009925829
 31
0.0
210
0.0
220
0.0
230
1.0
 40
0.5773500000000001
 41
5.497787143782138
 42
8.639379797371931
  0
ELLIPSE
  5
3D77F
330
1A
100
AcDbEntity
  8
HEWI
  6
Continuous
100
AcDbEllipse
 10
-77819.53683761289
 20
-74516.79835789462
 30
0.0
 11
-2.25
 21
3.897114317029973
 31
0.0
210
0.0
220
0.0
230
1.0
 40
0.5773500000000001
 41
3.363173184863076
 42
4.624228187727613
  0
ELLIPSE
  5
3D780
330
1A
100
AcDbEntity
  8
HEWI
  6
Continuous
100
AcDbEllipse
 10
-78126.77473361289
 20
-74697.85647589461
 30
0.0
 11
10.0
 21
0.0
 31
0.0
210
0.0
220
0.0
230
1.0
 40
0.5773500000000001
 41
3.141690859978508
 42
6.283185307179585
  0
ELLIPSE
  5
3D781
330
1A
100
AcDbEntity
  8
HEWI
  6
Continuous
100
AcDbEllipse
 10
-78126.77473361289
 20
-74681.52654389462
 30
0.0
 11
-10.0
 21
0.0
 31
0.0
210
0.0
220
0.0000000000000001
230
1.0
 40
0.5773500000000001
 41
2.356194379568881
 42
3.177033423216554
  0
ELLIPSE
  5
3D782
330
1A
100
AcDbEntity
  8
HEWI
  6
Continuous
100
AcDbEllipse
 10
-78126.77473361289
 20
-74681.52654389462
 30
0.0
 11
-10.0
 21
0.0
 31
0.0
210
0.0
220
0.0000000000000001
230
1.0
 40
0.5773500000000001
 41
6.247744363674124
 42
6.283185307179585
  0
ELLIPSE
  5
3D783
330
1A
100
AcDbEntity
  8
HEWI
  6
Continuous
100
AcDbEllipse
 10
-78126.77473361289
 20
-74681.52654389462
 30
0.0
 11
-10.0
 21
0.0
 31
0.0
210
0.0
220
0.0000000000000001
230
1.0
 40
0.5773500000000001
 41
0.0
 42
2.356194380829959
  0
ELLIPSE
  5
3D784
330
1A
100
AcDbEntity
  8
HEWI
  6
Continuous
100
AcDbEllipse
 10
-77999.4955136129
 20
-74608.04185189462
 30
0.0
 11
-10.0
 21
0.0
 31
0.0
210
0.0
220
0.0000000000000001
230
1.0
 40
0.5773500000000001
 41
2.356194379568881
 42
2.559121638669962
  0
ELLIPSE
  5
3D785
330
1A
100
AcDbEntity
  8
HEWI
  6
Continuous
100
AcDbEllipse
 10
-77999.4955136129
 20
-74608.04185189462
 30
0.0
 11
-10.0
 21
0.0
 31
0.0
210
0.0
220
0.0000000000000001
230
1.0
 40
0.5773500000000001
 41
6.247744363674124
 42
6.283185307179585
  0
ELLIPSE
  5
3D786
330
1A
100
AcDbEntity
  8
HEWI
  6
Continuous
100
AcDbEllipse
 10
-77999.4955136129
 20
-74608.04185189462
 30
0.0
 11
-10.0
 21
0.0
 31
0.0
210
0.0
220
0.0000000000000001
230
1.0
 40
0.5773500000000001
 41
0.0
 42
2.356194380829959
  0
ELLIPSE
  5
3D787
330
1A
100
AcDbEntity
  8
HEWI
  6
Continuous
100
AcDbEllipse
 10
-78144.44533161289
 20
-74662.75120389463
 30
0.0
 11
-3.75
 21
-6.495190528383288
 31
0.0
210
0.0
220
0.0
230
1.0
 40
0.5773500000000002
 41
3.141592479492953
 42
3.92699084469989
  0
ELLIPSE
  5
3D788
330
1A
100
AcDbEntity
  8
HEWI
  6
Continuous
100
AcDbEllipse
 10
-78144.44533161289
 20
-74662.75120389463
 30
0.0
 11
-3.75
 21
-6.495190528383288
 31
0.0
210
0.0
220
0.0
230
1.0
 40
0.5773500000000002
 41
3.926990844699906
 42
6.283185307179585
  0
ELLIPSE
  5
3D789
330
1A
100
AcDbEntity
  8
HEWI
  6
Continuous
100
AcDbEllipse
 10
-78144.4524036129
 20
-74662.74712189463
 30
0.0
 11
8.399999999999996
 21
14.54922678357857
 31
0.0
210
0.0
220
0.0
230
1.0
 40
0.5773500000000001
 41
0.0
 42
3.141592662729326
  0
ELLIPSE
  5
3D78A
330
1A
100
AcDbEntity
  8
HEWI
  6
Continuous
100
AcDbEllipse
 10
-77898.3792436129
 20
-74556.60256589461
 30
0.0
 11
-50.0
 21
-86.60254037844387
 31
0.0
210
0.0
220
0.0
230
1.0
 40
0.5773500000000001
 41
3.232011617128148
 42
3.926990828369956
  0
ELLIPSE
  5
3D78B
330
1A
100
AcDbEntity
  8
HEWI
  6
Continuous
100
AcDbEllipse
 10
-77898.3792436129
 20
-74556.60256589461
 30
0.0
 11
-50.0
 21
-86.60254037844387
 31
0.0
210
0.0
220
0.0
230
1.0
 40
0.5773500000000001
 41
3.141592652698033
 42
3.232011617128151
  0
ELLIPSE
  5
3D78C
330
1A
100
AcDbEntity
  8
HEWI
  6
Continuous
100
AcDbEllipse
 10
-77898.3792436129
 20
-74556.60256589461
 30
0.0
 11
-50.0
 21
-86.60254037844387
 31
0.0
210
0.0
220
0.0
230
1.0
 40
0.5773500000000001
 41
6.197282389429269
 42
6.283185307179585
  0
ELLIPSE
  5
3D78D
330
1A
100
AcDbEntity
  8
HEWI
  6
Continuous
100
AcDbEllipse
 10
-77898.3792436129
 20
-74556.60256589461
 30
0.0
 11
-50.0
 21
-86.60254037844387
 31
0.0
210
0.0
220
0.0
230
1.0
 40
0.5773500000000001
 41
6.055027154755236
 42
6.197282389429276
  0
ELLIPSE
  5
3D78E
330
1A
100
AcDbEntity
  8
HEWI
  6
Continuous
100
AcDbEllipse
 10
-77898.3792436129
 20
-74556.60256589461
 30
0.0
 11
-50.0
 21
-86.60254037844387
 31
0.0
210
0.0
220
0.0
230
1.0
 40
0.5773500000000001
 41
3.926990828369976
 42
5.494743726145087
  0
ELLIPSE
  5
3D78F
330
1A
100
AcDbEntity
  8
HEWI
  6
Continuous
100
AcDbEllipse
 10
-77893.42949561288
 20
-74652.54091589462
 30
0.0
 11
5.0
 21
0.0
 31
0.0
210
0.0
220
0.0
230
1.0
 40
0.5773500000000001
 41
4.025656371468917
 42
6.283185307179585
  0
ELLIPSE
  5
3D790
330
1A
100
AcDbEntity
  8
HEWI
  6
Continuous
100
AcDbEllipse
 10
-77999.4955136129
 20
-74607.63360389463
 30
0.0
 11
10.0
 21
0.0
 31
0.0
210
0.0
220
0.0
230
1.0
 40
0.5773500000000001
 41
3.141690859978508
 42
5.649761693034451
  0
ELLIPSE
  5
3D791
330
1A
100
AcDbEntity
  8
HEWI
  6
Continuous
100
AcDbEllipse
 10
-77818.82973161287
 20
-74516.39010989463
 30
0.0
 11
2.25
 21
-3.897114317029973
 31
0.0
210
0.0
220
0.0
230
1.0
 40
0.5773500000000001
 41
0.6740571490564897
 42
1.829843148289898
  0
ELLIPSE
  5
3D792
330
1A
100
AcDbEntity
  8
HEWI
  6
Continuous
100
AcDbEllipse
 10
-77897.67213761288
 20
-74557.41906389461
 30
0.0
 11
-54.24999999999998
 21
-93.96375631061159
 31
0.0
210
0.0
220
0.0
230
1.0
 40
0.5773500000000001
 41
5.637489850208786
 42
6.283185310187136
  0
ELLIPSE
  5
3D793
330
1A
100
AcDbEntity
  8
HEWI
  6
Continuous
100
AcDbEllipse
 10
-77897.67213761288
 20
-74557.41906389461
 30
0.0
 11
52.74999999999999
 21
91.36568009925829
 31
0.0
210
0.0
220
0.0
230
1.0
 40
0.5773500000000001
 41
3.222145049709088
 42
3.541949366842712
  0
SPLINE
  5
3D794
330
1A
100
AcDbEntity
  8
HEWI
  6
Continuous
100
AcDbSpline
210
0.0
220
0.0
230
1.0
 70
     8
 71
     3
 72
    16
 73
    12
 74
     0
 42
0.0000000001
 43
0.0000000001
 40
0.0
 40
0.0
 40
0.0
 40
0.0
 40
0.000039264725318
 40
0.000039264725318
 40
0.25003142513583
 40
0.25003142513583
 40
0.5000235855463421
 40
0.5000235855463421
 40
0.750015745956854
 40
0.750015745956854
 40
1.0
 40
1.0
 40
1.0
 40
1.0
 10
-78551.94403535296
 20
-74442.24944324575
 30
0.0
 10
-78551.94403432158
 20
-74442.24944495955
 30
0.0
 10
-78551.94403329189
 20
-74442.24944667435
 30
0.0
 10
-78551.94084666364
 20
-74442.25475773976
 30
0.0
 10
-78552.38181896939
 20
-74441.57335399666
 30
0.0
 10
-78553.39313742093
 20
-74439.41579572182
 30
0.0
 10
-78553.94038893914
 20
-74437.89902977131
 30
0.0
 10
-78553.94759977486
 20
-74434.63527828771
 30
0.0
 10
-78553.40341494698
 20
-74433.10844566802
 30
0.0
 10
-78552.38713961054
 20
-74430.9336491023
 30
0.0
 10
-78551.946113612
 20
-74430.25297513856
 30
0.0
 10
-78551.94402209105
 20
-74430.24949270465
 30
0.0
  0
SPLINE
  5
3D795
330
1A
100
AcDbEntity
  8
HEWI
  6
Continuous
100
AcDbSpline
210
0.0
220
0.0
230
1.0
 70
     8
 71
     3
 72
    16
 73
    12
 74
     0
 42
0.0000000001
 43
0.0000000001
 40
0.0
 40
0.0
 40
0.0
 40
0.0
 40
0.0000392620472435
 40
0.0000392620472435
 40
0.25003142185653
 40
0.25003142185653
 40
0.5000235816658164
 40
0.5000235816658164
 40
0.7500157414751029
 40
0.7500157414751029
 40
1.0
 40
1.0
 40
1.0
 40
1.0
 10
-78391.9439924118
 20
-74430.24951480142
 30
0.0
 10
-78391.94399344319
 20
-74430.24951308763
 30
0.0
 10
-78391.94399447288
 20
-74430.24951137283
 30
0.0
 10
-78391.94718110104
 20
-74430.24420030754
 30
0.0
 10
-78391.50620879532
 20
-74430.92560405064
 30
0.0
 10
-78390.49489034377
 20
-74433.08316232547
 30
0.0
 10
-78389.94763882555
 20
-74434.59992827595
 30
0.0
 10
-78389.94042798981
 20
-74437.8636797596
 30
0.0
 10
-78390.4846128177
 20
-74439.39051237927
 30
0.0
 10
-78391.50088816451
 20
-74441.5653089671
 30
0.0
 10
-78391.94191417063
 20
-74442.24598293642
 30
0.0
 10
-78391.94400567378
 20
-74442.24946534285
 30
0.0
  0
SPLINE
  5
3D796
330
1A
100
AcDbEntity
  8
HEWI
  6
Continuous
100
AcDbSpline
210
0.0
220
0.0
230
1.0
 70
     8
 71
     3
 72
    24
 73
    20
 74
     0
 42
0.0000000001
 43
0.0000000001
 40
0.0
 40
0.0
 40
0.0
 40
0.0
 40
0.0001785929709981
 40
0.0001785929709981
 40
0.1251562688496233
 40
0.1251562688496233
 40
0.2501339447282485
 40
0.2501339447282485
 40
0.3751116206068739
 40
0.3751116206068739
 40
0.5000892964854991
 40
0.5000892964854991
 40
0.6250669723641243
 40
0.6250669723641243
 40
0.7500446482427494
 40
0.7500446482427494
 40
0.8750223241213747
 40
0.8750223241213747
 40
1.0
 40
1.0
 40
1.0
 40
1.0
 10
-78170.70036401509
 20
-74408.24953988816
 30
0.0
 10
-78170.70036851565
 20
-74408.24953394169
 30
0.0
 10
-78170.70037265756
 20
-74408.2495284463
 30
0.0
 10
-78170.70302378459
 20
-74408.24599360114
 30
0.0
 10
-78170.53805944888
 20
-74408.46234785165
 30
0.0
 10
-78169.97487766927
 20
-74409.24266073225
 30
0.0
 10
-78169.58189338527
 20
-74409.79948791627
 30
0.0
 10
-78168.74933102147
 20
-74411.1335526587
 30
0.0
 10
-78168.30157330155
 20
-74411.91856103301
 30
0.0
 10
-78167.58354900833
 20
-74413.6816658487
 30
0.0
 10
-78167.31667506927
 20
-74414.70369061151
 30
0.0
 10
-78167.31292272103
 20
-74416.77125904879
 30
0.0
 10
-78167.5722293487
 20
-74417.78273896956
 30
0.0
 10
-78168.29146617241
 20
-74419.56213938822
 30
0.0
 10
-78168.7369340538
 20
-74420.34421304135
 30
0.0
 10
-78169.57325173196
 20
-74421.68691809177
 30
0.0
 10
-78169.96229113574
 20
-74422.2384728529
 30
0.0
 10
-78170.53072535797
 20
-74423.02682050895
 30
0.0
 10
-78170.70041950516
 20
-74423.24949168724
 30
0.0
 10
-78170.70041424764
 20
-74423.24948490202
 30
0.0
  0
SPLINE
  5
3D797
330
1A
100
AcDbEntity
  8
HEWI
  6
Continuous
100
AcDbSpline
210
0.0
220
0.0
230
1.0
 70
     8
 71
     3
 72
    10
 73
     6
 74
     0
 42
0.0000000001
 43
0.0000000001
 40
0.0
 40
0.0
 40
0.0
 40
0.0
 40
0.5002144980333211
 40
0.5002144980333211
 40
1.0
 40
1.0
 40
1.0
 40
1.0
 10
-78018.70040972453
 20
-74415.74947902363
 30
0.0
 10
-78018.70040972453
 20
-74417.37909706491
 30
0.0
 10
-78019.24504816605
 20
-74418.89980899654
 30
0.0
 10
-78020.25588254595
 20
-74421.06165626812
 30
0.0
 10
-78020.69644738204
 20
-74421.74296624156
 30
0.0
 10
-78020.70038113781
 20
-74421.74943149636
 30
0.0
  0
SPLINE
  5
3D798
330
1A
100
AcDbEntity
  8
HEWI
  6
Continuous
100
AcDbSpline
210
0.0
220
0.0
230
1.0
 70
     8
 71
     3
 72
    10
 73
     6
 74
     0
 42
0.0000000001
 43
0.0000000001
 40
0.0
 40
0.0
 40
0.0
 40
0.0
 40
0.4999654307771553
 40
0.4999654307771553
 40
1.0
 40
1.0
 40
1.0
 40
1.0
 10
-78020.70040254356
 20
-74409.74949098877
 30
0.0
 10
-78020.7023433038
 20
-74409.74624136135
 30
0.0
 10
-78020.26039288126
 20
-74410.42851906384
 30
0.0
 10
-78019.24492680273
 20
-74412.5985484757
 30
0.0
 10
-78018.70040972453
 20
-74414.11986098236
 30
0.0
 10
-78018.70040972453
 20
-74415.74947902363
 30
0.0
  0
SPLINE
  5
3D799
330
1A
100
AcDbEntity
  8
HEWI
  6
Continuous
100
AcDbSpline
210
0.0
220
0.0
230
1.0
 70
     8
 71
     3
 72
    14
 73
    10
 74
     0
 42
0.0000000001
 43
0.0000000001
 40
0.0
 40
0.0
 40
0.0
 40
0.0
 40
0.2498932628788186
 40
0.2498932628788186
 40
0.4999288419192123
 40
0.4999288419192123
 40
0.7499644209596062
 40
0.7499644209596062
 40
1.0
 40
1.0
 40
1.0
 40
1.0
 10
-78005.70040468286
 20
-74400.74947925801
 30
0.0
 10
-78005.70103700005
 20
-74400.74944715992
 30
0.0
 10
-78006.24309307738
 20
-74400.72191224743
 30
0.0
 10
-78008.08731595953
 20
-74400.66178639523
 30
0.0
 10
-78009.39262912065
 20
-74400.63425153518
 30
0.0
 10
-78012.00136653936
 20
-74400.63416941351
 30
0.0
 10
-78013.29941233372
 20
-74400.66134841782
 30
0.0
 10
-78015.16736834383
 20
-74400.72220522836
 30
0.0
 10
-78015.70042570529
 20
-74400.74947983956
 30
0.0
 10
-78015.70041284573
 20
-74400.74947918335
 30
0.0
  0
SPLINE
  5
3D79A
330
1A
100
AcDbEntity
  8
HEWI
  6
Continuous
100
AcDbSpline
210
0.0
220
0.0
230
1.0
 70
     8
 71
     3
 72
    41
 73
    37
 74
     0
 42
0.0000000001
 43
0.0000000001
 40
0.0
 40
0.0
 40
0.0
 40
0.0
 40
0.0275178942052063
 40
0.0576773058130094
 40
0.0878440825656721
 40
0.1180202718244746
 40
0.1482070315934133
 40
0.1784048458149569
 40
0.2086136952733195
 40
0.2388331907746769
 40
0.2690626752749928
 40
0.2993013010262422
 40
0.3295480869732393
 40
0.3598019607570926
 40
0.3900617888690256
 40
0.4203263977949404
 40
0.4505945884088745
 40
0.4808651454091825
 40
0.511136843234003
 40
0.54140841330306
 40
0.5716782438891129
 40
0.6019450961977567
 40
0.6322077319326867
 40
0.6624649172907592
 40
0.6927154296771523
 40
0.7229580683110301
 40
0.7531916702598249
 40
0.783415133830706
 40
0.8136274517491163
 40
0.8438277571758611
 40
0.874015386355296
 40
0.9041899625265369
 40
0.9343515066072763
 40
0.9645005809469108
 40
0.9946384728992105
 40
1.0
 40
1.0
 40
1.0
 40
1.0
 10
-77954.22285192213
 20
-74602.67705480316
 30
0.0000000000000106
 10
-77954.23405849543
 20
-74601.54595511077
 30
0.0000000000000142
 10
-77954.21001511023
 20
-74599.14830110384
 30
0.0000000000000142
 10
-77954.01755928708
 20
-74595.40409439274
 30
0.0
 10
-77953.66422656719
 20
-74591.46796789368
 30
0.0000000000000214
 10
-77953.15276714149
 20
-74587.45885271913
 30
0.0000000000000284
 10
-77952.48491784779
 20
-74583.38736323108
 30
0.0000000000000214
 10
-77951.66167741036
 20
-74579.26328470853
 30
0.0000000000000142
 10
-77950.68478150104
 20
-74575.09684332703
 30
0.0
 10
-77949.55630270936
 20
-74570.89831818883
 30
0.0000000000000142
 10
-77948.2787498543
 20
-74566.6781005446
 30
0.0000000000000072
 10
-77946.85503098377
 20
-74562.44663563122
 30
0.0000000000000142
 10
-77945.28845113437
 20
-74558.21439818556
 30
0.0000000000000142
 10
-77943.5826994561
 20
-74553.99186081889
 30
0.0000000000000142
 10
-77941.74183819664
 20
-74549.78946589112
 30
0.0
 10
-77939.77029041545
 20
-74545.61759776312
 30
-0.0000000000000072
 10
-77937.67282741022
 20
-74541.4865560321
 30
0.0000000000000072
 10
-77935.45455568261
 20
-74537.40652939399
 30
0.0000000000000072
 10
-77933.12090447708
 20
-74533.38757167737
 30
0.0
 10
-77930.67762137376
 20
-74529.43959127956
 30
0.0000000000000142
 10
-77928.13074997911
 20
-74525.57230855174
 30
0.0000000000000142
 10
-77925.4866138942
 20
-74521.79522924293
 30
0.0
 10
-77922.75179057053
 20
-74518.11760687509
 30
0.0
 10
-77919.93310598636
 20
-74514.54843501064
 30
0.0000000000000142
 10
-77917.03761868897
 20
-74511.0964230314
 30
0.0
 10
-77914.07260327801
 20
-74507.76997300853
 30
0.0000000000000142
 10
-77911.04553284258
 20
-74504.57715257392
 30
0.0
 10
-77907.96406150094
 20
-74501.52568256376
 30
0.0000000000000142
 10
-77904.83600182802
 20
-74498.62286921912
 30
0.0000000000000142
 10
-77901.6693153886
 20
-74495.87574276263
 30
0.0000000000000142
 10
-77898.47204681541
 20
-74493.29042590667
 30
0.0000000000000284
 10
-77895.25245881243
 20
-74490.87437461985
 30
0.0000000000000142
 10
-77892.01840556081
 20
-74488.6279073874
 30
0.0000000000000284
 10
-77888.77953132248
 20
-74486.5756879332
 30
0.0
 10
-77886.42660786051
 20
-74485.17691441402
 30
0.0000000000000142
 10
-77885.16001170847
 20
-74484.51347518877
 30
0.0000000000000426
 10
-77884.96877976414
 20
-74484.41472435733
 30
0.0
  0
SPLINE
  5
3D79B
330
1A
100
AcDbEntity
  8
HEWI
  6
Continuous
100
AcDbSpline
210
-0.0000000000000003
220
0.0000000000000005
230
1.0
 70
     8
 71
     3
 72
    23
 73
    19
 74
     0
 42
0.0000000001
 43
0.0000000001
 40
0.0
 40
0.0
 40
0.0
 40
0.0
 40
0.0476774090083325
 40
0.1123552902959094
 40
0.1771535325075919
 40
0.2421242310679526
 40
0.3073031574323926
 40
0.3727081955030748
 40
0.4383401852476089
 40
0.504185707329053
 40
0.5702210401137653
 40
0.6364164377095359
 40
0.7027400110219917
 40
0.7691607623702446
 40
0.8356506163527349
 40
0.9021855175621061
 40
0.9687457930935387
 40
1.0
 40
1.0
 40
1.0
 40
1.0
 10
-77934.94694912471
 20
-74650.6959209664
 30
0.0000000000000214
 10
-77934.31079707365
 20
-74650.98789133666
 30
0.000000000000039
 10
-77932.78863078784
 20
-74651.62696027853
 30
0.0000000000000248
 10
-77930.29174140573
 20
-74652.43699020498
 30
0.0000000000000338
 10
-77927.46768600976
 20
-74653.13019444241
 30
0.0000000000000462
 10
-77924.55244585354
 20
-74653.61251011545
 30
0.0000000000000258
 10
-77921.5539863994
 20
-74653.88642384043
 30
0.0000000000000196
 10
-77918.47794563186
 20
-74653.94958394494
 30
0.0000000000000542
 10
-77915.33126450842
 20
-74653.8014187118
 30
0.0000000000000356
 10
-77912.12120914288
 20
-74653.44154251127
 30
0.0000000000000284
 10
-77908.85554638374
 20
-74652.87033214849
 30
0.0000000000000302
 10
-77905.5423531371
 20
-74652.08885773831
 30
0.0000000000000196
 10
-77902.18989805492
 20
-74651.09891916638
 30
0.0000000000000418
 10
-77898.80653283868
 20
-74649.90301235772
 30
0.0000000000000524
 10
-77895.40054021167
 20
-74648.50423636952
 30
0.0000000000000532
 10
-77891.98029701502
 20
-74646.90636547607
 30
0.0000000000000408
 10
-77889.15953295227
 20
-74645.4304221905
 30
0.000000000000048
 10
-77887.48211239164
 20
-74644.48395127315
 30
0.0000000000000338
 10
-77886.94613989108
 20
-74644.17449944279
 30
0.0000000000000214
  0
SPLINE
  5
3D79C
330
1A
100
AcDbEntity
  8
HEWI
  6
Continuous
100
AcDbSpline
210
-0.0000000000000003
220
0.0000000000000001
230
1.0
 70
     8
 71
     3
 72
    56
 73
    52
 74
     0
 42
0.0000000001
 43
0.0000000001
 40
0.0
 40
0.0
 40
0.0
 40
0.0
 40
0.0111080399365691
 40
0.032153677078442
 40
0.0531949359155032
 40
0.0742307941066002
 40
0.0952603159544527
 40
0.1162830440479509
 40
0.1372988828548382
 40
0.1583080057706538
 40
0.1793107826586392
 40
0.2003077244895284
 40
0.2212994418135605
 40
0.2422866141668489
 40
0.263269967964577
 40
0.2842502608751822
 40
0.3052282710603928
 40
0.3262047899897525
 40
0.3471806177928685
 40
0.3681565603019494
 40
0.3891332134597888
 40
0.410111333356975
 40
0.4310917328093633
 40
0.4520752229551411
 40
0.4730626093519767
 40
0.4940546858804848
 40
0.5150522254689692
 40
0.5360559664273012
 40
0.5570665928686472
 40
0.578084707314342
 40
0.5991107931262896
 40
0.6201451639191703
 40
0.6411878966342537
 40
0.6622387446323181
 40
0.6832970272105042
 40
0.7043614927410609
 40
0.7254301547468202
 40
0.7464994455394848
 40
0.7675643849551844
 40
0.788619168665117
 40
0.8096565161788848
 40
0.8306676870655829
 40
0.8516427054740701
 40
0.8725708728130358
 40
0.8934416227711517
 40
0.9142457095859839
 40
0.9349766224100866
 40
0.9556320094597255
 40
0.9762148180817552
 40
0.9967338543681574
 40
1.0
 40
1.0
 40
1.0
 40
1.0
 10
-77886.94613989108
 20
-74644.17449944279
 30
0.0000000000000214
 10
-77886.34359632176
 20
-74643.82660512878
 30
0.0000000000000284
 10
-77884.60101664445
 20
-74642.79487367697
 30
0.0000000000000374
 10
-77881.72319862698
 20
-74640.96803465094
 30
0.0000000000000532
 10
-77878.32555072624
 20
-74638.62036160308
 30
0.000000000000039
 10
-77874.95278287076
 20
-74636.09858680865
 30
0.0000000000000692
 10
-77871.61246802643
 20
-74633.40886461501
 30
0.0000000000000284
 10
-77868.31191744783
 20
-74630.55756791668
 30
0.0000000000000462
 10
-77865.05838761907
 20
-74627.55141110181
 30
0.0000000000000072
 10
-77861.85901229334
 20
-74624.39739994334
 30
0.0000000000000284
 10
-77858.72081211963
 20
-74621.10283285899
 30
0.0000000000000356
 10
-77855.65068046542
 20
-74617.67528738059
 30
0.0000000000000426
 10
-77852.65537330706
 20
-74614.12260912712
 30
0.0000000000000356
 10
-77849.74149638583
 20
-74610.4528984505
 30
0.0000000000000498
 10
-77846.91549203079
 20
-74606.67449599855
 30
0.0000000000000604
 10
-77844.18362549404
 20
-74602.79596690957
 30
0.000000000000032
 10
-77841.55197124651
 20
-74598.82608382344
 30
0.000000000000064
 10
-77839.02639944679
 20
-74594.77380880275
 30
0.0000000000000426
 10
-77836.61256280134
 20
-74590.64827430625
 30
0.0000000000000426
 10
-77834.31589177504
 20
-74586.45877756628
 30
0.0000000000000284
 10
-77832.14157497289
 20
-74582.21475046636
 30
0.0000000000000214
 10
-77830.09454537587
 20
-74577.92573442451
 30
0.0000000000000356
 10
-77828.17946415854
 20
-74573.60134366665
 30
0.0000000000000568
 10
-77826.40071793954
 20
-74569.25125386582
 30
0.0000000000000498
 10
-77824.76241269347
 20
-74564.88518432823
 30
0.0000000000000498
 10
-77823.2683668664
 20
-74560.51287662766
 30
0.0000000000000356
 10
-77821.92210566267
 20
-74556.1440737098
 30
0.0000000000000568
 10
-77820.72685650488
 20
-74551.78849975882
 30
0.0000000000000356
 10
-77819.68554562074
 20
-74547.45584116644
 30
0.0000000000000852
 10
-77818.8007956419
 20
-74543.15572899733
 30
0.0000000000000284
 10
-77818.07492399765
 20
-74538.89772340194
 30
0.0000000000000356
 10
-77817.50994174663
 20
-74534.69130047709
 30
0.0000000000000498
 10
-77817.10755229456
 20
-74530.54584210152
 30
0.0000000000000426
 10
-77816.86914919037
 20
-74526.47062925047
 30
0.0000000000000426
 10
-77816.79581186952
 20
-74522.47483917805
 30
0.0000000000000426
 10
-77816.8882978353
 20
-74518.56754658888
 30
0.0000000000000426
 10
-77817.14702668899
 20
-74514.75776812581
 30
0.0000000000000426
 10
-77817.57204768713
 20
-74511.05448044803
 30
0.0000000000000568
 10
-77818.16299980259
 20
-74507.46658904281
 30
0.0000000000000142
 10
-77818.91907280648
 20
-74504.00289049874
 30
0.0000000000000426
 10
-77819.83896192667
 20
-74500.67204983891
 30
0.0000000000000426
 10
-77820.92080032147
 20
-74497.48259348298
 30
0.0000000000000568
 10
-77822.1621061053
 20
-74494.44285962647
 30
0.0000000000000284
 10
-77823.55970369125
 20
-74491.56085549718
 30
0.0000000000000426
 10
-77825.10981734827
 20
-74488.84431293809
 30
0.0000000000000568
 10
-77826.80767693088
 20
-74486.29987830129
 30
0.0000000000000284
 10
-77828.64915961562
 20
-74483.93545439966
 30
0.0000000000000426
 10
-77830.62513736283
 20
-74481.75088553598
 30
0.0000000000000426
 10
-77832.74315383279
 20
-74479.77210013619
 30
0.0
 10
-77834.33179084948
 20
-74478.44050485709
 30
0.0000000000000142
 10
-77835.24415118742
 20
-74477.82163549539
 30
0.0000000000000426
 10
-77835.37023124486
 20
-74477.73785870011
 30
0.0000000000000426
  0
SPLINE
  5
3D79D
330
1A
100
AcDbEntity
  8
HEWI
  6
Continuous
100
AcDbSpline
210
0.0
220
0.0
230
1.0
 70
     8
 71
     3
 72
    55
 73
    51
 74
     0
 42
0.0000000001
 43
0.0000000001
 40
0.0
 40
0.0
 40
0.0
 40
0.0
 40
0.0114909617063337
 40
0.0322858890290048
 40
0.0531150568991252
 40
0.0739890825703127
 40
0.0949142724981389
 40
0.1158925981563177
 40
0.1369222406742338
 40
0.1579985063796372
 40
0.1791148826290001
 40
0.2002640336905204
 40
0.22143860589273
 40
0.2426317887432203
 40
0.2638376404533829
 40
0.2850512222879991
 40
0.3062685983205279
 40
0.3274862987671415
 40
0.3487019782255152
 40
0.3699142775329036
 40
0.3911223313507684
 40
0.4123256591004273
 40
0.433524073976402
 40
0.4547176094608539
 40
0.4759064614471498
 40
0.497090943591697
 40
0.5182714534949825
 40
0.5394484475290671
 40
0.5606224224370117
 40
0.5817939021511482
 40
0.6029634285713367
 40
0.6241315552949179
 40
0.6452988434920592
 40
0.6664658592754522
 40
0.6876331385410134
 40
0.7088010962719358
 40
0.7299703052933936
 40
0.7511413384760687
 40
0.7723147667248519
 40
0.7934911558400718
 40
0.814671061634368
 40
0.8358550225853811
 40
0.8570435491253219
 40
0.8782371084389684
 40
0.8994361033608486
 40
0.9206408436369335
 40
0.9418515074680639
 40
0.9630680909308548
 40
0.9842903426731274
 40
1.0
 40
1.0
 40
1.0
 40
1.0
 10
-77853.30173785327
 20
-74467.68151696988
 30
0.0000000000000284
 10
-77853.78408772763
 20
-74467.48217852892
 30
0.0000000000000426
 10
-77855.15584388527
 20
-74466.95792592725
 30
0.0
 10
-77857.505424331
 20
-74466.28943279384
 30
0.0000000000000142
 10
-77860.34690071639
 20
-74465.68718101068
 30
0.0000000000000142
 10
-77863.2789105098
 20
-74465.29937216554
 30
0.0000000000000284
 10
-77866.29127784891
 20
-74465.11928972164
 30
0.0000000000000284
 10
-77869.37851605113
 20
-74465.15000973407
 30
0.0000000000000142
 10
-77872.5333033402
 20
-74465.39138976273
 30
0.0000000000000142
 10
-77875.74828595712
 20
-74465.84343975723
 30
0.0
 10
-77879.01569521221
 20
-74466.50533148237
 30
0.0000000000000142
 10
-77882.32757732098
 20
-74467.37563145517
 30
0.0000000000000426
 10
-77885.67585726831
 20
-74468.45224951412
 30
0.0000000000000142
 10
-77889.05242812918
 20
-74469.73249497371
 30
0.0000000000000142
 10
-77892.44920622621
 20
-74471.21311987065
 30
0.0000000000000284
 10
-77895.85816811176
 20
-74472.8903690691
 30
0.0000000000000284
 10
-77899.27134564644
 20
-74474.76001030176
 30
0.0000000000000142
 10
-77902.68085212604
 20
-74476.81737362301
 30
0.0
 10
-77906.07890277059
 20
-74479.05738972603
 30
0.0000000000000142
 10
-77909.4578370681
 20
-74481.47463312571
 30
0.0
 10
-77912.81009909385
 20
-74484.06333247792
 30
0.0000000000000142
 10
-77916.12822033959
 20
-74486.81737128062
 30
0.0000000000000142
 10
-77919.40482468708
 20
-74489.73029906257
 30
0.0
 10
-77922.63263577147
 20
-74492.79534217996
 30
0.0
 10
-77925.804486429
 20
-74496.00541490626
 30
0.0000000000000142
 10
-77928.91332983371
 20
-74499.35313125776
 30
0.0000000000000142
 10
-77931.95225191236
 20
-74502.83081780928
 30
0.0
 10
-77934.914484654
 20
-74506.43052762358
 30
0.0
 10
-77937.79341997439
 20
-74510.14405532704
 30
0.0
 10
-77940.58262384563
 20
-74513.96295330436
 30
0.0
 10
-77943.27585044811
 20
-74517.87854894893
 30
0.0000000000000142
 10
-77945.86705614306
 20
-74521.88196288117
 30
0.0
 10
-77948.35041309838
 20
-74525.96412803522
 30
0.0
 10
-77950.72032117899
 20
-74530.11580731575
 30
0.0000000000000142
 10
-77952.97141646818
 20
-74534.32760575875
 30
0.0000000000000142
 10
-77955.09859006872
 20
-74538.59000145342
 30
0.0
 10
-77957.09700031109
 20
-74542.89336970569
 30
-0.0000000000000072
 10
-77958.96208589558
 20
-74547.22801363595
 30
0.0000000000000214
 10
-77960.68956958412
 20
-74551.58417569032
 30
0.0000000000000072
 10
-77962.27546645945
 20
-74555.9520595238
 30
0.0000000000000072
 10
-77963.71609116619
 20
-74560.32185171249
 30
0.0000000000000214
 10
-77965.00806410818
 20
-74564.68374309518
 30
-0.0000000000000072
 10
-77966.14831660356
 20
-74569.02794951886
 30
0.0000000000000142
 10
-77967.13409503651
 20
-74573.34473172888
 30
0.0000000000000142
 10
-77967.96296409721
 20
-74577.62441410635
 30
0.0000000000000284
 10
-77968.63280927952
 20
-74581.85740191788
 30
0.0
 10
-77969.14183890997
 20
-74586.03419671101
 30
0.0000000000000142
 10
-77969.48858612834
 20
-74590.14540947757
 30
0.0000000000000142
 10
-77969.65602338879
 20
-74593.83195661772
 30
0.0000000000000208
 10
-77969.67948108588
 20
-74596.13054270901
 30
0.000000000000014
 10
-77969.67443715053
 20
-74597.09994247999
 30
0.000000000000011
  0
SPLINE
  5
3D79E
330
1A
100
AcDbEntity
  8
HEWI
  6
Continuous
100
AcDbSpline
210
-0.0000000000009162
220
-0.0000000000009326
230
1.0
 70
     8
 71
     3
 72
    11
 73
     7
 74
     0
 42
0.0000000001
 43
0.0000000001
 40
0.0
 40
0.0
 40
0.0
 40
0.0
 40
0.1743695443954106
 40
0.5427887894528422
 40
0.9102899773072456
 40
1.0
 40
1.0
 40
1.0
 40
1.0
 10
-77958.22207362763
 20
-74634.78880842215
 30
0.0000000000000326
 10
-77957.92778400893
 20
-74635.14782734159
 30
0.000000000000034
 10
-77956.99483104778
 20
-74636.24436897448
 30
0.0000000000000366
 10
-77955.34011311608
 20
-74637.96676947309
 30
0.0000000000000248
 10
-77953.76314904043
 20
-74639.42853770389
 30
0.0000000000000178
 10
-77952.82508737929
 20
-74640.14083806628
 30
0.000000000000023
 10
-77952.63919696715
 20
-74640.27793233974
 30
0.0000000000000124
  0
SPLINE
  5
3D79F
330
1A
100
AcDbEntity
  8
HEWI
  6
Continuous
100
AcDbSpline
210
0.0000000000000002
220
-0.0000000000000032
230
1.0
 70
     8
 71
     3
 72
    16
 73
    12
 74
     0
 42
0.0000000001
 43
0.0000000001
 40
0.0
 40
0.0
 40
0.0
 40
0.0
 40
0.249377498049082
 40
0.249377498049082
 40
0.4993696746233056
 40
0.4993696746233056
 40
0.7493618511975287
 40
0.7493618511975287
 40
0.9993540277717521
 40
0.9993540277717521
 40
1.0
 40
1.0
 40
1.0
 40
1.0
 10
-78008.89974558816
 20
-74614.70815216187
 30
0.0000000000000784
 10
-78008.49570168669
 20
-74614.47382392803
 30
0.00000000000011
 10
-78007.71872380681
 20
-74614.7268715244
 30
0.0000000000000712
 10
-78005.43947825858
 20
-74616.039329615
 30
0.0000000000001208
 10
-78004.02243892956
 20
-74617.05376909963
 30
0.0000000000000532
 10
-78001.77993746448
 20
-74619.28437882078
 30
0.0000000000000568
 10
-78000.91570777784
 20
-74620.57494728213
 30
0.000000000000096
 10
-78000.9038104598
 20
-74623.24077050657
 30
0.0000000000000498
 10
-78001.76082671312
 20
-74624.43695060698
 30
0.0000000000000568
 10
-78002.88684242917
 20
-74625.09298169896
 30
0.0000000000000568
 10
-78002.88974634445
 20
-74625.09466885844
 30
0.0000000000000568
 10
-78002.8926520744
 20
-74625.09635237792
 30
0.0000000000000568
  0
SPLINE
  5
3D7A0
330
1A
100
AcDbEntity
  8
HEWI
  6
Continuous
100
AcDbSpline
210
0.0000000000000346
220
0.0000000000000016
230
1.0
 70
     8
 71
     3
 72
    10
 73
     6
 74
     0
 42
0.0000000001
 43
0.0000000001
 40
0.0
 40
0.0
 40
0.0
 40
0.0
 40
0.5136694091493697
 40
0.5136694091493697
 40
1.0
 40
1.0
 40
1.0
 40
1.0
 10
-78136.77495377595
 20
-74670.94377756199
 30
0.0000000000000496
 10
-78136.77508443682
 20
-74671.78331854423
 30
0.0000000000000468
 10
-78136.75523648597
 20
-74672.60864246018
 30
0.000000000000029
 10
-78136.75498529465
 20
-74673.96443817417
 30
0.0000000000000382
 10
-78136.77265297999
 20
-74674.4933109886
 30
0.0000000000000492
 10
-78136.7747735726
 20
-74674.89621810646
 30
0.0000000000000586
  0
SPLINE
  5
3D7A1
330
1A
100
AcDbEntity
  8
HEWI
  6
Continuous
100
AcDbSpline
210
-0.0000000000000304
220
0.0000000000000366
230
-1.0
 70
     8
 71
     3
 72
    12
 73
     8
 74
     0
 42
0.0000000001
 43
0.0000000001
 40
0.0
 40
0.0
 40
0.0
 40
0.0
 40
0.3335325393814829
 40
0.3335325393814829
 40
0.6670650787629656
 40
0.6670650787629656
 40
1.0
 40
1.0
 40
1.0
 40
1.0
 10
-77998.08129977883
 20
-74605.18411322428
 30
0.0000000000000532
 10
-77998.08129977883
 20
-74603.85353566536
 30
0.0000000000000462
 10
-77997.22197969913
 20
-74602.5604463186
 30
0.0000000000000746
 10
-77994.98543723812
 20
-74600.32897666639
 30
0.0000000000000532
 10
-77993.58392778469
 20
-74599.32331314393
 30
0.0000000000000498
 10
-77991.29491605694
 20
-74597.99828550951
 30
0.0000000000001066
 10
-77990.50229756729
 20
-74597.73627249025
 30
0.000000000000057
 10
-77990.09549947808
 20
-74597.96754802969
 30
0.000000000000064
  0
SPLINE
  5
3D7A2
330
1A
100
AcDbEntity
  8
HEWI
  6
Continuous
100
AcDbSpline
210
-0.0000000000000484
220
-0.0000000000000396
230
-1.0
 70
     8
 71
     3
 72
    10
 73
     6
 74
     0
 42
0.0000000001
 43
0.0000000001
 40
0.0
 40
0.0
 40
0.0
 40
0.0
 40
0.0010405714029999
 40
0.0010405714029999
 40
1.0
 40
1.0
 40
1.0
 40
1.0
 10
-77996.09574253528
 20
-74608.35969686145
 30
0.0000000000000728
 10
-77996.0969137064
 20
-74608.3590193549
 30
0.0000000000000728
 10
-77996.09808456953
 20
-74608.35834125501
 30
0.0000000000000728
 10
-77997.22299976513
 20
-74607.70611017647
 30
0.000000000000071
 10
-77998.08101428292
 20
-74606.51508710962
 30
0.0000000000000604
 10
-77998.08129970761
 20
-74605.18477722437
 30
0.0000000000000532
  0
SPLINE
  5
3D7A3
330
1A
100
AcDbEntity
  8
HEWI
  6
Continuous
100
AcDbSpline
210
-0.0000000000003498
220
0.0000000000002129
230
1.0
 70
     8
 71
     3
 72
    12
 73
     8
 74
     0
 42
0.0000000001
 43
0.0000000001
 40
0.0
 40
0.0
 40
0.0
 40
0.0
 40
0.1741960924340663
 40
0.1741960924340663
 40
0.6745860293009721
 40
0.6745860293009721
 40
1.0
 40
1.0
 40
1.0
 40
1.0
 10
-77816.60726955326
 20
-74520.30268903512
 30
0.0000000000000552
 10
-77816.51659982948
 20
-74520.25076102452
 30
0.0000000000000512
 10
-77816.43121962939
 20
-74520.19001880441
 30
0.0000000000000432
 10
-77816.12504631505
 20
-74519.92253244184
 30
0.0000000000000426
 10
-77815.94385238344
 20
-74519.64992877292
 30
0.0000000000000568
 10
-77815.74649794694
 20
-74519.11411253859
 30
0.0000000000000284
 10
-77815.69340677588
 20
-74518.87716436565
 30
0.0000000000000142
 10
-77815.66745308789
 20
-74518.62410019721
 30
0.0000000000000284
  0
VIEWPORT
  5
22
102
{ACAD_XDICTIONARY
360
3D86D
102
}
330
17
100
AcDbEntity
 67
     1
  8
0
100
AcDbViewport
 10
102.801238835773
 20
158.0978495602885
 30
0.0
 40
506.5832670616006
 41
315.7152190709725
 68
     1
 69
     1
 12
102.801238835773
 22
158.0978495602885
 13
0.0
 23
0.0
 14
1.0
 24
1.0
 15
10.0
 25
10.0
 16
0.0
 26
0.0
 36
1.0
 17
0.0
 27
0.0
 37
0.0
 42
50.0
 43
0.0
 44
0.0
 45
315.7152190709725
 50
0.0
 51
0.0
 72
   100
 90
    32800
  1

281
     0
 71
     1
 74
     0
110
0.0
120
0.0
130
0.0
111
1.0
121
0.0
131
0.0
112
0.0
122
1.0
132
0.0
 79
     0
146
0.0
  0
ENDSEC
  0
SECTION
  2
OBJECTS
  0
DICTIONARY
  5
C
330
0
100
AcDbDictionary
281
     1
  3
ACAD_COLOR
350
39BFD
  3
ACAD_GROUP
350
D
  3
ACAD_LAYOUT
350
39BF3
  3
ACAD_MATERIAL
350
39BFC
  3
ACAD_MLINESTYLE
350
E
  3
ACAD_PLOTSETTINGS
350
39BF4
  3
ACAD_PLOTSTYLENAME
350
39BF1
  3
ACAD_TABLESTYLE
350
39C2F
  3
ACAD_VISUALSTYLE
350
39C1E
  3
ACDBVARIABLEDICTIONARY
350
210D7
  3
DWGPROPS
350
3D86C
  0
DICTIONARY
  5
39C3D
330
2
100
AcDbDictionary
280
     1
281
     1
  3
ACAD_LAYERFILTERS
360
3A6E6
  3
ACAD_LAYERSTATES
360
39C3E
  3
ACLYDICTIONARY
360
3A6E5
  0
DICTIONARY
  5
3B151
330
1A
100
AcDbDictionary
280
     1
281
     1
  3
ACAD_SORTENTS
360
3B152
  0
DICTIONARY
  5
3D86D
330
22
100
AcDbDictionary
280
     1
281
     1
  3
ACAD_XREC_ROUNDTRIP
360
3D86E
  0
DICTIONARY
  5
39BFD
102
{ACAD_REACTORS
330
C
102
}
330
C
100
AcDbDictionary
281
     1
  0
DICTIONARY
  5
D
102
{ACAD_REACTORS
330
C
102
}
330
C
100
AcDbDictionary
281
     1
  0
DICTIONARY
  5
39BF3
102
{ACAD_REACTORS
330
C
102
}
330
C
100
AcDbDictionary
281
     1
  3
Layout1
350
39BF6
  3
Model
350
39BF5
  0
DICTIONARY
  5
39BFC
102
{ACAD_REACTORS
330
C
102
}
330
C
100
AcDbDictionary
281
     1
  3
ByBlock
350
39C1C
  3
ByLayer
350
39C1B
  3
Global
350
39C1D
  0
DICTIONARY
  5
E
102
{ACAD_REACTORS
330
C
102
}
330
C
100
AcDbDictionary
281
     1
  3
STANDARD
350
13
  0
DICTIONARY
  5
39BF4
102
{ACAD_REACTORS
330
C
102
}
330
C
100
AcDbDictionary
281
     1
  0
ACDBDICTIONARYWDFLT
  5
39BF1
102
{ACAD_REACTORS
330
C
102
}
330
C
100
AcDbDictionary
281
     1
  3
Normal
350
39BF2
100
AcDbDictionaryWithDefault
340
39BF2
  0
DICTIONARY
  5
39C2F
102
{ACAD_REACTORS
330
C
102
}
330
C
100
AcDbDictionary
281
     1
  3
Standard
350
39C30
  0
DICTIONARY
  5
39C1E
102
{ACAD_REACTORS
330
C
102
}
330
C
100
AcDbDictionary
281
     1
  3
2dWireframe
350
39C24
  3
3D Hidden
350
39C26
  3
3dWireframe
350
39C25
  3
Basic
350
39C23
  3
Brighten
350
39C2A
  3
ColorChange
350
39C2E
  3
Conceptual
350
39C27
  3
Dim
350
39C29
  3
Facepattern
350
39C2D
  3
Flat
350
39C1F
  3
FlatWithEdges
350
39C20
  3
Gouraud
350
39C21
  3
GouraudWithEdges
350
39C22
  3
Linepattern
350
39C2C
  3
Realistic
350
39C28
  3
Thicken
350
39C2B
  0
DICTIONARY
  5
210D7
102
{ACAD_REACTORS
330
C
102
}
330
C
100
AcDbDictionary
281
     1
  3
CTABLESTYLE
350
39C39
  3
DIMASSOC
350
3BD64
  3
INDEXCTL
350
3BD63
  3
SORTENTS
350
210D8
  0
XRECORD
  5
3D86C
102
{ACAD_REACTORS
330
C
102
}
330
C
100
AcDbXrecord
280
     1
  1
DWGPROPS COOKIE
  2

  3

  4

  6

  7

  8
kaschu
  9

300
=
301
=
302
=
303
=
304
=
305
=
306
=
307
=
308
=
309
=
 40
0.8092991782407407
 41
2450382.434570139
 42
2456468.507048878
  1

 90
        0
  0
DICTIONARY
  5
3A6E6
102
{ACAD_REACTORS
330
39C3D
102
}
330
39C3D
100
AcDbDictionary
281
     1
  0
DICTIONARY
  5
39C3E
102
{ACAD_REACTORS
330
39C3D
102
}
330
39C3D
100
AcDbDictionary
281
     1
  0
DICTIONARY
  5
3A6E5
102
{ACAD_REACTORS
330
39C3D
102
}
330
39C3D
100
AcDbDictionary
281
     1
1001
ACAD
1000
<All
  0
SORTENTSTABLE
  5
3B152
102
{ACAD_REACTORS
330
3B151
102
}
330
3B151
100
AcDbSortentsTable
330
1A
  0
XRECORD
  5
3D86E
102
{ACAD_REACTORS
330
3D86D
102
}
330
3D86D
100
AcDbXrecord
280
     1
102
SHADEPLOT
 70
     0
  0
LAYOUT
  5
39BF6
102
{ACAD_XDICTIONARY
360
39C40
102
}
102
{ACAD_REACTORS
330
39BF3
102
}
330
39BF3
100
AcDbPlotSettings
  1

  2
\\druckserv1\AROABM2L
  4
A4
  6

 40
6.805083274841307
 41
5.069413185119628
 42
6.805084228515625
 43
5.027069091796875
 44
209.9733276367186
 45
296.9683227539062
 46
0.0
 47
0.0
 48
0.0
 49
0.0
140
0.0
141
0.0
142
1.0
143
0.9877294786496324
 70
   688
 72
     1
 73
     0
 74
     1
  7
ctb2004.ctb
 75
     0
147
1.012422957515799
148
-6.623554803105719
149
-1.328897370432399
100
AcDbLayout
  1
Layout1
 70
     1
 71
     1
 10
-0.0980265521206203
 20
-3.678311471965383
 11
207.2988188848241
 21
289.6460551372062
 12
0.0
 22
0.0
 32
0.0
 14
12.55000000000001
 24
41.32999999999998
 34
0.0
 15
195.5499999999999
 25
284.67
 35
0.0
146
0.0
 13
0.0
 23
0.0
 33
0.0
 16
1.0
 26
0.0
 36
0.0
 17
0.0
 27
1.0
 37
0.0
 76
     0
330
17
331
22
  0
LAYOUT
  5
39BF5
102
{ACAD_XDICTIONARY
360
3D86F
102
}
102
{ACAD_REACTORS
330
39BF3
102
}
330
39BF3
100
AcDbPlotSettings
  1

  2
\\PCDRUCK1\AROABM2L
  4

  6

 40
0.0
 41
0.0
 42
0.0
 43
0.0
 44
0.0
 45
0.0
 46
0.0
 47
0.0
 48
0.0
 49
0.0
140
0.0
141
0.0
142
1.0
143
1.0
 70
  1712
 72
     0
 73
     0
 74
     0
  7

 75
     0
147
1.0
148
0.0
149
0.0
100
AcDbLayout
  1
Model
 70
     1
 71
     0
 10
0.0
 20
0.0
 11
12.0
 21
9.0
 12
0.0
 22
0.0
 32
0.0
 14
0.0
 24
0.0
 34
0.0
 15
0.0
 25
0.0
 35
0.0
146
0.0
 13
0.0
 23
0.0
 33
0.0
 16
1.0
 26
0.0
 36
0.0
 17
0.0
 27
1.0
 37
0.0
 76
     0
330
1A
331
39C01
  0
MATERIAL
  5
39C1C
102
{ACAD_XDICTIONARY
360
3BDEF
102
}
102
{ACAD_REACTORS
330
39BFC
102
}
330
39BFC
100
AcDbMaterial
  1
ByBlock
  0
MATERIAL
  5
39C1B
102
{ACAD_XDICTIONARY
360
3BDED
102
}
102
{ACAD_REACTORS
330
39BFC
102
}
330
39BFC
100
AcDbMaterial
  1
ByLayer
  0
MATERIAL
  5
39C1D
102
{ACAD_XDICTIONARY
360
3BDF1
102
}
102
{ACAD_REACTORS
330
39BFC
102
}
330
39BFC
100
AcDbMaterial
  1
Global
  0
MLINESTYLE
  5
13
102
{ACAD_REACTORS
330
E
102
}
330
E
100
AcDbMlineStyle
  2
STANDARD
 70
     0
  3

 62
     0
 51
90.0
 52
90.0
 71
     2
 49
0.5
 62
   256
  6
BYLAYER
 49
-0.5
 62
   256
  6
BYLAYER
  0
ACDBPLACEHOLDER
  5
39BF2
102
{ACAD_REACTORS
330
39BF1
102
}
330
39BF1
  0
TABLESTYLE
  5
39C30
102
{ACAD_XDICTIONARY
360
3D872
102
}
102
{ACAD_REACTORS
330
39C2F
102
}
330
39C2F
100
AcDbTableStyle
  3
Standard
 70
     0
 71
     0
 40
0.06
 41
0.06
280
     0
281
     0
  7
STANDARD
140
0.18
170
     2
 62
     0
 63
     7
283
     0
274
    -2
284
     1
 64
     0
275
    -2
285
     1
 65
     0
276
    -2
286
     1
 66
     0
277
    -2
287
     1
 67
     0
278
    -2
288
     1
 68
     0
279
    -2
289
     1
 69
     0
  7
STANDARD
140
0.25
170
     5
 62
     0
 63
     7
283
     0
274
    -2
284
     1
 64
     0
275
    -2
285
     1
 65
     0
276
    -2
286
     1
 66
     0
277
    -2
287
     1
 67
     0
278
    -2
288
     1
 68
     0
279
    -2
289
     1
 69
     0
  7
STANDARD
140
0.18
170
     5
 62
     0
 63
     7
283
     0
274
    -2
284
     1
 64
     0
275
    -2
285
     1
 65
     0
276
    -2
286
     1
 66
     0
277
    -2
287
     1
 67
     0
278
    -2
288
     1
 68
     0
279
    -2
289
     1
 69
     0
  0
VISUALSTYLE
  5
39C24
102
{ACAD_REACTORS
330
39C1E
102
}
330
39C1E
100
AcDbVisualStyle
  2
2dWireframe
 70
     4
 71
     0
 72
     2
 73
     0
 90
        0
 40
-0.6
 41
-30.0
 62
     5
 63
     7
 74
     1
 91
        4
 64
     7
 65
   257
 75
     1
175
     1
 42
1.0
 92
        0
 66
   257
 43
1.0
 76
     1
 77
     6
 78
     2
 67
     7
 79
     5
170
     0
171
     0
290
     0
174
     0
 93
        1
 44
0.0
173
     0
291
     0
 45
0.0
1001
ACAD
1000
AcDbSavedByObjectVersion
1070
     0
1000
AcDbSavedByObjectVersion
1070
     0
1000
AcDbSavedByObjectVersion
1070
     0
1000
AcDbSavedByObjectVersion
1070
     0
1000
AcDbSavedByObjectVersion
1070
     0
1000
AcDbSavedByObjectVersion
1070
     0
  0
VISUALSTYLE
  5
39C26
102
{ACAD_REACTORS
330
39C1E
102
}
330
39C1E
100
AcDbVisualStyle
  2
3D Hidden
 70
     6
 71
     1
 72
     2
 73
     2
 90
        0
 40
-0.6
 41
-30.0
 62
     5
 63
     7
 74
     2
 91
        2
 64
     7
 65
   257
 75
     2
175
     1
 42
40.0
 92
        0
 66
   257
 43
1.0
 76
     1
 77
     6
 78
     2
 67
     7
 79
     3
170
     0
171
     0
290
     0
174
     0
 93
        1
 44
0.0
173
     0
291
     0
 45
0.0
1001
ACAD
1000
AcDbSavedByObjectVersion
1070
     0
1000
AcDbSavedByObjectVersion
1070
     0
1000
AcDbSavedByObjectVersion
1070
     0
1000
AcDbSavedByObjectVersion
1070
     0
1000
AcDbSavedByObjectVersion
1070
     0
1000
AcDbSavedByObjectVersion
1070
     0
  0
VISUALSTYLE
  5
39C25
102
{ACAD_REACTORS
330
39C1E
102
}
330
39C1E
100
AcDbVisualStyle
  2
3dWireframe
 70
     5
 71
     0
 72
     2
 73
     0
 90
        0
 40
-0.6
 41
-30.0
 62
     5
 63
     7
 74
     1
 91
        4
 64
     7
 65
   257
 75
     1
175
     1
 42
1.0
 92
        0
 66
   257
 43
1.0
 76
     1
 77
     6
 78
     2
 67
     7
 79
     5
170
     0
171
     0
290
     0
174
     0
 93
        1
 44
0.0
173
     0
291
     0
 45
0.0
1001
ACAD
1000
AcDbSavedByObjectVersion
1070
     0
1000
AcDbSavedByObjectVersion
1070
     0
1000
AcDbSavedByObjectVersion
1070
     0
1000
AcDbSavedByObjectVersion
1070
     0
1000
AcDbSavedByObjectVersion
1070
     0
1000
AcDbSavedByObjectVersion
1070
     0
  0
VISUALSTYLE
  5
39C23
102
{ACAD_REACTORS
330
39C1E
102
}
330
39C1E
100
AcDbVisualStyle
  2
Basic
 70
     7
 71
     1
 72
     0
 73
     1
 90
        0
 40
-0.6
 41
-30.0
 62
     5
 63
     7
 74
     0
 91
        4
 64
     7
 65
   257
 75
     1
175
     1
 42
1.0
 92
        8
 66
     7
 43
1.0
 76
     1
 77
     6
 78
     2
 67
     7
 79
     5
170
     0
171
     0
290
     0
174
     0
 93
        1
 44
0.0
173
     0
291
     1
 45
0.0
1001
ACAD
1000
AcDbSavedByObjectVersion
1070
     0
1000
AcDbSavedByObjectVersion
1070
     0
1000
AcDbSavedByObjectVersion
1070
     0
1000
AcDbSavedByObjectVersion
1070
     0
1000
AcDbSavedByObjectVersion
1070
     0
1000
AcDbSavedByObjectVersion
1070
     0
  0
VISUALSTYLE
  5
39C2A
102
{ACAD_REACTORS
330
39C1E
102
}
330
39C1E
100
AcDbVisualStyle
  2
Brighten
 70
    12
 71
     2
 72
     2
 73
     0
 90
        0
 40
-0.6
 41
-30.0
 62
     5
 63
     7
 74
     1
 91
        4
 64
     7
 65
   257
 75
     1
175
     1
 42
1.0
 92
        8
 66
     7
 43
1.0
 76
     1
 77
     6
 78
     2
 67
     7
 79
     5
170
     0
171
     0
290
     0
174
     0
 93
        1
 44
50.0
173
     0
291
     1
 45
0.0
1001
ACAD
1000
AcDbSavedByObjectVersion
1070
     0
1000
AcDbSavedByObjectVersion
1070
     0
1000
AcDbSavedByObjectVersion
1070
     0
1000
AcDbSavedByObjectVersion
1070
     0
1000
AcDbSavedByObjectVersion
1070
     0
1000
AcDbSavedByObjectVersion
1070
     0
  0
VISUALSTYLE
  5
39C2E
102
{ACAD_REACTORS
330
39C1E
102
}
330
39C1E
100
AcDbVisualStyle
  2
ColorChange
 70
    16
 71
     2
 72
     2
 73
     3
 90
        0
 40
-0.6
 41
-30.0
 62
     5
 63
     8
 74
     1
 91
        4
 64
     7
 65
   257
 75
     1
175
     1
 42
1.0
 92
        8
 66
     8
 43
1.0
 76
     1
 77
     6
 78
     2
 67
     7
 79
     5
170
     0
171
     0
290
     0
174
     0
 93
        1
 44
0.0
173
     0
291
     1
 45
0.0
1001
ACAD
1000
AcDbSavedByObjectVersion
1070
     0
1000
AcDbSavedByObjectVersion
1070
     0
1000
AcDbSavedByObjectVersion
1070
     0
1000
AcDbSavedByObjectVersion
1070
     0
1000
AcDbSavedByObjectVersion
1070
     0
1000
AcDbSavedByObjectVersion
1070
     0
  0
VISUALSTYLE
  5
39C27
102
{ACAD_REACTORS
330
39C1E
102
}
330
39C1E
100
AcDbVisualStyle
  2
Conceptual
 70
     9
 71
     3
 72
     2
 73
     0
 90
        0
 40
-0.6
 41
-30.0
 62
     5
 63
     7
 74
     2
 91
        2
 64
     7
 65
   257
 75
     1
175
     1
 42
40.0
 92
        8
 66
     7
 43
1.0
 76
     1
 77
     6
 78
     2
 67
     7
 79
     3
170
     0
171
     0
290
     0
174
     0
 93
        1
 44
0.0
173
     0
291
     0
 45
0.0
1001
ACAD
1000
AcDbSavedByObjectVersion
1070
     0
1000
AcDbSavedByObjectVersion
1070
     0
1000
AcDbSavedByObjectVersion
1070
     0
1000
AcDbSavedByObjectVersion
1070
     0
1000
AcDbSavedByObjectVersion
1070
     0
1000
AcDbSavedByObjectVersion
1070
     0
  0
VISUALSTYLE
  5
39C29
102
{ACAD_REACTORS
330
39C1E
102
}
330
39C1E
100
AcDbVisualStyle
  2
Dim
 70
    11
 71
     2
 72
     2
 73
     0
 90
        0
 40
-0.6
 41
-30.0
 62
     5
 63
     7
 74
     1
 91
        4
 64
     7
 65
   257
 75
     1
175
     1
 42
1.0
 92
        8
 66
     7
 43
1.0
 76
     1
 77
     6
 78
     2
 67
     7
 79
     5
170
     0
171
     0
290
     0
174
     0
 93
        1
 44
-50.0
173
     0
291
     1
 45
0.0
1001
ACAD
1000
AcDbSavedByObjectVersion
1070
     0
1000
AcDbSavedByObjectVersion
1070
     0
1000
AcDbSavedByObjectVersion
1070
     0
1000
AcDbSavedByObjectVersion
1070
     0
1000
AcDbSavedByObjectVersion
1070
     0
1000
AcDbSavedByObjectVersion
1070
     0
  0
VISUALSTYLE
  5
39C2D
102
{ACAD_REACTORS
330
39C1E
102
}
330
39C1E
100
AcDbVisualStyle
  2
Facepattern
 70
    15
 71
     2
 72
     2
 73
     0
 90
        0
 40
-0.6
 41
-30.0
 62
     5
 63
     7
 74
     1
 91
        4
 64
     7
 65
   257
 75
     1
175
     1
 42
1.0
 92
        8
 66
     7
 43
1.0
 76
     1
 77
     6
 78
     2
 67
     7
 79
     5
170
     0
171
     0
290
     0
174
     0
 93
        1
 44
0.0
173
     0
291
     1
 45
0.0
1001
ACAD
1000
AcDbSavedByObjectVersion
1070
     0
1000
AcDbSavedByObjectVersion
1070
     0
1000
AcDbSavedByObjectVersion
1070
     0
1000
AcDbSavedByObjectVersion
1070
     0
1000
AcDbSavedByObjectVersion
1070
     0
1000
AcDbSavedByObjectVersion
1070
     0
  0
VISUALSTYLE
  5
39C1F
102
{ACAD_REACTORS
330
39C1E
102
}
330
39C1E
100
AcDbVisualStyle
  2
Flat
 70
     0
 71
     2
 72
     1
 73
     1
 90
        2
 40
-0.6
 41
30.0
 62
     5
 63
     7
 74
     0
 91
        4
 64
     7
 65
   257
 75
     1
175
     1
 42
1.0
 92
        8
 66
     7
 43
1.0
 76
     1
 77
     6
 78
     2
 67
     7
 79
     5
170
     0
171
     0
290
     0
174
     0
 93
       13
 44
0.0
173
     0
291
     1
 45
0.0
1001
ACAD
1000
AcDbSavedByObjectVersion
1070
     0
1000
AcDbSavedByObjectVersion
1070
     0
1000
AcDbSavedByObjectVersion
1070
     0
1000
AcDbSavedByObjectVersion
1070
     0
1000
AcDbSavedByObjectVersion
1070
     0
1000
AcDbSavedByObjectVersion
1070
     0
  0
VISUALSTYLE
  5
39C20
102
{ACAD_REACTORS
330
39C1E
102
}
330
39C1E
100
AcDbVisualStyle
  2
FlatWithEdges
 70
     1
 71
     2
 72
     1
 73
     1
 90
        2
 40
-0.6
 41
30.0
 62
     5
 63
     7
 74
     1
 91
        4
 64
     7
 65
   257
 75
     1
175
     1
 42
1.0
 92
        0
 66
   257
 43
1.0
 76
     1
 77
     6
 78
     2
 67
     7
 79
     5
170
     0
171
     0
290
     0
174
     0
 93
       13
 44
0.0
173
     0
291
     1
 45
0.0
1001
ACAD
1000
AcDbSavedByObjectVersion
1070
     0
1000
AcDbSavedByObjectVersion
1070
     0
1000
AcDbSavedByObjectVersion
1070
     0
1000
AcDbSavedByObjectVersion
1070
     0
1000
AcDbSavedByObjectVersion
1070
     0
1000
AcDbSavedByObjectVersion
1070
     0
  0
VISUALSTYLE
  5
39C21
102
{ACAD_REACTORS
330
39C1E
102
}
330
39C1E
100
AcDbVisualStyle
  2
Gouraud
 70
     2
 71
     2
 72
     2
 73
     1
 90
        2
 40
-0.6
 41
30.0
 62
     5
 63
     7
 74
     0
 91
        4
 64
     7
 65
   257
 75
     1
175
     1
 42
1.0
 92
        0
 66
     7
 43
1.0
 76
     1
 77
     6
 78
     2
 67
     7
 79
     5
170
     0
171
     0
290
     0
174
     0
 93
       13
 44
0.0
173
     0
291
     1
 45
0.0
1001
ACAD
1000
AcDbSavedByObjectVersion
1070
     0
1000
AcDbSavedByObjectVersion
1070
     0
1000
AcDbSavedByObjectVersion
1070
     0
1000
AcDbSavedByObjectVersion
1070
     0
1000
AcDbSavedByObjectVersion
1070
     0
1000
AcDbSavedByObjectVersion
1070
     0
  0
VISUALSTYLE
  5
39C22
102
{ACAD_REACTORS
330
39C1E
102
}
330
39C1E
100
AcDbVisualStyle
  2
GouraudWithEdges
 70
     3
 71
     2
 72
     2
 73
     1
 90
        2
 40
-0.6
 41
30.0
 62
     5
 63
     7
 74
     1
 91
        4
 64
     7
 65
   257
 75
     1
175
     1
 42
1.0
 92
        0
 66
   257
 43
1.0
 76
     1
 77
     6
 78
     2
 67
     7
 79
     5
170
     0
171
     0
290
     0
174
     0
 93
       13
 44
0.0
173
     0
291
     1
 45
0.0
1001
ACAD
1000
AcDbSavedByObjectVersion
1070
     0
1000
AcDbSavedByObjectVersion
1070
     0
1000
AcDbSavedByObjectVersion
1070
     0
1000
AcDbSavedByObjectVersion
1070
     0
1000
AcDbSavedByObjectVersion
1070
     0
1000
AcDbSavedByObjectVersion
1070
     0
  0
VISUALSTYLE
  5
39C2C
102
{ACAD_REACTORS
330
39C1E
102
}
330
39C1E
100
AcDbVisualStyle
  2
Linepattern
 70
    14
 71
     2
 72
     2
 73
     0
 90
        0
 40
-0.6
 41
-30.0
 62
     5
 63
     7
 74
     1
 91
        4
 64
     7
 65
   257
 75
     7
175
     7
 42
1.0
 92
        8
 66
     7
 43
1.0
 76
     1
 77
     6
 78
     2
 67
     7
 79
     5
170
     0
171
     0
290
     0
174
     0
 93
        1
 44
0.0
173
     0
291
     1
 45
0.0
1001
ACAD
1000
AcDbSavedByObjectVersion
1070
     0
1000
AcDbSavedByObjectVersion
1070
     0
1000
AcDbSavedByObjectVersion
1070
     0
1000
AcDbSavedByObjectVersion
1070
     0
1000
AcDbSavedByObjectVersion
1070
     0
1000
AcDbSavedByObjectVersion
1070
     0
  0
VISUALSTYLE
  5
39C28
102
{ACAD_REACTORS
330
39C1E
102
}
330
39C1E
100
AcDbVisualStyle
  2
Realistic
 70
     8
 71
     2
 72
     2
 73
     0
 90
        0
 40
-0.6
 41
-30.0
 62
     5
 63
     7
 74
     1
 91
        0
 64
     7
 65
   257
 75
     1
175
     1
 42
1.0
 92
        8
 66
     8
 43
1.0
 76
     1
 77
     6
 78
     2
 67
     7
 79
     5
170
     0
171
     0
290
     0
174
     0
 93
       13
 44
0.0
173
     0
291
     0
 45
0.0
1001
ACAD
1000
AcDbSavedByObjectVersion
1070
     0
1000
AcDbSavedByObjectVersion
1070
     0
1000
AcDbSavedByObjectVersion
1070
     0
1000
AcDbSavedByObjectVersion
1070
     0
1000
AcDbSavedByObjectVersion
1070
     0
1000
AcDbSavedByObjectVersion
1070
     0
  0
VISUALSTYLE
  5
39C2B
102
{ACAD_REACTORS
330
39C1E
102
}
330
39C1E
100
AcDbVisualStyle
  2
Thicken
 70
    13
 71
     2
 72
     2
 73
     0
 90
        0
 40
-0.6
 41
-30.0
 62
     5
 63
     7
 74
     1
 91
        4
 64
     7
 65
   257
 75
     1
175
     1
 42
1.0
 92
       12
 66
     7
 43
1.0
 76
     1
 77
     6
 78
     2
 67
     7
 79
     5
170
     0
171
     0
290
     0
174
     0
 93
        1
 44
0.0
173
     0
291
     1
 45
0.0
1001
ACAD
1000
AcDbSavedByObjectVersion
1070
     0
1000
AcDbSavedByObjectVersion
1070
     0
1000
AcDbSavedByObjectVersion
1070
     0
1000
AcDbSavedByObjectVersion
1070
     0
1000
AcDbSavedByObjectVersion
1070
     0
1000
AcDbSavedByObjectVersion
1070
     0
  0
DICTIONARYVAR
  5
39C39
102
{ACAD_REACTORS
330
210D7
102
}
330
210D7
100
DictionaryVariables
280
     0
  1
STANDARD
  0
DICTIONARYVAR
  5
3BD64
102
{ACAD_REACTORS
330
210D7
102
}
330
210D7
100
DictionaryVariables
280
     0
  1
1
  0
DICTIONARYVAR
  5
3BD63
102
{ACAD_REACTORS
330
210D7
102
}
330
210D7
100
DictionaryVariables
280
     0
  1
0
  0
DICTIONARYVAR
  5
210D8
102
{ACAD_REACTORS
330
210D7
102
}
330
210D7
100
DictionaryVariables
280
     0
  1
96
  0
DICTIONARY
  5
39C40
330
39BF6
100
AcDbDictionary
280
     1
281
     1
  3
ACAD_XREC_ROUNDTRIP
360
3D871
  3
ADSK_XREC_LAYOUTTHUMBNAIL
360
39C41
  0
DICTIONARY
  5
3D86F
330
39BF5
100
AcDbDictionary
280
     1
281
     1
  3
ACAD_XREC_ROUNDTRIP
360
3D870
  0
DICTIONARY
  5
3BDEF
330
39C1C
100
AcDbDictionary
280
     1
281
     1
  3
ACAD_XREC_ROUNDTRIP
360
3BDF0
  0
DICTIONARY
  5
3BDED
330
39C1B
100
AcDbDictionary
280
     1
281
     1
  3
ACAD_XREC_ROUNDTRIP
360
3BDEE
  0
DICTIONARY
  5
3BDF1
330
39C1D
100
AcDbDictionary
280
     1
281
     1
  3
ACAD_XREC_ROUNDTRIP
360
3BDF2
  0
DICTIONARY
  5
3D872
330
39C30
100
AcDbDictionary
280
     1
281
     1
  3
ACAD_XREC_ROUNDTRIP
360
3D873
  0
XRECORD
  5
3D871
102
{ACAD_REACTORS
330
39C40
102
}
330
39C40
100
AcDbXrecord
280
     1
102
SHADEPLOT
 70
     1
102
SHADEPLOTRESLEVEL
 70
     2
102
SHADEPLOTCUSTOMDPI
 70
   300
  0
XRECORD
  5
39C41
102
{ACAD_REACTORS
330
39C40
102
}
330
39C40
100
AcDbXrecord
280
     1
310
28000000620000008C0000000100080000000000B036000000000000000000000001000000000000FFFFFF0000000000FFFFFF000000000000000000000000000000000000000000000000000000000000000000330000006600000099000000CC000000FF00000000330000333300006633000099330000CC330000FF3300
310
0000660000336600006666000099660000CC660000FF66000000990000339900006699000099990000CC990000FF99000000CC000033CC000066CC000099CC0000CCCC0000FFCC000000FF000033FF000066FF000099FF0000CCFF0000FFFF000000003300330033006600330099003300CC003300FF003300003333003333
310
33006633330099333300CC333300FF33330000663300336633006666330099663300CC663300FF66330000993300339933006699330099993300CC993300FF99330000CC330033CC330066CC330099CC3300CCCC3300FFCC330000FF330033FF330066FF330099FF3300CCFF3300FFFF330000006600330066006600660099
310
006600CC006600FF00660000336600333366006633660099336600CC336600FF33660000666600336666006666660099666600CC666600FF66660000996600339966006699660099996600CC996600FF99660000CC660033CC660066CC660099CC6600CCCC6600FFCC660000FF660033FF660066FF660099FF6600CCFF6600
310
FFFF660000009900330099006600990099009900CC009900FF00990000339900333399006633990099339900CC339900FF33990000669900336699006666990099669900CC669900FF66990000999900339999006699990099999900CC999900FF99990000CC990033CC990066CC990099CC9900CCCC9900FFCC990000FF99
310
0033FF990066FF990099FF9900CCFF9900FFFF99000000CC003300CC006600CC009900CC00CC00CC00FF00CC000033CC003333CC006633CC009933CC00CC33CC00FF33CC000066CC003366CC006666CC009966CC00CC66CC00FF66CC000099CC003399CC006699CC009999CC00CC99CC00FF99CC0000CCCC0033CCCC0066CC
310
CC0099CCCC00CCCCCC00FFCCCC0000FFCC0033FFCC0066FFCC0099FFCC00CCFFCC00FFFFCC000000FF003300FF006600FF009900FF00CC00FF00FF00FF000033FF003333FF006633FF009933FF00CC33FF00FF33FF000066FF003366FF006666FF009966FF00CC66FF00FF66FF000099FF003399FF006699FF009999FF00CC
310
99FF00FF99FF0000CCFF0033CCFF0066CCFF0099CCFF00CCCCFF00FFCCFF0000FFFF0033FFFF0066FFFF0099FFFF00CCFFFF00FFFFFF00000000000D0D0D001A1A1A00282828003535350043434300505050005D5D5D006B6B6B00787878008686860093939300A1A1A100AEAEAE00BBBBBB00C9C9C900D6D6D600E4E4E400
310
F1F1F100FFFFFF0000000000000000000000000000000000000000000000000000000000000000000000000000000000E2E2E2E2E2E2E2E2E2E2E2E2E2E2E2E2E2E2E2E2E2E2E2E2E2E2E2E2E2E2E2E2E2E2E2E2E2E2E2E2E2E2E2E2E2E2E2E2E2E2E2E2E2E2E2E2E2E2E2E2E2E2E2E2E2E2E2E2E2E2E2E2E2E2E2E2E2E2E2
310
E2E2E2E2E2E2E2E2E2E2E2E2E2E2E2E2E2E2E2813EE2F5F5F5F5F5F5F5F5F5F5F5F5F5F5F5F5F5F5F5F5F5F5F5F5F5F5F5F5F5F5F5F5F5F5F5F5F5F5F5F5F5F5F5F5F5F5F5F5F5F5F5F5F5F5F5F5F5F5F5F5F5F5F5F5F5F5F5F5F5F5F5F5F5F5F5F5F5F5F5F5F5F5F5F5F5F5F5F5F5F5F5F5F5F5F5F5F5AC45E2F5F5F5F5F5
310
F5F5F5F5F5F5F5F5F5F5F5F5F5F5F5F5F5F5F5F5F5F5F5F5F5F5F5F5F5F5F5F5F5F5F5F5F5F5F5F5F5F5F5F5F5F5F5F5F5F5F5F5F5F5F5F5F5F5F5F5F5F5F5F5F5F5F5F5F5F5F5F5F5F5F5F5F5F5F5F5F5F5F5F5F5F5F5F5F5F5F5F5B33EE2F5F5E2E2E2E2E2E2E2E2F5F5F5F5F5F5F5F5E2E2E2E2E2E2E2E2E2E2E2E2E2E2
310
E2F5F5F5F5F5F5F5F5E2E2E2E2E2E2E2E2E2E2E2E2E2E2E2F5F5F5F5F5F5F5F5E2E2E2E2E2E2E2E2E2E2E2E2E2E2E2F5F5F5F5F5F5F5F5E2E2E2E2E2E2E2E2F5F5B645E2F5F5E2F5F5F5F5F5F5F5F5F5F5F5F5F5F5F5F5F5F5F5F5F5F5F5F5F5F5F5F5F5F5F5F5F5F5F5F5F5F5F5F5F5F5F5F5F5F5F5F5F5F5F5F5F5F5F5F5
310
F5F5F5F5F5F5F5F5F5F5F5F5F5F5F5F5F5F5F5F5F5F5F5F5F5F5F5F5F5F5F5F5F5F5F5E2F5F5053FE2F5F5E2F5F5F5F5F5F5F5F5F5F5F5F5F5F5F5F5F5F5F5F5F5F5F5F5F5F5F5F5F5F5F5F5F5F5F5F5F5F5F5F5F5F5F5F5F5F5F5F5F5F5F5F5F5F5F5F5F5F5F5F5F5F5F5F5F5F5F5F5F5F5F5F5F5F5F5F5F5F5F5F5F5F5F5
310
F5F5F5F5F5F5F5F5E2F5F5C745E2F5F5E2F5F5F5F5F5F5F5F5F5F5F5F5F5F5F5F5F5F5F5F5F5F5F5F5F5F5F5F5F5F5F5F5F5F5F5F5F5F5F5F5F5F5F5F5F5F5F5F5F5F5F5F5F5F5F5F5F5F5F5F5F5F5F5F5F5F5F5F5F5F5F5F5F5F5F5F5F5F5F5F5F5F5F5F5F5F5F5F5F5F5F5E2F5F5303FE2F5F5E2F5F5F5F5F5F5F5F5F5F5
310
F5F5F5F5F5F5F5F5F5F5F5F5F5F5F5F5F5F5F5F5F5F5F5F5F5F5F5F5F5F5F5F5F5F5F5F5F5F5F5F5F5F5F5F5F5F5F5F5F5F5F5F5F5F5F5F5F5F5F5F5F5F5F5F5F5F5F5F5F5F5F5F5F5F5F5F5F5F5F5F5F5E2F5F59745E2F5F5E2F5F5F5F5F5F5F5F5F5F5F5F5F5F5F5F5F5F5F5F5F5F5F5F5F5F5F5F5F5F5F5F5F5F5F5F5F5
310
F5F5F5F5F5F5F5F5F5F5F5F5F5F5F5F5F5F5F5F5F5F5F5F5F5F5F5F5F5F5F5F5F5F5F5F5F5F5F5F5F5F5F5F5F5F5F5F5F5F5F5F5F5F5E2F5F5043DE2F5F5E2F5F5F5F5F5F5F5F5F5F5F5F5F5F5F5F5F5F5F5F5F5F5F5F5F5F5F5F5F5F5F5F5F5F5F5F5F5F5F5F5F5F5F5F5F5F5F5F5F5F5F5F5F5F5F5F5F5F5F5F5F5F5F5F5
310
F5F5F5F5F5F5F5F5F5F5F5F5F5F5F5F5F5F5F5F5F5F5F5F5F5F5F5E2F5F57045E2F5F5E2F5F5F5F5F5F5F5F5F5F5F5F5F5F5F5F5F5F5F5F5F5F5F5F5F5F5F5F5F5F5F5F5F5F5F5F5F5F5F5F5F5F5F5F5F5F5F5F5F5F5F5F5F5F5F5F5F5F5F5F5F5F5F5F5F5F5F5F5F5F5F5F5F5F5F5F5F5F5F5F5F5F5F5F5F5F5F5F5F5F5F5
310
E2F5F5473DE2F5F5E2F5F5F5F5F5F5F5F5F5F5F5F5F5F5F5F5F5F5F5F5F5F5F5F5F5F5F5F5F5F5F5F5F5F5F5F5F5F5F5F5F5F5F5F5F5F5F5F5F5F5F5F5F5F5F5F5F5F5F5F5F5F5F5F5F5F5F5F5F5F5F5F5F5F5F5F5F5F5F5F5F5F5F5F5F5F5F5F5F5F5F5E2F5F54345E2F5F5F5F5F5F5F5F5F5F5F5F5F5F5F5F5F5F5F5F5F5
310
F5F5F5F5F5F5F5F5F5F5F5F5F5F5F5F5F5F5F5F5F5F5F5F5F5F5F5F5F5F5F5F5F5F5F5F5F5F5F5F5F5F5F5F5F5F5F5F5F5F5F5F5F5F5F5F5F5F5F5F5F5F5F5F5F5F5F5F5F5F5F5F5F5F5F5F57D3DE2F5F5F5F5F5F5F5F5F5F5F5F5F5F5F5F5F5F5F5F5F5F5F5F5F5F5F5F5F5F5F5F5F5F5F5F5F5F5F5F5F5F5F5F5F5F5F5F5
310
F5F5F5F5F5F5F5F5F5F5F5F5F5F5F5F5F5F5F5F5F5F5F5F5F5F5F5F5F5F5F5F5F5F5F5F5F5F5F5F5F5F5F5F5F5F5F5F5F57045E2F5F5F5F5F5F5F5F5F5F5F5F5F5F5F5F5F5F5F5F5F5F5F5F5F5F5F5F5F5F5F5F5F5F5F5F5F5F5F5F5F5F5F5F5F5F5F5F5F5F5F5F5F5F5F5F5F5F5F5F5F5F5F5F5F5F5F5F5F5F5F5F5F5F5F5
310
F5F5F5F5F5F5F5F5F5F5F5F5F5F5F5F5F5F5F5F5F5F5B33DE2F5F5F5F5F5F5F5F5F5F5F5F5F5F5F5F5F5F5F5F5F5F5F5F5F5F5F5F5F5F5F5F5F5F5F5F5F5F5F5F5F5F5F5F5F5F5F5F5F5F5F5F5F5F5F5F5F5F5F5F5F5F5F5F5F5F5F5F5F5F5F5F5F5F5F5F5F5F5F5F5F5F5F5F5F5F5F5F5F5F5F5F5F5F5F5F5F54345E2F5F5
310
F5F5F5F5F5F5F5F5F5F5F5F5F5F5F5F5F5F5F5F5F5F5F5F5F5F5F5F5F5F5F5F5F5F5F5F5F5F5F5F5F5F5F5F5F5F5F5F5F5F5F5F5F5F5F5F5F5F5F5F5F5F5F5F5F5F5F5F5F5F5F5F5F5F5F5F5F5F5F5F5F5F5F5F5F5F5F5F5F5F5F5F5F5F5F5EA3DE2F5F5F5F5F5F5F5F5F5F5F5F5F5F5F5F5F5F5F5F5F5F5F5F5F5F5F5F5F5
310
F5F5F5F5F5F5F5F5F5F5F5F5F5F5F5F5F5F5F5F5F5F5F5F5F5F5F5F5F5F5F5F5F5F5F5F5F5F5F5F5F5F5F5F5F5F5F5F5F5F5F5F5F5F5F5F5F5F5F5F5F5F5F5F5F5F5F5F54045E2F5F5F5F5F5F5F5F5F5F5F5F5F5F5F5F5F5F5F5F5F5F5F5F5F5F5F5F5F5F5F5F5F5F5F5F5F5F5F5F5F5F5F5F5F5F5F5F5F5F5F5F5F5F5F5F5
310
F5F5F5F5F5F5F5F5F5F5F5F5F5F5F5F5F5F5F5F5F5F5F5F5F5F5F5F5F5F5F5F5F5F5F5F5F5F5F5F5F5513EE2F5F5F5F5F5F5F5F5F5F5F5F5F5F5F5F5F5F5F5F5F5F5F5F5F5F5F5F5F5F5F5F5F5F5F5F5F5F5F5F5F5F5F5F5F5F5F5F5F5F5F5F5F5F5F5F5F5F5F5F5F5F5F5F5F5F5F5F5F5F5F5F5F5F5F5F5F5F5F5F5F5F5F5
310
F5F5F5F5F5F5F5F5F5F5F5F5F5F55445E2F5F5F5F5F5F5F5F5F5F5F5F5F5F5F5F5F5F5F5F5F5F5F5F5F5F5F5F5F5F5F5F5F5F5F5F5F5F5F5F5F5F5F5F5F5F5F5F5F5F5F5F5F5F5F5F5F5F5F5F5F5F5F5F5F5F5F5F5F5F5F5F5F5F5F5F5F5F5F5F5F5F5F5F5F5F5F5F5F5F5F5F5F5F5F5F5F5913EE2F5F5E2F5F5F5F5F5F5F5
310
F5F5F5F5F5F5F5F5F5F5F5F5F5F5F5F5F5F5F5F5F5F5F5F5F5F5F5F5F5F5F5F5F5F5F5F5F5F5F5F5F5F5F5F5F5F5F5F5F5F5F5F5F5F5F5F5F5F5F5F5F5F5F5F5F5F5F5F5F5F5F5F5F5F5F5F5F5F5F5F5F5F5F5F5E2F5F57345E2F5F5E2F5F5F5F5F5F5F5F5F5F5F5F5F5F5F5F5F5F5F5F5F5F5F5F5F5F5F5F5F5F5F5F5F5F5
310
F5F5F5F5F5F5F5F5F5F5F5F5F5F5F5F5F5F5F5F5F5F5F5F5F5F5F5F5F5F5F5F5F5F5F5F5F5F5F5F5F5F5F5F5F5F5F5F5F5F5F5F5F5F5F5F5F5E2F5F5C03EE2F5F5E2F5F5F5F5F5F5F5F5F5F5F5F5F5F5F5F5F5F5F5F5F5F5F5F5F5F5F5F5F5F5F5F5F5F5F5F5F5F5F5F5F5F5F5F5F5F5F5F5F5F5F5F5F5F5F5F5F5F5F5F5F5
310
F5F5F5F5F5F5F5F5F5F5F5F5F5F5F5F5F5F5F5F5F5F5F5F5F5F5F5F5F5F5E2F5F54045E2F5F5E2F5F5F5F5F5F5F5F5F5F5F5F5F5F5F5F5F5F5F5F5F5F5F5F5F5F5F5F5F5F5F5F5F5F5F5F5F5F5F5F5F5F5F5F5F5F5F5F5F5F5F5F5F5F5F5F5F5F5F5F5F5F5F5F5F5F5F5F5F5F5F5F5F5F5F5F5F5F5F5F5F5F5F5F5F5F5F5F5
310
F5F5F5E2F5F5243FE2F5F5E2F5F5F5F5F5F5F5F5F5F5F5F5F5F5F5F5F5F5F5F5F5F5F5F5F5F5F5F5F5F5F5F5F5F5F5F5F5F5F5F5F5F5F5F5F5F5F5F5F5F5F5F5F5F5F5F5F5F5F5F5F5F5F5F5F5F5F5F5F5F5F5F5F5F5F5F5F5F5F5F5F5F5F5F5F5F5F5F5F5F5F5E2F5F54345E2F5F5E2F5F5F5F5F5F5F5F5F5F5F5F5F5F5F5
310
F5F5F5F5F5F5F5F5F5F5F5F5F5F5F5F5F5F5F5F5F5F5F5F5F5F5F5F5F5F5F5F5F5F5F5F5F5F5F5F5F5F5F5F5F5F5F5F5F5F5F5F5F5F5F5F5F5F5F5F5F5F5F5F5F5F5F5F5F5F5F5F5F5F5F5F5E2F5F5443FE2F5F5E2F5F5F5F5F5F5F5F5F5F5F5F5F5F5F5F5F5F5F5F5F5F5F5F5F5F5F5F5F5F5F5F5F5F5F5F5F5F5F5F5F5F5
310
F5F5F5F5F5F5F5F5F5F5F5F5F5F5F5F5F5F5F5F5F5F5F5F5F5F5F5F5F5F5F5F5F5F5F5F5F5F5F5F5F5F5F5F5F5F5F5F5F5E2F5F55B45E2F5F5E2F5F5F5F5F5F5F5F5F5F5F5F5F5F5F5F5F5F5F5F5F5F5F5F5F5F5F5F5F5F5F5F5F5F5F5F5F5F5F5F5F5F5F5F5F5F5F5F5F5F5F5F5F5F5F5F5F5F5F5F5F5F5F5F5F5F5F5F5F5
310
F5F5F5F5F5F5F5F5F5F5F5F5F5F5F5F5F5F5F5F5F5F5E2F5F5483FE2F5F5E2F5F5F5F5F5F5F5F5F5F5F5F5F5F5F5F5F5F5F5F5F5F5F5F5F5F5F5F5F5F5F5F5F5F5F5F5F5F5F5F5F5F5F5F5F5F5F5F5F5F5F5F5F5F5F5F5F5F5F5F5F5F5F5F5F5F5F5F5F5F5F5F5F5F5F5F5F5F5F5F5F5F5F5F5F5F5F5F5F5F5F5E2F5F5EC44
310
E2F5F5E2F5F5F5F5F5F5F5F5F5F5F5F5F5F5F5F5F5F5F5F5F5F5F5F5F5F5F5F5F5F5F5F5F5F5F5F5F5F5F5F5F5F5F5F5F5F5F5F5F5F5F5F5F5F5F5F5F5F5F5F5F5F5F5F5F5F5F5F5F5F5F5F5F5F5F5F5F5F5F5F5F5F5F5F5F5F5F5F5F5F5F5E2F5F5583DE2F5F5E2F5F5F5F5F5F5F5F5F5F5F5F5F5F5F5F5F5F5F5F5F5F5F5
310
F5F5F5F5F5F5F5F5F5F5F5F5F5F5F5F5F5F5F5F5F5F5F5F5F5F5F5F5F5F5F5F5F5F5F5F5F5F5F5F5F5F5F5F5F5F5F5F5F5F5F5F5F5F5F5F5F5F5F5F5F5F5F5F5F5F5F5F5E2F5F50B45E2F5F5E2F5F5F5F5F5F5F5F5F5F5F5F5F5F5F5F5F5F5F5F5F5F5F5F5F5F5F5F5F5F5F5F5F5F5F5F5F5F5F5F5F5F5F5F5F5F5F5F5F5F5
310
F5F5F5F5F5F5F5F5F5F5F5F5F5F5F5F5F5F5F5F5F5F5F5F5F5F5F5F5F5F5F5F5F5F5F5F5F5F5F5F5F5E2F5F57C3DE2F5F5E2F5F5F5F5F5F5F5F5F5F5F5F5F5F5F5F5F5F5F5F5F5F5F5F5F5F5F5F5F5F5F5F5F5F5F5F5F5F5F5F5F5F5F5F5F5F5F5F5F5F5F5F5F5F5F5F5F5F5F5F5F5F5F5F5F5F5F5F5F5F5F5F5F5F5F5F5F5
310
F5F5F5F5F5F5F5F5F5F5F5F5F5F5E2F5F50E45E2F5F5E2F5F5F5F5F5F5F5F5F5F5F5F5F5F5F5F5F5F5F5F5F5F5F5F5F5F5F5F5F5F5F5F5F5F5F5F5F5F5F5F5F5F5F5F5F5F5F5F5F5F5F5F5F5F5F5F5F5F5F5F5F5F5F5F5F5F5F5F5F5F5F5F5F5F5F5F5F5F5F5F5F5F5F5F5F5F5F5F5F5F5F5E2F5F5A73DE2F5F5E2F5F5F5F5
310
F5F5F5F5F5F5F5F5F5F5F5F5F5F5F5F5F5F5F5F5F5F5F5F5F5F5F5F5F5F5F5F5F5F5F5F5F5F5F5F5F5F5F5F5F5F5F5F5F5F5F5F5F5F5F5F5F5F5F5F5F5F5F5F5F5F5F5F5F5F5F5F5F5F5F5F5F5F5F5F5F5F5F5F5F5F5F5E2F5F5EC44E2F5F5E2F5F5F5F5F5F5F5F5F5F5F5F5F5F5F5F5F5F5F5F5F5F5F5F5F5F5F5F5F5F5F5
310
F5F5F5F5F5F5F5F5F5F5F5F5F5F5F5F5F5F5F5F5F5F5F5F5F5F5F5F5F5F5F5F5F5F5F5F5F5F5F5F5F5F5F5F5F5F5F5F5F5F5F5F5F5F5F5F5F5F5F5F5E2F5F5D93DE2F5F5E2F5F5F5F5F5F5F5F5F5F5F5F5F5F5F5F5F5F5F5F5F5F5F5F5F5F5F5F5F5F5F5F5F5F5F5F5F5F5F5F5F5F5F5F5F5F5F5F5F5F5F5F5F5F5F5F5F5F5
310
F5F5F5F5F5F5F5F5F5F5F5F5F5F5F5F5F5F5F5F5F5F5F5F5F5F5F5F5F5F5F5F5F5E2F5F5F344E2F5F5F5F5F5F5F5F5F5F5F5F5F5F5F5F5F5F5F5F5F5F5F5F5F5F5F5F5F5F5F5F5F5F5F5F5F5F5F5F5F5F5F5F5F5F5F5F5F5F5F5F5F5F5F5F5F5F5F5F5F5F5F5F5F5F5F5F5F5F5F5F5F5F5F5F5F5F5F5F5F5F5F5F5F5F5F5F5
310
F5F5F5F5F5F5F5F5F5F73CE2F5F5F5F5F5F5F5F5F5F5F5F5F5F5F5F5F5F5F5F5F5F5F5F5F5F5F5F5F5F5F5F5F5F5F5F5F5F5F5F5F5F5F5F5F5F5F5F5F5F5F5F5F5F5F5F5F5F5F5F5F5F5F5F5F5F5F5F5F5F5F5F5F5F5F5F5F5F5F5F5F5F5F5F5F5F5F5F5F5F5F5F5F5F5F5F5F5B344E2F5F5F5F5F5F5F5F5F5F5F5F5F5F5F5
310
F5F5F5F5F5F5F5F5F5F5F5F5F5F5F5F5F5F5F5F5F5F5F5F5F5F5F5F5F5F5F5F5F5F5F5F5F5F5F5F5F5F5F5F5F5F5F5F5F5F5F5F5F5F5F5F5F5F5F5F5F5F5F5F5F5F5F5F5F5F5F5F5F5F5F5F5F5F5F5F5F5F56A3DE2F5F5F5F5F5F5F5F5F5F5F5F5F5F5F5F5F5F5F5F5F5F5F5F5F5F5F5F5F5F5F5F5F5F5F5F5F5F5F5F5F5F5
310
F5F5F5F5F5F5F5F5F5F5F5F5F5F5F5F5F5F5F5F5F5F5F5F5F5F5F5F5F5F5F5F5F5F5F5F5F5F5F5F5F5F5F5F5F5F5F5F5F5F5F5F5F5F5F5BA44E2F5F5F5F5F5F5F5F5F5F5F5F5F5F5F5F5F5F5F5F5F5F5F5F5F5F5F5F5F5F5F5F5F5F5F5F5F5F5F5F5F5F5F5F5F5F5F5F5F5F5F5F5F5F5F5F5F5F5F5F5F5F5F5F5F5F5F5F5F5
310
F5F5F5F5F5F5F5F5F5F5F5F5F5F5F5F5F5F5F5F5F5F5F5F5F5F5F5F59D3DE2F5F5F5F5F5F5F5F5F5F5F5F5F5F5F5F5F5F5F5F5F5F5F5F5F5F5F5F5F5F5F5F5F5F5F5F5F5F5F5F5F5F5F5F5F5F5F5F5F5F5F5F5F5F5F5F5F5F5F5F5F5F5F5F5F5F5F5F5F5F5F5F5F5F5F5F5F5F5F5F5F5F5F5F5F5F5F5F5F5F5F5F5F5F5F5F5
310
F5AB44E2F5F5F5F5F5F5F5F5F5F5F5F5F5F5F5F5F5F5F5F5F5F5F5F5F5F5F5F5F5F5F5F5F5F5F5F5F5F5F5F5F5F5F5F5F5F5F5F5F5F5F5F5F5F5F5F5F5F5F5F5F5F5F5F5F5F5F5F5F5F5F5F5F5F5F5F5F5F5F5F5F5F5F5F5F5F5F5F5F5F5F5F5F5F5F5F5F5EA3DE2F5F5F5F5F5F5F5F5F5F5F5F5F5F5F5F5F5F5F5F5F5F5F5
310
F5F5F5F5F5F5F5F5F5F5F5F5F5F5F5F5F5F5F5F5F5F5F5F5F5F5F5F5F5F5F5F5F5F5F5F5F5F5F5F5F5F5F5F5F5F5F5F5F5F5F5F5F5F5F5F5F5F5F5F5F5F5F5F5F5F5F5F5F5F5F5F5F5F5C844E2F5F5F5F5F5F5F5F5F5F5F5F5F5F5F5F5F5F5F5F5F5F5F5F5F5F5F5F5F5F5F5F5F5F5F5F5F5F5F5F5F5F5F5F5F5F5F5F5F5F5
310
F5F5F5F5F5F5F5F5F5F5F5F5F5F5F5F5F5F5F5F5F5F5F5F5F5F5F5F5F5F5F5F5F5F5F5F5F5F5F5F5F5F5F5F5F5F5F5F93CE2F5F5F5F5F5F5F5F5F5F5F5F5F5F5F5F5F5F5F5F5F5F5F5F5F5F5F5F5F5F5F5F5F5F5F5F5F5F5F5F5F5F5F5F5F5F5F5F5F5F5F5F5F5F5F5F5F5F5F5F5F5F5F5F5F5F5F5F5F5F5F5F5F5F5F5F5F5
310
F5F5F5F5F5F5F5F5F5F5F5F5F5F5F5F5F5F5F5F54444E2F5F5E2F5F5F5F5F5F5F5F5F5F5F5F5F5F5F5F5F5F5F5F5F5F5F5F5F5F5F5F5F5F5F5F5F5F5F5F5F5F5F5F5F5F5F5F5F5F5F5F5F5F5F5F5F5F5F5F5F5F5F5F5F5F5F5F5F5F5F5F5F5F5F5F5F5F5F5F5F5F5F5F5F5F5F5F5F5F5F5F5F5F5F5E2F5F5673DE2F5F5E2F5
310
F5F5F5F5F5F5F5F5F5F5F5F5F5F5F5F5F5F5F5F5F5F5F5F5F5F5F5F5F5F5F5F5F5F5F5F5F5F5F5F5F5F5F5F5F5F5F5F5F5F5F5F5F5F5F5F5F5F5F5F5F5F5F5F5F5F5F5F5F5F5F5F5F5F5F5F5F5F5F5F5F5F5F5F5F5F5F5F5F5F5E2F5F54B44E2F5F5E2F5F5F5F5F5F5F5F5F5F5F5F5F5F5F5F5F5F5F5F5F5F5F5F5F5F5F5F5
310
F5F5F5F5F5F5F5F5F5F5F5F5F5F5F5F5F5F5F5F5F5F5F5F5F5F5F5F5F5F5F5F5F5F5F5F5F5F5F5F5F5F5F5F5F5F5F5F5F5F5F5F5F5F5F5F5F5F5F5F5F5F5F5E2F5F58D3DE2F5F5E2F5F5F5F5F5F5F5F5F5F5F5F5F5F5F5F5F5F5F5F5F5F5F5F5F5F5F5F5F5F5F5F5F5F5F5F5F5F5F5F5F5F5F5F5F5F5F5F5F5F5F5F5F5F5F5
310
F5F5F5F5F5F5F5F5F5F5F5F5F5F5F5F5F5F5F5F5F5F5F5F5F5F5F5F5F5F5F5F5F5F5F5F5E2F5F54444E2F5F5E2F5F5F5F5F5F5F5F5F5F5F5F5F5F5F5F5F5F5F5F5F5F5F5F5F5F5F5F5F5F5F5F5F5F5F5F5F5F5F5F5F5F5F5F5F5F5F5F5F5F5F5F5F5F5F5F5F5F5F5F5F5F5F5F5F5F5F5F5F5F5F5F5F5F5F5F5F5F5F5F5F5F5
310
F5F5F5F5F5F5F5F5F5E2F5F5D23DE2F5F5E2F5F5F5F5F5F5F5F5F5F5F5F5F5F5F5F5F5F5F5F5F5F5F5F5F5F5F5F5F5F5F5F5F5F5F5F5F5F5F5F5F5F5F5F5F5F5F5F5F5F5F5F5F5F5F5F5F5F5F5F5F5F5F5F5F5F5F5F5F5F5F5F5F5F5F5F5F5F5F5F5F5F5F5F5F5F5F5F5F5F5F5E2F5F54444E2F5F5E2F5F5F5F5F5F5F5F5F5
310
F5F5F5F5F5F5F5F5F5F5F5F5F5F5F5F5F5F5F5F5F5F5F5F5F5F5F5F5F5F5F5F5F5F5F5F5F5F5F5F5F5F5F5F5F5F5F5F5F5F5F5F5F5F5F5F5F5F5F5F5F5F5F5F5F5F5F5F5F5F5F5F5F5F5F5F5F5F5F5F5F5F5E2F5F5F43DE2F5F5E2F5F5F5F5F5F5F5F5F5F5F5F5F5F5F5F5F5F5F5F5F5F5F5F5F5F5F5F5F5F5F5F5F5F5F5F5
310
F5F5F5F5F5F5F5F5F5F5F5F5F5F5F5F5F5F5F5F5F5F5F5F5F5F5F5F5F5F5F5F5F5F5F5F5F5F5F5F5F5F5F5F5F5F5F5F5F5F5F5F5F5F5F5E2F5F56344E2F5F5E2F5F5F5F5F5F5F5F5F5F5F5F5F5F5F5F5F5F5F5F5F5F5F5F5F5F5F5F5F5F5F5F5F5F5F5F5F5F5F5F5F5F5F5F5F5F5F5F5F5F5F5F5F5F5F5F5F5F5F5F5F5F5F5
310
F5F5F5F5F5F5F5F5F5F5F5F5F5F5F5F5F5F5F5F5F5F5F5F5F5F5F5F5E2F5F5163EE2F5F5E2F5F5F5F5F5F5F5F5F5F5F5F5F5F5F5F5F5F5F5F5F5F5F5F5F5F5F5F5F5F5F5F5F5F5F5F5F5F5F5F5F5F5F5F5F5F5F5F5F5F5F5F5F5F5F5F5F5F5F5F5F5F5F5F5F5F5F5F5F5F5F5F5F5F5F5F5F5F5F5F5F5F5F5F5F5F5F5F5F5F5
310
F5E2F5F54444E2F5F5E2F5F5F5F5F5F5F5F5F5F5F5F5F5F5F5F5F5F5F5F5F5F5F5F5F5F5F5F5F5F5F5F5F5F5F5F5F5F5F5F5F5F5F5F5F5F5F5F5F5F5F5F5F5F5F5F5F5F5F5F5F5F5F5F5F5F5F5F5F5F5F5F5F5F5F5F5F5F5F5F5F5F5F5F5F5F5F5F5F5F5F5E2F5F5F73CE2F5F5E2F5F5F5F5F5F5F5F5F5F5F5F5F5F5F5F5F5
310
F5F5F5F5F5F5F5F5F5F5F5F5F5F5F5F5F5F5F5F5F5F5F5F5F5F5F5F5F5F5F5F5F5F5F5F5F5F5F5F5F5F5F5F5F5F5F5F5F5F5F5F5F5F5F5F5F5F5F5F5F5F5F5F5F5F5F5F5F5F5F5F5F5F5E2F5F50F44E2F5F5E2F5F5F5F5F5F5F5F5F5F5F5F5F5F5F5F5F5F5F5F5F5F5F5F5F5F5F5F5F5F5F5F5F5F5F5F5F5F5F5F5F5F5F5F5
310
F5F5F5F5F5F5F5F5F5F5F5F5F5F5F5F5F5F5F5F5F5F5F5F5F5F5F5F5F5F5F5F5F5F5F5F5F5F5F5F5F5F5F5F5F5F5F5E2F5F5453DE2F5F5E2F5F5F5F5F5F5F5F5F5F5F5F5F5F5F5F5F5F5F5F5F5F5F5F5F5F5F5F5F5F5F5F5F5F5F5F5F5F5F5F5F5F5F5F5F5F5F5F5F5F5F5F5F5F5F5F5F5F5F5F5F5F5F5F5F5F5F5F5F5F5F5
310
F5F5F5F5F5F5F5F5F5F5F5F5F5F5F5F5F5F5F5F5E2F5F50344E2F5F5E2F5F5F5F5F5F5F5F5F5F5F5F5F5F5F5F5F5F5F5F5F5F5F5F5F5F5F5F5F5F5F5F5F5F5F5F5F5F5F5F5F5F5F5F5F5F5F5F5F5F5F5F5F5F5F5F5F5F5F5F5F5F5F5F5F5F5F5F5F5F5F5F5F5F5F5F5F5F5F5F5F5F5F5F5F5F5F5F5F5F5F5E2F5F5613DE2F5
310
F5E2F5F5F5F5F5F5F5F5F5F5F5F5F5F5F5F5F5F5F5F5F5F5F5F5F5F5F5F5F5F5F5F5F5F5F5F5F5F5F5F5F5F5F5F5F5F5F5F5F5F5F5F5F5F5F5F5F5F5F5F5F5F5F5F5F5F5F5F5F5F5F5F5F5F5F5F5F5F5F5F5F5F5F5F5F5F5F5F5F5F5F5E2F5F52044E2F5F5E2F5F5F5F5F5F5F5F5F5F5F5F5F5F5F5F5F5F5F5F5F5F5F5F5F5
310
F5F5F5F5F5F5F5F5F5F5F5F5F5F5F5F5F5F5F5F5F5F5F5F5F5F5F5F5F5F5F5F5F5F5F5F5F5F5F5F5F5F5F5F5F5F5F5F5F5F5F5F5F5F5F5F5F5F5F5F5F5F5F5F5F5F5E2F5F5873DE2F5F5F5F5F5F5F5F5F5F5F5F5F5F5F5F5F5F5F5F5F5F5F5F5F5F5F5F5F5F5F5F5F5F5F5F5F5F5F5F5F5F5F5F5F5F5F5F5F5F5F5F5F5F5F5
310
F5F5F5F5F5F5F5F5F5F5F5F5F5F5F5F5F5F5F5F5F5F5F5F5F5F5F5F5F5F5F5F5F5F5F5F5F5F5F5F5F5F50F44E2F5F5F5F5F5F5F5F5F5F5F5F5F5F5F5F5F5F5F5F5F5F5F5F5F5F5F5F5F5F5F5F5F5F5F5F5F5F5F5F5F5F5F5F5F5F5F5F5F5F5F5F5F5F5F5F5F5F5F5F5F5F5F5F5F5F5F5F5F5F5F5F5F5F5F5F5F5F5F5F5F5F5
310
F5F5F5F5F5F5F5F5F5F5F5F5F5F5F5B53DE2F5F5F5F5F5F5F5F5F5F5F5F5F5F5F5F5F5F5F5F5F5F5F5F5F5F5F5F5F5F5F5F5F5F5F5F5F5F5F5F5F5F5F5F5F5F5F5F5F5F5F5F5F5F5F5F5F5F5F5F5F5F5F5F5F5F5F5F5F5F5F5F5F5F5F5F5F5F5F5F5F5F5F5F5F5F5F5F5F5F5F5F5F5F5F5F5F50A44E2F5F5F5F5F5F5F5F5F5
310
F5F5F5F5F5F5F5F5F5F5F5F5F5F5F5F5F5F5F5F5F5F5F5F5F5F5F5F5F5F5F5F5F5F5F5F5F5F5F5F5F5F5F5F5F5F5F5F5F5F5F5F5F5F5F5F5F5F5F5F5F5F5F5F5F5F5F5F5F5F5F5F5F5F5F5F5F5F5F5F5F5F5F5F5F5F5F5F5C73DE2F5F5F5F5F5F5F5F5F5F5F5F5F5F5F5F5F5F5F5F5F5F5F5F5F5F5F5F5F5F5F5F5F5F5F5F5
310
F5F5F5F5F5F5F5F5F5F5F5F5F5F5F5F5F5F5F5F5F5F5F5F5F5F5F5F5F5F5F5F5F5F5F5F5F5F5F5F5F5F5F5F5F5F5F5F5F5F5F5F5F5F5F5F5F5F5F5F5F5F743E2F5F5F5F5F5F5F5F5F5F5F5F5F5F5F5F5F5F5F5F5F5F5F5F5F5F5F5F5F5F5F5F5F5F5F5F5F5F5F5F5F5F5F5F5F5F5F5F5F5F5F5F5F5F5F5F5F5F5F5F5F5F5F5
310
F5F5F5F5F5F5F5F5F5F5F5F5F5F5F5F5F5F5F5F5F5F5F5F5F5F5F5F5F5F5F5F5F5F5013EE2F5F5F5F5F5F5F5F5F5F5F5F5F5F5F5F5F5F5F5F5F5F5F5F5F5F5F5F5F5F5F5F5F5F5F5F5F5F5F5F5F5F5F5F5F5F5F5F5F5F5F5F5F5F5F5F5F5F5F5F5F5F5F5F5F5F5F5F5F5F5F5F5F5F5F5F5F5F5F5F5F5F5F5F5F5F5F5F5F5F5
310
F5F5F5F5F5F5F5F743E2F5F5F5F5F5F5F5F5F5F5F5F5F5F5F5F5F5F5F5F5F5F5F5F5F5F5F5F5F5F5F5F5F5F5F5F5F5F5F5F5F5F5F5F5F5F5F5F5F5F5F5F5F5F5F5F5F5F5F5F5F5F5F5F5F5F5F5F5F5F5F5F5F5F5F5F5F5F5F5F5F5F5F5F5F5F5F5F5F5F5F5F5F5F5F5F5F5243EE2F5F5F5F5F5F5F5F5F5F5F5F5F5F5F5F5F5
310
F5F5F5F5F5F5F5F5F5F5F5F5F5F5F5F5F5F5F5F5F5F5F5F5F5F5F5F5F5F5F5F5F5F5F5F5F5F5F5F5F5F5F5F5F5F5F5F5F5F5F5F5F5F5F5F5F5F5F5F5F5F5F5F5F5F5F5F5F5F5F5F5F5F5F5F5F5F5F5F50344E2F5F5E2F5F5F5F5F5F5F5F5F5F5F5F5F5F5F5F5F5F5F5F5F5F5F5F5F5F5F5F5F5F5F5F5F5F5F5F5F5F5F5F5F5
310
F5F5F5F5F5F5F5F5F5F5F5F5F5F5F5F5F5F5F5F5F5F5F5F5F5F5F5F5F5F5F5F5F5F5F5F5F5F5F5F5F5F5F5F5F5F5F5F5F5F5E2F5F5423DE2F5F5E2F5F5F5F5F5F5F5F5F5F5F5F5F5F5F5F5F5F5F5F5F5F5F5F5F5F5F5F5F5F5F5F5F5F5F5F5F5F5F5F5F5F5F5F5F5F5F5F5F5F5F5F5F5F5F5F5F5F5F5F5F5F5F5F5F5F5F5F5
310
F5F5F5F5F5F5F5F5F5F5F5F5F5F5F5F5F5F5F5F5F5F5F5E2F5F5A343E2F5F5E2F5F5F5F5F5F5F5F5F5F5F5F5F5F5F5F5F5F5F5F5F5F5F5F5F5F5F5F5F5F5F5F5F5F5F5F5F5F5F5F5F5F5F5F5F5F5F5F5F5F5F5F5F5F5F5F5F5F5F5F5F5F5F5F5F5F5F5F5F5F5F5F5F5F5F5F5F5F5F5F5F5F5F5F5F5F5F5F5F5F5F5E2F5F57B
310
3DE2F5F5E2F5F5F5F5F5F5F5F5F5F5F5F5F5F5F5F5F5F5F5F5F5F5F5F5F5F5F5F5F5F5F5F5F5F5F5F5F5F5F5F5F5F5F5F5F5F5F5F5F5F5F5F5F5F5F5F5F5F5F5F5F5F5F5F5F5F5F5F5F5F5F5F5F5F5F5F5F5F5F5F5F5F5F5F5F5F5F5F5F5F5F5E2F5F5AA43E2F5F5E2F5F5F5F5F5F5F5F5F5F5F5F5F5F5F5F5F5F5F5F5F5F5
310
F5F5F5F5F5F5F5F5F5F5F5F5F5F5F5F5F5F5F5F5F5F5F5F5F5F5F5F5F5F5F5F5F5F5F5F5F5F5F5F5F5F5F5F5F5F5F5F5F5F5F5F5F5F5F5F5F5F5F5F5F5F5F5F5F5F5F5F5F5E2F5F5A33DE2F5F5E2F5F5F5F5F5F5F5F5F5F5F5F5F5F5F5F5F5F5F5F5F5F5F5F5F5F5F5F5F5F5F5F5F5F5F5F5F5F5F5F5F5F5F5F5F5F5F5F5F5
310
F5F5F5F5F5F5F5F5F5F5F5F5F5F5F5F5F5F5F5F5F5F5F5F5F5F5F5F5F5F5F5F5F5F5F5F5F5F5F5F5F5F5E2F5F59C43E2F5F5E2F5F5F5F5F5F5F5F5F5F5F5F5F5F5F5F5F5F5F5F5F5F5F5F5F5F5F5F5F5F5F5F5F5F5F5F5F5F5F5F5F5F5F5F5F5F5F5F5F5F5F5F5F5F5F5F5F5F5F5F5F5F5F5F5F5F5F5F5F5F5F5F5F5F5F5F5
310
F5F5F5F5F5F5F5F5F5F5F5F5F5F5F5E2F5F5C73DE2F5F5E2F5F5F5F5F5F5F5F5F5F5F5F5F5F5F5F5F5F5F5F5F5F5F5F5F5F5F5F5F5F5F5F5F5F5F5F5F5F5F5F5F5F5F5F5F5F5F5F5F5F5F5F5F5F5F5F5F5F5F5F5F5F5F5F5F5F5F5F5F5F5F5F5F5F5F5F5F5F5F5F5F5F5F5F5F5F5F5F5F5F5F5E2F5F5CE43E2F5F5E2F5F5F5
310
F5F5F5F5F5F5F5F5F5F5F5F5F5F5F5F5F5F5F5F5F5F5F5F5F5F5F5F5F5F5F5F5F5F5F5F5F5F5F5F5F5F5F5F5F5F5F5F5F5F5F5F5F5F5F5F5F5F5F5F5F5F5F5F5F5F5F5F5F5F5F5F5F5F5F5F5F5F5F5F5F5F5F5F5F5F5F5F5E2F5F5163EE2F5F5E2F5F5F5F5F5F5F5F5F5F5F5F5F5F5F5F5F5F5F5F5F5F5F5F5F5F5F5F5F5F5
310
F5F5F5F5F5F5F5F5F5F5F5F5F5F5F5F5F5F5F5F5F5F5F5F5F5F5F5F5F5F5F5F5F5F5F5F5F5F5F5F5F5F5F5F5F5F5F5F5F5F5F5F5F5F5F5F5F5F5F5F5F5E2F5F5B143E2F5F5E2F5F5F5F5F5F5F5F5F5F5F5F5F5F5F5F5F5F5F5F5F5F5F5F5F5F5F5F5F5F5F5F5F5F5F5F5F5F5F5F5F5F5F5F5F5F5F5F5F5F5F5F5F5F5F5F5F5
310
F5F5F5F5F5F5F5F5F5F5F5F5F5F5F5F5F5F5F5F5F5F5F5F5F5F5F5F5F5F5F5F5F5F5E2F5F53D3EE2F5F5E2F5F5F5F5F5F5F5F5F5F5F5F5F5F5F5F5F5F5F5F5F5F5F5F5F5F5F5F5F5F5F5F5F5F5F5F5F5F5F5F5F5F5F5F5F5F5F5F5F5F5F5F5F5F5F5F5F5F5F5F5F5F5F5F5F5F5F5F5F5F5F5F5F5F5F5F5F5F5F5F5F5F5F5F5
310
F5F5F5F5F5F5F5E2F5F5B943E2F5F5E2F5F5F5F5F5F5F5F5F5F5F5F5F5F5F5F5F5F5F5F5F5F5F5F5F5F5F5F5F5F5F5F5F5F5F5F5F5F5F5F5F5F5F5F5F5F5F5F5F5F5F5F5F5F5F5F5F5F5F5F5F5F5F5F5F5F5F5F5F5F5F5F5F5F5F5F5F5F5F5F5F5F5F5F5F5F5F5F5F5F5F5E2F5F5753EE2F5F5E2F5F5F5F5F5F5F5F5F5F5F5
310
F5F5F5F5F5F5F5F5F5F5F5F5F5F5F5F5F5F5F5F5F5F5F5F5F5F5F5F5F5F5F5F5F5F5F5F5F5F5F5F5F5F5F5F5F5F5F5F5F5F5F5F5F5F5F5F5F5F5F5F5F5F5F5F5F5F5F5F5F5F5F5F5F5F5F5F5F5F5F5F5E2F5F5BD43E2F5F5E2F5F5F5F5F5F5F5F5F5F5F5F5F5F5F5F5F5F5F5F5F5F5F5F5F5F5F5F5F5F5F5F5F5F5F5F5F5F5
310
F5F5F5F5F5F5F5F5F5F5F5F5F5F5F5F5F5F5F5F5F5F5F5F5F5F5F5F5F5F5F5F5F5F5F5F5F5F5F5F5F5F5F5F5F5F5F5F5F5F5F5F5F5E2F5F5F93CE2F5F5E2F5F5F5F5F5F5F5F5F5F5F5F5F5F5F5F5F5F5F5F5F5F5F5F5F5F5F5F5F5F5F5F5F5F5F5F5F5F5F5F5F5F5F5F5F5F5F5F5F5F5F5F5F5F5F5F5F5F5F5F5F5F5F5F5F5
310
F5F5F5F5F5F5F5F5F5F5F5F5F5F5F5F5F5F5F5F5F5F5F5F5F5F5E2F5F54843E2F5F5E2F5F5F5F5F5F5F5F5F5F5F5F5F5F5F5F5F5F5F5F5F5F5F5F5F5F5F5F5F5F5F5F5F5F5F5F5F5F5F5F5F5F5F5F5F5F5F5F5F5F5F5F5F5F5F5F5F5F5F5F5F5F5F5F5F5F5F5F5F5F5F5F5F5F5F5F5F5F5F5F5F5F5F5F5F5F5F5F5F5F5F5E2
310
F5F5053DE2F5F5F5F5F5F5F5F5F5F5F5F5F5F5F5F5F5F5F5F5F5F5F5F5F5F5F5F5F5F5F5F5F5F5F5F5F5F5F5F5F5F5F5F5F5F5F5F5F5F5F5F5F5F5F5F5F5F5F5F5F5F5F5F5F5F5F5F5F5F5F5F5F5F5F5F5F5F5F5F5F5F5F5F5F5F5F5F5F5F5F5F5F5F5F5F5F56543E2F5F5F5F5F5F5F5F5F5F5F5F5F5F5F5F5F5F5F5F5F5F5
310
F5F5F5F5F5F5F5F5F5F5F5F5F5F5F5F5F5F5F5F5F5F5F5F5F5F5F5F5F5F5F5F5F5F5F5F5F5F5F5F5F5F5F5F5F5F5F5F5F5F5F5F5F5F5F5F5F5F5F5F5F5F5F5F5F5F5F5F5F5F5F5F5F5F5F55B3DE2F5F5F5F5F5F5F5F5F5F5F5F5F5F5F5F5F5F5F5F5F5F5F5F5F5F5F5F5F5F5F5F5F5F5F5F5F5F5F5F5F5F5F5F5F5F5F5F5F5
310
F5F5F5F5F5F5F5F5F5F5F5F5F5F5F5F5F5F5F5F5F5F5F5F5F5F5F5F5F5F5F5F5F5F5F5F5F5F5F5F5F5F5F5F5F5F5F5F56943E2F5F5F5F5F5F5F5F5F5F5F5F5F5F5F5F5F5F5F5F5F5F5F5F5F5F5F5F5F5F5F5F5F5F5F5F5F5F5F5F5F5F5F5F5F5F5F5F5F5F5F5F5F5F5F5F5F5F5F5F5F5F5F5F5F5F5F5F5F5F5F5F5F5F5F5F5
310
F5F5F5F5F5F5F5F5F5F5F5F5F5F5F5F5F5F5F5F5F5703DE2F5F5F5F5F5F5F5F5F5F5F5F5F5F5F5F5F5F5F5F5F5F5F5F5F5F5F5F5F5F5F5F5F5F5F5F5F5F5F5F5F5F5F5F5F5F5F5F5F5F5F5F5F5F5F5F5F5F5F5F5F5F5F5F5F5F5F5F5F5F5F5F5F5F5F5F5F5F5F5F5F5F5F5F5F5F5F5F5F5F5F5F5F5F5F5F5F54F43E2F5F5F5
310
F5F5F5F5F5F5F5F5F5F5F5F5F5F5F5F5F5F5F5F5F5F5F5F5F5F5F5F5F5F5F5F5F5F5F5F5F5F5F5F5F5F5F5F5F5F5F5F5F5F5F5F5F5F5F5F5F5F5F5F5F5F5F5F5F5F5F5F5F5F5F5F5F5F5F5F5F5F5F5F5F5F5F5F5F5F5F5F5F5F5F5F5F5F5A83DE2F5F5F5F5F5F5F5F5F5F5F5F5F5F5F5F5F5F5F5F5F5F5F5F5F5F5F5F5F5F5
310
F5F5F5F5F5F5F5F5F5F5F5F5F5F5F5F5F5F5F5F5F5F5F5F5F5F5F5F5F5F5F5F5F5F5F5F5F5F5F5F5F5F5F5F5F5F5F5F5F5F5F5F5F5F5F5F5F5F5F5F5F5F5F5F5F5F5F55B43E2F5F5F5F5F5F5F5F5F5F5F5F5F5F5F5F5F5F5F5F5F5F5F5F5F5F5F5F5F5F5F5F5F5F5F5F5F5F5F5F5F5F5F5F5F5F5F5F5F5F5F5F5F5F5F5F5F5
310
F5F5F5F5F5F5F5F5F5F5F5F5F5F5F5F5F5F5F5F5F5F5F5F5F5F5F5F5F5F5F5F5F5F5F5F5F5F5F5F5DD3DE2F5F5F5F5F5F5F5F5F5F5F5F5F5F5F5F5F5F5F5F5F5F5F5F5F5F5F5F5F5F5F5F5F5F5F5F5F5F5F5F5F5F5F5F5F5F5F5F5F5F5F5F5F5F5F5F5F5F5F5F5F5F5F5F5F5F5F5F5F5F5F5F5F5F5F5F5F5F5F5F5F5F5F5F5
310
F5F5F5F5F5F5F5F5F5F5F5F5F55B43E2F5F5F5F5F5F5F5F5F5F5F5F5F5F5F5F5F5F5F5F5F5F5F5F5F5F5F5F5F5F5F5F5F5F5F5F5F5F5F5F5F5F5F5F5F5F5F5F5F5F5F5F5F5F5F5F5F5F5F5F5F5F5F5F5F5F5F5F5F5F5F5F5F5F5F5F5F5F5F5F5F5F5F5F5F5F5F5F5F5F5F5F5F5F5F5F5F50F3EE2F5F5E2F5F5F5F5F5F5F5F5
310
F5F5F5F5F5F5F5F5F5F5F5F5F5F5F5F5F5F5F5F5F5F5F5F5F5F5F5F5F5F5F5F5F5F5F5F5F5F5F5F5F5F5F5F5F5F5F5F5F5F5F5F5F5F5F5F5F5F5F5F5F5F5F5F5F5F5F5F5F5F5F5F5F5F5F5F5F5F5F5F5F5F5F5E2F5F56243E2F5F5E2F5F5F5F5F5F5F5F5F5F5F5F5F5F5F5F5F5F5F5F5F5F5F5F5F5F5F5F5F5F5F5F5F5F5F5
310
F5F5F5F5F5F5F5F5F5F5F5F5F5F5F5F5F5F5F5F5F5F5F5F5F5F5F5F5F5F5F5F5F5F5F5F5F5F5F5F5F5F5F5F5F5F5F5F5F5F5F5F5F5F5F5F5E2F5F5323EE2F5F5E2F5F5F5F5F5F5F5F5F5F5F5F5F5F5F5F5F5F5F5F5F5F5F5F5F5F5F5F5F5F5F5F5F5F5F5F5F5F5F5F5F5F5F5F5F5F5F5F5F5F5F5F5F5F5F5F5F5F5F5F5F5F5
310
F5F5F5F5F5F5F5F5F5F5F5F5F5F5F5F5F5F5F5F5F5F5F5F5F5F5F5F5F5E2F5F51F43E2F5F5E2F5F5F5F5F5F5F5F5F5F5F5F5F5F5F5F5F5F5F5F5F5F5F5F5F5F5F5F5F5F5F5F5F5F5F5F5F5F5F5F5F5F5F5F5F5F5F5F5F5F5F5F5F5F5F5F5F5F5F5F5F5F5F5F5F5F5F5F5F5F5F5F5F5F5F5F5F5F5F5F5F5F5F5F5F5F5F5F5F5
310
F5F5E2F5F5F83CE2F5F5E2F5F5F5F5F5F5F5F5F5F5F5F5F5F5F5F5F5F5F5F5F5F5F5F5F5F5F5F5F5F5F5F5F5F5F5F5F5F5F5F5F5F5F5F5F5F5F5F5F5F5F5F5F5F5F5F5F5F5F5F5F5F5F5F5F5F5F5F5F5F5F5F5F5F5F5F5F5F5F5F5F5F5F5F5F5F5F5F5F5F5F5E2F5F50C43E2F5F5E2F5F5F5F5F5F5F5F5F5F5F5F5F5F5F5F5
310
F5F5F5F5F5F5F5F5F5F5F5F5F5F5F5F5F5F5F5F5F5F5F5F5F5F5F5F5F5F5F5F5F5F5F5F5F5F5F5F5F5F5F5F5F5F5F5F5F5F5F5F5F5F5F5F5F5F5F5F5F5F5F5F5F5F5F5F5F5F5F5F5F5F5F5E2F5F5603DE2F5F5E2F5F5F5F5F5F5F5F5F5F5F5F5F5F5F5F5F5F5F5F5F5F5F5F5F5F5F5F5F5F5F5F5F5F5F5F5F5F5F5F5F5F5F5
310
F5F5F5F5F5F5F5F5F5F5F5F5F5F5F5F5F5F5F5F5F5F5F5F5F5F5F5F5F5F5F5F5F5F5F5F5F5F5F5F5F5F5F5F5F5F5F5F5E2F5F50743E2F5F5E2F5F5F5F5F5F5F5F5F5F5F5F5F5F5F5F5F5F5F5F5F5F5F5F5F5F5F5F5F5F5F5F5F5F5F5F5F5F5F5F5F5F5F5F5F5F5F5F5F5F5F5F5F5F5F5F5F5F5F5F5F5F5F5F5F5F5F5F5F5F5
310
F5F5F5F5F5F5F5F5F5F5F5F5F5F5F5F5F5F5F5F5F5E2F5F5893DE2F5F5E2F5F5F5F5F5F5F5F5F5F5F5F5F5F5F5F5F5F5F5F5F5F5F5F5F5F5F5F5F5F5F5F5F5F5F5F5F5F5F5F5F5F5F5F5F5F5F5F5F5F5F5F5F5F5F5F5F5F5F5F5F5F5F5F5F5F5F5F5F5F5F5F5F5F5F5F5F5F5F5F5F5F5F5F5F5F5F5F5F5F5F5E2F5F50243E2
310
F5F5E2F5F5F5F5F5F5F5F5F5F5F5F5F5F5F5F5F5F5F5F5F5F5F5F5F5F5F5F5F5F5F5F5F5F5F5F5F5F5F5F5F5F5F5F5F5F5F5F5F5F5F5F5F5F5F5F5F5F5F5F5F5F5F5F5F5F5F5F5F5F5F5F5F5F5F5F5F5F5F5F5F5F5F5F5F5F5F5F5F5F5F5E2F5F5B23DE2F5F5E2F5F5F5F5F5F5F5F5F5F5F5F5F5F5F5F5F5F5F5F5F5F5F5F5
310
F5F5F5F5F5F5F5F5F5F5F5F5F5F5F5F5F5F5F5F5F5F5F5F5F5F5F5F5F5F5F5F5F5F5F5F5F5F5F5F5F5F5F5F5F5F5F5F5F5F5F5F5F5F5F5F5F5F5F5F5F5F5F5F5F5F5F5E2F5F50E43E2F5F5E2F5F5F5F5F5F5F5F5F5F5F5F5F5F5F5F5F5F5F5F5F5F5F5F5F5F5F5F5F5F5F5F5F5F5F5F5F5F5F5F5F5F5F5F5F5F5F5F5F5F5F5
310
F5F5F5F5F5F5F5F5F5F5F5F5F5F5F5F5F5F5F5F5F5F5F5F5F5F5F5F5F5F5F5F5F5F5F5F5F5F5F5F5E2F5F5DC3DE2F5F5E2F5F5F5F5F5F5F5F5F5F5F5F5F5F5F5F5F5F5F5F5F5F5F5F5F5F5F5F5F5F5F5F5F5F5F5F5F5F5F5F5F5F5F5F5F5F5F5F5F5F5F5F5F5F5F5F5F5F5F5F5F5F5F5F5F5F5F5F5F5F5F5F5F5F5F5F5F5F5
310
F5F5F5F5F5F5F5F5F5F5F5F5F5E2F5F50C43E2F5F5E2F5F5F5F5F5F5F5F5F5F5F5F5F5F5F5F5F5F5F5F5F5F5F5F5F5F5F5F5F5F5F5F5F5F5F5F5F5F5F5F5F5F5F5F5F5F5F5F5F5F5F5F5F5F5F5F5F5F5F5F5F5F5F5F5F5F5F5F5F5F5F5F5F5F5F5F5F5F5F5F5F5F5F5F5F5F5F5F5F5F5F5E2F5F5083EE2F5F5E2F5F5F5F5F5
310
F5F5F5F5F5F5F5F5F5F5F5F5F5F5F5F5F5F5F5F5F5F5F5F5F5F5F5F5F5F5F5F5F5F5F5F5F5F5F5F5F5F5F5F5F5F5F5F5F5F5F5F5F5F5F5F5F5F5F5F5F5F5F5F5F5F5F5F5F5F5F5F5F5F5F5F5F5F5F5F5F5F5F5F5F5F5E2F5F59F42E2F5F5E2F5F5F5F5F5F5F5F5F5F5F5F5F5F5F5F5F5F5F5F5F5F5F5F5F5F5F5F5F5F5F5F5
310
F5F5F5F5F5F5F5F5F5F5F5F5F5F5F5F5F5F5F5F5F5F5F5F5F5F5F5F5F5F5F5F5F5F5F5F5F5F5F5F5F5F5F5F5F5F5F5F5F5F5F5F5F5F5F5F5F5F5F5E2F5F51C3DE2F5F5E2F5F5F5F5F5F5F5F5F5F5F5F5F5F5F5F5F5F5F5F5F5F5F5F5F5F5F5F5F5F5F5F5F5F5F5F5F5F5F5F5F5F5F5F5F5F5F5F5F5F5F5F5F5F5F5F5F5F5F5
310
F5F5F5F5F5F5F5F5F5F5F5F5F5F5F5F5F5F5F5F5F5F5F5F5F5F5F5F5F5F5F5F5E2F5F5C442E2F5F5F5F5F5F5F5F5F5F5F5F5F5F5F5F5F5F5F5F5F5F5F5F5F5F5F5F5F5F5F5F5F5F5F5F5F5F5F5F5F5F5F5F5F5F5F5F5F5F5F5F5F5F5F5F5F5F5F5F5F5F5F5F5F5F5F5F5F5F5F5F5F5F5F5F5F5F5F5F5F5F5F5F5F5F5F5F5F5
310
F5F5F5F5F5F5F5F5573DE2F5F5F5F5F5F5F5F5F5F5F5F5F5F5F5F5F5F5F5F5F5F5F5F5F5F5F5F5F5F5F5F5F5F5F5F5F5F5F5F5F5F5F5F5F5F5F5F5F5F5F5F5F5F5F5F5F5F5F5F5F5F5F5F5F5F5F5F5F5F5F5F5F5F5F5F5F5F5F5F5F5F5F5F5F5F5F5F5F5F5F5F5F5F5F5F5F5A942E2F5F5F5F5F5F5F5F5F5F5F5F5F5F5F5F5
310
F5F5F5F5F5F5F5F5F5F5F5F5F5F5F5F5F5F5F5F5F5F5F5F5F5F5F5F5F5F5F5F5F5F5F5F5F5F5F5F5F5F5F5F5F5F5F5F5F5F5F5F5F5F5F5F5F5F5F5F5F5F5F5F5F5F5F5F5F5F5F5F5F5F5F5F5F5F5F5F5F58D3DE2F5F5F5F5F5F5F5F5F5F5F5F5F5F5F5F5F5F5F5F5F5F5F5F5F5F5F5F5F5F5F5F5F5F5F5F5F5F5F5F5F5F5F5
310
F5F5F5F5F5F5F5F5F5F5F5F5F5F5F5F5F5F5F5F5F5F5F5F5F5F5F5F5F5F5F5F5F5F5F5F5F5F5F5F5F5F5F5F5F5F5F5F5F5F5F5F5F5F5A942E2F5F5F5F5F5F5F5F5F5F5F5F5F5F5F5F5F5F5F5F5F5F5F5F5F5F5F5F5F5F5F5F5F5F5F5F5F5F5F5F5F5F5F5F5F5F5F5F5F5F5F5F5F5F5F5F5F5F5F5F5F5F5F5F5F5F5F5F5F5F5
310
F5F5F5F5F5F5F5F5F5F5F5F5F5F5F5F5F5F5F5F5F5F5F5F5F5F5F5B13DE2F5F5F5F5F5F5F5F5F5F5F5F5F5F5F5F5F5F5F5F5F5F5F5F5F5F5F5F5F5F5F5F5F5F5F5F5F5F5F5F5F5F5F5F5F5F5F5F5F5F5F5F5F5F5F5F5F5F5F5F5F5F5F5F5F5F5F5F5F5F5F5F5F5F5F5F5F5F5F5F5F5F5F5F5F5F5F5F5F5F5F5F5F5F5F5F5F5
310
A742E2F5F5F5F5F5F5F5F5F5F5F5F5F5F5F5F5F5F5F5F5F5F5F5F5F5F5F5F5F5F5F5F5F5F5F5F5F5F5F5F5F5F5F5F5F5F5F5F5F5F5F5F5F5F5F5F5F5F5F5F5F5F5F5F5F5F5F5F5F5F5F5F5F5F5F5F5F5F5F5F5F5F5F5F5F5F5F5F5F5F5F5F5F5F5F5F5F50000E2F5F5F5F5F5F5F5F5F5F5F5F5F5F5F5F5F5F5F5F5F5F5F5F5
310
F5F5F5F5F5F5F5F5F5F5F5F5F5F5F5F5F5F5F5F5F5F5F5F5F5F5F5F5F5F5F5F5F5F5F5F5F5F5F5F5F5F5F5F5F5F5F5F5F5F5F5F5F5F5F5F5F5F5F5F5F5F5F5F5F5F5F5F5F5F5F5F5F50000E2F5F5F5F5F5F5F5F5F5F5F5F5F5F5F5F5F5F5F5F5F5F5F5F5F5F5F5F5F5F5F5F5F5F5F5F5F5F5F5F5F5F5F5F5F5F5F5F5F5F5F5
310
F5F5F5F5F5F5F5F5F5F5F5F5F5F5F5F5F5F5F5F5F5F5F5F5F5F5F5F5F5F5F5F5F5F5F5F5F5F5F5F5F5F5F5F5F5F50000E2F5F5E2F5F5F5F5F5F5F5F5F5F5F5F5F5F5F5F5F5F5F5F5F5F5F5F5F5F5F5F5F5F5F5F5F5F5F5F5F5F5F5F5F5F5F5F5F5F5F5F5F5F5F5F5F5F5F5F5F5F5F5F5F5F5F5F5F5F5F5F5F5F5F5F5F5F5F5
310
F5F5F5F5F5F5F5F5F5F5F5F5F5F5F5F5E2F5F50000E2F5F5E2F5F5F5F5F5F5F5F5F5F5F5F5F5F5F5F5F5F5F5F5F5F5F5F5F5F5F5F5F5F5F5F5F5F5F5F5F5F5F5F5F5F5F5F5F5F5F5F5F5F5F5F5F5F5F5F5F5F5F5F5F5F5F5F5F5F5F5F5F5F5F5F5F5F5F5F5F5F5F5F5F5F5F5F5F5F5F5F5F5F5F5E2F5F50000E2F5F5E2F5F5
310
F5F5F5F5F5F5F5F5F5F5F5F5F5F5F5F5F5F5F5F5F5F5F5F5F5F5F5F5F5F5F5F5F5F5F5F5F5F5F5F5F5F5F5F5F5F5F5F5F5F5F5F5F5F5F5F5F5F5F5F5F5F5F5F5F5F5F5F5F5F5F5F5F5F5F5F5F5F5F5F5F5F5F5F5F5F5F5F5F5E2F5F50000E2F5F5E2F5F5F5F5F5F5F5F5F5F5F5F5F5F5F5F5F5F5F5F5F5F5F5F5F5F5F5F5F5
310
F5F5F5F5F5F5F5F5F5F5F5F5F5F5F5F5F5F5F5F5F5F5F5F5F5F5F5F5F5F5F5F5F5F5F5F5F5F5F5F5F5F5F5F5F5F5F5F5F5F5F5F5F5F5F5F5F5F5F5F5F5F5E2F5F50000E2F5F5E2F5F5F5F5F5F5F5F5F5F5F5F5F5F5F5F5F5F5F5F5F5F5F5F5F5F5F5F5F5F5F5F5F5F5F5F5F5F5F5F5F5F5F5F5F5F5F5F5F5F5F5F5F5F5F5F5
310
F5F5F5F5F5F5F5F5F5F5F5F5F5F5F5F5F5F5F5F5F5F5F5F5F5F5F5F5F5F5F5F5F5F5F5E2F5F50000E2F5F5E2F5F5F5F5F5F5F5F5F5F5F5F5F5F5F5F5F5F5F5F5F5F5F5F5F5F5F5F5F5F5F5F5F5F5F5F5F5F5F5F5F5F5F5F5F5F5F5F5F5F5F5F5F5F5F5F5F5F5F5F5F5F5F5F5F5F5F5F5F5F5F5F5F5F5F5F5F5F5F5F5F5F5F5
310
F5F5F5F5F5F5F5F5E2F5F50000E2F5F5E2F5F5F5F5F5F5F5F5F5F5F5F5F5F5F5F5F5F5F5F5F5F5F5F5F5F5F5F5F5F5F5F5F5F5F5F5F5F5F5F5F5F5F5F5F5F5F5F5F5F5F5F5F5F5F5F5F5F5F5F5F5F5F5F5F5F5F5F5F5F5F5F5F5F5F5F5F5F5F5F5F5F5F5F5F5F5F5F5F5F5F5E2F5F52801E2F5F5E2F5F5F5F5F5F5F5F5F5F5
310
F5F5F5F5F5F5F5F5F5F5F5F5F5F5F5F5F5F5F5F5F5F5F5F5F5F5F5F5F5F5F5F5F5F5F5F5F5F5F5F5F5F5F5F5F5F5F5F5F5F5F5F5F5F5F5F5F5F5F5F5F5F5F5F5F5F5F5F5F5F5F5F5F5F5F5F5F5F5F5F5F5E2F5F57FF5E2F5F5E2E2E2E2E2E2E2E2F5F5F5F5F5F5F5F5E2E2E2E2E2E2E2E2E2E2E2E2E2E2E2F5F5F5F5F5F5F5
310
F5E2E2E2E2E2E2E2E2E2E2E2E2E2E2E2F5F5F5F5F5F5F5F5E2E2E2E2E2E2E2E2E2E2E2E2E2E2E2F5F5F5F5F5F5F5F5E2E2E2E2E2E2E2E2F5F5F5F5E2F5F5F5F5F5F5F5F5F5F5F5F5F5F5F5F5F5F5F5F5F5F5F5F5F5F5F5F5F5F5F5F5F5F5F5F5F5F5F5F5F5F5F5F5F5F5F5F5F5F5F5F5F5F5F5F5F5F5F5F5F5F5F5F5F5F5F5
310
F5F5F5F5F5F5F5F5F5F5F5F5F5F5F5F5F5F5F5F5F5F5F5F5F5F5F5F5F5F5F5F5E2F5F5F5F5F5F5F5F5F5F5F5F5F5F5F5F5F5F5F5F5F5F5F5F5F5F5F5F5F5F5F5F5F5F5F5F5F5F5F5F5F5F5F5F5F5F5F5F5F5F5F5F5F5F5F5F5F5F5F5F5F5F5F5F5F5F5F5F5F5F5F5F5F5F5F5F5F5F5F5F5F5F5F5F5F5F5F5F5F5F5F5F5F5F5
310
F5F5F5F5F5E2E2E2E2E2E2E2E2E2E2E2E2E2E2E2E2E2E2E2E2E2E2E2E2E2E2E2E2E2E2E2E2E2E2E2E2E2E2E2E2E2E2E2E2E2E2E2E2E2E2E2E2E2E2E2E2E2E2E2E2E2E2E2E2E2E2E2E2E2E2E2E2E2E2E2E2E2E2E2E2E2E2E2E2E2E2E2E2E2E2E2E2E2E2E2E2E2E2BEBEEFEFEFEFEFEFEFEFEFEFEFEFEFEFEFEFEFEFEFEFEFEF
310
EFEFEFEFEFEFEFEFEFEFEFEFEFEFEFEFEFEFEFEFEFEFEFEFEFEFEFEFEFEFEFEFEFEFEFEFEFEFEFEFEFEFEFEFEFEFEFEFEFEFEFEFEFEFEFEFEFEFEFEFEFEFEFEFEFEFEFEFEFEFEFEFEFEFEFEFF5F5
  0
XRECORD
  5
3D870
102
{ACAD_REACTORS
330
3D86F
102
}
330
3D86F
100
AcDbXrecord
280
     1
102
SHADEPLOT
 70
     0
102
SHADEPLOTRESLEVEL
 70
     2
102
SHADEPLOTCUSTOMDPI
 70
   300
  0
XRECORD
  5
3BDF0
102
{ACAD_REACTORS
330
3BDEF
102
}
330
3BDEF
100
AcDbXrecord
280
     1
102
MATERIAL
148
0.0
149
0.0
149
0.0
 93
        0
 94
       63
282
     0
 72
     1
 77
     1
171
     1
175
     1
179
     1
273
     0
  0
XRECORD
  5
3BDEE
102
{ACAD_REACTORS
330
3BDED
102
}
330
3BDED
100
AcDbXrecord
280
     1
102
MATERIAL
148
0.0
149
0.0
149
0.0
 93
        0
 94
       63
282
     0
 72
     1
 77
     1
171
     1
175
     1
179
     1
273
     0
  0
XRECORD
  5
3BDF2
102
{ACAD_REACTORS
330
3BDF1
102
}
330
3BDF1
100
AcDbXrecord
280
     1
102
MATERIAL
148
0.0
149
0.0
149
0.0
 93
        0
 94
       63
282
     0
 72
     1
 77
     1
171
     1
175
     1
179
     1
273
     0
  0
XRECORD
  5
3D873
102
{ACAD_REACTORS
330
3D872
102
}
330
3D872
100
AcDbXrecord
280
     1
102
ACAD_ROUNDTRIP_PRE2007_TABLESTYLE
 90
      512
 91
        0
  1

 92
      512
 93
        0
  2

 94
      512
 95
        0
  3

  0
ENDSEC
  0
EOF
