  0
SECTION
  2
HEADER
  9
$ACADVER
  1
AC1027
  9
$ACADMAINTVER
 70
   125
  9
$DWGCODEPAGE
  3
ANSI_1252
  9
$LASTSAVEDBY
  1
kaschu
  9
$REQUIREDVERSIONS
160
                 0
  9
$INSBASE
 10
0.0
 20
0.0
 30
0.0
  9
$EXTMIN
 10
163.9364212707163
 20
107.0634502407482
 30
0.0
  9
$EXTMAX
 10
1701.744369734096
 20
572.9456445453715
 30
0.0
  9
$LIMMIN
 10
0.0
 20
0.0
  9
$LIMMAX
 10
12.0
 20
9.0
  9
$ORTHOMODE
 70
     0
  9
$REGENMODE
 70
     1
  9
$FILLMODE
 70
     1
  9
$QTEXTMODE
 70
     0
  9
$MIRRTEXT
 70
     1
  9
$LTSCALE
 40
1.0
  9
$ATTMODE
 70
     1
  9
$TEXTSIZE
 40
0.2
  9
$TRACEWID
 40
0.05
  9
$TEXTSTYLE
  7
STANDARD
  9
$CLAYER
  8
Hewi
  9
$CELTYPE
  6
BYLAYER
  9
$CECOLOR
 62
   256
  9
$CELTSCALE
 40
1.0
  9
$DISPSILH
 70
     0
  9
$DIMSCALE
 40
1.0
  9
$DIMASZ
 40
0.18
  9
$DIMEXO
 40
0.0625
  9
$DIMDLI
 40
0.38
  9
$DIMRND
 40
0.0
  9
$DIMDLE
 40
0.0
  9
$DIMEXE
 40
0.18
  9
$DIMTP
 40
0.0
  9
$DIMTM
 40
0.0
  9
$DIMTXT
 40
0.18
  9
$DIMCEN
 40
0.09
  9
$DIMTSZ
 40
0.0
  9
$DIMTOL
 70
     0
  9
$DIMLIM
 70
     0
  9
$DIMTIH
 70
     1
  9
$DIMTOH
 70
     1
  9
$DIMSE1
 70
     0
  9
$DIMSE2
 70
     0
  9
$DIMTAD
 70
     0
  9
$DIMZIN
 70
     0
  9
$DIMBLK
  1

  9
$DIMASO
 70
     1
  9
$DIMSHO
 70
     1
  9
$DIMPOST
  1

  9
$DIMAPOST
  1

  9
$DIMALT
 70
     0
  9
$DIMALTD
 70
     2
  9
$DIMALTF
 40
25.4
  9
$DIMLFAC
 40
1.0
  9
$DIMTOFL
 70
     0
  9
$DIMTVP
 40
0.0
  9
$DIMTIX
 70
     0
  9
$DIMSOXD
 70
     0
  9
$DIMSAH
 70
     0
  9
$DIMBLK1
  1

  9
$DIMBLK2
  1

  9
$DIMSTYLE
  2
STANDARD
  9
$DIMCLRD
 70
     0
  9
$DIMCLRE
 70
     0
  9
$DIMCLRT
 70
     0
  9
$DIMTFAC
 40
1.0
  9
$DIMGAP
 40
0.09
  9
$DIMJUST
 70
     0
  9
$DIMSD1
 70
     0
  9
$DIMSD2
 70
     0
  9
$DIMTOLJ
 70
     1
  9
$DIMTZIN
 70
     0
  9
$DIMALTZ
 70
     0
  9
$DIMALTTZ
 70
     0
  9
$DIMUPT
 70
     0
  9
$DIMDEC
 70
     4
  9
$DIMTDEC
 70
     4
  9
$DIMALTU
 70
     2
  9
$DIMALTTD
 70
     2
  9
$DIMTXSTY
  7
STANDARD
  9
$DIMAUNIT
 70
     0
  9
$DIMADEC
 70
     0
  9
$DIMALTRND
 40
0.0
  9
$DIMAZIN
 70
     0
  9
$DIMDSEP
 70
    46
  9
$DIMATFIT
 70
     3
  9
$DIMFRAC
 70
     0
  9
$DIMLDRBLK
  1

  9
$DIMLUNIT
 70
     2
  9
$DIMLWD
 70
    -2
  9
$DIMLWE
 70
    -2
  9
$DIMTMOVE
 70
     0
  9
$DIMFXL
 40
1.0
  9
$DIMFXLON
 70
     0
  9
$DIMJOGANG
 40
0.7853981633974483
  9
$DIMTFILL
 70
     0
  9
$DIMTFILLCLR
 70
     0
  9
$DIMARCSYM
 70
     0
  9
$DIMLTYPE
  6

  9
$DIMLTEX1
  6

  9
$DIMLTEX2
  6

  9
$DIMTXTDIRECTION
 70
     0
  9
$LUNITS
 70
     2
  9
$LUPREC
 70
     4
  9
$SKETCHINC
 40
0.1
  9
$FILLETRAD
 40
0.5
  9
$AUNITS
 70
     0
  9
$AUPREC
 70
     0
  9
$MENU
  1
.
  9
$ELEVATION
 40
0.0
  9
$PELEVATION
 40
0.0
  9
$THICKNESS
 40
0.0
  9
$LIMCHECK
 70
     0
  9
$CHAMFERA
 40
0.5
  9
$CHAMFERB
 40
0.5
  9
$CHAMFERC
 40
1.0
  9
$CHAMFERD
 40
0.0
  9
$SKPOLY
 70
     0
  9
$TDCREATE
 40
2454858.677071760
  9
$TDUCREATE
 40
2454858.635410648
  9
$TDUPDATE
 40
2459388.398900463
  9
$TDUUPDATE
 40
2459388.315567130
  9
$TDINDWG
 40
0.0340395486
  9
$TDUSRTIMER
 40
0.0340382870
  9
$USRTIMER
 70
     1
  9
$ANGBASE
 50
0.0
  9
$ANGDIR
 70
     0
  9
$PDMODE
 70
     0
  9
$PDSIZE
 40
0.0
  9
$PLINEWID
 40
0.0
  9
$SPLFRAME
 70
     0
  9
$SPLINETYPE
 70
     6
  9
$SPLINESEGS
 70
     8
  9
$HANDSEED
  5
ED3
  9
$SURFTAB1
 70
     6
  9
$SURFTAB2
 70
     6
  9
$SURFTYPE
 70
     6
  9
$SURFU
 70
     6
  9
$SURFV
 70
     6
  9
$UCSBASE
  2

  9
$UCSNAME
  2

  9
$UCSORG
 10
0.0
 20
0.0
 30
0.0
  9
$UCSXDIR
 10
1.0
 20
0.0
 30
0.0
  9
$UCSYDIR
 10
0.0
 20
1.0
 30
0.0
  9
$UCSORTHOREF
  2

  9
$UCSORTHOVIEW
 70
     0
  9
$UCSORGTOP
 10
0.0
 20
0.0
 30
0.0
  9
$UCSORGBOTTOM
 10
0.0
 20
0.0
 30
0.0
  9
$UCSORGLEFT
 10
0.0
 20
0.0
 30
0.0
  9
$UCSORGRIGHT
 10
0.0
 20
0.0
 30
0.0
  9
$UCSORGFRONT
 10
0.0
 20
0.0
 30
0.0
  9
$UCSORGBACK
 10
0.0
 20
0.0
 30
0.0
  9
$PUCSBASE
  2

  9
$PUCSNAME
  2

  9
$PUCSORG
 10
0.0
 20
0.0
 30
0.0
  9
$PUCSXDIR
 10
1.0
 20
0.0
 30
0.0
  9
$PUCSYDIR
 10
0.0
 20
1.0
 30
0.0
  9
$PUCSORTHOREF
  2

  9
$PUCSORTHOVIEW
 70
     0
  9
$PUCSORGTOP
 10
0.0
 20
0.0
 30
0.0
  9
$PUCSORGBOTTOM
 10
0.0
 20
0.0
 30
0.0
  9
$PUCSORGLEFT
 10
0.0
 20
0.0
 30
0.0
  9
$PUCSORGRIGHT
 10
0.0
 20
0.0
 30
0.0
  9
$PUCSORGFRONT
 10
0.0
 20
0.0
 30
0.0
  9
$PUCSORGBACK
 10
0.0
 20
0.0
 30
0.0
  9
$USERI1
 70
     0
  9
$USERI2
 70
     0
  9
$USERI3
 70
     0
  9
$USERI4
 70
     0
  9
$USERI5
 70
     0
  9
$USERR1
 40
0.0
  9
$USERR2
 40
0.0
  9
$USERR3
 40
0.0
  9
$USERR4
 40
0.0
  9
$USERR5
 40
0.0
  9
$WORLDVIEW
 70
     1
  9
$SHADEDGE
 70
     3
  9
$SHADEDIF
 70
    70
  9
$TILEMODE
 70
     1
  9
$MAXACTVP
 70
    64
  9
$PINSBASE
 10
0.0
 20
0.0
 30
0.0
  9
$PLIMCHECK
 70
     0
  9
$PEXTMIN
 10
1.000000000000000E+20
 20
1.000000000000000E+20
 30
1.000000000000000E+20
  9
$PEXTMAX
 10
-1.000000000000000E+20
 20
-1.000000000000000E+20
 30
-1.000000000000000E+20
  9
$PLIMMIN
 10
0.0
 20
0.0
  9
$PLIMMAX
 10
12.0
 20
9.0
  9
$UNITMODE
 70
     0
  9
$VISRETAIN
 70
     1
  9
$PLINEGEN
 70
     0
  9
$PSLTSCALE
 70
     1
  9
$TREEDEPTH
 70
  3020
  9
$CMLSTYLE
  2
STANDARD
  9
$CMLJUST
 70
     0
  9
$CMLSCALE
 40
1.0
  9
$PROXYGRAPHICS
 70
     1
  9
$MEASUREMENT
 70
     0
  9
$CELWEIGHT
370
    -1
  9
$ENDCAPS
280
     0
  9
$JOINSTYLE
280
     0
  9
$LWDISPLAY
290
     0
  9
$INSUNITS
 70
     0
  9
$HYPERLINKBASE
  1

  9
$STYLESHEET
  1

  9
$XEDIT
290
     1
  9
$CEPSNTYPE
380
     0
  9
$PSTYLEMODE
290
     1
  9
$FINGERPRINTGUID
  2
{40517480-3D62-4D13-A9AA-7A7AD7D76545}
  9
$VERSIONGUID
  2
{0BDF63A0-9EB0-3D4A-AB6D-C4DF51E7D79D}
  9
$EXTNAMES
290
     1
  9
$PSVPSCALE
 40
0.0
  9
$OLESTARTUP
290
     0
  9
$SORTENTS
280
   127
  9
$INDEXCTL
280
     0
  9
$HIDETEXT
280
     0
  9
$XCLIPFRAME
280
     2
  9
$HALOGAP
280
     0
  9
$OBSCOLOR
 70
   257
  9
$OBSLTYPE
280
     0
  9
$INTERSECTIONDISPLAY
280
     0
  9
$INTERSECTIONCOLOR
 70
   257
  9
$DIMASSOC
280
     1
  9
$PROJECTNAME
  1

  9
$CAMERADISPLAY
290
     0
  9
$LENSLENGTH
 40
50.0
  9
$CAMERAHEIGHT
 40
0.0
  9
$STEPSPERSEC
 40
2.0
  9
$STEPSIZE
 40
6.0
  9
$3DDWFPREC
 40
2.0
  9
$PSOLWIDTH
 40
0.25
  9
$PSOLHEIGHT
 40
4.0
  9
$LOFTANG1
 40
1.570796326794896
  9
$LOFTANG2
 40
1.570796326794896
  9
$LOFTMAG1
 40
0.0
  9
$LOFTMAG2
 40
0.0
  9
$LOFTPARAM
 70
     7
  9
$LOFTNORMALS
280
     1
  9
$LATITUDE
 40
37.795
  9
$LONGITUDE
 40
-122.394
  9
$NORTHDIRECTION
 40
0.0
  9
$TIMEZONE
 70
 -8000
  9
$LIGHTGLYPHDISPLAY
280
     1
  9
$TILEMODELIGHTSYNCH
280
     1
  9
$CMATERIAL
347
8D
  9
$SOLIDHIST
280
     0
  9
$SHOWHIST
280
     1
  9
$DWFFRAME
280
     2
  9
$DGNFRAME
280
     0
  9
$REALWORLDSCALE
290
     1
  9
$INTERFERECOLOR
 62
     1
  9
$INTERFEREOBJVS
345
33
  9
$INTERFEREVPVS
346
9AC
  9
$CSHADOW
280
     0
  9
$SHADOWPLANELOCATION
 40
0.0
  0
ENDSEC
  0
SECTION
  2
CLASSES
  0
CLASS
  1
ACDBDICTIONARYWDFLT
  2
AcDbDictionaryWithDefault
  3
ObjectDBX Classes
 90
        0
 91
        1
280
     0
281
     0
  0
CLASS
  1
VISUALSTYLE
  2
AcDbVisualStyle
  3
ObjectDBX Classes
 90
     4095
 91
       27
280
     0
281
     0
  0
CLASS
  1
MATERIAL
  2
AcDbMaterial
  3
ObjectDBX Classes
 90
     1153
 91
        3
280
     0
281
     0
  0
CLASS
  1
TABLESTYLE
  2
AcDbTableStyle
  3
ObjectDBX Classes
 90
     4095
 91
        1
280
     0
281
     0
  0
CLASS
  1
DICTIONARYVAR
  2
AcDbDictionaryVar
  3
ObjectDBX Classes
 90
        0
 91
       13
280
     0
281
     0
  0
CLASS
  1
SORTENTSTABLE
  2
AcDbSortentsTable
  3
ObjectDBX Classes
 90
        0
 91
        5
280
     0
281
     0
  0
CLASS
  1
SCALE
  2
AcDbScale
  3
ObjectDBX Classes
 90
     1153
 91
       17
280
     0
281
     0
  0
CLASS
  1
MLEADERSTYLE
  2
AcDbMLeaderStyle
  3
ACDB_MLEADERSTYLE_CLASS
 90
     4095
 91
        1
280
     0
281
     0
  0
CLASS
  1
ACDBSECTIONVIEWSTYLE
  2
AcDbSectionViewStyle
  3
ObjectDBX Classes
 90
     1025
 91
        1
280
     0
281
     0
  0
CLASS
  1
ACDBDETAILVIEWSTYLE
  2
AcDbDetailViewStyle
  3
ObjectDBX Classes
 90
     1025
 91
        1
280
     0
281
     0
  0
CLASS
  1
CELLSTYLEMAP
  2
AcDbCellStyleMap
  3
ObjectDBX Classes
 90
     1152
 91
        2
280
     0
281
     0
  0
ENDSEC
  0
SECTION
  2
TABLES
  0
TABLE
  2
VPORT
  5
8
330
0
100
AcDbSymbolTable
 70
     1
1001
ACAD
1000
DbSaveVer
1071
      224
  0
VPORT
  5
29
330
8
100
AcDbSymbolTableRecord
100
AcDbViewportTableRecord
  2
*ACTIVE
 70
     0
 10
0.0
 20
0.0
 11
1.0
 21
1.0
 12
484.2346370458407
 22
427.1633135831789
 13
0.0
 23
0.0
 14
0.5
 24
0.5
 15
0.5
 25
0.5
 16
0.0
 26
0.0
 36
1.0
 17
480.0673101215574
 27
-206.4759913298013
 37
0.0
 40
1086.260011959841
 41
2.14188422247446
 42
50.0
 43
0.0
 44
0.0
 50
0.0
 51
0.0
 71
     0
 72
   100
 73
     1
 74
     3
 75
     0
 76
     0
 77
     0
 78
     0
281
     0
 65
     1
110
0.0
120
0.0
130
0.0
111
1.0
121
0.0
131
0.0
112
0.0
122
1.0
132
0.0
 79
     0
146
0.0
348
2F
 60
     3
 61
     5
292
     1
282
     1
141
0.0
142
0.0
 63
   250
421
  3355443
1001
ACAD_NAV_VCDISPLAY
1070
     3
  0
ENDTAB
  0
TABLE
  2
LTYPE
  5
5
330
0
100
AcDbSymbolTable
 70
     3
  0
LTYPE
  5
14
330
5
100
AcDbSymbolTableRecord
100
AcDbLinetypeTableRecord
  2
BYBLOCK
 70
     0
  3

 72
    65
 73
     0
 40
0.0
  0
LTYPE
  5
15
330
5
100
AcDbSymbolTableRecord
100
AcDbLinetypeTableRecord
  2
BYLAYER
 70
     0
  3

 72
    65
 73
     0
 40
0.0
  0
LTYPE
  5
16
330
5
100
AcDbSymbolTableRecord
100
AcDbLinetypeTableRecord
  2
CONTINUOUS
 70
     0
  3
Solid line
 72
    65
 73
     0
 40
0.0
  0
LTYPE
  5
EB6
330
5
100
AcDbSymbolTableRecord
100
AcDbLinetypeTableRecord
  2
CUSTOM
 70
     0
  3

 72
    65
 73
     0
 40
0.0
  0
ENDTAB
  0
TABLE
  2
LAYER
  5
2
102
{ACAD_XDICTIONARY
360
9A
102
}
330
0
100
AcDbSymbolTable
 70
     5
  0
LAYER
  5
10
102
{ACAD_XDICTIONARY
360
DF0
102
}
330
2
100
AcDbSymbolTableRecord
100
AcDbLayerTableRecord
  2
0
 70
     0
 62
     7
  6
CONTINUOUS
370
    -3
390
8B
347
8F
348
0
  0
LAYER
  5
98
102
{ACAD_XDICTIONARY
360
DF2
102
}
330
2
100
AcDbSymbolTableRecord
100
AcDbLayerTableRecord
  2
Hewi
 70
     0
 62
     7
  6
CONTINUOUS
370
    -3
390
8B
347
8F
348
0
1001
AcAecLayerStandard
1000

1000

  0
LAYER
  5
D6
330
2
100
AcDbSymbolTableRecord
100
AcDbLayerTableRecord
  2
Defpoints
 70
     0
 62
     7
  6
CONTINUOUS
290
     0
370
    -3
390
8B
347
8F
348
0
  0
LAYER
  5
D48
102
{ACAD_XDICTIONARY
360
D49
102
}
330
2
100
AcDbSymbolTableRecord
100
AcDbLayerTableRecord
  2
KK
 70
     0
 62
     7
  6
CONTINUOUS
370
     9
390
8B
347
8F
348
0
  0
LAYER
  5
D4A
102
{ACAD_XDICTIONARY
360
D4B
102
}
330
2
100
AcDbSymbolTableRecord
100
AcDbLayerTableRecord
  2
SCHRAFF
 70
     0
 62
     4
  6
CONTINUOUS
370
    -3
390
8B
347
8F
348
0
  0
ENDTAB
  0
TABLE
  2
STYLE
  5
3
330
0
100
AcDbSymbolTable
 70
     2
  0
STYLE
  5
11
330
3
100
AcDbSymbolTableRecord
100
AcDbTextStyleTableRecord
  2
STANDARD
 70
     0
 40
0.0
 41
1.0
 50
0.0
 71
     0
 42
0.2
  3
txt
  4

  0
STYLE
  5
A11
330
3
100
AcDbSymbolTableRecord
100
AcDbTextStyleTableRecord
  2
ARIAL
 70
     0
 40
0.0
 41
1.0
 50
0.0
 71
     0
 42
0.18
  3
arial.ttf
  4

1001
ACAD
1000
Arial
1071
       34
  0
ENDTAB
  0
TABLE
  2
VIEW
  5
6
330
0
100
AcDbSymbolTable
 70
     0
  0
ENDTAB
  0
TABLE
  2
UCS
  5
7
330
0
100
AcDbSymbolTable
 70
     0
  0
ENDTAB
  0
TABLE
  2
APPID
  5
9
330
0
100
AcDbSymbolTable
 70
     8
  0
APPID
  5
12
330
9
100
AcDbSymbolTableRecord
100
AcDbRegAppTableRecord
  2
ACAD
 70
     0
  0
APPID
  5
99
330
9
100
AcDbSymbolTableRecord
100
AcDbRegAppTableRecord
  2
AcAecLayerStandard
 70
     0
  0
APPID
  5
117
330
9
100
AcDbSymbolTableRecord
100
AcDbRegAppTableRecord
  2
ACAD_EXEMPT_FROM_CAD_STANDARDS
 70
     0
  0
APPID
  5
A13
330
9
100
AcDbSymbolTableRecord
100
AcDbRegAppTableRecord
  2
ACAD_NAV_VCDISPLAY
 70
     0
  0
APPID
  5
A14
330
9
100
AcDbSymbolTableRecord
100
AcDbRegAppTableRecord
  2
ACAD_DSTYLE_DIMRADIAL_EXTENSION
 70
     0
  0
APPID
  5
C5D
330
9
100
AcDbSymbolTableRecord
100
AcDbRegAppTableRecord
  2
ACAD_MLEADERVER
 70
     0
  0
APPID
  5
D4E
330
9
100
AcDbSymbolTableRecord
100
AcDbRegAppTableRecord
  2
ACAD_PSEXT
 70
     0
  0
APPID
  5
D4F
330
9
100
AcDbSymbolTableRecord
100
AcDbRegAppTableRecord
  2
GradientColor1ACI
 70
     0
  0
ENDTAB
  0
TABLE
  2
DIMSTYLE
  5
A
330
0
100
AcDbSymbolTable
 70
     5
100
AcDbDimStyleTable
 71
     1
340
27
  0
DIMSTYLE
105
27
330
A
100
AcDbSymbolTableRecord
100
AcDbDimStyleTableRecord
  2
STANDARD
 70
     0
340
11
  0
DIMSTYLE
105
A12
330
A
100
AcDbSymbolTableRecord
100
AcDbDimStyleTableRecord
  2
ISO-25
 70
     0
 41
2.5
 42
0.625
 43
3.75
 44
1.25
 73
     0
 74
     0
 77
     1
 78
     8
140
2.5
141
2.5
143
0.03937007874016
147
0.625
171
     3
172
     1
271
     2
272
     2
274
     3
278
    44
283
     0
284
     8
340
11
  0
DIMSTYLE
105
D4C
330
A
100
AcDbSymbolTableRecord
100
AcDbDimStyleTableRecord
  2
20
 70
     0
 40
20.0
 41
3.5
 42
2.0
 43
6.0
 44
1.8
 73
     0
 74
     0
 77
     1
140
3.5
141
3.5
147
2.0
172
     1
176
   256
177
   256
178
   256
179
     1
271
     0
272
     0
278
    44
279
     1
340
11
  0
DIMSTYLE
105
D4D
330
A
100
AcDbSymbolTableRecord
100
AcDbDimStyleTableRecord
  2
100
 70
     0
 40
100.0
 41
3.5
 42
2.0
 43
6.0
 44
1.8
 73
     0
 74
     0
 77
     1
140
3.5
141
3.5
147
2.0
172
     1
176
   256
177
   256
178
   256
179
     1
271
     0
272
     0
278
    44
279
     1
340
11
  0
ENDTAB
  0
TABLE
  2
BLOCK_RECORD
  5
1
330
0
100
AcDbSymbolTable
 70
    21
  0
BLOCK_RECORD
  5
1F
102
{ACAD_XDICTIONARY
360
BF
102
}
330
1
100
AcDbSymbolTableRecord
100
AcDbBlockTableRecord
  2
*MODEL_SPACE
340
94
 70
     0
280
     1
281
     0
  0
BLOCK_RECORD
  5
1B
330
1
100
AcDbSymbolTableRecord
100
AcDbBlockTableRecord
  2
*PAPER_SPACE
340
95
 70
     0
280
     1
281
     0
  0
BLOCK_RECORD
  5
9D1
330
1
100
AcDbSymbolTableRecord
100
AcDbBlockTableRecord
  2
_Dot
340
0
102
{BLKREFS
331
B82
331
B83
331
B8B
331
B8C
331
B94
331
B95
331
B9D
331
B9E
331
9E6
331
9E7
331
9F2
331
9F3
331
9FE
331
9FF
331
A0A
331
A0B
331
9DC
331
9DD
331
BF3
331
BF4
331
BFA
331
BFB
331
C03
331
C04
331
C0C
331
C0D
331
C15
331
C16
331
B7B
331
B7C
102
}
 70
     0
280
     1
281
     0
  0
BLOCK_RECORD
  5
9D6
330
1
100
AcDbSymbolTableRecord
100
AcDbBlockTableRecord
  2
*D1
340
0
 70
     0
280
     1
281
     0
  0
BLOCK_RECORD
  5
9E1
330
1
100
AcDbSymbolTableRecord
100
AcDbBlockTableRecord
  2
*D2
340
0
 70
     0
280
     1
281
     0
  0
BLOCK_RECORD
  5
9ED
330
1
100
AcDbSymbolTableRecord
100
AcDbBlockTableRecord
  2
*D3
340
0
 70
     0
280
     1
281
     0
  0
BLOCK_RECORD
  5
9F9
330
1
100
AcDbSymbolTableRecord
100
AcDbBlockTableRecord
  2
*D4
340
0
 70
     0
280
     1
281
     0
  0
BLOCK_RECORD
  5
A05
330
1
100
AcDbSymbolTableRecord
100
AcDbBlockTableRecord
  2
*D5
340
0
 70
     0
280
     1
281
     0
  0
BLOCK_RECORD
  5
B3C
330
1
100
AcDbSymbolTableRecord
100
AcDbBlockTableRecord
  2
*D6
340
0
 70
     0
280
     1
281
     0
  0
BLOCK_RECORD
  5
B47
330
1
100
AcDbSymbolTableRecord
100
AcDbBlockTableRecord
  2
*D7
340
0
 70
     0
280
     1
281
     0
  0
BLOCK_RECORD
  5
B53
330
1
100
AcDbSymbolTableRecord
100
AcDbBlockTableRecord
  2
*D8
340
0
 70
     0
280
     1
281
     0
  0
BLOCK_RECORD
  5
B5F
330
1
100
AcDbSymbolTableRecord
100
AcDbBlockTableRecord
  2
*D9
340
0
 70
     0
280
     1
281
     0
  0
BLOCK_RECORD
  5
B6B
330
1
100
AcDbSymbolTableRecord
100
AcDbBlockTableRecord
  2
*D10
340
0
 70
     0
280
     1
281
     0
  0
BLOCK_RECORD
  5
BB4
330
1
100
AcDbSymbolTableRecord
100
AcDbBlockTableRecord
  2
*D11
340
0
 70
     0
280
     1
281
     0
  0
BLOCK_RECORD
  5
BBF
330
1
100
AcDbSymbolTableRecord
100
AcDbBlockTableRecord
  2
*D12
340
0
 70
     0
280
     1
281
     0
  0
BLOCK_RECORD
  5
BCB
330
1
100
AcDbSymbolTableRecord
100
AcDbBlockTableRecord
  2
*D13
340
0
 70
     0
280
     1
281
     0
  0
BLOCK_RECORD
  5
BD7
330
1
100
AcDbSymbolTableRecord
100
AcDbBlockTableRecord
  2
*D14
340
0
 70
     0
280
     1
281
     0
  0
BLOCK_RECORD
  5
BE3
330
1
100
AcDbSymbolTableRecord
100
AcDbBlockTableRecord
  2
*D15
340
0
 70
     0
280
     1
281
     0
  0
BLOCK_RECORD
  5
C68
102
{ACAD_XDICTIONARY
360
C69
102
}
330
1
100
AcDbSymbolTableRecord
100
AcDbBlockTableRecord
  2
A$C13727CD1
340
0
 70
     0
280
     1
281
     0
  0
BLOCK_RECORD
  5
CEA
102
{ACAD_XDICTIONARY
360
CEB
102
}
330
1
100
AcDbSymbolTableRecord
100
AcDbBlockTableRecord
  2
A$C16DB7243
340
0
 70
     0
280
     1
281
     0
  0
ENDTAB
  0
ENDSEC
  0
SECTION
  2
BLOCKS
  0
BLOCK
  5
20
330
1F
100
AcDbEntity
  8
0
100
AcDbBlockBegin
  2
*MODEL_SPACE
 70
     0
 10
0.0
 20
0.0
 30
0.0
  3
*MODEL_SPACE
  1

  0
ENDBLK
  5
21
330
1F
100
AcDbEntity
  8
0
100
AcDbBlockEnd
  0
BLOCK
  5
1C
330
1B
100
AcDbEntity
 67
     1
  8
0
100
AcDbBlockBegin
  2
*PAPER_SPACE
 70
     0
 10
0.0
 20
0.0
 30
0.0
  3
*PAPER_SPACE
  1

  0
ENDBLK
  5
1D
330
1B
100
AcDbEntity
 67
     1
  8
0
100
AcDbBlockEnd
  0
BLOCK
  5
9D2
330
9D1
100
AcDbEntity
  8
0
100
AcDbBlockBegin
  2
_Dot
 70
     0
 10
0.0
 20
0.0
 30
0.0
  3
_Dot
  1

  0
LWPOLYLINE
  5
9D3
330
9D1
100
AcDbEntity
  8
0
  6
ByBlock
 62
     0
100
AcDbPolyline
 90
        2
 70
     1
 43
0.5
 10
-0.25
 20
0.0
 42
1.0
 10
0.25
 20
0.0
 42
1.0
  0
LINE
  5
9D4
330
9D1
100
AcDbEntity
  8
0
  6
ByBlock
 62
     0
370
    -2
100
AcDbLine
 10
-0.5
 20
0.0
 30
0.0
 11
-1.0
 21
0.0
 31
0.0
  0
ENDBLK
  5
9D5
330
9D1
100
AcDbEntity
  8
0
100
AcDbBlockEnd
  0
BLOCK
  5
9D7
330
9D6
100
AcDbEntity
  8
0
100
AcDbBlockBegin
  2
*D1
 70
     1
 10
0.0
 20
0.0
 30
0.0
  3
*D1
  1

  0
LINE
  5
9D8
330
9D6
100
AcDbEntity
  8
0
 62
     0
440
 16777216
370
     9
100
AcDbLine
 10
1450.443275461995
 20
-400.231154340017
 30
0.0
 11
1521.527046277656
 21
-367.9906628044587
 31
0.0
  0
LINE
  5
9D9
330
9D6
100
AcDbEntity
  8
0
 62
     0
440
 16777216
370
     9
100
AcDbLine
 10
1554.312445255764
 20
-353.1206388015856
 30
0.0
 11
1561.598089473122
 21
-349.8161890231691
 31
0.0
  0
MTEXT
  5
9DA
330
9D6
100
AcDbEntity
  8
0
 62
     0
440
 16777216
100
AcDbMText
 10
1471.40551666738
 20
-373.4064691418009
 30
0.0
 40
20.0
 41
0.0
 46
0.0
 71
     5
 72
     1
  1
∅20
  7
ARIAL
 11
0.9107055271697571
 21
0.4130562223020672
 31
0.0
 73
     1
 44
1.0
  0
LINE
  5
9DB
330
9D6
100
AcDbEntity
  8
0
 62
     0
440
 16777216
370
     9
100
AcDbLine
 10
1547.026801038406
 20
-356.4250885800023
 30
0.0
 11
1528.812690495014
 21
-364.6862130260422
 31
0.0
  0
INSERT
  5
9DC
330
9D6
100
AcDbEntity
  8
0
 62
     0
440
 16777216
370
     9
100
AcDbBlockReference
  2
_Dot
 10
1547.026801038406
 20
-356.4250885800023
 30
0.0
 41
8.0
 42
8.0
 43
8.0
 50
204.3969670539429
  0
INSERT
  5
9DD
330
9D6
100
AcDbEntity
  8
0
 62
     0
440
 16777216
370
     9
100
AcDbBlockReference
  2
_Dot
 10
1528.812690495014
 20
-364.6862130260422
 30
0.0
 41
8.0
 42
8.0
 43
8.0
 50
24.39696705394304
  0
POINT
  5
9DE
330
9D6
100
AcDbEntity
  8
Defpoints
 62
     0
440
 16777216
100
AcDbPoint
 10
1528.812690495014
 20
-364.6862130260422
 30
0.0
  0
POINT
  5
9DF
330
9D6
100
AcDbEntity
  8
Defpoints
 62
     0
440
 16777216
100
AcDbPoint
 10
1547.026801038406
 20
-356.4250885800023
 30
0.0
  0
ENDBLK
  5
9E0
330
9D6
100
AcDbEntity
  8
0
100
AcDbBlockEnd
  0
BLOCK
  5
9E2
330
9E1
100
AcDbEntity
  8
0
100
AcDbBlockBegin
  2
*D2
 70
     1
 10
0.0
 20
0.0
 30
0.0
  3
*D2
  1

  0
LINE
  5
9E3
330
9E1
100
AcDbEntity
  8
0
 62
     0
440
 16777216
370
     9
100
AcDbLine
 10
1297.919745766714
 20
-624.2910804965577
 30
0.0
 11
1297.919745766714
 21
-691.815191259714
 31
0.0
  0
LINE
  5
9E4
330
9E1
100
AcDbEntity
  8
0
 62
     0
440
 16777216
370
     9
100
AcDbLine
 10
1497.919745766716
 20
-624.2910804965577
 30
0.0
 11
1497.919745766716
 21
-691.815191259714
 31
0.0
  0
LINE
  5
9E5
330
9E1
100
AcDbEntity
  8
0
 62
     0
440
 16777216
370
     9
100
AcDbLine
 10
1305.919745766714
 20
-690.565191259714
 30
0.0
 11
1489.919745766716
 21
-690.565191259714
 31
0.0
  0
INSERT
  5
9E6
330
9E1
100
AcDbEntity
  8
0
 62
     0
440
 16777216
370
     9
100
AcDbBlockReference
  2
_Dot
 10
1297.919745766714
 20
-690.565191259714
 30
0.0
 41
8.0
 42
8.0
 43
8.0
 50
180.0
  0
INSERT
  5
9E7
330
9E1
100
AcDbEntity
  8
0
 62
     0
440
 16777216
370
     9
100
AcDbBlockReference
  2
_Dot
 10
1497.919745766716
 20
-690.565191259714
 30
0.0
 41
8.0
 42
8.0
 43
8.0
  0
MTEXT
  5
9E8
330
9E1
100
AcDbEntity
  8
0
 62
     0
440
 16777216
100
AcDbMText
 10
1397.919745766715
 20
-675.3537315052803
 30
0.0
 40
20.0
 41
0.0
 46
0.0
 71
     5
 72
     1
  1
120 - 200 
  7
ARIAL
 73
     1
 44
1.0
  0
POINT
  5
9E9
330
9E1
100
AcDbEntity
  8
Defpoints
 62
     0
440
 16777216
100
AcDbPoint
 10
1297.919745766714
 20
-594.2910804965578
 30
0.0
  0
POINT
  5
9EA
330
9E1
100
AcDbEntity
  8
Defpoints
 62
     0
440
 16777216
100
AcDbPoint
 10
1497.919745766716
 20
-594.2910804965578
 30
0.0
  0
POINT
  5
9EB
330
9E1
100
AcDbEntity
  8
Defpoints
 62
     0
440
 16777216
100
AcDbPoint
 10
1497.919745766716
 20
-690.565191259714
 30
0.0
  0
ENDBLK
  5
9EC
330
9E1
100
AcDbEntity
  8
0
100
AcDbBlockEnd
  0
BLOCK
  5
9EE
330
9ED
100
AcDbEntity
  8
0
100
AcDbBlockBegin
  2
*D3
 70
     1
 10
0.0
 20
0.0
 30
0.0
  3
*D3
  1

  0
LINE
  5
9EF
330
9ED
100
AcDbEntity
  8
0
 62
     0
440
 16777216
370
     9
100
AcDbLine
 10
1763.579320049096
 20
-570.5556508030197
 30
0.0
 11
1807.59169833044
 21
-570.5556508030196
 31
0.0
  0
LINE
  5
9F0
330
9ED
100
AcDbEntity
  8
0
 62
     0
440
 16777216
370
     9
100
AcDbLine
 10
1763.579320049096
 20
-1120.55565080302
 30
0.0
 11
1807.59169833044
 21
-1120.55565080302
 31
0.0
  0
LINE
  5
9F1
330
9ED
100
AcDbEntity
  8
0
 62
     0
440
 16777216
370
     9
100
AcDbLine
 10
1806.34169833044
 20
-578.5556508030196
 30
0.0
 11
1806.34169833044
 21
-1112.55565080302
 31
0.0
  0
INSERT
  5
9F2
330
9ED
100
AcDbEntity
  8
0
 62
     0
440
 16777216
370
     9
100
AcDbBlockReference
  2
_Dot
 10
1806.34169833044
 20
-570.5556508030196
 30
0.0
 41
8.0
 42
8.0
 43
8.0
 50
90.0
  0
INSERT
  5
9F3
330
9ED
100
AcDbEntity
  8
0
 62
     0
440
 16777216
370
     9
100
AcDbBlockReference
  2
_Dot
 10
1806.34169833044
 20
-1120.55565080302
 30
0.0
 41
8.0
 42
8.0
 43
8.0
 50
270.0
  0
MTEXT
  5
9F4
330
9ED
100
AcDbEntity
  8
0
 62
     0
440
 16777216
100
AcDbMText
 10
1791.123417293604
 20
-845.5556508030202
 30
0.0
 40
20.0
 41
0.0
 46
0.0
 71
     5
 72
     1
  1
550 - 630
  7
ARIAL
 11
0.0000000000000001
 21
1.0
 31
0.0
 73
     1
 44
1.0
  0
POINT
  5
9F5
330
9ED
100
AcDbEntity
  8
Defpoints
 62
     0
440
 16777216
100
AcDbPoint
 10
1733.579320049096
 20
-570.5556508030197
 30
0.0
  0
POINT
  5
9F6
330
9ED
100
AcDbEntity
  8
Defpoints
 62
     0
440
 16777216
100
AcDbPoint
 10
1733.579320049096
 20
-1120.55565080302
 30
0.0
  0
POINT
  5
9F7
330
9ED
100
AcDbEntity
  8
Defpoints
 62
     0
440
 16777216
100
AcDbPoint
 10
1806.34169833044
 20
-1120.55565080302
 30
0.0
  0
ENDBLK
  5
9F8
330
9ED
100
AcDbEntity
  8
0
100
AcDbBlockEnd
  0
BLOCK
  5
9FA
330
9F9
100
AcDbEntity
  8
0
100
AcDbBlockBegin
  2
*D4
 70
     1
 10
0.0
 20
0.0
 30
0.0
  3
*D4
  1

  0
LINE
  5
9FB
330
9F9
100
AcDbEntity
  8
0
 62
     0
440
 16777216
370
     9
100
AcDbLine
 10
1793.579320049096
 20
-360.5556508030197
 30
0.0
 11
1866.711125492112
 21
-360.5556508030197
 31
0.0
  0
LINE
  5
9FC
330
9F9
100
AcDbEntity
  8
0
 62
     0
440
 16777216
370
     9
100
AcDbLine
 10
1793.579320049096
 20
-1120.55565080302
 30
0.0
 11
1866.711125492112
 21
-1120.55565080302
 31
0.0
  0
LINE
  5
9FD
330
9F9
100
AcDbEntity
  8
0
 62
     0
440
 16777216
370
     9
100
AcDbLine
 10
1865.461125492112
 20
-368.5556508030197
 30
0.0
 11
1865.461125492112
 21
-1112.55565080302
 31
0.0
  0
INSERT
  5
9FE
330
9F9
100
AcDbEntity
  8
0
 62
     0
440
 16777216
370
     9
100
AcDbBlockReference
  2
_Dot
 10
1865.461125492112
 20
-360.5556508030197
 30
0.0
 41
8.0
 42
8.0
 43
8.0
 50
90.0
  0
INSERT
  5
9FF
330
9F9
100
AcDbEntity
  8
0
 62
     0
440
 16777216
370
     9
100
AcDbBlockReference
  2
_Dot
 10
1865.461125492112
 20
-1120.55565080302
 30
0.0
 41
8.0
 42
8.0
 43
8.0
 50
270.0
  0
MTEXT
  5
A00
330
9F9
100
AcDbEntity
  8
0
 62
     0
440
 16777216
100
AcDbMText
 10
1850.249665737678
 20
-740.5556508030205
 30
0.0
 40
20.0
 41
0.0
 46
0.0
 71
     5
 72
     1
  1
760
  7
ARIAL
 11
0.0000000000000001
 21
1.0
 31
0.0
 73
     1
 44
1.0
  0
POINT
  5
A01
330
9F9
100
AcDbEntity
  8
Defpoints
 62
     0
440
 16777216
100
AcDbPoint
 10
1763.579320049096
 20
-360.5556508030197
 30
0.0
  0
POINT
  5
A02
330
9F9
100
AcDbEntity
  8
Defpoints
 62
     0
440
 16777216
100
AcDbPoint
 10
1763.579320049096
 20
-1120.55565080302
 30
0.0
  0
POINT
  5
A03
330
9F9
100
AcDbEntity
  8
Defpoints
 62
     0
440
 16777216
100
AcDbPoint
 10
1865.461125492112
 20
-1120.55565080302
 30
0.0
  0
ENDBLK
  5
A04
330
9F9
100
AcDbEntity
  8
0
100
AcDbBlockEnd
  0
BLOCK
  5
A06
330
A05
100
AcDbEntity
  8
0
100
AcDbBlockBegin
  2
*D5
 70
     1
 10
0.0
 20
0.0
 30
0.0
  3
*D5
  1

  0
LINE
  5
A07
330
A05
100
AcDbEntity
  8
0
 62
     0
440
 16777216
370
     9
100
AcDbLine
 10
1257.919745766714
 20
-256.8290085499803
 30
0.0
 11
1257.919745766714
 21
-221.9358425281436
 31
0.0
  0
LINE
  5
A08
330
A05
100
AcDbEntity
  8
0
 62
     0
440
 16777216
370
     9
100
AcDbLine
 10
1537.919745766714
 20
-256.8290085499803
 30
0.0
 11
1537.919745766714
 21
-221.9358425281436
 31
0.0
  0
LINE
  5
A09
330
A05
100
AcDbEntity
  8
0
 62
     0
440
 16777216
370
     9
100
AcDbLine
 10
1265.919745766714
 20
-223.1858425281436
 30
0.0
 11
1529.919745766714
 21
-223.1858425281436
 31
0.0
  0
INSERT
  5
A0A
330
A05
100
AcDbEntity
  8
0
 62
     0
440
 16777216
370
     9
100
AcDbBlockReference
  2
_Dot
 10
1257.919745766714
 20
-223.1858425281436
 30
0.0
 41
8.0
 42
8.0
 43
8.0
 50
180.0
  0
INSERT
  5
A0B
330
A05
100
AcDbEntity
  8
0
 62
     0
440
 16777216
370
     9
100
AcDbBlockReference
  2
_Dot
 10
1537.919745766714
 20
-223.1858425281436
 30
0.0
 41
8.0
 42
8.0
 43
8.0
  0
MTEXT
  5
A0C
330
A05
100
AcDbEntity
  8
0
 62
     0
440
 16777216
100
AcDbMText
 10
1397.919745766714
 20
-207.9743827737097
 30
0.0
 40
20.0
 41
0.0
 46
0.0
 71
     5
 72
     1
  1
280
  7
ARIAL
 73
     1
 44
1.0
  0
POINT
  5
A0D
330
A05
100
AcDbEntity
  8
Defpoints
 62
     0
440
 16777216
100
AcDbPoint
 10
1257.919745766714
 20
-286.8290085499804
 30
0.0
  0
POINT
  5
A0E
330
A05
100
AcDbEntity
  8
Defpoints
 62
     0
440
 16777216
100
AcDbPoint
 10
1537.919745766714
 20
-286.8290085499804
 30
0.0
  0
POINT
  5
A0F
330
A05
100
AcDbEntity
  8
Defpoints
 62
     0
440
 16777216
100
AcDbPoint
 10
1537.919745766714
 20
-223.1858425281436
 30
0.0
  0
ENDBLK
  5
A10
330
A05
100
AcDbEntity
  8
0
100
AcDbBlockEnd
  0
BLOCK
  5
B3D
330
B3C
100
AcDbEntity
  8
0
100
AcDbBlockBegin
  2
*D6
 70
     1
 10
0.0
 20
0.0
 30
0.0
  3
*D6
  1

  0
LINE
  5
B77
330
B3C
100
AcDbEntity
  8
0
 62
     0
440
 16777216
370
     9
100
AcDbLine
 10
3936.040557611966
 20
217.5633636602795
 30
0.0
 11
4007.124328427624
 21
249.8038551958382
 31
0.0
  0
LINE
  5
B78
330
B3C
100
AcDbEntity
  8
0
 62
     0
440
 16777216
370
     9
100
AcDbLine
 10
4039.909727405734
 20
264.6738791987114
 30
0.0
 11
4047.195371623092
 21
267.9783289771278
 31
0.0
  0
MTEXT
  5
B79
330
B3C
100
AcDbEntity
  8
0
 62
     0
440
 16777216
100
AcDbMText
 10
3957.002798817351
 20
244.3880488584956
 30
0.0
 40
20.0
 41
0.0
 46
0.0
 71
     5
 72
     1
  1
∅20
  7
ARIAL
 11
0.9107055271697548
 21
0.4130562223020722
 31
0.0
 73
     1
 44
1.0
  0
LINE
  5
B7A
330
B3C
100
AcDbEntity
  8
0
 62
     0
440
 16777216
370
     9
100
AcDbLine
 10
4032.624083188376
 20
261.3694294202947
 30
0.0
 11
4014.409972644985
 21
253.1083049742547
 31
0.0
  0
INSERT
  5
B7B
330
B3C
100
AcDbEntity
  8
0
 62
     0
440
 16777216
370
     9
100
AcDbBlockReference
  2
_Dot
 10
4032.624083188376
 20
261.3694294202947
 30
0.0
 41
8.0
 42
8.0
 43
8.0
 50
204.3969670539433
  0
INSERT
  5
B7C
330
B3C
100
AcDbEntity
  8
0
 62
     0
440
 16777216
370
     9
100
AcDbBlockReference
  2
_Dot
 10
4014.409972644985
 20
253.1083049742547
 30
0.0
 41
8.0
 42
8.0
 43
8.0
 50
24.39696705394335
  0
POINT
  5
B7D
330
B3C
100
AcDbEntity
  8
Defpoints
 62
     0
440
 16777216
100
AcDbPoint
 10
4014.409972644985
 20
253.1083049742547
 30
0.0
  0
POINT
  5
B7E
330
B3C
100
AcDbEntity
  8
Defpoints
 62
     0
440
 16777216
100
AcDbPoint
 10
4032.624083188376
 20
261.3694294202947
 30
0.0
  0
ENDBLK
  5
B3E
330
B3C
100
AcDbEntity
  8
0
100
AcDbBlockEnd
  0
BLOCK
  5
B48
330
B47
100
AcDbEntity
  8
0
100
AcDbBlockBegin
  2
*D7
 70
     1
 10
0.0
 20
0.0
 30
0.0
  3
*D7
  1

  0
LINE
  5
B7F
330
B47
100
AcDbEntity
  8
0
 62
     0
440
 16777216
370
     9
100
AcDbLine
 10
3783.517027916686
 20
-6.496562496260707
 30
0.0
 11
3783.517027916686
 21
-74.02067325941709
 31
0.0
  0
LINE
  5
B80
330
B47
100
AcDbEntity
  8
0
 62
     0
440
 16777216
370
     9
100
AcDbLine
 10
3983.517027916687
 20
-6.496562496260707
 30
0.0
 11
3983.517027916687
 21
-74.02067325941709
 31
0.0
  0
LINE
  5
B81
330
B47
100
AcDbEntity
  8
0
 62
     0
440
 16777216
370
     9
100
AcDbLine
 10
3791.517027916685
 20
-72.77067325941709
 30
0.0
 11
3975.517027916687
 21
-72.77067325941709
 31
0.0
  0
INSERT
  5
B82
330
B47
100
AcDbEntity
  8
0
 62
     0
440
 16777216
370
     9
100
AcDbBlockReference
  2
_Dot
 10
3783.517027916686
 20
-72.77067325941709
 30
0.0
 41
8.0
 42
8.0
 43
8.0
 50
180.0
  0
INSERT
  5
B83
330
B47
100
AcDbEntity
  8
0
 62
     0
440
 16777216
370
     9
100
AcDbBlockReference
  2
_Dot
 10
3983.517027916687
 20
-72.77067325941709
 30
0.0
 41
8.0
 42
8.0
 43
8.0
  0
MTEXT
  5
B84
330
B47
100
AcDbEntity
  8
0
 62
     0
440
 16777216
100
AcDbMText
 10
3883.517027916686
 20
-57.55921350498326
 30
0.0
 40
20.0
 41
0.0
 46
0.0
 71
     5
 72
     1
  1
120 - 200 
  7
ARIAL
 73
     1
 44
1.0
  0
POINT
  5
B85
330
B47
100
AcDbEntity
  8
Defpoints
 62
     0
440
 16777216
100
AcDbPoint
 10
3783.517027916686
 20
23.50343750373929
 30
0.0
  0
POINT
  5
B86
330
B47
100
AcDbEntity
  8
Defpoints
 62
     0
440
 16777216
100
AcDbPoint
 10
3983.517027916687
 20
23.50343750373929
 30
0.0
  0
POINT
  5
B87
330
B47
100
AcDbEntity
  8
Defpoints
 62
     0
440
 16777216
100
AcDbPoint
 10
3983.517027916687
 20
-72.77067325941709
 30
0.0
  0
ENDBLK
  5
B49
330
B47
100
AcDbEntity
  8
0
100
AcDbBlockEnd
  0
BLOCK
  5
B54
330
B53
100
AcDbEntity
  8
0
100
AcDbBlockBegin
  2
*D8
 70
     1
 10
0.0
 20
0.0
 30
0.0
  3
*D8
  1

  0
LINE
  5
B88
330
B53
100
AcDbEntity
  8
0
 62
     0
440
 16777216
370
     9
100
AcDbLine
 10
4249.176602199066
 20
47.23886719727753
 30
0.0
 11
4293.188980480413
 21
47.23886719727753
 31
0.0
  0
LINE
  5
B89
330
B53
100
AcDbEntity
  8
0
 62
     0
440
 16777216
370
     9
100
AcDbLine
 10
4249.176602199066
 20
-502.7611328027226
 30
0.0
 11
4293.188980480413
 21
-502.7611328027226
 31
0.0
  0
LINE
  5
B8A
330
B53
100
AcDbEntity
  8
0
 62
     0
440
 16777216
370
     9
100
AcDbLine
 10
4291.938980480413
 20
39.23886719727752
 30
0.0
 11
4291.938980480413
 21
-494.7611328027226
 31
0.0
  0
INSERT
  5
B8B
330
B53
100
AcDbEntity
  8
0
 62
     0
440
 16777216
370
     9
100
AcDbBlockReference
  2
_Dot
 10
4291.938980480413
 20
47.23886719727753
 30
0.0
 41
8.0
 42
8.0
 43
8.0
 50
90.0
  0
INSERT
  5
B8C
330
B53
100
AcDbEntity
  8
0
 62
     0
440
 16777216
370
     9
100
AcDbBlockReference
  2
_Dot
 10
4291.938980480413
 20
-502.7611328027226
 30
0.0
 41
8.0
 42
8.0
 43
8.0
 50
270.0
  0
MTEXT
  5
B8D
330
B53
100
AcDbEntity
  8
0
 62
     0
440
 16777216
100
AcDbMText
 10
4276.720699443577
 20
-227.7611328027237
 30
0.0
 40
20.0
 41
0.0
 46
0.0
 71
     5
 72
     1
  1
550 - 630
  7
ARIAL
 11
0.0000000000000001
 21
1.0
 31
0.0
 73
     1
 44
1.0
  0
POINT
  5
B8E
330
B53
100
AcDbEntity
  8
Defpoints
 62
     0
440
 16777216
100
AcDbPoint
 10
4219.176602199068
 20
47.2388671972775
 30
0.0
  0
POINT
  5
B8F
330
B53
100
AcDbEntity
  8
Defpoints
 62
     0
440
 16777216
100
AcDbPoint
 10
4219.176602199068
 20
-502.7611328027226
 30
0.0
  0
POINT
  5
B90
330
B53
100
AcDbEntity
  8
Defpoints
 62
     0
440
 16777216
100
AcDbPoint
 10
4291.938980480413
 20
-502.7611328027226
 30
0.0
  0
ENDBLK
  5
B55
330
B53
100
AcDbEntity
  8
0
100
AcDbBlockEnd
  0
BLOCK
  5
B60
330
B5F
100
AcDbEntity
  8
0
100
AcDbBlockBegin
  2
*D9
 70
     1
 10
0.0
 20
0.0
 30
0.0
  3
*D9
  1

  0
LINE
  5
B91
330
B5F
100
AcDbEntity
  8
0
 62
     0
440
 16777216
370
     9
100
AcDbLine
 10
4279.176602199068
 20
257.2388671972775
 30
0.0
 11
4352.308407642087
 21
257.2388671972775
 31
0.0
  0
LINE
  5
B92
330
B5F
100
AcDbEntity
  8
0
 62
     0
440
 16777216
370
     9
100
AcDbLine
 10
4279.176602199068
 20
-502.7611328027232
 30
0.0
 11
4352.308407642087
 21
-502.7611328027232
 31
0.0
  0
LINE
  5
B93
330
B5F
100
AcDbEntity
  8
0
 62
     0
440
 16777216
370
     9
100
AcDbLine
 10
4351.058407642084
 20
249.2388671972775
 30
0.0
 11
4351.058407642084
 21
-494.7611328027232
 31
0.0
  0
INSERT
  5
B94
330
B5F
100
AcDbEntity
  8
0
 62
     0
440
 16777216
370
     9
100
AcDbBlockReference
  2
_Dot
 10
4351.058407642084
 20
257.2388671972775
 30
0.0
 41
8.0
 42
8.0
 43
8.0
 50
90.0
  0
INSERT
  5
B95
330
B5F
100
AcDbEntity
  8
0
 62
     0
440
 16777216
370
     9
100
AcDbBlockReference
  2
_Dot
 10
4351.058407642084
 20
-502.7611328027232
 30
0.0
 41
8.0
 42
8.0
 43
8.0
 50
270.0
  0
MTEXT
  5
B96
330
B5F
100
AcDbEntity
  8
0
 62
     0
440
 16777216
100
AcDbMText
 10
4335.846947887651
 20
-122.761132802724
 30
0.0
 40
20.0
 41
0.0
 46
0.0
 71
     5
 72
     1
  1
760
  7
ARIAL
 11
0.0000000000000001
 21
1.0
 31
0.0
 73
     1
 44
1.0
  0
POINT
  5
B97
330
B5F
100
AcDbEntity
  8
Defpoints
 62
     0
440
 16777216
100
AcDbPoint
 10
4249.176602199066
 20
257.2388671972775
 30
0.0
  0
POINT
  5
B98
330
B5F
100
AcDbEntity
  8
Defpoints
 62
     0
440
 16777216
100
AcDbPoint
 10
4249.176602199066
 20
-502.7611328027232
 30
0.0
  0
POINT
  5
B99
330
B5F
100
AcDbEntity
  8
Defpoints
 62
     0
440
 16777216
100
AcDbPoint
 10
4351.058407642084
 20
-502.7611328027232
 30
0.0
  0
ENDBLK
  5
B61
330
B5F
100
AcDbEntity
  8
0
100
AcDbBlockEnd
  0
BLOCK
  5
B6C
330
B6B
100
AcDbEntity
  8
0
100
AcDbBlockBegin
  2
*D10
 70
     1
 10
0.0
 20
0.0
 30
0.0
  3
*D10
  1

  0
LINE
  5
B9A
330
B6B
100
AcDbEntity
  8
0
 62
     0
440
 16777216
370
     9
100
AcDbLine
 10
3743.517027916686
 20
360.9655094503166
 30
0.0
 11
3743.517027916686
 21
395.8586754721535
 31
0.0
  0
LINE
  5
B9B
330
B6B
100
AcDbEntity
  8
0
 62
     0
440
 16777216
370
     9
100
AcDbLine
 10
4023.517027916684
 20
360.9655094503166
 30
0.0
 11
4023.517027916684
 21
395.8586754721535
 31
0.0
  0
LINE
  5
B9C
330
B6B
100
AcDbEntity
  8
0
 62
     0
440
 16777216
370
     9
100
AcDbLine
 10
3751.517027916686
 20
394.6086754721534
 30
0.0
 11
4015.517027916685
 21
394.6086754721534
 31
0.0
  0
INSERT
  5
B9D
330
B6B
100
AcDbEntity
  8
0
 62
     0
440
 16777216
370
     9
100
AcDbBlockReference
  2
_Dot
 10
3743.517027916686
 20
394.6086754721534
 30
0.0
 41
8.0
 42
8.0
 43
8.0
 50
180.0
  0
INSERT
  5
B9E
330
B6B
100
AcDbEntity
  8
0
 62
     0
440
 16777216
370
     9
100
AcDbBlockReference
  2
_Dot
 10
4023.517027916684
 20
394.6086754721534
 30
0.0
 41
8.0
 42
8.0
 43
8.0
  0
MTEXT
  5
B9F
330
B6B
100
AcDbEntity
  8
0
 62
     0
440
 16777216
100
AcDbMText
 10
3883.517027916685
 20
409.8201352265872
 30
0.0
 40
20.0
 41
0.0
 46
0.0
 71
     5
 72
     1
  1
280
  7
ARIAL
 73
     1
 44
1.0
  0
POINT
  5
BA0
330
B6B
100
AcDbEntity
  8
Defpoints
 62
     0
440
 16777216
100
AcDbPoint
 10
3743.517027916686
 20
330.9655094503166
 30
0.0
  0
POINT
  5
BA1
330
B6B
100
AcDbEntity
  8
Defpoints
 62
     0
440
 16777216
100
AcDbPoint
 10
4023.517027916684
 20
330.9655094503166
 30
0.0
  0
POINT
  5
BA2
330
B6B
100
AcDbEntity
  8
Defpoints
 62
     0
440
 16777216
100
AcDbPoint
 10
4023.517027916684
 20
394.6086754721534
 30
0.0
  0
ENDBLK
  5
B6D
330
B6B
100
AcDbEntity
  8
0
100
AcDbBlockEnd
  0
BLOCK
  5
BB5
330
BB4
100
AcDbEntity
  8
0
100
AcDbBlockBegin
  2
*D11
 70
     1
 10
0.0
 20
0.0
 30
0.0
  3
*D11
  1

  0
LINE
  5
BEF
330
BB4
100
AcDbEntity
  8
0
 62
     0
440
 16777216
370
     9
100
AcDbLine
 10
1923.055200513606
 20
-624.0219007330919
 30
0.0
 11
1994.138971329266
 21
-591.7814091975316
 31
0.0
  0
LINE
  5
BF0
330
BB4
100
AcDbEntity
  8
0
 62
     0
440
 16777216
370
     9
100
AcDbLine
 10
2026.924370307373
 20
-576.9113851946578
 30
0.0
 11
2034.210014524731
 21
-573.6069354162411
 31
0.0
  0
MTEXT
  5
BF1
330
BB4
100
AcDbEntity
  8
0
 62
     0
440
 16777216
100
AcDbMText
 10
1944.01744171899
 20
-597.1972155348752
 30
0.0
 40
20.0
 41
0.0
 46
0.0
 71
     5
 72
     1
  1
∅20
  7
ARIAL
 11
0.9107055271697451
 21
0.4130562223020938
 31
0.0
 73
     1
 44
1.0
  0
LINE
  5
BF2
330
BB4
100
AcDbEntity
  8
0
 62
     0
440
 16777216
370
     9
100
AcDbLine
 10
2019.638726090015
 20
-580.2158349730746
 30
0.0
 11
2001.424615546623
 21
-588.4769594191148
 31
0.0
  0
INSERT
  5
BF3
330
BB4
100
AcDbEntity
  8
0
 62
     0
440
 16777216
370
     9
100
AcDbBlockReference
  2
_Dot
 10
2019.638726090015
 20
-580.2158349730746
 30
0.0
 41
8.0
 42
8.0
 43
8.0
 50
204.3969670539447
  0
INSERT
  5
BF4
330
BB4
100
AcDbEntity
  8
0
 62
     0
440
 16777216
370
     9
100
AcDbBlockReference
  2
_Dot
 10
2001.424615546623
 20
-588.4769594191148
 30
0.0
 41
8.0
 42
8.0
 43
8.0
 50
24.39696705394471
  0
POINT
  5
BF5
330
BB4
100
AcDbEntity
  8
Defpoints
 62
     0
440
 16777216
100
AcDbPoint
 10
2001.424615546623
 20
-588.4769594191148
 30
0.0
  0
POINT
  5
BF6
330
BB4
100
AcDbEntity
  8
Defpoints
 62
     0
440
 16777216
100
AcDbPoint
 10
2019.638726090015
 20
-580.2158349730746
 30
0.0
  0
ENDBLK
  5
BB6
330
BB4
100
AcDbEntity
  8
0
100
AcDbBlockEnd
  0
BLOCK
  5
BC0
330
BBF
100
AcDbEntity
  8
0
100
AcDbBlockBegin
  2
*D12
 70
     1
 10
0.0
 20
0.0
 30
0.0
  3
*D12
  1

  0
LINE
  5
BF7
330
BBF
100
AcDbEntity
  8
0
 62
     0
440
 16777216
370
     9
100
AcDbLine
 10
1770.531670818324
 20
-848.08182688963
 30
0.0
 11
1770.531670818324
 21
-915.6059376527863
 31
0.0
  0
LINE
  5
BF8
330
BBF
100
AcDbEntity
  8
0
 62
     0
440
 16777216
370
     9
100
AcDbLine
 10
1970.531670818326
 20
-848.08182688963
 30
0.0
 11
1970.531670818326
 21
-915.6059376527863
 31
0.0
  0
LINE
  5
BF9
330
BBF
100
AcDbEntity
  8
0
 62
     0
440
 16777216
370
     9
100
AcDbLine
 10
1778.531670818324
 20
-914.3559376527864
 30
0.0
 11
1962.531670818326
 21
-914.3559376527864
 31
0.0
  0
INSERT
  5
BFA
330
BBF
100
AcDbEntity
  8
0
 62
     0
440
 16777216
370
     9
100
AcDbBlockReference
  2
_Dot
 10
1770.531670818324
 20
-914.3559376527864
 30
0.0
 41
8.0
 42
8.0
 43
8.0
 50
180.0
  0
INSERT
  5
BFB
330
BBF
100
AcDbEntity
  8
0
 62
     0
440
 16777216
370
     9
100
AcDbBlockReference
  2
_Dot
 10
1970.531670818326
 20
-914.3559376527864
 30
0.0
 41
8.0
 42
8.0
 43
8.0
  0
MTEXT
  5
BFC
330
BBF
100
AcDbEntity
  8
0
 62
     0
440
 16777216
100
AcDbMText
 10
1870.531670818325
 20
-899.1444778983526
 30
0.0
 40
20.0
 41
0.0
 46
0.0
 71
     5
 72
     1
  1
120 - 200 
  7
ARIAL
 73
     1
 44
1.0
  0
POINT
  5
BFD
330
BBF
100
AcDbEntity
  8
Defpoints
 62
     0
440
 16777216
100
AcDbPoint
 10
1770.531670818324
 20
-818.0818268896301
 30
0.0
  0
POINT
  5
BFE
330
BBF
100
AcDbEntity
  8
Defpoints
 62
     0
440
 16777216
100
AcDbPoint
 10
1970.531670818326
 20
-818.0818268896301
 30
0.0
  0
POINT
  5
BFF
330
BBF
100
AcDbEntity
  8
Defpoints
 62
     0
440
 16777216
100
AcDbPoint
 10
1970.531670818326
 20
-914.3559376527864
 30
0.0
  0
ENDBLK
  5
BC1
330
BBF
100
AcDbEntity
  8
0
100
AcDbBlockEnd
  0
BLOCK
  5
BCC
330
BCB
100
AcDbEntity
  8
0
100
AcDbBlockBegin
  2
*D13
 70
     1
 10
0.0
 20
0.0
 30
0.0
  3
*D13
  1

  0
LINE
  5
C00
330
BCB
100
AcDbEntity
  8
0
 62
     0
440
 16777216
370
     9
100
AcDbLine
 10
2236.191245100706
 20
-794.3463971960921
 30
0.0
 11
2280.203623382055
 21
-794.3463971960921
 31
0.0
  0
LINE
  5
C01
330
BCB
100
AcDbEntity
  8
0
 62
     0
440
 16777216
370
     9
100
AcDbLine
 10
2236.191245100706
 20
-1344.346397196092
 30
0.0
 11
2280.203623382055
 21
-1344.346397196092
 31
0.0
  0
LINE
  5
C02
330
BCB
100
AcDbEntity
  8
0
 62
     0
440
 16777216
370
     9
100
AcDbLine
 10
2278.953623382054
 20
-802.346397196092
 30
0.0
 11
2278.953623382055
 21
-1336.346397196092
 31
0.0
  0
INSERT
  5
C03
330
BCB
100
AcDbEntity
  8
0
 62
     0
440
 16777216
370
     9
100
AcDbBlockReference
  2
_Dot
 10
2278.953623382054
 20
-794.3463971960921
 30
0.0
 41
8.0
 42
8.0
 43
8.0
 50
90.0
  0
INSERT
  5
C04
330
BCB
100
AcDbEntity
  8
0
 62
     0
440
 16777216
370
     9
100
AcDbBlockReference
  2
_Dot
 10
2278.953623382055
 20
-1344.346397196092
 30
0.0
 41
8.0
 42
8.0
 43
8.0
 50
270.0
  0
MTEXT
  5
C05
330
BCB
100
AcDbEntity
  8
0
 62
     0
440
 16777216
100
AcDbMText
 10
2263.735342345219
 20
-1069.346397196093
 30
0.0
 40
20.0
 41
0.0
 46
0.0
 71
     5
 72
     1
  1
550 - 630
  7
ARIAL
 11
0.0000000000000001
 21
1.0
 31
0.0
 73
     1
 44
1.0
  0
POINT
  5
C06
330
BCB
100
AcDbEntity
  8
Defpoints
 62
     0
440
 16777216
100
AcDbPoint
 10
2206.191245100706
 20
-794.3463971960921
 30
0.0
  0
POINT
  5
C07
330
BCB
100
AcDbEntity
  8
Defpoints
 62
     0
440
 16777216
100
AcDbPoint
 10
2206.191245100706
 20
-1344.346397196092
 30
0.0
  0
POINT
  5
C08
330
BCB
100
AcDbEntity
  8
Defpoints
 62
     0
440
 16777216
100
AcDbPoint
 10
2278.953623382055
 20
-1344.346397196092
 30
0.0
  0
ENDBLK
  5
BCD
330
BCB
100
AcDbEntity
  8
0
100
AcDbBlockEnd
  0
BLOCK
  5
BD8
330
BD7
100
AcDbEntity
  8
0
100
AcDbBlockBegin
  2
*D14
 70
     1
 10
0.0
 20
0.0
 30
0.0
  3
*D14
  1

  0
LINE
  5
C09
330
BD7
100
AcDbEntity
  8
0
 62
     0
440
 16777216
370
     9
100
AcDbLine
 10
2266.191245100706
 20
-584.3463971960922
 30
0.0
 11
2339.323050543727
 21
-584.3463971960922
 31
0.0
  0
LINE
  5
C0A
330
BD7
100
AcDbEntity
  8
0
 62
     0
440
 16777216
370
     9
100
AcDbLine
 10
2266.191245100706
 20
-1344.346397196092
 30
0.0
 11
2339.323050543727
 21
-1344.346397196092
 31
0.0
  0
LINE
  5
C0B
330
BD7
100
AcDbEntity
  8
0
 62
     0
440
 16777216
370
     9
100
AcDbLine
 10
2338.073050543727
 20
-592.3463971960918
 30
0.0
 11
2338.073050543727
 21
-1336.346397196092
 31
0.0
  0
INSERT
  5
C0C
330
BD7
100
AcDbEntity
  8
0
 62
     0
440
 16777216
370
     9
100
AcDbBlockReference
  2
_Dot
 10
2338.073050543727
 20
-584.3463971960922
 30
0.0
 41
8.0
 42
8.0
 43
8.0
 50
90.0
  0
INSERT
  5
C0D
330
BD7
100
AcDbEntity
  8
0
 62
     0
440
 16777216
370
     9
100
AcDbBlockReference
  2
_Dot
 10
2338.073050543727
 20
-1344.346397196092
 30
0.0
 41
8.0
 42
8.0
 43
8.0
 50
270.0
  0
MTEXT
  5
C0E
330
BD7
100
AcDbEntity
  8
0
 62
     0
440
 16777216
100
AcDbMText
 10
2322.861590789293
 20
-964.3463971960926
 30
0.0
 40
20.0
 41
0.0
 46
0.0
 71
     5
 72
     1
  1
760
  7
ARIAL
 11
0.0000000000000001
 21
1.0
 31
0.0
 73
     1
 44
1.0
  0
POINT
  5
C0F
330
BD7
100
AcDbEntity
  8
Defpoints
 62
     0
440
 16777216
100
AcDbPoint
 10
2236.191245100706
 20
-584.3463971960922
 30
0.0
  0
POINT
  5
C10
330
BD7
100
AcDbEntity
  8
Defpoints
 62
     0
440
 16777216
100
AcDbPoint
 10
2236.191245100706
 20
-1344.346397196092
 30
0.0
  0
POINT
  5
C11
330
BD7
100
AcDbEntity
  8
Defpoints
 62
     0
440
 16777216
100
AcDbPoint
 10
2338.073050543727
 20
-1344.346397196092
 30
0.0
  0
ENDBLK
  5
BD9
330
BD7
100
AcDbEntity
  8
0
100
AcDbBlockEnd
  0
BLOCK
  5
BE4
330
BE3
100
AcDbEntity
  8
0
100
AcDbBlockBegin
  2
*D15
 70
     1
 10
0.0
 20
0.0
 30
0.0
  3
*D15
  1

  0
LINE
  5
C12
330
BE3
100
AcDbEntity
  8
0
 62
     0
440
 16777216
370
     9
100
AcDbLine
 10
1730.531670818324
 20
-480.6197549430526
 30
0.0
 11
1730.531670818324
 21
-445.7265889212159
 31
0.0
  0
LINE
  5
C13
330
BE3
100
AcDbEntity
  8
0
 62
     0
440
 16777216
370
     9
100
AcDbLine
 10
2010.531670818324
 20
-480.6197549430526
 30
0.0
 11
2010.531670818324
 21
-445.7265889212159
 31
0.0
  0
LINE
  5
C14
330
BE3
100
AcDbEntity
  8
0
 62
     0
440
 16777216
370
     9
100
AcDbLine
 10
1738.531670818324
 20
-446.9765889212159
 30
0.0
 11
2002.531670818324
 21
-446.9765889212159
 31
0.0
  0
INSERT
  5
C15
330
BE3
100
AcDbEntity
  8
0
 62
     0
440
 16777216
370
     9
100
AcDbBlockReference
  2
_Dot
 10
1730.531670818324
 20
-446.9765889212159
 30
0.0
 41
8.0
 42
8.0
 43
8.0
 50
180.0
  0
INSERT
  5
C16
330
BE3
100
AcDbEntity
  8
0
 62
     0
440
 16777216
370
     9
100
AcDbBlockReference
  2
_Dot
 10
2010.531670818324
 20
-446.9765889212159
 30
0.0
 41
8.0
 42
8.0
 43
8.0
  0
MTEXT
  5
C17
330
BE3
100
AcDbEntity
  8
0
 62
     0
440
 16777216
100
AcDbMText
 10
1870.531670818324
 20
-431.7651291667822
 30
0.0
 40
20.0
 41
0.0
 46
0.0
 71
     5
 72
     1
  1
280
  7
ARIAL
 73
     1
 44
1.0
  0
POINT
  5
C18
330
BE3
100
AcDbEntity
  8
Defpoints
 62
     0
440
 16777216
100
AcDbPoint
 10
1730.531670818324
 20
-510.6197549430525
 30
0.0
  0
POINT
  5
C19
330
BE3
100
AcDbEntity
  8
Defpoints
 62
     0
440
 16777216
100
AcDbPoint
 10
2010.531670818324
 20
-510.6197549430525
 30
0.0
  0
POINT
  5
C1A
330
BE3
100
AcDbEntity
  8
Defpoints
 62
     0
440
 16777216
100
AcDbPoint
 10
2010.531670818324
 20
-446.9765889212159
 30
0.0
  0
ENDBLK
  5
BE5
330
BE3
100
AcDbEntity
  8
0
100
AcDbBlockEnd
  0
BLOCK
  5
C6B
330
C68
100
AcDbEntity
  8
0
100
AcDbBlockBegin
  2
A$C13727CD1
 70
     0
 10
0.0
 20
0.0
 30
0.0
  3
A$C13727CD1
  1

  0
LINE
  5
C6C
330
C68
100
AcDbEntity
  8
KK
100
AcDbLine
 10
1.232735039899125
 20
394.9999994494137
 30
0.0
 11
1.232735039899125
 21
4.999999449413735
 31
0.0
  0
LINE
  5
C6D
330
C68
100
AcDbEntity
  8
KK
100
AcDbLine
 10
0.2327350398991257
 20
14.99999944941373
 30
0.0
 11
450.2327350398991
 21
14.99999944941373
 31
0.0
  0
LINE
  5
C6E
330
C68
100
AcDbEntity
  8
KK
100
AcDbLine
 10
5.232735039899124
 20
399.9999994494137
 30
0.0
 11
445.2327350398991
 21
399.9999994494137
 31
0.0
  0
LINE
  5
C6F
330
C68
100
AcDbEntity
  8
KK
100
AcDbLine
 10
5.232735039899124
 20
-0.0000005505862646
 30
0.0
 11
445.2327350398991
 21
-0.0000005505862646
 31
0.0
  0
LINE
  5
C70
330
C68
100
AcDbEntity
  8
KK
100
AcDbLine
 10
0.2327350398991257
 20
394.9999994494137
 30
0.0
 11
0.2327350398991257
 21
4.999999449413735
 31
0.0
  0
LINE
  5
C71
330
C68
100
AcDbEntity
  8
KK
100
AcDbLine
 10
0.2327350398991257
 20
4.999999449413735
 30
0.0
 11
0.2327350398991257
 21
394.9999994494137
 31
0.0
  0
LINE
  5
C72
330
C68
100
AcDbEntity
  8
KK
100
AcDbLine
 10
445.2327350398991
 20
399.9999994494137
 30
0.0
 11
5.232735039899124
 21
399.9999994494137
 31
0.0
  0
LINE
  5
C73
330
C68
100
AcDbEntity
  8
KK
100
AcDbLine
 10
5.232735039899124
 20
399.9999994494137
 30
0.0
 11
445.2327350398991
 21
399.9999994494137
 31
0.0
  0
LINE
  5
C74
330
C68
100
AcDbEntity
  8
KK
100
AcDbLine
 10
445.2327350398991
 20
-0.0000005505862646
 30
0.0
 11
5.232735039899124
 21
-0.0000005505862646
 31
0.0
  0
LINE
  5
C75
330
C68
100
AcDbEntity
  8
KK
100
AcDbLine
 10
450.2327350398991
 20
394.9999994494137
 30
0.0
 11
450.2327350398991
 21
4.999999449413735
 31
0.0
  0
LINE
  5
C76
330
C68
100
AcDbEntity
  8
KK
100
AcDbLine
 10
5.232735039899124
 20
0.9999994494137354
 30
0.0
 11
445.2327350398991
 21
0.9999994494137354
 31
0.0
  0
LINE
  5
C77
330
C68
100
AcDbEntity
  8
KK
100
AcDbLine
 10
449.2327350398991
 20
4.999999449413735
 30
0.0
 11
449.2327350398991
 21
394.9999994494137
 31
0.0
  0
LINE
  5
C78
330
C68
100
AcDbEntity
  8
KK
100
AcDbLine
 10
450.2327350398991
 20
4.999999449413735
 30
0.0
 11
450.2327350398991
 21
394.9999994494137
 31
0.0
  0
LINE
  5
C79
330
C68
100
AcDbEntity
  8
KK
100
AcDbLine
 10
1.232735039899125
 20
14.99999944941373
 30
0.0
 11
449.2327350398991
 21
14.99999944941373
 31
0.0
  0
LINE
  5
C7A
330
C68
100
AcDbEntity
  8
KK
100
AcDbLine
 10
1.232735039899125
 20
14.99999944941373
 30
0.0
 11
1.232735039899125
 21
384.9999994494138
 31
0.0
  0
LINE
  5
C7B
330
C68
100
AcDbEntity
  8
KK
100
AcDbLine
 10
449.2327350398991
 20
384.9999994494138
 30
0.0
 11
1.232735039899125
 21
384.9999994494138
 31
0.0
  0
LINE
  5
C7C
330
C68
100
AcDbEntity
  8
KK
100
AcDbLine
 10
449.2327350398991
 20
384.9999994494138
 30
0.0
 11
449.2327350398991
 21
14.99999944941373
 31
0.0
  0
LINE
  5
C7D
330
C68
100
AcDbEntity
  8
KK
100
AcDbLine
 10
445.2327350398991
 20
398.9999994494137
 30
0.0
 11
5.232735039899124
 21
398.9999994494137
 31
0.0
  0
LINE
  5
C7E
330
C68
100
AcDbEntity
  8
KK
100
AcDbLine
 10
0.2327350398991257
 20
394.9999994494137
 30
0.0
 11
1.232735039899125
 21
394.9999994494137
 31
0.0
  0
LINE
  5
C7F
330
C68
100
AcDbEntity
  8
KK
100
AcDbLine
 10
5.232735039899124
 20
398.9999994494137
 30
0.0
 11
445.2327350398991
 21
398.9999994494137
 31
0.0
  0
LINE
  5
C80
330
C68
100
AcDbEntity
  8
KK
100
AcDbLine
 10
1.232735039899125
 20
384.9999994494138
 30
0.0
 11
1.232735039899125
 21
394.9999994494137
 31
0.0
  0
LINE
  5
C81
330
C68
100
AcDbEntity
  8
KK
100
AcDbLine
 10
1.232735039899125
 20
4.999999449413735
 30
0.0
 11
1.232735039899125
 21
14.99999944941373
 31
0.0
  0
LINE
  5
C82
330
C68
100
AcDbEntity
  8
KK
100
AcDbLine
 10
0.2327350398991257
 20
4.999999449413735
 30
0.0
 11
1.232735039899125
 21
4.999999449413735
 31
0.0
  0
LINE
  5
C83
330
C68
100
AcDbEntity
  8
KK
100
AcDbLine
 10
449.2327350398991
 20
394.9999994494137
 30
0.0
 11
450.2327350398991
 21
394.9999994494137
 31
0.0
  0
LINE
  5
C84
330
C68
100
AcDbEntity
  8
KK
100
AcDbLine
 10
445.2327350398991
 20
398.9999994494137
 30
0.0
 11
445.2327350398991
 21
399.9999994494137
 31
0.0
  0
LINE
  5
C85
330
C68
100
AcDbEntity
  8
KK
100
AcDbLine
 10
5.232735039899124
 20
-0.0000005505862646
 30
0.0
 11
5.232735039899124
 21
0.9999994494137354
 31
0.0
  0
LINE
  5
C86
330
C68
100
AcDbEntity
  8
KK
100
AcDbLine
 10
5.232735039899124
 20
398.9999994494137
 30
0.0
 11
5.232735039899124
 21
399.9999994494137
 31
0.0
  0
LINE
  5
C87
330
C68
100
AcDbEntity
  8
KK
100
AcDbLine
 10
449.2327350398991
 20
14.99999944941373
 30
0.0
 11
449.2327350398991
 21
4.999999449413735
 31
0.0
  0
LINE
  5
C88
330
C68
100
AcDbEntity
  8
KK
100
AcDbLine
 10
445.2327350398991
 20
0.9999994494137354
 30
0.0
 11
5.232735039899124
 21
0.9999994494137354
 31
0.0
  0
LINE
  5
C89
330
C68
100
AcDbEntity
  8
KK
100
AcDbLine
 10
449.2327350398991
 20
4.999999449413735
 30
0.0
 11
450.2327350398991
 21
4.999999449413735
 31
0.0
  0
LINE
  5
C8A
330
C68
100
AcDbEntity
  8
KK
100
AcDbLine
 10
449.2327350398991
 20
394.9999994494137
 30
0.0
 11
449.2327350398991
 21
384.9999994494138
 31
0.0
  0
LINE
  5
C8B
330
C68
100
AcDbEntity
  8
KK
100
AcDbLine
 10
5.232735039899124
 20
399.9999994494137
 30
0.0
 11
5.232735039899124
 21
398.9999994494137
 31
0.0
  0
LINE
  5
C8C
330
C68
100
AcDbEntity
  8
KK
100
AcDbLine
 10
1.232735039899125
 20
4.999999449413735
 30
0.0
 11
0.2327350398991257
 21
4.999999449413735
 31
0.0
  0
LINE
  5
C8D
330
C68
100
AcDbEntity
  8
KK
100
AcDbLine
 10
445.2327350398991
 20
399.9999994494137
 30
0.0
 11
445.2327350398991
 21
398.9999994494137
 31
0.0
  0
LINE
  5
C8E
330
C68
100
AcDbEntity
  8
KK
100
AcDbLine
 10
5.232735039899124
 20
-0.0000005505862646
 30
0.0
 11
5.232735039899124
 21
0.9999994494137354
 31
0.0
  0
LINE
  5
C8F
330
C68
100
AcDbEntity
  8
KK
100
AcDbLine
 10
450.2327350398991
 20
394.9999994494137
 30
0.0
 11
449.2327350398991
 21
394.9999994494137
 31
0.0
  0
LINE
  5
C90
330
C68
100
AcDbEntity
  8
KK
100
AcDbLine
 10
445.2327350398991
 20
-0.0000005505862646
 30
0.0
 11
445.2327350398991
 21
0.9999994494137354
 31
0.0
  0
LINE
  5
C91
330
C68
100
AcDbEntity
  8
KK
100
AcDbLine
 10
450.2327350398991
 20
4.999999449413735
 30
0.0
 11
449.2327350398991
 21
4.999999449413735
 31
0.0
  0
LINE
  5
C92
330
C68
100
AcDbEntity
  8
KK
100
AcDbLine
 10
450.2327350398991
 20
394.9999994494137
 30
0.0
 11
450.2327350398991
 21
384.9999994494138
 31
0.0
  0
LINE
  5
C93
330
C68
100
AcDbEntity
  8
KK
100
AcDbLine
 10
445.2327350398991
 20
-0.0000005505862646
 30
0.0
 11
445.2327350398991
 21
0.9999994494137354
 31
0.0
  0
LINE
  5
C94
330
C68
100
AcDbEntity
  8
KK
100
AcDbLine
 10
1.232735039899125
 20
394.9999994494137
 30
0.0
 11
0.2327350398991257
 21
394.9999994494137
 31
0.0
  0
LINE
  5
C95
330
C68
100
AcDbEntity
  8
KK
100
AcDbLine
 10
1.232735039899125
 20
384.9999994494138
 30
0.0
 11
0.2327350398991257
 21
384.9999994494138
 31
0.0
  0
LINE
  5
C96
330
C68
100
AcDbEntity
  8
KK
100
AcDbLine
 10
450.2327350398991
 20
394.9999994494137
 30
0.0
 11
450.2327350398991
 21
384.9999994494138
 31
0.0
  0
LINE
  5
C97
330
C68
100
AcDbEntity
  8
KK
100
AcDbLine
 10
0.2327350398991257
 20
384.9999994494138
 30
0.0
 11
0.2327350398991257
 21
394.9999994494137
 31
0.0
  0
LINE
  5
C98
330
C68
100
AcDbEntity
  8
KK
100
AcDbLine
 10
450.2327350398991
 20
384.9999994494138
 30
0.0
 11
0.2327350398991257
 21
384.9999994494138
 31
0.0
  0
LINE
  5
C99
330
C68
100
AcDbEntity
  8
KK
100
AcDbLine
 10
0.2327350398991257
 20
384.9999994494138
 30
0.0
 11
0.2327350398991257
 21
394.9999994494137
 31
0.0
  0
LINE
  5
C9A
330
C68
100
AcDbEntity
  8
KK
100
AcDbLine
 10
450.2327350398991
 20
384.9999994494138
 30
0.0
 11
449.2327350398991
 21
384.9999994494138
 31
0.0
  0
LINE
  5
C9B
330
C68
100
AcDbEntity
  8
KK
100
AcDbLine
 10
0.2327350398991257
 20
4.999999449413735
 30
0.0
 11
0.2327350398991257
 21
14.99999944941373
 31
0.0
  0
LINE
  5
C9C
330
C68
100
AcDbEntity
  8
KK
100
AcDbLine
 10
445.2327350398991
 20
-0.0000005505862646
 30
0.0
 11
5.232735039899124
 21
-0.0000005505862646
 31
0.0
  0
LINE
  5
C9D
330
C68
100
AcDbEntity
  8
KK
100
AcDbLine
 10
450.2327350398991
 20
14.99999944941373
 30
0.0
 11
450.2327350398991
 21
4.999999449413735
 31
0.0
  0
LINE
  5
C9E
330
C68
100
AcDbEntity
  8
KK
100
AcDbLine
 10
5.232735039899124
 20
399.9999994494137
 30
0.0
 11
445.2327350398991
 21
399.9999994494137
 31
0.0
  0
LINE
  5
C9F
330
C68
100
AcDbEntity
  8
KK
100
AcDbLine
 10
0.2327350398991257
 20
14.99999944941373
 30
0.0
 11
1.232735039899125
 21
14.99999944941373
 31
0.0
  0
LINE
  5
CA0
330
C68
100
AcDbEntity
  8
KK
100
AcDbLine
 10
450.2327350398991
 20
14.99999944941373
 30
0.0
 11
450.2327350398991
 21
4.999999449413735
 31
0.0
  0
LINE
  5
CA1
330
C68
100
AcDbEntity
  8
KK
100
AcDbLine
 10
445.2327350398991
 20
-0.0000005505862646
 30
0.0
 11
5.232735039899124
 21
-0.0000005505862646
 31
0.0
  0
LINE
  5
CA2
330
C68
100
AcDbEntity
  8
KK
100
AcDbLine
 10
449.2327350398991
 20
14.99999944941373
 30
0.0
 11
450.2327350398991
 21
14.99999944941373
 31
0.0
  0
LINE
  5
CA3
330
C68
100
AcDbEntity
  8
KK
100
AcDbLine
 10
0.2327350398991257
 20
4.999999449413735
 30
0.0
 11
0.2327350398991257
 21
14.99999944941373
 31
0.0
  0
ARC
  5
CA4
330
C68
100
AcDbEntity
  8
KK
100
AcDbCircle
 10
445.2327350398991
 20
4.999999449413735
 30
0.0
 40
4.0
100
AcDbArc
 50
270.0
 51
0.0
  0
ARC
  5
CA5
330
C68
100
AcDbEntity
  8
KK
100
AcDbCircle
 10
445.2327350398991
 20
394.9999994494137
 30
0.0
 40
4.0
100
AcDbArc
 50
0.0
 51
90.0
  0
ARC
  5
CA6
330
C68
100
AcDbEntity
  8
KK
100
AcDbCircle
 10
5.232735039899124
 20
394.9999994494137
 30
0.0
 40
4.0
100
AcDbArc
 50
90.0
 51
180.0
  0
ARC
  5
CA7
330
C68
100
AcDbEntity
  8
KK
100
AcDbCircle
 10
5.232735039899124
 20
4.999999449413735
 30
0.0
 40
4.0
100
AcDbArc
 50
180.0
 51
270.0
  0
ARC
  5
CA8
330
C68
100
AcDbEntity
  8
KK
100
AcDbCircle
 10
5.232735039899124
 20
4.999999449413735
 30
0.0
 40
5.0
100
AcDbArc
 50
180.0
 51
270.0
  0
ARC
  5
CA9
330
C68
100
AcDbEntity
  8
KK
100
AcDbCircle
 10
-5.232735039899124
 20
4.999999449413735
 30
0.0
 40
5.0
210
0.0
220
0.0
230
-1.0
100
AcDbArc
 50
270.0
 51
0.0
  0
ARC
  5
CAA
330
C68
100
AcDbEntity
  8
KK
100
AcDbCircle
 10
-445.2327350398991
 20
4.999999449413735
 30
0.0
 40
5.0
210
0.0
220
0.0
230
-1.0
100
AcDbArc
 50
180.0
 51
270.0
  0
ARC
  5
CAB
330
C68
100
AcDbEntity
  8
KK
100
AcDbCircle
 10
-445.2327350398991
 20
394.9999994494137
 30
0.0
 40
5.0
210
0.0
220
0.0
230
-1.0
100
AcDbArc
 50
90.0
 51
180.0
  0
ARC
  5
CAC
330
C68
100
AcDbEntity
  8
KK
100
AcDbCircle
 10
445.2327350398991
 20
4.999999449413735
 30
0.0
 40
5.0
100
AcDbArc
 50
270.0
 51
0.0
  0
ARC
  5
CAD
330
C68
100
AcDbEntity
  8
KK
100
AcDbCircle
 10
-5.232735039899124
 20
394.9999994494137
 30
0.0
 40
5.0
210
0.0
220
0.0
230
-1.0
100
AcDbArc
 50
0.0
 51
90.0
  0
ARC
  5
CAE
330
C68
100
AcDbEntity
  8
KK
100
AcDbCircle
 10
445.2327350398991
 20
394.9999994494137
 30
0.0
 40
5.0
100
AcDbArc
 50
0.0
 51
90.0
  0
ARC
  5
CAF
330
C68
100
AcDbEntity
  8
KK
100
AcDbCircle
 10
-5.232735039899124
 20
394.9999994494137
 30
0.0
 40
4.0
210
0.0
220
0.0
230
-1.0
100
AcDbArc
 50
0.0
 51
90.0
  0
ARC
  5
CB0
330
C68
100
AcDbEntity
  8
KK
100
AcDbCircle
 10
5.232735039899124
 20
394.9999994494137
 30
0.0
 40
5.0
100
AcDbArc
 50
90.0
 51
180.0
  0
ARC
  5
CB1
330
C68
100
AcDbEntity
  8
KK
100
AcDbCircle
 10
-445.2327350398991
 20
394.9999994494137
 30
0.0
 40
4.0
210
0.0
220
0.0
230
-1.0
100
AcDbArc
 50
90.0
 51
180.0
  0
ARC
  5
CB2
330
C68
100
AcDbEntity
  8
KK
100
AcDbCircle
 10
-5.232735039899124
 20
4.999999449413735
 30
0.0
 40
4.0
210
0.0
220
0.0
230
-1.0
100
AcDbArc
 50
270.0
 51
0.0
  0
ARC
  5
CB3
330
C68
100
AcDbEntity
  8
KK
100
AcDbCircle
 10
-445.2327350398991
 20
4.999999449413735
 30
0.0
 40
4.0
210
0.0
220
0.0
230
-1.0
100
AcDbArc
 50
180.0
 51
270.0
  0
ARC
  5
CB4
330
C68
100
AcDbEntity
  8
KK
100
AcDbCircle
 10
445.2327350398991
 20
394.9999994494137
 30
0.0
 40
5.0
100
AcDbArc
 50
0.0
 51
90.0
  0
ARC
  5
CB5
330
C68
100
AcDbEntity
  8
KK
100
AcDbCircle
 10
5.232735039899124
 20
394.9999994494137
 30
0.0
 40
5.0
100
AcDbArc
 50
90.0
 51
180.0
  0
ARC
  5
CB6
330
C68
100
AcDbEntity
  8
KK
100
AcDbCircle
 10
-445.2327350398991
 20
394.9999994494137
 30
0.0
 40
5.0
210
0.0
220
0.0
230
-1.0
100
AcDbArc
 50
90.0
 51
180.0
  0
ARC
  5
CB7
330
C68
100
AcDbEntity
  8
KK
100
AcDbCircle
 10
-5.232735039899124
 20
394.9999994494137
 30
0.0
 40
5.0
210
0.0
220
0.0
230
-1.0
100
AcDbArc
 50
0.0
 51
90.0
  0
ARC
  5
CB8
330
C68
100
AcDbEntity
  8
KK
100
AcDbCircle
 10
5.232735039899124
 20
4.999999449413735
 30
0.0
 40
5.0
100
AcDbArc
 50
180.0
 51
270.0
  0
ARC
  5
CB9
330
C68
100
AcDbEntity
  8
KK
100
AcDbCircle
 10
445.2327350398991
 20
4.999999449413735
 30
0.0
 40
5.0
100
AcDbArc
 50
270.0
 51
0.0
  0
ARC
  5
CBA
330
C68
100
AcDbEntity
  8
KK
100
AcDbCircle
 10
-5.232735039899124
 20
4.999999449413735
 30
0.0
 40
5.0
210
0.0
220
0.0
230
-1.0
100
AcDbArc
 50
270.0
 51
0.0
  0
ARC
  5
CBB
330
C68
100
AcDbEntity
  8
KK
100
AcDbCircle
 10
-445.2327350398991
 20
4.999999449413735
 30
0.0
 40
5.0
210
0.0
220
0.0
230
-1.0
100
AcDbArc
 50
180.0
 51
270.0
  0
HATCH
  5
CBC
330
C68
100
AcDbEntity
  8
SCHRAFF
440
 33554687
100
AcDbHatch
 10
0.0
 20
0.0
 30
0.0
210
0.0
220
0.0
230
1.0
  2
SOLID,_O
 70
     1
 71
     0
 91
        1
 92
        1
 93
        4
 72
     1
 10
1.697201133938506
 20
398.5355333553453
 11
449.2327350398991
 21
398.5355333553453
 72
     1
 10
449.2327350398991
 20
398.5355333553453
 11
449.2327350398991
 21
384.9999994494138
 72
     1
 10
449.2327350398991
 20
384.9999994494138
 11
1.697201133938506
 21
384.9999994494138
 72
     1
 10
1.697201133938506
 20
384.9999994494138
 11
1.697201133938506
 21
398.5355333553453
 97
        0
 75
     1
 76
     1
 98
        1
 10
561588.986454647
 20
246879.9155539898
450
        1
451
        0
460
0.0
461
0.0
452
        1
462
0.5799999833106995
453
        2
463
0.0
 63
    73
421
 10079334
463
1.0
 63
    73
421
  9750878
470
LINEAR
1001
GradientColor1ACI
1070
    73
1001
ACAD
1010
0.0
1020
0.0
1030
0.0
  0
LWPOLYLINE
  5
CBD
330
C68
100
AcDbEntity
  8
SCHRAFF
100
AcDbPolyline
 90
        4
 70
     1
 43
0.0
 10
1.697201133938506
 20
398.5355333553453
 10
449.2327350398991
 20
398.5355333553453
 10
449.2327350398991
 20
384.9999994494138
 10
1.697201133938506
 20
384.9999994494138
  0
LINE
  5
CBE
330
C68
100
AcDbEntity
  8
KK
100
AcDbLine
 10
5.000501992879434
 20
14.99999944941373
 30
0.0
 11
445.0005019928794
 21
14.99999944941373
 31
0.0
  0
LINE
  5
CBF
330
C68
100
AcDbEntity
  8
KK
100
AcDbLine
 10
445.0005019928794
 20
14.99999944941373
 30
0.0
 11
5.000501992879434
 21
14.99999944941373
 31
0.0
  0
LINE
  5
CC0
330
C68
100
AcDbEntity
  8
KK
100
AcDbLine
 10
5.000501992879434
 20
14.99999944941373
 30
0.0
 11
445.0005019928794
 21
14.99999944941373
 31
0.0
  0
LINE
  5
CC1
330
C68
100
AcDbEntity
  8
KK
100
AcDbLine
 10
449.0005019928794
 20
-0.0000005505862646
 30
0.0
 11
1.000501992879435
 21
-0.0000005505862646
 31
0.0
  0
LINE
  5
CC2
330
C68
100
AcDbEntity
  8
KK
100
AcDbLine
 10
445.0005019928794
 20
13.99999944941373
 30
0.0
 11
5.000501992879434
 21
13.99999944941373
 31
0.0
  0
LINE
  5
CC3
330
C68
100
AcDbEntity
  8
KK
100
AcDbLine
 10
0.0005019928794354
 20
9.999999449413735
 30
0.0
 11
1.000501992879435
 21
9.999999449413735
 31
0.0
  0
LINE
  5
CC4
330
C68
100
AcDbEntity
  8
KK
100
AcDbLine
 10
5.000501992879434
 20
13.99999944941373
 30
0.0
 11
445.0005019928794
 21
13.99999944941373
 31
0.0
  0
LINE
  5
CC5
330
C68
100
AcDbEntity
  8
KK
100
AcDbLine
 10
1.000501992879435
 20
-0.0000005505862646
 30
0.0
 11
1.000501992879435
 21
9.999999449413735
 31
0.0
  0
LINE
  5
CC6
330
C68
100
AcDbEntity
  8
KK
100
AcDbLine
 10
449.0005019928794
 20
9.999999449413735
 30
0.0
 11
450.0005019928794
 21
9.999999449413735
 31
0.0
  0
LINE
  5
CC7
330
C68
100
AcDbEntity
  8
KK
100
AcDbLine
 10
445.0005019928794
 20
13.99999944941373
 30
0.0
 11
445.0005019928794
 21
14.99999944941373
 31
0.0
  0
LINE
  5
CC8
330
C68
100
AcDbEntity
  8
KK
100
AcDbLine
 10
5.000501992879434
 20
13.99999944941373
 30
0.0
 11
5.000501992879434
 21
14.99999944941373
 31
0.0
  0
LINE
  5
CC9
330
C68
100
AcDbEntity
  8
KK
100
AcDbLine
 10
449.0005019928794
 20
9.999999449413735
 30
0.0
 11
449.0005019928794
 21
-0.0000005505862646
 31
0.0
  0
LINE
  5
CCA
330
C68
100
AcDbEntity
  8
KK
100
AcDbLine
 10
5.000501992879434
 20
14.99999944941373
 30
0.0
 11
5.000501992879434
 21
13.99999944941373
 31
0.0
  0
LINE
  5
CCB
330
C68
100
AcDbEntity
  8
KK
100
AcDbLine
 10
445.0005019928794
 20
14.99999944941373
 30
0.0
 11
445.0005019928794
 21
13.99999944941373
 31
0.0
  0
LINE
  5
CCC
330
C68
100
AcDbEntity
  8
KK
100
AcDbLine
 10
450.0005019928794
 20
9.999999449413735
 30
0.0
 11
449.0005019928794
 21
9.999999449413735
 31
0.0
  0
LINE
  5
CCD
330
C68
100
AcDbEntity
  8
KK
100
AcDbLine
 10
450.0005019928794
 20
9.999999449413735
 30
0.0
 11
450.0005019928794
 21
-0.0000005505862646
 31
0.0
  0
LINE
  5
CCE
330
C68
100
AcDbEntity
  8
KK
100
AcDbLine
 10
1.000501992879435
 20
9.999999449413735
 30
0.0
 11
0.0005019928794354
 21
9.999999449413735
 31
0.0
  0
LINE
  5
CCF
330
C68
100
AcDbEntity
  8
KK
100
AcDbLine
 10
1.000501992879435
 20
-0.0000005505862646
 30
0.0
 11
0.0005019928794354
 21
-0.0000005505862646
 31
0.0
  0
LINE
  5
CD0
330
C68
100
AcDbEntity
  8
KK
100
AcDbLine
 10
450.0005019928794
 20
9.999999449413735
 30
0.0
 11
450.0005019928794
 21
-0.0000005505862646
 31
0.0
  0
LINE
  5
CD1
330
C68
100
AcDbEntity
  8
KK
100
AcDbLine
 10
0.0005019928794354
 20
-0.0000005505862646
 30
0.0
 11
0.0005019928794354
 21
9.999999449413735
 31
0.0
  0
LINE
  5
CD2
330
C68
100
AcDbEntity
  8
KK
100
AcDbLine
 10
450.0005019928794
 20
-0.0000005505862646
 30
0.0
 11
0.0005019928794354
 21
-0.0000005505862646
 31
0.0
  0
LINE
  5
CD3
330
C68
100
AcDbEntity
  8
KK
100
AcDbLine
 10
0.0005019928794354
 20
-0.0000005505862646
 30
0.0
 11
0.0005019928794354
 21
9.999999449413735
 31
0.0
  0
LINE
  5
CD4
330
C68
100
AcDbEntity
  8
KK
100
AcDbLine
 10
450.0005019928794
 20
-0.0000005505862646
 30
0.0
 11
449.0005019928794
 21
-0.0000005505862646
 31
0.0
  0
LINE
  5
CD5
330
C68
100
AcDbEntity
  8
KK
100
AcDbLine
 10
5.000501992879434
 20
14.99999944941373
 30
0.0
 11
445.0005019928794
 21
14.99999944941373
 31
0.0
  0
ARC
  5
CD6
330
C68
100
AcDbEntity
  8
KK
100
AcDbCircle
 10
445.0005019928794
 20
9.999999449413735
 30
0.0
 40
4.0
100
AcDbArc
 50
0.0
 51
90.0
  0
ARC
  5
CD7
330
C68
100
AcDbEntity
  8
KK
100
AcDbCircle
 10
5.000501992879434
 20
9.999999449413735
 30
0.0
 40
4.0
100
AcDbArc
 50
90.0
 51
180.0
  0
ARC
  5
CD8
330
C68
100
AcDbEntity
  8
KK
100
AcDbCircle
 10
-445.0005019928794
 20
9.999999449413735
 30
0.0
 40
5.0
210
0.0
220
0.0
230
-1.0
100
AcDbArc
 50
90.0
 51
180.0
  0
ARC
  5
CD9
330
C68
100
AcDbEntity
  8
KK
100
AcDbCircle
 10
-5.000501992879434
 20
9.999999449413735
 30
0.0
 40
5.0
210
0.0
220
0.0
230
-1.0
100
AcDbArc
 50
0.0
 51
90.0
  0
ARC
  5
CDA
330
C68
100
AcDbEntity
  8
KK
100
AcDbCircle
 10
445.0005019928794
 20
9.999999449413735
 30
0.0
 40
5.0
100
AcDbArc
 50
0.0
 51
90.0
  0
ARC
  5
CDB
330
C68
100
AcDbEntity
  8
KK
100
AcDbCircle
 10
-5.000501992879434
 20
9.999999449413735
 30
0.0
 40
4.0
210
0.0
220
0.0
230
-1.0
100
AcDbArc
 50
0.0
 51
90.0
  0
ARC
  5
CDC
330
C68
100
AcDbEntity
  8
KK
100
AcDbCircle
 10
5.000501992879434
 20
9.999999449413735
 30
0.0
 40
5.0
100
AcDbArc
 50
90.0
 51
180.0
  0
ARC
  5
CDD
330
C68
100
AcDbEntity
  8
KK
100
AcDbCircle
 10
-445.0005019928794
 20
9.999999449413735
 30
0.0
 40
4.0
210
0.0
220
0.0
230
-1.0
100
AcDbArc
 50
90.0
 51
180.0
  0
ARC
  5
CDE
330
C68
100
AcDbEntity
  8
KK
100
AcDbCircle
 10
445.0005019928794
 20
9.999999449413735
 30
0.0
 40
5.0
100
AcDbArc
 50
0.0
 51
90.0
  0
ARC
  5
CDF
330
C68
100
AcDbEntity
  8
KK
100
AcDbCircle
 10
5.000501992879434
 20
9.999999449413735
 30
0.0
 40
5.0
100
AcDbArc
 50
90.0
 51
180.0
  0
ARC
  5
CE0
330
C68
100
AcDbEntity
  8
KK
100
AcDbCircle
 10
-445.0005019928794
 20
9.999999449413735
 30
0.0
 40
5.0
210
0.0
220
0.0
230
-1.0
100
AcDbArc
 50
90.0
 51
180.0
  0
ARC
  5
CE1
330
C68
100
AcDbEntity
  8
KK
100
AcDbCircle
 10
-5.000501992879434
 20
9.999999449413735
 30
0.0
 40
5.0
210
0.0
220
0.0
230
-1.0
100
AcDbArc
 50
0.0
 51
90.0
  0
HATCH
  5
CE2
330
C68
100
AcDbEntity
  8
SCHRAFF
440
 33554687
100
AcDbHatch
 10
0.0
 20
0.0
 30
0.0
210
0.0
220
0.0
230
1.0
  2
SOLID,_O
 70
     1
 71
     0
 91
        1
 92
        1
 93
        4
 72
     1
 10
1.464968086918815
 20
13.53553335534525
 11
449.0005019928794
 21
13.53553335534525
 72
     1
 10
449.0005019928794
 20
13.53553335534525
 11
449.0005019928794
 21
-0.0000005505862646
 72
     1
 10
449.0005019928794
 20
-0.0000005505862646
 11
1.464968086918815
 21
-0.0000005505862646
 72
     1
 10
1.464968086918815
 20
-0.0000005505862646
 11
1.464968086918815
 21
13.53553335534525
 97
        0
 75
     1
 76
     1
 98
        1
 10
561588.7542215999
 20
246494.9155539899
450
        1
451
        0
460
0.0
461
0.0
452
        1
462
0.5799999833106995
453
        2
463
0.0
 63
    73
421
 10079334
463
1.0
 63
    73
421
  9750878
470
LINEAR
1001
GradientColor1ACI
1070
    73
1001
ACAD
1010
0.0
1020
0.0
1030
0.0
  0
LWPOLYLINE
  5
CE3
330
C68
100
AcDbEntity
  8
SCHRAFF
100
AcDbPolyline
 90
        4
 70
     1
 43
0.0
 10
1.464968086918815
 20
13.53553335534525
 10
449.0005019928794
 20
13.53553335534525
 10
449.0005019928794
 20
-0.0000005505862646
 10
1.464968086918815
 20
-0.0000005505862646
  0
HATCH
  5
CE4
330
C68
100
AcDbEntity
  8
SCHRAFF
440
 33554687
100
AcDbHatch
 10
0.0
 20
0.0
 30
0.0
210
0.0
220
0.0
230
1.0
  2
SOLID,_O
 70
     1
 71
     0
 91
        1
 92
        1
 93
        4
 72
     1
 10
1.697201133938506
 20
384.9999994494138
 11
449.2327350398991
 21
384.9999994494138
 72
     1
 10
449.2327350398991
 20
384.9999994494138
 11
449.2327350398991
 21
14.99999944941373
 72
     1
 10
449.2327350398991
 20
14.99999944941373
 11
1.697201133938506
 21
14.99999944941373
 72
     1
 10
1.697201133938506
 20
14.99999944941373
 11
1.697201133938506
 21
384.9999994494138
 97
        0
 75
     1
 76
     1
 98
        1
 10
561588.986454647
 20
246879.9155539898
450
        1
451
        0
460
0.0
461
0.0
452
        1
462
0.7400000095367432
453
        2
463
0.0
 63
   254
421
 14079702
463
1.0
 63
     9
421
 12434877
470
INVCYLINDER
1001
GradientColor1ACI
1070
   254
1001
ACAD
1010
0.0
1020
0.0
1030
0.0
  0
LWPOLYLINE
  5
CE5
330
C68
100
AcDbEntity
  8
SCHRAFF
100
AcDbPolyline
 90
        4
 70
     1
 43
0.0
 10
1.697201133938506
 20
384.9999994494138
 10
449.2327350398991
 20
384.9999994494138
 10
449.2327350398991
 20
14.99999944941373
 10
1.697201133938506
 20
14.99999944941373
  0
LINE
  5
CE6
330
C68
100
AcDbEntity
  8
KK
100
AcDbLine
 10
65.36807420046534
 20
153.8798863082193
 30
0.0
 11
299.542074204539
 21
306.279170795111
 31
0.0
  0
LINE
  5
CE7
330
C68
100
AcDbEntity
  8
KK
100
AcDbLine
 10
187.9010282438248
 20
167.4867741829948
 30
0.0
 11
422.0750282478983
 21
319.8860586698866
 31
0.0
  0
LINE
  5
CE8
330
C68
100
AcDbEntity
  8
KK
100
AcDbLine
 10
73.53599337930791
 20
31.4159497176297
 30
0.0
 11
307.7099933833815
 21
183.8152342045214
 31
0.0
  0
ENDBLK
  5
CE9
330
C68
100
AcDbEntity
  8
0
100
AcDbBlockEnd
  0
BLOCK
  5
CED
330
CEA
100
AcDbEntity
  8
0
100
AcDbBlockBegin
  2
A$C16DB7243
 70
     0
 10
0.0
 20
0.0
 30
0.0
  3
A$C16DB7243
  1

  0
LINE
  5
CEE
330
CEA
100
AcDbEntity
  8
KK
100
AcDbLine
 10
-0.0000007499475032
 20
15.00000128449755
 30
0.0
 11
849.9999992500525
 21
15.00000128449755
 31
0.0
  0
LINE
  5
CEF
330
CEA
100
AcDbEntity
  8
KK
100
AcDbLine
 10
849.9999992500525
 20
395.0000012844975
 30
0.0
 11
849.9999992500525
 21
5.000001284497556
 31
0.0
  0
LINE
  5
CF0
330
CEA
100
AcDbEntity
  8
KK
100
AcDbLine
 10
844.9999992500524
 20
0.0000012844975572
 30
0.0
 11
4.999999250052495
 21
0.0000012844975572
 31
0.0
  0
LINE
  5
CF1
330
CEA
100
AcDbEntity
  8
KK
100
AcDbLine
 10
-0.0000007499475032
 20
5.000001284497556
 30
0.0
 11
-0.0000007499475032
 21
395.0000012844975
 31
0.0
  0
LINE
  5
CF2
330
CEA
100
AcDbEntity
  8
KK
100
AcDbLine
 10
844.9999992500524
 20
400.0000012844974
 30
0.0
 11
4.999999250052495
 21
400.0000012844974
 31
0.0
  0
LINE
  5
CF3
330
CEA
100
AcDbEntity
  8
KK
100
AcDbLine
 10
4.999999250052495
 20
400.0000012844974
 30
0.0
 11
844.9999992500524
 21
400.0000012844974
 31
0.0
  0
LINE
  5
CF4
330
CEA
100
AcDbEntity
  8
KK
100
AcDbLine
 10
849.9999992500525
 20
5.000001284497556
 30
0.0
 11
849.9999992500525
 21
395.0000012844975
 31
0.0
  0
LINE
  5
CF5
330
CEA
100
AcDbEntity
  8
KK
100
AcDbLine
 10
-0.0000007499475032
 20
395.0000012844975
 30
0.0
 11
-0.0000007499475032
 21
5.000001284497556
 31
0.0
  0
LINE
  5
CF6
330
CEA
100
AcDbEntity
  8
KK
100
AcDbLine
 10
4.999999250052495
 20
0.0000012844975572
 30
0.0
 11
844.9999992500524
 21
0.0000012844975572
 31
0.0
  0
LINE
  5
CF7
330
CEA
100
AcDbEntity
  8
KK
100
AcDbLine
 10
4.999999250052495
 20
1.000001284497556
 30
0.0
 11
844.9999992500524
 21
1.000001284497556
 31
0.0
  0
LINE
  5
CF8
330
CEA
100
AcDbEntity
  8
KK
100
AcDbLine
 10
848.9999992500525
 20
5.000001284497556
 30
0.0
 11
848.9999992500525
 21
395.0000012844975
 31
0.0
  0
LINE
  5
CF9
330
CEA
100
AcDbEntity
  8
KK
100
AcDbLine
 10
844.9999992500524
 20
399.0000012844975
 30
0.0
 11
4.999999250052495
 21
399.0000012844975
 31
0.0
  0
LINE
  5
CFA
330
CEA
100
AcDbEntity
  8
KK
100
AcDbLine
 10
0.9999992500524967
 20
395.0000012844975
 30
0.0
 11
0.9999992500524967
 21
5.000001284497556
 31
0.0
  0
LINE
  5
CFB
330
CEA
100
AcDbEntity
  8
KK
100
AcDbLine
 10
0.9999992500524967
 20
15.00000128449755
 30
0.0
 11
848.9999992500525
 21
15.00000128449755
 31
0.0
  0
LINE
  5
CFC
330
CEA
100
AcDbEntity
  8
KK
100
AcDbLine
 10
0.9999992500524967
 20
15.00000128449755
 30
0.0
 11
0.9999992500524967
 21
385.0000012844976
 31
0.0
  0
LINE
  5
CFD
330
CEA
100
AcDbEntity
  8
KK
100
AcDbLine
 10
848.9999992500525
 20
385.0000012844976
 30
0.0
 11
0.9999992500524967
 21
385.0000012844976
 31
0.0
  0
LINE
  5
CFE
330
CEA
100
AcDbEntity
  8
KK
100
AcDbLine
 10
848.9999992500525
 20
385.0000012844976
 30
0.0
 11
848.9999992500525
 21
15.00000128449755
 31
0.0
  0
LINE
  5
CFF
330
CEA
100
AcDbEntity
  8
KK
100
AcDbLine
 10
4.999999250052495
 20
399.0000012844975
 30
0.0
 11
4.999999250052495
 21
400.0000012844974
 31
0.0
  0
LINE
  5
D00
330
CEA
100
AcDbEntity
  8
KK
100
AcDbLine
 10
844.9999992500524
 20
399.0000012844975
 30
0.0
 11
844.9999992500524
 21
400.0000012844974
 31
0.0
  0
LINE
  5
D01
330
CEA
100
AcDbEntity
  8
KK
100
AcDbLine
 10
4.999999250052495
 20
399.0000012844975
 30
0.0
 11
844.9999992500524
 21
399.0000012844975
 31
0.0
  0
LINE
  5
D02
330
CEA
100
AcDbEntity
  8
KK
100
AcDbLine
 10
0.9999992500524967
 20
385.0000012844976
 30
0.0
 11
0.9999992500524967
 21
395.0000012844975
 31
0.0
  0
LINE
  5
D03
330
CEA
100
AcDbEntity
  8
KK
100
AcDbLine
 10
0.9999992500524967
 20
5.000001284497556
 30
0.0
 11
0.9999992500524967
 21
15.00000128449755
 31
0.0
  0
LINE
  5
D04
330
CEA
100
AcDbEntity
  8
KK
100
AcDbLine
 10
-0.0000007499475032
 20
5.000001284497556
 30
0.0
 11
0.9999992500524967
 21
5.000001284497556
 31
0.0
  0
LINE
  5
D05
330
CEA
100
AcDbEntity
  8
KK
100
AcDbLine
 10
-0.0000007499475032
 20
395.0000012844975
 30
0.0
 11
0.9999992500524967
 21
395.0000012844975
 31
0.0
  0
LINE
  5
D06
330
CEA
100
AcDbEntity
  8
KK
100
AcDbLine
 10
4.999999250052495
 20
0.0000012844975572
 30
0.0
 11
4.999999250052495
 21
1.000001284497556
 31
0.0
  0
LINE
  5
D07
330
CEA
100
AcDbEntity
  8
KK
100
AcDbLine
 10
848.9999992500525
 20
395.0000012844975
 30
0.0
 11
849.9999992500525
 21
395.0000012844975
 31
0.0
  0
LINE
  5
D08
330
CEA
100
AcDbEntity
  8
KK
100
AcDbLine
 10
848.9999992500525
 20
15.00000128449755
 30
0.0
 11
848.9999992500525
 21
5.000001284497556
 31
0.0
  0
LINE
  5
D09
330
CEA
100
AcDbEntity
  8
KK
100
AcDbLine
 10
844.9999992500524
 20
1.000001284497556
 30
0.0
 11
4.999999250052495
 21
1.000001284497556
 31
0.0
  0
LINE
  5
D0A
330
CEA
100
AcDbEntity
  8
KK
100
AcDbLine
 10
848.9999992500525
 20
5.000001284497556
 30
0.0
 11
849.9999992500525
 21
5.000001284497556
 31
0.0
  0
LINE
  5
D0B
330
CEA
100
AcDbEntity
  8
KK
100
AcDbLine
 10
4.999999250052495
 20
400.0000012844974
 30
0.0
 11
4.999999250052495
 21
399.0000012844975
 31
0.0
  0
LINE
  5
D0C
330
CEA
100
AcDbEntity
  8
KK
100
AcDbLine
 10
848.9999992500525
 20
395.0000012844975
 30
0.0
 11
848.9999992500525
 21
385.0000012844976
 31
0.0
  0
LINE
  5
D0D
330
CEA
100
AcDbEntity
  8
KK
100
AcDbLine
 10
0.9999992500524967
 20
5.000001284497556
 30
0.0
 11
-0.0000007499475032
 21
5.000001284497556
 31
0.0
  0
LINE
  5
D0E
330
CEA
100
AcDbEntity
  8
KK
100
AcDbLine
 10
844.9999992500524
 20
400.0000012844974
 30
0.0
 11
844.9999992500524
 21
399.0000012844975
 31
0.0
  0
LINE
  5
D0F
330
CEA
100
AcDbEntity
  8
KK
100
AcDbLine
 10
4.999999250052495
 20
0.0000012844975572
 30
0.0
 11
4.999999250052495
 21
1.000001284497556
 31
0.0
  0
LINE
  5
D10
330
CEA
100
AcDbEntity
  8
KK
100
AcDbLine
 10
0.9999992500524967
 20
395.0000012844975
 30
0.0
 11
-0.0000007499475032
 21
395.0000012844975
 31
0.0
  0
LINE
  5
D11
330
CEA
100
AcDbEntity
  8
KK
100
AcDbLine
 10
844.9999992500524
 20
0.0000012844975572
 30
0.0
 11
844.9999992500524
 21
1.000001284497556
 31
0.0
  0
LINE
  5
D12
330
CEA
100
AcDbEntity
  8
KK
100
AcDbLine
 10
849.9999992500525
 20
5.000001284497556
 30
0.0
 11
848.9999992500525
 21
5.000001284497556
 31
0.0
  0
LINE
  5
D13
330
CEA
100
AcDbEntity
  8
KK
100
AcDbLine
 10
849.9999992500525
 20
395.0000012844975
 30
0.0
 11
849.9999992500525
 21
385.0000012844976
 31
0.0
  0
LINE
  5
D14
330
CEA
100
AcDbEntity
  8
KK
100
AcDbLine
 10
4.999999250052495
 20
400.0000012844974
 30
0.0
 11
844.9999992500524
 21
400.0000012844974
 31
0.0
  0
LINE
  5
D15
330
CEA
100
AcDbEntity
  8
KK
100
AcDbLine
 10
-0.0000007499475032
 20
385.0000012844976
 30
0.0
 11
-0.0000007499475032
 21
395.0000012844975
 31
0.0
  0
LINE
  5
D16
330
CEA
100
AcDbEntity
  8
KK
100
AcDbLine
 10
0.9999992500524967
 20
385.0000012844976
 30
0.0
 11
-0.0000007499475032
 21
385.0000012844976
 31
0.0
  0
LINE
  5
D17
330
CEA
100
AcDbEntity
  8
KK
100
AcDbLine
 10
849.9999992500525
 20
385.0000012844976
 30
0.0
 11
848.9999992500525
 21
385.0000012844976
 31
0.0
  0
LINE
  5
D18
330
CEA
100
AcDbEntity
  8
KK
100
AcDbLine
 10
849.9999992500525
 20
395.0000012844975
 30
0.0
 11
849.9999992500525
 21
385.0000012844976
 31
0.0
  0
LINE
  5
D19
330
CEA
100
AcDbEntity
  8
KK
100
AcDbLine
 10
849.9999992500525
 20
395.0000012844975
 30
0.0
 11
848.9999992500525
 21
395.0000012844975
 31
0.0
  0
LINE
  5
D1A
330
CEA
100
AcDbEntity
  8
KK
100
AcDbLine
 10
849.9999992500525
 20
385.0000012844976
 30
0.0
 11
-0.0000007499475032
 21
385.0000012844976
 31
0.0
  0
LINE
  5
D1B
330
CEA
100
AcDbEntity
  8
KK
100
AcDbLine
 10
844.9999992500524
 20
0.0000012844975572
 30
0.0
 11
844.9999992500524
 21
1.000001284497556
 31
0.0
  0
LINE
  5
D1C
330
CEA
100
AcDbEntity
  8
KK
100
AcDbLine
 10
-0.0000007499475032
 20
5.000001284497556
 30
0.0
 11
-0.0000007499475032
 21
15.00000128449755
 31
0.0
  0
LINE
  5
D1D
330
CEA
100
AcDbEntity
  8
KK
100
AcDbLine
 10
-0.0000007499475032
 20
385.0000012844976
 30
0.0
 11
-0.0000007499475032
 21
395.0000012844975
 31
0.0
  0
LINE
  5
D1E
330
CEA
100
AcDbEntity
  8
KK
100
AcDbLine
 10
849.9999992500525
 20
15.00000128449755
 30
0.0
 11
849.9999992500525
 21
5.000001284497556
 31
0.0
  0
LINE
  5
D1F
330
CEA
100
AcDbEntity
  8
KK
100
AcDbLine
 10
848.9999992500525
 20
15.00000128449755
 30
0.0
 11
849.9999992500525
 21
15.00000128449755
 31
0.0
  0
LINE
  5
D20
330
CEA
100
AcDbEntity
  8
KK
100
AcDbLine
 10
844.9999992500524
 20
0.0000012844975572
 30
0.0
 11
4.999999250052495
 21
0.0000012844975572
 31
0.0
  0
LINE
  5
D21
330
CEA
100
AcDbEntity
  8
KK
100
AcDbLine
 10
849.9999992500525
 20
15.00000128449755
 30
0.0
 11
849.9999992500525
 21
5.000001284497556
 31
0.0
  0
LINE
  5
D22
330
CEA
100
AcDbEntity
  8
KK
100
AcDbLine
 10
-0.0000007499475032
 20
15.00000128449755
 30
0.0
 11
0.9999992500524967
 21
15.00000128449755
 31
0.0
  0
LINE
  5
D23
330
CEA
100
AcDbEntity
  8
KK
100
AcDbLine
 10
-0.0000007499475032
 20
5.000001284497556
 30
0.0
 11
-0.0000007499475032
 21
15.00000128449755
 31
0.0
  0
LINE
  5
D24
330
CEA
100
AcDbEntity
  8
KK
100
AcDbLine
 10
844.9999992500524
 20
0.0000012844975572
 30
0.0
 11
4.999999250052495
 21
0.0000012844975572
 31
0.0
  0
LINE
  5
D25
330
CEA
100
AcDbEntity
  8
KK
100
AcDbLine
 10
4.999999250052495
 20
400.0000012844974
 30
0.0
 11
844.9999992500524
 21
400.0000012844974
 31
0.0
  0
ARC
  5
D26
330
CEA
100
AcDbEntity
  8
KK
100
AcDbCircle
 10
844.9999992500524
 20
5.000001284497556
 30
0.0
 40
4.0
100
AcDbArc
 50
270.0
 51
0.0
  0
ARC
  5
D27
330
CEA
100
AcDbEntity
  8
KK
100
AcDbCircle
 10
844.9999992500524
 20
395.0000012844975
 30
0.0
 40
4.0
100
AcDbArc
 50
0.0
 51
90.0
  0
ARC
  5
D28
330
CEA
100
AcDbEntity
  8
KK
100
AcDbCircle
 10
4.999999250052495
 20
395.0000012844975
 30
0.0
 40
4.0
100
AcDbArc
 50
90.0
 51
180.0
  0
ARC
  5
D29
330
CEA
100
AcDbEntity
  8
KK
100
AcDbCircle
 10
4.999999250052495
 20
5.000001284497556
 30
0.0
 40
4.0
100
AcDbArc
 50
180.0
 51
270.0
  0
ARC
  5
D2A
330
CEA
100
AcDbEntity
  8
KK
100
AcDbCircle
 10
-4.999999250052495
 20
5.000001284497556
 30
0.0
 40
5.0
210
0.0
220
0.0
230
-1.0
100
AcDbArc
 50
270.0
 51
0.0
  0
ARC
  5
D2B
330
CEA
100
AcDbEntity
  8
KK
100
AcDbCircle
 10
-844.9999992500524
 20
5.000001284497556
 30
0.0
 40
5.0
210
0.0
220
0.0
230
-1.0
100
AcDbArc
 50
180.0
 51
270.0
  0
ARC
  5
D2C
330
CEA
100
AcDbEntity
  8
KK
100
AcDbCircle
 10
844.9999992500524
 20
395.0000012844975
 30
0.0
 40
5.0
100
AcDbArc
 50
0.0
 51
90.0
  0
ARC
  5
D2D
330
CEA
100
AcDbEntity
  8
KK
100
AcDbCircle
 10
-844.9999992500524
 20
395.0000012844975
 30
0.0
 40
5.0
210
0.0
220
0.0
230
-1.0
100
AcDbArc
 50
90.0
 51
180.0
  0
ARC
  5
D2E
330
CEA
100
AcDbEntity
  8
KK
100
AcDbCircle
 10
4.999999250052495
 20
395.0000012844975
 30
0.0
 40
5.0
100
AcDbArc
 50
90.0
 51
180.0
  0
ARC
  5
D2F
330
CEA
100
AcDbEntity
  8
KK
100
AcDbCircle
 10
-4.999999250052495
 20
395.0000012844975
 30
0.0
 40
5.0
210
0.0
220
0.0
230
-1.0
100
AcDbArc
 50
0.0
 51
90.0
  0
ARC
  5
D30
330
CEA
100
AcDbEntity
  8
KK
100
AcDbCircle
 10
4.999999250052495
 20
5.000001284497556
 30
0.0
 40
5.0
100
AcDbArc
 50
180.0
 51
270.0
  0
ARC
  5
D31
330
CEA
100
AcDbEntity
  8
KK
100
AcDbCircle
 10
-4.999999250052495
 20
395.0000012844975
 30
0.0
 40
4.0
210
0.0
220
0.0
230
-1.0
100
AcDbArc
 50
0.0
 51
90.0
  0
ARC
  5
D32
330
CEA
100
AcDbEntity
  8
KK
100
AcDbCircle
 10
-844.9999992500524
 20
395.0000012844975
 30
0.0
 40
4.0
210
0.0
220
0.0
230
-1.0
100
AcDbArc
 50
90.0
 51
180.0
  0
ARC
  5
D33
330
CEA
100
AcDbEntity
  8
KK
100
AcDbCircle
 10
844.9999992500524
 20
5.000001284497556
 30
0.0
 40
5.0
100
AcDbArc
 50
270.0
 51
0.0
  0
ARC
  5
D34
330
CEA
100
AcDbEntity
  8
KK
100
AcDbCircle
 10
-4.999999250052495
 20
5.000001284497556
 30
0.0
 40
4.0
210
0.0
220
0.0
230
-1.0
100
AcDbArc
 50
270.0
 51
0.0
  0
ARC
  5
D35
330
CEA
100
AcDbEntity
  8
KK
100
AcDbCircle
 10
-844.9999992500524
 20
5.000001284497556
 30
0.0
 40
4.0
210
0.0
220
0.0
230
-1.0
100
AcDbArc
 50
180.0
 51
270.0
  0
ARC
  5
D36
330
CEA
100
AcDbEntity
  8
KK
100
AcDbCircle
 10
844.9999992500524
 20
395.0000012844975
 30
0.0
 40
5.0
100
AcDbArc
 50
0.0
 51
90.0
  0
ARC
  5
D37
330
CEA
100
AcDbEntity
  8
KK
100
AcDbCircle
 10
4.999999250052495
 20
395.0000012844975
 30
0.0
 40
5.0
100
AcDbArc
 50
90.0
 51
180.0
  0
ARC
  5
D38
330
CEA
100
AcDbEntity
  8
KK
100
AcDbCircle
 10
-844.9999992500524
 20
395.0000012844975
 30
0.0
 40
5.0
210
0.0
220
0.0
230
-1.0
100
AcDbArc
 50
90.0
 51
180.0
  0
ARC
  5
D39
330
CEA
100
AcDbEntity
  8
KK
100
AcDbCircle
 10
-4.999999250052495
 20
395.0000012844975
 30
0.0
 40
5.0
210
0.0
220
0.0
230
-1.0
100
AcDbArc
 50
0.0
 51
90.0
  0
ARC
  5
D3A
330
CEA
100
AcDbEntity
  8
KK
100
AcDbCircle
 10
4.999999250052495
 20
5.000001284497556
 30
0.0
 40
5.0
100
AcDbArc
 50
180.0
 51
270.0
  0
ARC
  5
D3B
330
CEA
100
AcDbEntity
  8
KK
100
AcDbCircle
 10
844.9999992500524
 20
5.000001284497556
 30
0.0
 40
5.0
100
AcDbArc
 50
270.0
 51
0.0
  0
ARC
  5
D3C
330
CEA
100
AcDbEntity
  8
KK
100
AcDbCircle
 10
-4.999999250052495
 20
5.000001284497556
 30
0.0
 40
5.0
210
0.0
220
0.0
230
-1.0
100
AcDbArc
 50
270.0
 51
0.0
  0
ARC
  5
D3D
330
CEA
100
AcDbEntity
  8
KK
100
AcDbCircle
 10
-844.9999992500524
 20
5.000001284497556
 30
0.0
 40
5.0
210
0.0
220
0.0
230
-1.0
100
AcDbArc
 50
180.0
 51
270.0
  0
LWPOLYLINE
  5
D3E
330
CEA
100
AcDbEntity
  8
KK
100
AcDbPolyline
 90
        4
 70
     1
 43
0.0
 10
0.9999992500524967
 20
385.0000012844976
 10
844.9999992500524
 20
385.0000012844976
 10
844.9999992500524
 20
399.0000012844975
 10
0.9999992500524967
 20
399.0000012844975
  0
HATCH
  5
D3F
330
CEA
100
AcDbEntity
  8
SCHRAFF
440
 33554687
100
AcDbHatch
 10
0.0
 20
0.0
 30
0.0
210
0.0
220
0.0
230
1.0
  2
SOLID,_O
 70
     1
 71
     0
 91
        1
 92
        1
 93
        4
 72
     1
 10
0.9999992500524967
 20
385.0000012844976
 11
848.9999992500525
 21
385.0000012844976
 72
     1
 10
848.9999992500525
 20
385.0000012844976
 11
848.9999992500525
 21
15.00000128449755
 72
     1
 10
848.9999992500525
 20
15.00000128449755
 11
0.9999992500524967
 21
15.00000128449755
 72
     1
 10
0.9999992500524967
 20
15.00000128449755
 11
0.9999992500524967
 21
385.0000012844976
 97
        0
 75
     1
 76
     1
 98
        1
 10
561570.8393458076
 20
247547.0319883097
450
        1
451
        0
460
0.0
461
0.0
452
        1
462
0.75
453
        2
463
0.0
 63
   254
421
 14079702
463
1.0
 63
     9
421
 12566463
470
INVCYLINDER
1001
GradientColor1ACI
1070
   254
1001
ACAD
1010
0.0
1020
0.0
1030
0.0
  0
LWPOLYLINE
  5
D40
330
CEA
100
AcDbEntity
  8
SCHRAFF
100
AcDbPolyline
 90
        4
 70
     1
 43
0.0
 10
0.9999992500524967
 20
385.0000012844976
 10
848.9999992500525
 20
385.0000012844976
 10
848.9999992500525
 20
15.00000128449755
 10
0.9999992500524967
 20
15.00000128449755
  0
HATCH
  5
D41
330
CEA
100
AcDbEntity
  8
SCHRAFF
440
 33554687
100
AcDbHatch
 10
0.0
 20
0.0
 30
0.0
210
0.0
220
0.0
230
1.0
  2
SOLID,_O
 70
     1
 71
     0
 91
        1
 92
        1
 93
        4
 72
     1
 10
0.9999992500524967
 20
15.00000128446845
 11
848.535533156013
 21
15.00000128446845
 72
     1
 10
848.535533156013
 20
15.00000128446845
 11
848.535533156013
 21
1.464467378566041
 72
     1
 10
848.535533156013
 20
1.46446737856604
 11
0.9999992500524967
 21
1.46446737856604
 72
     1
 10
0.9999992500524967
 20
1.46446737856604
 11
0.9999992500524967
 21
15.00000128446845
 97
        0
 75
     1
 76
     1
 98
        1
 10
561570.8393458076
 20
247547.0319883097
450
        1
451
        0
460
0.0
461
0.0
452
        1
462
0.5400000214576722
453
        2
463
0.0
 63
    73
421
 10079334
463
1.0
 63
    83
421
  9094223
470
LINEAR
1001
GradientColor1ACI
1070
    73
1001
ACAD
1010
0.0
1020
0.0
1030
0.0
  0
LWPOLYLINE
  5
D42
330
CEA
100
AcDbEntity
  8
SCHRAFF
100
AcDbPolyline
 90
        4
 70
     1
 43
0.0
 10
0.9999992500524967
 20
15.00000128446845
 10
848.535533156013
 20
15.00000128446845
 10
848.535533156013
 20
1.46446737856604
 10
0.9999992500524967
 20
1.46446737856604
  0
HATCH
  5
D43
330
CEA
100
AcDbEntity
  8
SCHRAFF
440
 33554687
100
AcDbHatch
 10
0.0
 20
0.0
 30
0.0
210
0.0
220
0.0
230
1.0
  2
SOLID,_O
 70
     1
 71
     0
 91
        1
 92
        1
 93
        4
 72
     1
 10
0.9999992500524967
 20
398.5738545624481
 11
848.535533156013
 21
398.5738545624481
 72
     1
 10
848.535533156013
 20
398.5738545624481
 11
848.535533156013
 21
385.0383206565457
 72
     1
 10
848.535533156013
 20
385.0383206565457
 11
0.9999992500524967
 21
385.0383206565457
 72
     1
 10
0.9999992500524967
 20
385.0383206565457
 11
0.9999992500524967
 21
398.5738545624481
 97
        0
 75
     1
 76
     1
 98
        1
 10
561570.8393458076
 20
247930.6058415878
450
        1
451
        0
460
0.0
461
0.0
452
        1
462
0.5400000214576722
453
        2
463
0.0
 63
    73
421
 10079334
463
1.0
 63
    83
421
  9094223
470
LINEAR
1001
GradientColor1ACI
1070
    73
1001
ACAD
1010
0.0
1020
0.0
1030
0.0
  0
LINE
  5
D44
330
CEA
100
AcDbEntity
  8
KK
100
AcDbLine
 10
262.761717129848
 20
197.7927812349517
 30
0.0
 11
496.9357171339217
 21
350.1920657218434
 31
0.0
  0
LINE
  5
D45
330
CEA
100
AcDbEntity
  8
KK
100
AcDbLine
 10
385.2946711732075
 20
211.3996691097272
 30
0.0
 11
619.468671177281
 21
363.798953596619
 31
0.0
  0
LINE
  5
D46
330
CEA
100
AcDbEntity
  8
KK
100
AcDbLine
 10
270.9296363086906
 20
75.32884464436211
 30
0.0
 11
505.1036363127641
 21
227.7281291312538
 31
0.0
  0
ENDBLK
  5
D47
330
CEA
100
AcDbEntity
  8
0
100
AcDbBlockEnd
  0
ENDSEC
  0
SECTION
  2
ENTITIES
  0
LINE
  5
D88
330
1F
100
AcDbEntity
  8
KK
 62
     7
420
 16777210
100
AcDbLine
 10
824.4060567021382
 20
107.0634502407482
 30
0.0
 11
816.5060567022315
 21
107.0634502407482
 31
0.0
  0
LINE
  5
D89
330
1F
100
AcDbEntity
  8
KK
 62
     7
420
 16777210
100
AcDbLine
 10
545.9818546280271
 20
107.2634502408181
 30
0.0
 11
542.2318546280271
 21
107.2634502408181
 31
0.0
  0
LINE
  5
D8A
330
1F
100
AcDbEntity
  8
KK
 62
     7
420
 16777210
100
AcDbLine
 10
542.2318546280271
 20
107.2634502408181
 30
0.0
 11
538.481854628027
 21
107.2634502408181
 31
0.0
  0
ARC
  5
D8B
330
1F
100
AcDbEntity
  8
KK
 62
     7
420
 16777210
100
AcDbCircle
 10
824.2060567021848
 20
107.0634502407482
 30
0.0
 40
0.2
100
AcDbArc
 50
0.0
 51
90.0
  0
ARC
  5
D8C
330
1F
100
AcDbEntity
  8
KK
 62
     7
420
 16777210
100
AcDbCircle
 10
538.481854628027
 20
107.0634502407482
 30
0.0
 40
0.2
100
AcDbArc
 50
90.0
 51
180.0
  0
LINE
  5
D96
330
1F
100
AcDbEntity
  8
KK
100
AcDbLine
 10
163.9364212707163
 20
179.8098233108029
 30
0.0
 11
1013.936421270716
 21
179.8098233108029
 31
0.0
  0
LINE
  5
D97
330
1F
100
AcDbEntity
  8
KK
100
AcDbLine
 10
1013.936421270716
 20
559.8098233108028
 30
0.0
 11
1013.936421270716
 21
169.8098233108029
 31
0.0
  0
LINE
  5
D98
330
1F
100
AcDbEntity
  8
KK
100
AcDbLine
 10
1008.936421270716
 20
164.8098233108029
 30
0.0
 11
168.9364212707163
 21
164.8098233108029
 31
0.0
  0
LINE
  5
D99
330
1F
100
AcDbEntity
  8
KK
100
AcDbLine
 10
163.9364212707163
 20
169.8098233108029
 30
0.0
 11
163.9364212707163
 21
559.8098233108028
 31
0.0
  0
LINE
  5
D9A
330
1F
100
AcDbEntity
  8
KK
100
AcDbLine
 10
1008.936421270716
 20
564.8098233108028
 30
0.0
 11
168.9364212707163
 21
564.8098233108028
 31
0.0
  0
LINE
  5
D9B
330
1F
100
AcDbEntity
  8
KK
100
AcDbLine
 10
168.9364212707163
 20
564.8098233108028
 30
0.0
 11
1008.936421270716
 21
564.8098233108028
 31
0.0
  0
LINE
  5
D9C
330
1F
100
AcDbEntity
  8
KK
100
AcDbLine
 10
1013.936421270716
 20
169.8098233108029
 30
0.0
 11
1013.936421270716
 21
559.8098233108028
 31
0.0
  0
LINE
  5
D9D
330
1F
100
AcDbEntity
  8
KK
100
AcDbLine
 10
163.9364212707163
 20
559.8098233108028
 30
0.0
 11
163.9364212707163
 21
169.8098233108029
 31
0.0
  0
LINE
  5
D9E
330
1F
100
AcDbEntity
  8
KK
100
AcDbLine
 10
168.9364212707163
 20
164.8098233108029
 30
0.0
 11
1008.936421270716
 21
164.8098233108029
 31
0.0
  0
LINE
  5
D9F
330
1F
100
AcDbEntity
  8
KK
100
AcDbLine
 10
168.9364212707163
 20
165.8098233108029
 30
0.0
 11
1008.936421270716
 21
165.8098233108029
 31
0.0
  0
LINE
  5
DA0
330
1F
100
AcDbEntity
  8
KK
100
AcDbLine
 10
1012.936421270716
 20
169.8098233108029
 30
0.0
 11
1012.936421270716
 21
559.8098233108028
 31
0.0
  0
LINE
  5
DA1
330
1F
100
AcDbEntity
  8
KK
100
AcDbLine
 10
1008.936421270716
 20
563.8098233108028
 30
0.0
 11
168.9364212707163
 21
563.8098233108028
 31
0.0
  0
LINE
  5
DA2
330
1F
100
AcDbEntity
  8
KK
100
AcDbLine
 10
164.9364212707163
 20
559.8098233108028
 30
0.0
 11
164.9364212707163
 21
169.8098233108029
 31
0.0
  0
LINE
  5
DA3
330
1F
100
AcDbEntity
  8
KK
100
AcDbLine
 10
164.9364212707163
 20
179.8098233108029
 30
0.0
 11
1012.936421270716
 21
179.8098233108029
 31
0.0
  0
LINE
  5
DA4
330
1F
100
AcDbEntity
  8
KK
100
AcDbLine
 10
164.9364212707163
 20
179.8098233108029
 30
0.0
 11
164.9364212707163
 21
549.8098233108028
 31
0.0
  0
LINE
  5
DA5
330
1F
100
AcDbEntity
  8
KK
100
AcDbLine
 10
1012.936421270716
 20
549.8098233108028
 30
0.0
 11
164.9364212707163
 21
549.8098233108028
 31
0.0
  0
LINE
  5
DA6
330
1F
100
AcDbEntity
  8
KK
100
AcDbLine
 10
1012.936421270716
 20
549.8098233108028
 30
0.0
 11
1012.936421270716
 21
179.8098233108029
 31
0.0
  0
LINE
  5
DA7
330
1F
100
AcDbEntity
  8
KK
100
AcDbLine
 10
168.9364212707163
 20
563.8098233108028
 30
0.0
 11
168.9364212707163
 21
564.8098233108028
 31
0.0
  0
LINE
  5
DA8
330
1F
100
AcDbEntity
  8
KK
100
AcDbLine
 10
1008.936421270716
 20
563.8098233108028
 30
0.0
 11
1008.936421270716
 21
564.8098233108028
 31
0.0
  0
LINE
  5
DA9
330
1F
100
AcDbEntity
  8
KK
100
AcDbLine
 10
168.9364212707163
 20
563.8098233108028
 30
0.0
 11
1008.936421270716
 21
563.8098233108028
 31
0.0
  0
LINE
  5
DAA
330
1F
100
AcDbEntity
  8
KK
100
AcDbLine
 10
164.9364212707163
 20
549.8098233108028
 30
0.0
 11
164.9364212707163
 21
559.8098233108028
 31
0.0
  0
LINE
  5
DAB
330
1F
100
AcDbEntity
  8
KK
100
AcDbLine
 10
164.9364212707163
 20
169.8098233108029
 30
0.0
 11
164.9364212707163
 21
179.8098233108029
 31
0.0
  0
LINE
  5
DAC
330
1F
100
AcDbEntity
  8
KK
100
AcDbLine
 10
163.9364212707163
 20
169.8098233108029
 30
0.0
 11
164.9364212707163
 21
169.8098233108029
 31
0.0
  0
LINE
  5
DAD
330
1F
100
AcDbEntity
  8
KK
100
AcDbLine
 10
163.9364212707163
 20
559.8098233108028
 30
0.0
 11
164.9364212707163
 21
559.8098233108028
 31
0.0
  0
LINE
  5
DAE
330
1F
100
AcDbEntity
  8
KK
100
AcDbLine
 10
168.9364212707163
 20
164.8098233108029
 30
0.0
 11
168.9364212707163
 21
165.8098233108029
 31
0.0
  0
LINE
  5
DAF
330
1F
100
AcDbEntity
  8
KK
100
AcDbLine
 10
1012.936421270716
 20
559.8098233108028
 30
0.0
 11
1013.936421270716
 21
559.8098233108028
 31
0.0
  0
LINE
  5
DB0
330
1F
100
AcDbEntity
  8
KK
100
AcDbLine
 10
1012.936421270716
 20
179.8098233108029
 30
0.0
 11
1012.936421270716
 21
169.8098233108029
 31
0.0
  0
LINE
  5
DB1
330
1F
100
AcDbEntity
  8
KK
100
AcDbLine
 10
1008.936421270716
 20
165.8098233108029
 30
0.0
 11
168.9364212707163
 21
165.8098233108029
 31
0.0
  0
LINE
  5
DB2
330
1F
100
AcDbEntity
  8
KK
100
AcDbLine
 10
1012.936421270716
 20
169.8098233108029
 30
0.0
 11
1013.936421270716
 21
169.8098233108029
 31
0.0
  0
LINE
  5
DB3
330
1F
100
AcDbEntity
  8
KK
100
AcDbLine
 10
168.9364212707163
 20
564.8098233108028
 30
0.0
 11
168.9364212707163
 21
563.8098233108028
 31
0.0
  0
LINE
  5
DB4
330
1F
100
AcDbEntity
  8
KK
100
AcDbLine
 10
1012.936421270716
 20
559.8098233108028
 30
0.0
 11
1012.936421270716
 21
549.8098233108028
 31
0.0
  0
LINE
  5
DB5
330
1F
100
AcDbEntity
  8
KK
100
AcDbLine
 10
164.9364212707163
 20
169.8098233108029
 30
0.0
 11
163.9364212707163
 21
169.8098233108029
 31
0.0
  0
LINE
  5
DB6
330
1F
100
AcDbEntity
  8
KK
100
AcDbLine
 10
1008.936421270716
 20
564.8098233108028
 30
0.0
 11
1008.936421270716
 21
563.8098233108028
 31
0.0
  0
LINE
  5
DB7
330
1F
100
AcDbEntity
  8
KK
100
AcDbLine
 10
168.9364212707163
 20
164.8098233108029
 30
0.0
 11
168.9364212707163
 21
165.8098233108029
 31
0.0
  0
LINE
  5
DB8
330
1F
100
AcDbEntity
  8
KK
100
AcDbLine
 10
164.9364212707163
 20
559.8098233108028
 30
0.0
 11
163.9364212707163
 21
559.8098233108028
 31
0.0
  0
LINE
  5
DB9
330
1F
100
AcDbEntity
  8
KK
100
AcDbLine
 10
1008.936421270716
 20
164.8098233108029
 30
0.0
 11
1008.936421270716
 21
165.8098233108029
 31
0.0
  0
LINE
  5
DBA
330
1F
100
AcDbEntity
  8
KK
100
AcDbLine
 10
1013.936421270716
 20
169.8098233108029
 30
0.0
 11
1012.936421270716
 21
169.8098233108029
 31
0.0
  0
LINE
  5
DBB
330
1F
100
AcDbEntity
  8
KK
100
AcDbLine
 10
1013.936421270716
 20
559.8098233108028
 30
0.0
 11
1013.936421270716
 21
549.8098233108028
 31
0.0
  0
LINE
  5
DBC
330
1F
100
AcDbEntity
  8
KK
100
AcDbLine
 10
168.9364212707163
 20
564.8098233108028
 30
0.0
 11
1008.936421270716
 21
564.8098233108028
 31
0.0
  0
LINE
  5
DBD
330
1F
100
AcDbEntity
  8
KK
100
AcDbLine
 10
163.9364212707163
 20
549.8098233108028
 30
0.0
 11
163.9364212707163
 21
559.8098233108028
 31
0.0
  0
LINE
  5
DBE
330
1F
100
AcDbEntity
  8
KK
100
AcDbLine
 10
164.9364212707163
 20
549.8098233108028
 30
0.0
 11
163.9364212707163
 21
549.8098233108028
 31
0.0
  0
LINE
  5
DBF
330
1F
100
AcDbEntity
  8
KK
100
AcDbLine
 10
1013.936421270716
 20
549.8098233108028
 30
0.0
 11
1012.936421270716
 21
549.8098233108028
 31
0.0
  0
LINE
  5
DC0
330
1F
100
AcDbEntity
  8
KK
100
AcDbLine
 10
1013.936421270716
 20
559.8098233108028
 30
0.0
 11
1013.936421270716
 21
549.8098233108028
 31
0.0
  0
LINE
  5
DC1
330
1F
100
AcDbEntity
  8
KK
100
AcDbLine
 10
1013.936421270716
 20
559.8098233108028
 30
0.0
 11
1012.936421270716
 21
559.8098233108028
 31
0.0
  0
LINE
  5
DC2
330
1F
100
AcDbEntity
  8
KK
100
AcDbLine
 10
1013.936421270716
 20
549.8098233108028
 30
0.0
 11
163.9364212707163
 21
549.8098233108028
 31
0.0
  0
LINE
  5
DC3
330
1F
100
AcDbEntity
  8
KK
100
AcDbLine
 10
1008.936421270716
 20
164.8098233108029
 30
0.0
 11
1008.936421270716
 21
165.8098233108029
 31
0.0
  0
LINE
  5
DC4
330
1F
100
AcDbEntity
  8
KK
100
AcDbLine
 10
163.9364212707163
 20
169.8098233108029
 30
0.0
 11
163.9364212707163
 21
179.8098233108029
 31
0.0
  0
LINE
  5
DC5
330
1F
100
AcDbEntity
  8
KK
100
AcDbLine
 10
163.9364212707163
 20
549.8098233108028
 30
0.0
 11
163.9364212707163
 21
559.8098233108028
 31
0.0
  0
LINE
  5
DC6
330
1F
100
AcDbEntity
  8
KK
100
AcDbLine
 10
1013.936421270716
 20
179.8098233108029
 30
0.0
 11
1013.936421270716
 21
169.8098233108029
 31
0.0
  0
LINE
  5
DC7
330
1F
100
AcDbEntity
  8
KK
100
AcDbLine
 10
1012.936421270716
 20
179.8098233108029
 30
0.0
 11
1013.936421270716
 21
179.8098233108029
 31
0.0
  0
LINE
  5
DC8
330
1F
100
AcDbEntity
  8
KK
100
AcDbLine
 10
1008.936421270716
 20
164.8098233108029
 30
0.0
 11
168.9364212707163
 21
164.8098233108029
 31
0.0
  0
LINE
  5
DC9
330
1F
100
AcDbEntity
  8
KK
100
AcDbLine
 10
1013.936421270716
 20
179.8098233108029
 30
0.0
 11
1013.936421270716
 21
169.8098233108029
 31
0.0
  0
LINE
  5
DCA
330
1F
100
AcDbEntity
  8
KK
100
AcDbLine
 10
163.9364212707163
 20
179.8098233108029
 30
0.0
 11
164.9364212707163
 21
179.8098233108029
 31
0.0
  0
LINE
  5
DCB
330
1F
100
AcDbEntity
  8
KK
100
AcDbLine
 10
163.9364212707163
 20
169.8098233108029
 30
0.0
 11
163.9364212707163
 21
179.8098233108029
 31
0.0
  0
LINE
  5
DCC
330
1F
100
AcDbEntity
  8
KK
100
AcDbLine
 10
1008.936421270716
 20
164.8098233108029
 30
0.0
 11
168.9364212707163
 21
164.8098233108029
 31
0.0
  0
LINE
  5
DCD
330
1F
100
AcDbEntity
  8
KK
100
AcDbLine
 10
168.9364212707163
 20
564.8098233108028
 30
0.0
 11
1008.936421270716
 21
564.8098233108028
 31
0.0
  0
ARC
  5
DCE
330
1F
100
AcDbEntity
  8
KK
100
AcDbCircle
 10
1008.936421270716
 20
169.8098233108029
 30
0.0
 40
4.0
100
AcDbArc
 50
270.0
 51
0.0
  0
ARC
  5
DCF
330
1F
100
AcDbEntity
  8
KK
100
AcDbCircle
 10
1008.936421270716
 20
559.8098233108028
 30
0.0
 40
4.0
100
AcDbArc
 50
0.0
 51
90.0
  0
ARC
  5
DD0
330
1F
100
AcDbEntity
  8
KK
100
AcDbCircle
 10
168.9364212707163
 20
559.8098233108028
 30
0.0
 40
4.0
100
AcDbArc
 50
90.0
 51
180.0
  0
ARC
  5
DD1
330
1F
100
AcDbEntity
  8
KK
100
AcDbCircle
 10
168.9364212707163
 20
169.8098233108029
 30
0.0
 40
4.0
100
AcDbArc
 50
180.0
 51
270.0
  0
ARC
  5
DD2
330
1F
100
AcDbEntity
  8
KK
100
AcDbCircle
 10
-168.9364212707163
 20
169.8098233108029
 30
0.0
 40
5.0
210
0.0
220
0.0
230
-1.0
100
AcDbArc
 50
270.0
 51
0.0
  0
ARC
  5
DD3
330
1F
100
AcDbEntity
  8
KK
100
AcDbCircle
 10
-1008.936421270716
 20
169.8098233108029
 30
0.0
 40
5.0
210
0.0
220
0.0
230
-1.0
100
AcDbArc
 50
180.0
 51
270.0
  0
ARC
  5
DD4
330
1F
100
AcDbEntity
  8
KK
100
AcDbCircle
 10
1008.936421270716
 20
559.8098233108028
 30
0.0
 40
5.0
100
AcDbArc
 50
0.0
 51
90.0
  0
ARC
  5
DD5
330
1F
100
AcDbEntity
  8
KK
100
AcDbCircle
 10
-1008.936421270716
 20
559.8098233108028
 30
0.0
 40
5.0
210
0.0
220
0.0
230
-1.0
100
AcDbArc
 50
90.0
 51
180.0
  0
ARC
  5
DD6
330
1F
100
AcDbEntity
  8
KK
100
AcDbCircle
 10
168.9364212707163
 20
559.8098233108028
 30
0.0
 40
5.0
100
AcDbArc
 50
90.0
 51
180.0
  0
ARC
  5
DD7
330
1F
100
AcDbEntity
  8
KK
100
AcDbCircle
 10
-168.9364212707163
 20
559.8098233108028
 30
0.0
 40
5.0
210
0.0
220
0.0
230
-1.0
100
AcDbArc
 50
0.0
 51
90.0
  0
ARC
  5
DD8
330
1F
100
AcDbEntity
  8
KK
100
AcDbCircle
 10
168.9364212707163
 20
169.8098233108029
 30
0.0
 40
5.0
100
AcDbArc
 50
180.0
 51
270.0
  0
ARC
  5
DD9
330
1F
100
AcDbEntity
  8
KK
100
AcDbCircle
 10
-168.9364212707163
 20
559.8098233108028
 30
0.0
 40
4.0
210
0.0
220
0.0
230
-1.0
100
AcDbArc
 50
0.0
 51
90.0
  0
ARC
  5
DDA
330
1F
100
AcDbEntity
  8
KK
100
AcDbCircle
 10
-1008.936421270716
 20
559.8098233108028
 30
0.0
 40
4.0
210
0.0
220
0.0
230
-1.0
100
AcDbArc
 50
90.0
 51
180.0
  0
ARC
  5
DDB
330
1F
100
AcDbEntity
  8
KK
100
AcDbCircle
 10
1008.936421270716
 20
169.8098233108029
 30
0.0
 40
5.0
100
AcDbArc
 50
270.0
 51
0.0
  0
ARC
  5
DDC
330
1F
100
AcDbEntity
  8
KK
100
AcDbCircle
 10
-168.9364212707163
 20
169.8098233108029
 30
0.0
 40
4.0
210
0.0
220
0.0
230
-1.0
100
AcDbArc
 50
270.0
 51
0.0
  0
ARC
  5
DDD
330
1F
100
AcDbEntity
  8
KK
100
AcDbCircle
 10
-1008.936421270716
 20
169.8098233108029
 30
0.0
 40
4.0
210
0.0
220
0.0
230
-1.0
100
AcDbArc
 50
180.0
 51
270.0
  0
ARC
  5
DDE
330
1F
100
AcDbEntity
  8
KK
100
AcDbCircle
 10
1008.936421270716
 20
559.8098233108028
 30
0.0
 40
5.0
100
AcDbArc
 50
0.0
 51
90.0
  0
ARC
  5
DDF
330
1F
100
AcDbEntity
  8
KK
100
AcDbCircle
 10
168.9364212707163
 20
559.8098233108028
 30
0.0
 40
5.0
100
AcDbArc
 50
90.0
 51
180.0
  0
ARC
  5
DE0
330
1F
100
AcDbEntity
  8
KK
100
AcDbCircle
 10
-1008.936421270716
 20
559.8098233108028
 30
0.0
 40
5.0
210
0.0
220
0.0
230
-1.0
100
AcDbArc
 50
90.0
 51
180.0
  0
ARC
  5
DE1
330
1F
100
AcDbEntity
  8
KK
100
AcDbCircle
 10
-168.9364212707163
 20
559.8098233108028
 30
0.0
 40
5.0
210
0.0
220
0.0
230
-1.0
100
AcDbArc
 50
0.0
 51
90.0
  0
ARC
  5
DE2
330
1F
100
AcDbEntity
  8
KK
100
AcDbCircle
 10
168.9364212707163
 20
169.8098233108029
 30
0.0
 40
5.0
100
AcDbArc
 50
180.0
 51
270.0
  0
ARC
  5
DE3
330
1F
100
AcDbEntity
  8
KK
100
AcDbCircle
 10
1008.936421270716
 20
169.8098233108029
 30
0.0
 40
5.0
100
AcDbArc
 50
270.0
 51
0.0
  0
ARC
  5
DE4
330
1F
100
AcDbEntity
  8
KK
100
AcDbCircle
 10
-168.9364212707163
 20
169.8098233108029
 30
0.0
 40
5.0
210
0.0
220
0.0
230
-1.0
100
AcDbArc
 50
270.0
 51
0.0
  0
ARC
  5
DE5
330
1F
100
AcDbEntity
  8
KK
100
AcDbCircle
 10
-1008.936421270716
 20
169.8098233108029
 30
0.0
 40
5.0
210
0.0
220
0.0
230
-1.0
100
AcDbArc
 50
180.0
 51
270.0
  0
LWPOLYLINE
  5
DE6
330
1F
100
AcDbEntity
  8
KK
100
AcDbPolyline
 90
        4
 70
     1
 43
0.0
 10
164.9364212707163
 20
549.8098233108028
 10
1008.936421270716
 20
549.8098233108028
 10
1008.936421270716
 20
563.8098233108028
 10
164.9364212707163
 20
563.8098233108028
  0
HATCH
  5
DE7
330
1F
100
AcDbEntity
  8
SCHRAFF
440
 33554687
100
AcDbHatch
 10
0.0
 20
0.0
 30
0.0
210
0.0
220
0.0
230
1.0
  2
SOLID,_O
 70
     1
 71
     0
 91
        1
 92
        1
 93
        4
 72
     1
 10
164.9364212707163
 20
549.8098233108028
 11
1012.936421270716
 21
549.8098233108028
 72
     1
 10
1012.936421270716
 20
549.8098233108028
 11
1012.936421270716
 21
179.8098233108029
 72
     1
 10
1012.936421270716
 20
179.8098233108029
 11
164.9364212707164
 21
179.8098233108029
 72
     1
 10
164.9364212707163
 20
179.8098233108029
 11
164.9364212707163
 21
549.8098233108028
 97
        0
 75
     1
 76
     1
 98
        1
 10
561734.7757678282
 20
247711.8418103361
450
        1
451
        0
460
0.0
461
0.0
452
        1
462
0.75
453
        2
463
0.0
 63
   254
421
 14079702
463
1.0
 63
     9
421
 12566463
470
INVCYLINDER
1001
GradientColor1ACI
1070
   254
1001
ACAD
1010
0.0
1020
0.0
1030
0.0
  0
HATCH
  5
DE9
330
1F
100
AcDbEntity
  8
SCHRAFF
440
 33554687
100
AcDbHatch
 10
0.0
 20
0.0
 30
0.0
210
0.0
220
0.0
230
1.0
  2
SOLID,_O
 70
     1
 71
     0
 91
        1
 92
        1
 93
        4
 72
     1
 10
164.9364212707163
 20
179.8098233107738
 11
1012.471955176677
 21
179.8098233107738
 72
     1
 10
1012.471955176677
 20
179.8098233107738
 11
1012.471955176677
 21
166.2742894048714
 72
     1
 10
1012.471955176677
 20
166.2742894048714
 11
164.9364212707164
 21
166.2742894048714
 72
     1
 10
164.9364212707163
 20
166.2742894048714
 11
164.9364212707163
 21
179.8098233107738
 97
        0
 75
     1
 76
     1
 98
        1
 10
561734.7757678282
 20
247711.8418103361
450
        1
451
        0
460
0.0
461
0.0
452
        1
462
0.5400000214576722
453
        2
463
0.0
 63
    73
421
 10079334
463
1.0
 63
    83
421
  9094223
470
LINEAR
1001
GradientColor1ACI
1070
    73
1001
ACAD
1010
0.0
1020
0.0
1030
0.0
  0
HATCH
  5
DEB
330
1F
100
AcDbEntity
  8
SCHRAFF
440
 33554687
100
AcDbHatch
 10
0.0
 20
0.0
 30
0.0
210
0.0
220
0.0
230
1.0
  2
SOLID,_O
 70
     1
 71
     0
 91
        1
 92
        1
 93
        4
 72
     1
 10
164.9364212707163
 20
563.3836765887535
 11
1012.471955176677
 21
563.3836765887535
 72
     1
 10
1012.471955176677
 20
563.3836765887535
 11
1012.471955176677
 21
549.8481426828511
 72
     1
 10
1012.471955176677
 20
549.8481426828511
 11
164.9364212707164
 21
549.8481426828511
 72
     1
 10
164.9364212707163
 20
549.8481426828511
 11
164.9364212707163
 21
563.3836765887535
 97
        0
 75
     1
 76
     1
 98
        1
 10
561734.7757678282
 20
248095.415663614
450
        1
451
        0
460
0.0
461
0.0
452
        1
462
0.5400000214576722
453
        2
463
0.0
 63
    73
421
 10079334
463
1.0
 63
    83
421
  9094223
470
LINEAR
1001
GradientColor1ACI
1070
    73
1001
ACAD
1010
0.0
1020
0.0
1030
0.0
  0
LINE
  5
DEC
330
1F
100
AcDbEntity
  8
KK
 62
     7
420
 16777210
100
AcDbLine
 10
211.1723552888227
 20
362.6026032612571
 30
0.0
 11
445.3463552928964
 21
515.0018877481486
 31
0.0
  0
LINE
  5
DED
330
1F
100
AcDbEntity
  8
KK
 62
     7
420
 16777210
100
AcDbLine
 10
271.0068911197136
 20
376.2094911360326
 30
0.0
 11
505.1808911237871
 21
528.6087756229242
 31
0.0
  0
LINE
  5
DEE
330
1F
100
AcDbEntity
  8
KK
 62
     7
420
 16777210
100
AcDbLine
 10
213.4622826115514
 20
283.2177911827273
 30
0.0
 11
447.636282615625
 21
435.6170756696191
 31
0.0
  0
LWPOLYLINE
  5
EC1
330
1F
100
AcDbEntity
  8
Hewi
  6
CUSTOM
 62
    18
420
        0
370
     9
100
AcDbPolyline
 90
       27
 70
     0
 43
0.0
 10
1147.783212822678
 20
323.8098237714485
 10
1146.283212793909
 20
323.8098237714485
 10
1146.283212793909
 20
520.8098215581026
 10
1146.231952922496
 20
521.2597236617352
 10
1146.080800882625
 20
521.6865638418307
 10
1145.837504708274
 20
522.0684623260604
 10
1145.514535729818
 20
522.3858430476089
 10
1145.128449295242
 20
522.6224371118105
 10
1144.69903614516
 20
522.7661167375904
 10
1144.248307942006
 20
522.8095169259481
 10
1143.799368955071
 20
522.7504129888516
 10
1143.375231738656
 20
522.5918345864575
 10
1142.99763751152
 20
522.3419104271265
 10
1138.788257811251
 20
518.8098215805727
 10
1138.145470189235
 20
519.5758660150854
 10
1142.354849889505
 20
523.1079548616394
 10
1142.92124123021
 20
523.4828411006356
 10
1143.55744705483
 20
523.7207087042252
 10
1144.230855535233
 20
523.8093646098709
 10
1144.906947839966
 20
523.7442643273348
 10
1145.551067565088
 20
523.5287448886647
 10
1146.130197216951
 20
523.1738537923624
 10
1146.614650684636
 20
522.6977827100404
 10
1146.979594946162
 20
522.1249349836944
 10
1147.20632300597
 20
521.4846747135516
 10
1147.283212813088
 20
520.8098215581026
 10
1147.783212810757
 20
520.8098215581026
  0
LWPOLYLINE
  5
EC2
330
1F
100
AcDbEntity
  8
Hewi
  6
CUSTOM
 62
    18
420
        0
370
     9
100
AcDbPolyline
 90
       52
 70
     1
 43
0.0
 10
1153.783212937755
 20
167.8573486975865
 10
1153.783212937755
 20
168.8084813101254
 10
1153.783212937755
 20
169.809825501678
 10
1153.783212937755
 20
179.8098253893263
 10
1153.883212939674
 20
179.8098253893263
 10
1153.883212939674
 20
549.8098212322793
 10
1153.783212937755
 20
549.8098212322793
 10
1153.783212937755
 20
559.8098211199267
 10
1153.783212937755
 20
560.8111653114792
 10
1153.783212937755
 20
561.7622979240195
 10
1153.783212937755
 20
562.6155251967684
 10
1153.783212937755
 20
563.3280627515046
 10
1153.783212937755
 20
563.8641809799355
 10
1153.783212937755
 20
564.1969966754536
 10
1153.783212937755
 20
564.3098210693688
 10
1152.73865291307
 20
564.5709610675976
 10
1152.099120202523
 20
564.7033654810388
 10
1151.450918526447
 20
564.7831627514715
 10
1150.798367875565
 20
564.8098210637503
 10
1150.768057884866
 20
564.8098210637503
 10
1150.115507233985
 20
564.7831627514715
 10
1149.467305557909
 20
564.7033654810388
 10
1148.827772847363
 20
564.5709610675976
 10
1147.783212822678
 20
564.3098210693688
 10
1147.783212822678
 20
564.1969966754536
 10
1147.783212822678
 20
563.8641809799355
 10
1147.783212822678
 20
563.3280627515046
 10
1147.783212822678
 20
562.6155251967684
 10
1147.783212822678
 20
561.7622979240195
 10
1147.783212822678
 20
560.8111653114792
 10
1147.783212822678
 20
559.8098211199267
 10
1147.783212822678
 20
169.809825501678
 10
1147.783212822678
 20
168.8084813101254
 10
1147.783212822678
 20
167.8573486975865
 10
1147.783212822678
 20
167.0041214248372
 10
1147.783212822678
 20
166.2915838701015
 10
1147.783212822678
 20
165.75546564167
 10
1147.783212822678
 20
165.4226499461515
 10
1147.783212822678
 20
165.3098255522377
 10
1148.827772847363
 20
165.0486855540089
 10
1149.467305557908
 20
164.9162811405676
 10
1150.115507233985
 20
164.8364838701341
 10
1150.768057884866
 20
164.8098255578557
 10
1150.798367875565
 20
164.8098255578557
 10
1151.450918526447
 20
164.8364838701341
 10
1152.099120202523
 20
164.9162811405676
 10
1152.73865291307
 20
165.0486855540089
 10
1153.783212937755
 20
165.3098255522377
 10
1153.783212937755
 20
165.4226499461515
 10
1153.783212937755
 20
165.75546564167
 10
1153.783212937755
 20
166.2915838701015
 10
1153.783212937755
 20
167.0041214248372
  0
LWPOLYLINE
  5
EC3
330
1F
100
AcDbEntity
  8
Hewi
  6
CUSTOM
 62
    18
420
        0
370
     9
100
AcDbPolyline
 90
        4
 70
     0
 43
0.0
 10
1153.783212937755
 20
174.3098254511205
 10
1153.983212941591
 20
174.3098254511205
 10
1153.983212941591
 20
170.3098254960619
 10
1153.783212937755
 20
170.3098254960619
  0
LWPOLYLINE
  5
EC4
330
1F
100
AcDbEntity
  8
Hewi
  6
CUSTOM
 62
    18
420
        0
370
     9
100
AcDbPolyline
 90
        4
 70
     0
 43
0.0
 10
1147.783212824913
 20
207.8098250747384
 10
1145.383212776647
 20
207.8098250747384
 10
1145.383212776647
 20
267.8098244006238
 10
1147.783212824913
 20
267.8098244006238
  0
ENDSEC
  0
SECTION
  2
OBJECTS
  0
DICTIONARY
  5
C
330
0
100
AcDbDictionary
281
     1
  3
ACAD_CIP_PREVIOUS_PRODUCT_INFO
350
9D0
  3
ACAD_COLOR
350
91
  3
ACAD_DETAILVIEWSTYLE
350
9CC
  3
ACAD_GROUP
350
D
  3
ACAD_LAYOUT
350
93
  3
ACAD_MATERIAL
350
8C
  3
ACAD_MLEADERSTYLE
350
9C8
  3
ACAD_MLINESTYLE
350
17
  3
ACAD_PLOTSETTINGS
350
19
  3
ACAD_PLOTSTYLENAME
350
8A
  3
ACAD_SCALELIST
350
9B6
  3
ACAD_SECTIONVIEWSTYLE
350
9CA
  3
ACAD_TABLESTYLE
350
87
  3
ACAD_VISUALSTYLE
350
2A
  3
ACDB_RECOMPOSE_DATA
350
ECE
  3
AcDbVariableDictionary
350
9D
  0
DICTIONARY
  5
9A
330
2
100
AcDbDictionary
280
     1
281
     1
  3
ACAD_LAYERFILTERS
360
9C
  3
ACAD_LAYERSTATES
360
A15
  3
ACLYDICTIONARY
360
9B
  0
DICTIONARY
  5
DF0
330
10
100
AcDbDictionary
280
     1
281
     1
  3
ADSK_XREC_LAYER_RECONCILED
360
DF1
  0
DICTIONARY
  5
DF2
330
98
100
AcDbDictionary
280
     1
281
     1
  3
ADSK_XREC_LAYER_RECONCILED
360
DF3
  0
DICTIONARY
  5
D49
330
D48
100
AcDbDictionary
280
     1
281
     1
  3
ADSK_XREC_LAYER_RECONCILED
360
DF4
  0
DICTIONARY
  5
D4B
330
D4A
100
AcDbDictionary
280
     1
281
     1
  3
ADSK_XREC_LAYER_RECONCILED
360
DF5
  0
DICTIONARY
  5
BF
330
1F
100
AcDbDictionary
280
     1
281
     1
  3
ACAD_SORTENTS
360
C0
  0
DICTIONARY
  5
C69
330
C68
100
AcDbDictionary
280
     1
281
     1
  3
ACAD_SORTENTS
360
C6A
  0
DICTIONARY
  5
CEB
330
CEA
100
AcDbDictionary
280
     1
281
     1
  3
ACAD_SORTENTS
360
CEC
  0
XRECORD
  5
9D0
102
{ACAD_REACTORS
330
C
102
}
330
C
100
AcDbXrecord
280
     1
300
ACDLT
300
2021
300

  0
DICTIONARY
  5
91
102
{ACAD_REACTORS
330
C
102
}
330
C
100
AcDbDictionary
281
     1
  0
DICTIONARY
  5
9CC
102
{ACAD_REACTORS
330
C
102
}
330
C
100
AcDbDictionary
281
     1
  3
Imperial24
350
9CD
  0
DICTIONARY
  5
D
102
{ACAD_REACTORS
330
C
102
}
330
C
100
AcDbDictionary
281
     1
  0
DICTIONARY
  5
93
102
{ACAD_REACTORS
330
C
102
}
330
C
100
AcDbDictionary
281
     1
  3
Layout1
350
95
  3
Model
350
94
  0
DICTIONARY
  5
8C
102
{ACAD_REACTORS
330
C
102
}
330
C
100
AcDbDictionary
281
     1
  3
ByBlock
350
8E
  3
ByLayer
350
8D
  3
Global
350
8F
  0
DICTIONARY
  5
9C8
102
{ACAD_REACTORS
330
C
102
}
330
C
100
AcDbDictionary
281
     1
  3
Standard
350
9C9
  0
DICTIONARY
  5
17
102
{ACAD_REACTORS
330
C
102
}
330
C
100
AcDbDictionary
281
     1
  3
STANDARD
350
18
  0
DICTIONARY
  5
19
102
{ACAD_REACTORS
330
C
102
}
330
C
100
AcDbDictionary
281
     1
  0
ACDBDICTIONARYWDFLT
  5
8A
102
{ACAD_REACTORS
330
C
102
}
330
C
100
AcDbDictionary
281
     1
  3
Normal
350
8B
100
AcDbDictionaryWithDefault
340
8B
  0
DICTIONARY
  5
9B6
102
{ACAD_REACTORS
330
C
102
}
330
C
100
AcDbDictionary
281
     1
  3
A0
350
9B7
  3
A1
350
9B8
  3
A2
350
9B9
  3
A3
350
9BA
  3
A4
350
9BB
  3
A5
350
9BC
  3
A6
350
9BD
  3
A7
350
9BE
  3
A8
350
9BF
  3
A9
350
9C0
  3
B0
350
9C1
  3
B1
350
9C2
  3
B2
350
9C3
  3
B3
350
9C4
  3
B4
350
9C5
  3
B5
350
9C6
  3
B6
350
9C7
  0
DICTIONARY
  5
9CA
102
{ACAD_REACTORS
330
C
102
}
330
C
100
AcDbDictionary
281
     1
  3
Imperial24
350
9CB
  0
DICTIONARY
  5
87
102
{ACAD_REACTORS
330
C
102
}
330
C
100
AcDbDictionary
281
     1
  3
Standard
350
92
  0
DICTIONARY
  5
2A
102
{ACAD_REACTORS
330
C
102
}
330
C
100
AcDbDictionary
281
     1
  3
2DWIREFRAME
350
2F
  3
3D Hidden
350
90
  3
3D_HIDDEN
350
31
  3
3DWIREFRAME
350
30
  3
BASIC
350
32
  3
BRIGHTEN
350
36
  3
COLORCHANGE
350
3A
  3
CONCEPTUAL
350
34
  3
DIM
350
35
  3
EdgeColorOff
350
9B5
  3
FACEPATTERN
350
39
  3
FLAT
350
2B
  3
FLATWITHEDGES
350
2C
  3
GOURAUD
350
2D
  3
GOURAUDWITHEDGES
350
2E
  3
Hidden
350
9AD
  3
JitterOff
350
9B3
  3
LINEPATTERN
350
38
  3
OverhangOff
350
9B4
  3
REALISTIC
350
33
  3
Shaded
350
9B2
  3
Shaded with edges
350
9B1
  3
Shades of Gray
350
9AE
  3
Sketchy
350
9AF
  3
THICKEN
350
37
  3
Wireframe
350
9AC
  3
X-Ray
350
9B0
  0
XRECORD
  5
ECE
102
{ACAD_REACTORS
330
C
102
}
330
C
100
AcDbXrecord
280
     1
 90
        1
330
92
  0
DICTIONARY
  5
9D
102
{ACAD_REACTORS
330
C
102
}
330
C
100
AcDbDictionary
281
     1
  3
CANNOSCALE
350
C1F
  3
CMLEADERSTYLE
350
C1B
  3
CTABLESTYLE
350
9E
  3
CVIEWDETAILSTYLE
350
C1C
  3
CVIEWSECTIONSTYLE
350
C1D
  3
DIMASSOC
350
A1
  3
INDEXCTL
350
A0
  3
LAYEREVAL
350
C21
  3
LAYERNOTIFY
350
C22
  3
LIGHTINGUNITS
350
C20
  3
MSLTSCALE
350
C1E
  3
SORTENTS
350
9F
  0
DICTIONARY
  5
9C
102
{ACAD_REACTORS
330
9A
102
}
330
9A
100
AcDbDictionary
281
     1
  0
DICTIONARY
  5
A15
102
{ACAD_REACTORS
330
9A
102
}
330
9A
100
AcDbDictionary
281
     1
  0
DICTIONARY
  5
9B
102
{ACAD_REACTORS
330
9A
102
}
330
9A
100
AcDbDictionary
281
     1
1001
ACAD
1000
<All
  0
XRECORD
  5
DF1
102
{ACAD_REACTORS
330
DF0
102
}
330
DF0
100
AcDbXrecord
280
     1
290
     1
  0
XRECORD
  5
DF3
102
{ACAD_REACTORS
330
DF2
102
}
330
DF2
100
AcDbXrecord
280
     1
290
     1
  0
XRECORD
  5
DF4
102
{ACAD_REACTORS
330
D49
102
}
330
D49
100
AcDbXrecord
280
     1
290
     1
  0
XRECORD
  5
DF5
102
{ACAD_REACTORS
330
D4B
102
}
330
D4B
100
AcDbXrecord
280
     1
290
     1
  0
SORTENTSTABLE
  5
C0
102
{ACAD_REACTORS
330
BF
102
}
330
BF
100
AcDbSortentsTable
330
1F
331
D88
  5
DEA
331
D89
  5
DEB
331
D8A
  5
DEC
331
D8B
  5
DED
331
D8C
  5
DEE
331
D96
  5
D89
331
D97
  5
D8A
331
D98
  5
D8B
331
D99
  5
D8C
331
D9A
  5
D96
331
D9B
  5
D97
331
D9C
  5
D98
331
D9D
  5
D99
331
D9E
  5
D9A
331
D9F
  5
D9B
331
DA0
  5
D9C
331
DA1
  5
D9D
331
DA2
  5
D9E
331
DA3
  5
D9F
331
DA4
  5
DA0
331
DA5
  5
DA1
331
DA6
  5
DA2
331
DA7
  5
DA3
331
DA8
  5
DA4
331
DA9
  5
DA5
331
DAA
  5
DA6
331
DAB
  5
DA7
331
DAC
  5
DA8
331
DAD
  5
DA9
331
DAE
  5
DAA
331
DAF
  5
DAB
331
DB0
  5
DAC
331
DB1
  5
DAD
331
DB2
  5
DAE
331
DB3
  5
DAF
331
DB4
  5
DB0
331
DB5
  5
DB1
331
DB6
  5
DB2
331
DB7
  5
DB3
331
DB8
  5
DB4
331
DB9
  5
DB5
331
DBA
  5
DB6
331
DBB
  5
DB7
331
DBC
  5
DB8
331
DBD
  5
DB9
331
DBE
  5
DBA
331
DBF
  5
DBB
331
DC0
  5
DBC
331
DC1
  5
DBD
331
DC2
  5
DBE
331
DC3
  5
DBF
331
DC4
  5
DC0
331
DC5
  5
DC1
331
DC6
  5
DC2
331
DC7
  5
DC3
331
DC8
  5
DC4
331
DC9
  5
DC5
331
DCA
  5
DC6
331
DCB
  5
DC7
331
DCC
  5
DC8
331
DCD
  5
DC9
331
DCE
  5
DCA
331
DCF
  5
DCB
331
DD0
  5
DCC
331
DD1
  5
DCD
331
DD2
  5
DCE
331
DD3
  5
DCF
331
DD4
  5
DD0
331
DD5
  5
DD1
331
DD6
  5
DD2
331
DD7
  5
DD3
331
DD8
  5
DD4
331
DD9
  5
DD5
331
DDA
  5
DD6
331
DDB
  5
DD7
331
DDC
  5
DD8
331
DDD
  5
DD9
331
DDE
  5
DDA
331
DDF
  5
DDB
331
DE0
  5
DDC
331
DE1
  5
DDD
331
DE2
  5
DDE
331
DE3
  5
DDF
331
DE4
  5
DE0
331
DE5
  5
DE1
331
DE6
  5
DE2
331
DE7
  5
412
331
DE9
  5
DE4
331
DEB
  5
DE6
331
DEC
  5
DE7
331
DED
  5
DE8
331
DEE
  5
DE9
  0
SORTENTSTABLE
  5
C6A
102
{ACAD_REACTORS
330
C69
102
}
330
C69
100
AcDbSortentsTable
330
C68
  0
SORTENTSTABLE
  5
CEC
102
{ACAD_REACTORS
330
CEB
102
}
330
CEB
100
AcDbSortentsTable
330
CEA
  0
ACDBDETAILVIEWSTYLE
  5
9CD
102
{ACAD_XDICTIONARY
360
ED1
102
}
102
{ACAD_REACTORS
330
9CC
102
}
330
9CC
100
AcDbModelDocViewStyle
 70
     0
  3
Imperial24
290
     0
100
AcDbDetailViewStyle
 70
     0
 71
     0
 90
        3
 71
     1
340
11
 62
   256
 40
0.24
340
0
 62
   256
 40
0.24
300

 40
0.36
280
     3
 71
     2
340
16
 90
       25
 62
   256
 71
     3
340
11
 62
   256
 40
0.24
 90
        1
 40
0.75
 90
        1
300
%<\AcVar ViewType \f "%tc1">% %<\AcVar ViewDetailId>%\PVARIA %<\AcVar ViewScale \f "%sn">%
 71
     4
340
16
 90
       25
 62
   256
340
16
 90
       25
 62
   256
280
     0
  0
LAYOUT
  5
95
102
{ACAD_REACTORS
330
93
102
}
330
93
100
AcDbPlotSettings
  1

  2
\\druckserv1\AROBBE04
  4

  6

 40
0.0
 41
0.0
 42
0.0
 43
0.0
 44
0.0
 45
0.0
 46
0.0
 47
0.0
 48
0.0
 49
0.0
140
0.0
141
0.0
142
1.0
143
1.0
 70
   688
 72
     0
 73
     0
 74
     5
  7

 75
    16
147
1.0
 76
     0
 77
     2
 78
   300
148
0.0
149
0.0
100
AcDbLayout
  1
Layout1
 70
     1
 71
     1
 10
0.0
 20
0.0
 11
12.0
 21
9.0
 12
0.0
 22
0.0
 32
0.0
 14
1.000000000000000E+20
 24
1.000000000000000E+20
 34
1.000000000000000E+20
 15
-1.000000000000000E+20
 25
-1.000000000000000E+20
 35
-1.000000000000000E+20
146
0.0
 13
0.0
 23
0.0
 33
0.0
 16
1.0
 26
0.0
 36
0.0
 17
0.0
 27
1.0
 37
0.0
 76
     0
330
1B
  0
LAYOUT
  5
94
102
{ACAD_REACTORS
330
93
102
}
330
93
100
AcDbPlotSettings
  1

  2
\\druckserv1\AROBBE04
  4

  6

 40
0.0
 41
0.0
 42
0.0
 43
0.0
 44
0.0
 45
0.0
 46
0.0
 47
0.0
 48
0.0
 49
0.0
140
0.0
141
0.0
142
1.0
143
1.0
 70
  1712
 72
     0
 73
     0
 74
     0
  7

 75
     0
147
1.0
 76
     0
 77
     2
 78
   300
148
0.0
149
0.0
100
AcDbLayout
  1
Model
 70
     1
 71
     0
 10
0.0
 20
0.0
 11
12.0
 21
9.0
 12
0.0
 22
0.0
 32
0.0
 14
0.0
 24
0.0
 34
0.0
 15
0.0
 25
0.0
 35
0.0
146
0.0
 13
0.0
 23
0.0
 33
0.0
 16
1.0
 26
0.0
 36
0.0
 17
0.0
 27
1.0
 37
0.0
 76
     0
330
1F
331
29
  0
MATERIAL
  5
8E
102
{ACAD_XDICTIONARY
360
A5
102
}
102
{ACAD_REACTORS
330
8C
102
}
330
8C
100
AcDbMaterial
  1
ByBlock
  0
MATERIAL
  5
8D
102
{ACAD_XDICTIONARY
360
A3
102
}
102
{ACAD_REACTORS
330
8C
102
}
330
8C
100
AcDbMaterial
  1
ByLayer
  0
MATERIAL
  5
8F
102
{ACAD_XDICTIONARY
360
A7
102
}
102
{ACAD_REACTORS
330
8C
102
}
330
8C
100
AcDbMaterial
  1
Global
  0
MLEADERSTYLE
  5
9C9
102
{ACAD_REACTORS
330
9C8
102
}
330
9C8
100
AcDbMLeaderStyle
179
     2
170
     2
171
     1
172
     0
 90
        2
 40
0.0
 41
0.0
173
     1
 91
-1056964608
340
14
 92
       -2
290
     1
 42
0.09
291
     1
 43
0.36
  3
Standard
 44
0.18
300

342
11
174
     1
178
     6
175
     1
176
     0
 93
-1056964608
 45
0.18
292
     0
297
     0
 46
0.18
 94
-1056964608
 47
1.0
 49
1.0
140
1.0
293
     1
141
0.0
294
     1
177
     0
142
1.0
295
     0
296
     0
143
0.125
271
     0
272
     9
273
     9
298
     0
1001
ACAD_MLEADERVER
1070
     2
  0
MLINESTYLE
  5
18
102
{ACAD_REACTORS
330
17
102
}
330
17
100
AcDbMlineStyle
  2
STANDARD
 70
     0
  3

 62
   256
 51
90.0
 52
90.0
 71
     2
 49
0.5
 62
   256
  6
BYLAYER
 49
-0.5
 62
   256
  6
BYLAYER
  0
ACDBPLACEHOLDER
  5
8B
102
{ACAD_REACTORS
330
8A
102
}
330
8A
  0
SCALE
  5
9B7
102
{ACAD_REACTORS
330
9B6
102
}
330
9B6
100
AcDbScale
 70
     0
300
1:1
140
1.0
141
1.0
290
     1
  0
SCALE
  5
9B8
102
{ACAD_REACTORS
330
9B6
102
}
330
9B6
100
AcDbScale
 70
     0
300
1/128" = 1'-0"
140
0.0078125
141
12.0
290
     0
  0
SCALE
  5
9B9
102
{ACAD_REACTORS
330
9B6
102
}
330
9B6
100
AcDbScale
 70
     0
300
1/64" = 1'-0"
140
0.015625
141
12.0
290
     0
  0
SCALE
  5
9BA
102
{ACAD_REACTORS
330
9B6
102
}
330
9B6
100
AcDbScale
 70
     0
300
1/32" = 1'-0"
140
0.03125
141
12.0
290
     0
  0
SCALE
  5
9BB
102
{ACAD_REACTORS
330
9B6
102
}
330
9B6
100
AcDbScale
 70
     0
300
1/16" = 1'-0"
140
0.0625
141
12.0
290
     0
  0
SCALE
  5
9BC
102
{ACAD_REACTORS
330
9B6
102
}
330
9B6
100
AcDbScale
 70
     0
300
3/32" = 1'-0"
140
0.09375
141
12.0
290
     0
  0
SCALE
  5
9BD
102
{ACAD_REACTORS
330
9B6
102
}
330
9B6
100
AcDbScale
 70
     0
300
1/8" = 1'-0"
140
0.125
141
12.0
290
     0
  0
SCALE
  5
9BE
102
{ACAD_REACTORS
330
9B6
102
}
330
9B6
100
AcDbScale
 70
     0
300
3/16" = 1'-0"
140
0.1875
141
12.0
290
     0
  0
SCALE
  5
9BF
102
{ACAD_REACTORS
330
9B6
102
}
330
9B6
100
AcDbScale
 70
     0
300
1/4" = 1'-0"
140
0.25
141
12.0
290
     0
  0
SCALE
  5
9C0
102
{ACAD_REACTORS
330
9B6
102
}
330
9B6
100
AcDbScale
 70
     0
300
3/8" = 1'-0"
140
0.375
141
12.0
290
     0
  0
SCALE
  5
9C1
102
{ACAD_REACTORS
330
9B6
102
}
330
9B6
100
AcDbScale
 70
     0
300
1/2" = 1'-0"
140
0.5
141
12.0
290
     0
  0
SCALE
  5
9C2
102
{ACAD_REACTORS
330
9B6
102
}
330
9B6
100
AcDbScale
 70
     0
300
3/4" = 1'-0"
140
0.75
141
12.0
290
     0
  0
SCALE
  5
9C3
102
{ACAD_REACTORS
330
9B6
102
}
330
9B6
100
AcDbScale
 70
     0
300
1" = 1'-0"
140
1.0
141
12.0
290
     0
  0
SCALE
  5
9C4
102
{ACAD_REACTORS
330
9B6
102
}
330
9B6
100
AcDbScale
 70
     0
300
1-1/2" = 1'-0"
140
1.5
141
12.0
290
     0
  0
SCALE
  5
9C5
102
{ACAD_REACTORS
330
9B6
102
}
330
9B6
100
AcDbScale
 70
     0
300
3" = 1'-0"
140
3.0
141
12.0
290
     0
  0
SCALE
  5
9C6
102
{ACAD_REACTORS
330
9B6
102
}
330
9B6
100
AcDbScale
 70
     0
300
6" = 1'-0"
140
6.0
141
12.0
290
     0
  0
SCALE
  5
9C7
102
{ACAD_REACTORS
330
9B6
102
}
330
9B6
100
AcDbScale
 70
     0
300
1'-0" = 1'-0"
140
12.0
141
12.0
290
     0
  0
ACDBSECTIONVIEWSTYLE
  5
9CB
102
{ACAD_XDICTIONARY
360
ECF
102
}
102
{ACAD_REACTORS
330
9CA
102
}
330
9CA
100
AcDbModelDocViewStyle
 70
     0
  3
Imperial24
290
     0
100
AcDbSectionViewStyle
 70
     0
 71
     0
 90
       78
 71
     1
340
11
 62
   256
 40
0.24
340
0
340
0
 62
   256
 40
0.24
300
I, O, Q, S, X, Z
 40
0.48
 90
        3
 40
0.18
 90
        1
 71
     2
340
16
 90
       25
 62
   256
340
16
 90
       50
 62
   256
 40
0.24
 40
0.0
 40
0.24
 71
     3
340
11
 62
   256
 40
0.24
 90
        1
 40
0.75
 90
        1
300
%<\AcVar ViewType \f "%tc1">% %<\AcVar ViewSectionStartId>%-%<\AcVar ViewSectionEndId>%\PVARIA %<\AcVar ViewScale \f "%sn">%
 71
     4
 62
   256
 62
   257
300
ANSI31
 40
1.0
 90
        0
290
     0
290
     0
 90
        6
 40
0.0
 40
1.570796326794896
 40
0.2617993877991494
 40
1.308996938995747
 40
-0.2617993877991494
 40
1.832595714594044
  0
TABLESTYLE
  5
92
102
{ACAD_XDICTIONARY
360
C24
102
}
102
{ACAD_REACTORS
330
87
102
}
330
87
100
AcDbTableStyle
280
     0
  3
Standard
 70
     0
 71
     0
 40
0.06
 41
0.06
280
     0
281
     0
  7
STANDARD
140
0.18
170
     2
 62
     0
 63
     7
283
     0
 90
      512
 91
        0
  1

274
    -2
284
     1
 64
     0
275
    -2
285
     1
 65
     0
276
    -2
286
     1
 66
     0
277
    -2
287
     1
 67
     0
278
    -2
288
     1
 68
     0
279
    -2
289
     1
 69
     0
  7
STANDARD
140
0.25
170
     5
 62
     0
 63
     7
283
     0
 90
      512
 91
        0
  1

274
    -2
284
     1
 64
     0
275
    -2
285
     1
 65
     0
276
    -2
286
     1
 66
     0
277
    -2
287
     1
 67
     0
278
    -2
288
     1
 68
     0
279
    -2
289
     1
 69
     0
  7
STANDARD
140
0.18
170
     5
 62
     0
 63
     7
283
     0
 90
      512
 91
        0
  1

274
    -2
284
     1
 64
     0
275
    -2
285
     1
 65
     0
276
    -2
286
     1
 66
     0
277
    -2
287
     1
 67
     0
278
    -2
288
     1
 68
     0
279
    -2
289
     1
 69
     0
  0
VISUALSTYLE
  5
2F
102
{ACAD_REACTORS
330
2A
102
}
330
2A
100
AcDbVisualStyle
  2

 70
     4
177
     3
291
     0
 70
    58
 90
        0
176
     1
 90
        2
176
     1
 90
        0
176
     1
 90
        0
176
     1
 40
0.6
176
     1
 40
30.0
176
     1
 62
     7
176
     1
 90
        1
176
     1
 90
        4
176
     1
 62
     7
176
     1
 62
   257
176
     1
 90
        1
176
     1
 90
        1
176
     1
 40
1.0
176
     1
 90
        0
176
     1
 62
   257
176
     1
 40
1.0
176
     1
 90
        1
176
     1
 90
        6
176
     1
 90
        2
176
     1
 62
     7
176
     1
 90
        5
176
     1
 90
        0
176
     1
 90
        0
176
     1
290
     0
176
     1
 90
        1
176
     1
 40
0.0
176
     1
 90
        0
176
     1
290
     1
176
     1
290
     1
176
     1
290
     0
176
     1
290
     0
176
     1
290
     0
176
     1
290
     0
176
     1
290
     0
176
     1
290
     0
176
     1
290
     0
176
     1
 90
       50
176
     1
 40
0.0
176
     1
 40
1.0
176
     1
 90
        0
176
     1
 62
    18
420
        0
176
     1
 90
       50
176
     1
 90
        3
176
     1
 62
     5
420
      255
176
     1
290
     0
176
     1
 90
       50
176
     1
 90
       50
176
     1
 90
       50
176
     1
290
     0
176
     1
 90
       50
176
     1
 62
   256
176
     0
 40
1.0
176
     0
 90
        2
176
     1
  1
strokes_ogs.tif
176
     1
290
     0
176
     1
 40
1.0
176
     1
 40
1.0
176
     1
1001
ACAD
1000
AcDbSavedByObjectVersion
1070
     0
  0
VISUALSTYLE
  5
90
102
{ACAD_REACTORS
330
2A
102
}
330
2A
100
AcDbVisualStyle
  2

 70
     6
177
     3
291
     0
 70
    58
 90
        1
176
     1
 90
        2
176
     1
 90
        2
176
     1
 90
        0
176
     1
 40
0.6
176
     1
 40
30.0
176
     1
 62
     7
176
     1
 90
        2
176
     1
 90
        2
176
     1
 62
     7
176
     1
 62
   257
176
     1
 90
        2
176
     1
 90
        1
176
     1
 40
40.0
176
     1
 90
        0
176
     1
 62
   257
176
     1
 40
1.0
176
     1
 90
        1
176
     1
 90
        6
176
     1
 90
        2
176
     1
 62
     7
176
     1
 90
        3
176
     1
 90
        0
176
     1
 90
        0
176
     1
290
     0
176
     1
 90
        1
176
     1
 40
0.0
176
     1
 90
        0
176
     1
290
     0
176
     1
290
     1
176
     1
290
     1
176
     1
290
     0
176
     1
290
     0
176
     1
290
     0
176
     1
290
     0
176
     1
290
     0
176
     1
290
     0
176
     1
 90
       50
176
     1
 40
0.0
176
     1
 40
1.0
176
     1
 90
        0
176
     1
 62
    18
420
        0
176
     1
 90
       50
176
     1
 90
        3
176
     1
 62
     5
420
      255
176
     1
290
     0
176
     1
 90
       50
176
     1
 90
       50
176
     1
 90
       50
176
     1
290
     0
176
     1
 90
       50
176
     1
 62
   256
176
     0
 40
1.0
176
     0
 90
        2
176
     1
  1
strokes_ogs.tif
176
     1
290
     0
176
     1
 40
1.0
176
     1
 40
1.0
176
     1
1001
ACAD
1000
AcDbSavedByObjectVersion
1070
     0
  0
VISUALSTYLE
  5
31
102
{ACAD_REACTORS
330
2A
102
}
330
2A
100
AcDbVisualStyle
  2

 70
     6
177
     3
291
     0
 70
    58
 90
        1
176
     1
 90
        2
176
     1
 90
        2
176
     1
 90
        0
176
     1
 40
0.6
176
     1
 40
30.0
176
     1
 62
     7
176
     1
 90
        2
176
     1
 90
        2
176
     1
 62
     7
176
     1
 62
   257
176
     1
 90
        2
176
     1
 90
        1
176
     1
 40
40.0
176
     1
 90
        0
176
     1
 62
   257
176
     1
 40
1.0
176
     1
 90
        1
176
     1
 90
        6
176
     1
 90
        2
176
     1
 62
     7
176
     1
 90
        3
176
     1
 90
        0
176
     1
 90
        0
176
     1
290
     0
176
     1
 90
        1
176
     1
 40
0.0
176
     1
 90
        0
176
     1
290
     0
176
     1
290
     1
176
     1
290
     1
176
     1
290
     0
176
     1
290
     0
176
     1
290
     0
176
     1
290
     0
176
     1
290
     0
176
     1
290
     0
176
     1
 90
       50
176
     1
 40
0.0
176
     1
 40
1.0
176
     1
 90
        0
176
     1
 62
    18
420
        0
176
     1
 90
       50
176
     1
 90
        3
176
     1
 62
     5
420
      255
176
     1
290
     0
176
     1
 90
       50
176
     1
 90
       50
176
     1
 90
       50
176
     1
290
     0
176
     1
 90
       50
176
     1
 62
   256
176
     0
 40
1.0
176
     0
 90
        2
176
     1
  1
strokes_ogs.tif
176
     1
290
     0
176
     1
 40
1.0
176
     1
 40
1.0
176
     1
1001
ACAD
1000
AcDbSavedByObjectVersion
1070
     0
  0
VISUALSTYLE
  5
30
102
{ACAD_REACTORS
330
2A
102
}
330
2A
100
AcDbVisualStyle
  2

 70
     5
177
     3
291
     0
 70
    58
 90
        0
176
     1
 90
        2
176
     1
 90
        0
176
     1
 90
        0
176
     1
 40
0.6
176
     1
 40
30.0
176
     1
 62
     7
176
     1
 90
        1
176
     1
 90
        4
176
     1
 62
     7
176
     1
 62
   257
176
     1
 90
        1
176
     1
 90
        1
176
     1
 40
1.0
176
     1
 90
        0
176
     1
 62
   257
176
     1
 40
1.0
176
     1
 90
        1
176
     1
 90
        6
176
     1
 90
        2
176
     1
 62
     7
176
     1
 90
        5
176
     1
 90
        0
176
     1
 90
        0
176
     1
290
     0
176
     1
 90
        1
176
     1
 40
0.0
176
     1
 90
        0
176
     1
290
     0
176
     1
290
     1
176
     1
290
     1
176
     1
290
     0
176
     1
290
     0
176
     1
290
     0
176
     1
290
     0
176
     1
290
     0
176
     1
290
     0
176
     1
 90
       50
176
     1
 40
0.0
176
     1
 40
1.0
176
     1
 90
        0
176
     1
 62
    18
420
        0
176
     1
 90
       50
176
     1
 90
        3
176
     1
 62
     5
420
      255
176
     1
290
     0
176
     1
 90
       50
176
     1
 90
       50
176
     1
 90
       50
176
     1
290
     0
176
     1
 90
       50
176
     1
 62
   256
176
     0
 40
1.0
176
     0
 90
        2
176
     1
  1
strokes_ogs.tif
176
     1
290
     0
176
     1
 40
1.0
176
     1
 40
1.0
176
     1
1001
ACAD
1000
AcDbSavedByObjectVersion
1070
     0
  0
VISUALSTYLE
  5
32
102
{ACAD_REACTORS
330
2A
102
}
330
2A
100
AcDbVisualStyle
  2

 70
     7
177
     3
291
     1
 70
    58
 90
        1
176
     1
 90
        0
176
     1
 90
        1
176
     1
 90
        0
176
     1
 40
0.6
176
     1
 40
30.0
176
     1
 62
     7
176
     1
 90
        0
176
     1
 90
        4
176
     1
 62
     7
176
     1
 62
   257
176
     1
 90
        1
176
     1
 90
        1
176
     1
 40
1.0
176
     1
 90
        8
176
     1
 62
     7
176
     1
 40
1.0
176
     1
 90
        1
176
     1
 90
        6
176
     1
 90
        2
176
     1
 62
     7
176
     1
 90
        5
176
     1
 90
        0
176
     1
 90
        0
176
     1
290
     0
176
     1
 90
        1
176
     1
 40
0.0
176
     1
 90
        0
176
     1
290
     0
176
     1
290
     1
176
     1
290
     1
176
     1
290
     0
176
     1
290
     0
176
     1
290
     0
176
     1
290
     0
176
     1
290
     0
176
     1
290
     0
176
     1
 90
       50
176
     1
 40
0.0
176
     1
 40
1.0
176
     1
 90
        0
176
     1
 62
    18
420
        0
176
     1
 90
       50
176
     1
 90
        3
176
     1
 62
     5
420
      255
176
     1
290
     0
176
     1
 90
       50
176
     1
 90
       50
176
     1
 90
       50
176
     1
290
     0
176
     1
 90
       50
176
     1
 62
   256
176
     0
 40
1.0
176
     0
 90
        2
176
     1
  1
strokes_ogs.tif
176
     1
290
     0
176
     1
 40
1.0
176
     1
 40
1.0
176
     1
1001
ACAD
1000
AcDbSavedByObjectVersion
1070
     0
  0
VISUALSTYLE
  5
36
102
{ACAD_REACTORS
330
2A
102
}
330
2A
100
AcDbVisualStyle
  2

 70
    12
177
     3
291
     1
 70
    58
 90
        2
176
     1
 90
        2
176
     1
 90
        0
176
     1
 90
        0
176
     1
 40
0.6
176
     1
 40
30.0
176
     1
 62
     7
176
     1
 90
        1
176
     1
 90
        4
176
     1
 62
     7
176
     1
 62
   257
176
     1
 90
        1
176
     1
 90
        1
176
     1
 40
1.0
176
     1
 90
        8
176
     1
 62
     7
176
     1
 40
1.0
176
     1
 90
        1
176
     1
 90
        6
176
     1
 90
        2
176
     1
 62
     7
176
     1
 90
        5
176
     1
 90
        0
176
     1
 90
        0
176
     1
290
     0
176
     1
 90
        1
176
     1
 40
50.0
176
     1
 90
        0
176
     1
290
     0
176
     1
290
     1
176
     1
290
     1
176
     1
290
     0
176
     1
290
     0
176
     1
290
     0
176
     1
290
     0
176
     1
290
     0
176
     1
290
     0
176
     1
 90
       50
176
     1
 40
0.0
176
     1
 40
1.0
176
     1
 90
        0
176
     1
 62
    18
420
        0
176
     1
 90
       50
176
     1
 90
        3
176
     1
 62
     5
420
      255
176
     1
290
     0
176
     1
 90
       50
176
     1
 90
       50
176
     1
 90
       50
176
     1
290
     0
176
     1
 90
       50
176
     1
 62
   256
176
     0
 40
1.0
176
     0
 90
        2
176
     1
  1
strokes_ogs.tif
176
     1
290
     0
176
     1
 40
1.0
176
     1
 40
1.0
176
     1
1001
ACAD
1000
AcDbSavedByObjectVersion
1070
     0
  0
VISUALSTYLE
  5
3A
102
{ACAD_REACTORS
330
2A
102
}
330
2A
100
AcDbVisualStyle
  2

 70
    16
177
     3
291
     1
 70
    58
 90
        2
176
     1
 90
        2
176
     1
 90
        3
176
     1
 90
        0
176
     1
 40
0.6
176
     1
 40
30.0
176
     1
 62
     8
176
     1
 90
        1
176
     1
 90
        4
176
     1
 62
     7
176
     1
 62
   257
176
     1
 90
        1
176
     1
 90
        1
176
     1
 40
1.0
176
     1
 90
        8
176
     1
 62
     8
176
     1
 40
1.0
176
     1
 90
        1
176
     1
 90
        6
176
     1
 90
        2
176
     1
 62
     7
176
     1
 90
        5
176
     1
 90
        0
176
     1
 90
        0
176
     1
290
     0
176
     1
 90
        1
176
     1
 40
0.0
176
     1
 90
        0
176
     1
290
     0
176
     1
290
     1
176
     1
290
     1
176
     1
290
     0
176
     1
290
     0
176
     1
290
     0
176
     1
290
     0
176
     1
290
     0
176
     1
290
     0
176
     1
 90
       50
176
     1
 40
0.0
176
     1
 40
1.0
176
     1
 90
        0
176
     1
 62
    18
420
        0
176
     1
 90
       50
176
     1
 90
        3
176
     1
 62
     5
420
      255
176
     1
290
     0
176
     1
 90
       50
176
     1
 90
       50
176
     1
 90
       50
176
     1
290
     0
176
     1
 90
       50
176
     1
 62
   256
176
     0
 40
1.0
176
     0
 90
        2
176
     1
  1
strokes_ogs.tif
176
     1
290
     0
176
     1
 40
1.0
176
     1
 40
1.0
176
     1
1001
ACAD
1000
AcDbSavedByObjectVersion
1070
     0
  0
VISUALSTYLE
  5
34
102
{ACAD_REACTORS
330
2A
102
}
330
2A
100
AcDbVisualStyle
  2

 70
     9
177
     3
291
     0
 70
    58
 90
        3
176
     1
 90
        2
176
     1
 90
        0
176
     1
 90
        0
176
     1
 40
0.6
176
     1
 40
30.0
176
     1
 62
     7
176
     1
 90
        2
176
     1
 90
        2
176
     1
 62
     7
176
     1
 62
   257
176
     1
 90
        1
176
     1
 90
        1
176
     1
 40
40.0
176
     1
 90
        8
176
     1
 62
     7
176
     1
 40
1.0
176
     1
 90
        1
176
     1
 90
        6
176
     1
 90
        2
176
     1
 62
     7
176
     1
 90
        3
176
     1
 90
        0
176
     1
 90
        0
176
     1
290
     0
176
     1
 90
        1
176
     1
 40
0.0
176
     1
 90
        0
176
     1
290
     0
176
     1
290
     1
176
     1
290
     1
176
     1
290
     0
176
     1
290
     0
176
     1
290
     0
176
     1
290
     0
176
     1
290
     0
176
     1
290
     0
176
     1
 90
       50
176
     1
 40
0.0
176
     1
 40
1.0
176
     1
 90
        0
176
     1
 62
    18
420
        0
176
     1
 90
       50
176
     1
 90
        3
176
     1
 62
     5
420
      255
176
     1
290
     0
176
     1
 90
       50
176
     1
 90
       50
176
     1
 90
       50
176
     1
290
     0
176
     1
 90
       50
176
     1
 62
   256
176
     0
 40
1.0
176
     0
 90
        2
176
     1
  1
strokes_ogs.tif
176
     1
290
     0
176
     1
 40
1.0
176
     1
 40
1.0
176
     1
1001
ACAD
1000
AcDbSavedByObjectVersion
1070
     0
  0
VISUALSTYLE
  5
35
102
{ACAD_REACTORS
330
2A
102
}
330
2A
100
AcDbVisualStyle
  2

 70
    11
177
     3
291
     1
 70
    58
 90
        2
176
     1
 90
        2
176
     1
 90
        0
176
     1
 90
        0
176
     1
 40
0.6
176
     1
 40
30.0
176
     1
 62
     7
176
     1
 90
        1
176
     1
 90
        4
176
     1
 62
     7
176
     1
 62
   257
176
     1
 90
        1
176
     1
 90
        1
176
     1
 40
1.0
176
     1
 90
        8
176
     1
 62
     7
176
     1
 40
1.0
176
     1
 90
        1
176
     1
 90
        6
176
     1
 90
        2
176
     1
 62
     7
176
     1
 90
        5
176
     1
 90
        0
176
     1
 90
        0
176
     1
290
     0
176
     1
 90
        1
176
     1
 40
-50.0
176
     1
 90
        0
176
     1
290
     0
176
     1
290
     1
176
     1
290
     1
176
     1
290
     0
176
     1
290
     0
176
     1
290
     0
176
     1
290
     0
176
     1
290
     0
176
     1
290
     0
176
     1
 90
       50
176
     1
 40
0.0
176
     1
 40
1.0
176
     1
 90
        0
176
     1
 62
    18
420
        0
176
     1
 90
       50
176
     1
 90
        3
176
     1
 62
     5
420
      255
176
     1
290
     0
176
     1
 90
       50
176
     1
 90
       50
176
     1
 90
       50
176
     1
290
     0
176
     1
 90
       50
176
     1
 62
   256
176
     0
 40
1.0
176
     0
 90
        2
176
     1
  1
strokes_ogs.tif
176
     1
290
     0
176
     1
 40
1.0
176
     1
 40
1.0
176
     1
1001
ACAD
1000
AcDbSavedByObjectVersion
1070
     0
  0
VISUALSTYLE
  5
9B5
102
{ACAD_REACTORS
330
2A
102
}
330
2A
100
AcDbVisualStyle
  2

 70
    22
177
     3
291
     1
 70
    58
 90
        2
176
     0
 90
        2
176
     0
 90
        0
176
     0
 90
        0
176
     0
 40
0.6
176
     0
 40
30.0
176
     0
 62
     7
420
 16777215
176
     0
 90
        1
176
     0
 90
        4
176
     0
 62
     7
176
     0
 62
   257
176
     0
 90
        1
176
     0
 90
        1
176
     0
 40
1.0
176
     0
 90
        8
176
     2
 62
     7
176
     0
 40
1.0
176
     0
 90
        1
176
     0
 90
        6
176
     0
 90
        2
176
     0
 62
     7
176
     0
 90
        5
176
     0
 90
        0
176
     0
 90
        0
176
     0
290
     0
176
     0
 90
        1
176
     0
 40
0.0
176
     0
 90
        0
176
     0
290
     0
176
     1
290
     1
176
     1
290
     1
176
     1
290
     0
176
     1
290
     0
176
     1
290
     0
176
     1
290
     0
176
     1
290
     0
176
     1
290
     0
176
     1
 90
       50
176
     0
 40
0.0
176
     0
 40
1.0
176
     0
 90
        0
176
     0
 62
    18
420
        0
176
     0
 90
       50
176
     0
 90
        3
176
     0
 62
     5
420
      255
176
     0
290
     0
176
     1
 90
       50
176
     0
 90
       50
176
     0
 90
       50
176
     0
290
     0
176
     1
 90
       50
176
     0
 62
   256
176
     0
 40
1.0
176
     0
 90
        2
176
     0
  1
strokes_ogs.tif
176
     0
290
     0
176
     1
 40
1.0
176
     0
 40
1.0
176
     0
1001
ACAD
1000
AcDbSavedByObjectVersion
1070
     0
  0
VISUALSTYLE
  5
39
102
{ACAD_REACTORS
330
2A
102
}
330
2A
100
AcDbVisualStyle
  2

 70
    15
177
     3
291
     1
 70
    58
 90
        2
176
     1
 90
        2
176
     1
 90
        0
176
     1
 90
        0
176
     1
 40
0.6
176
     1
 40
30.0
176
     1
 62
     7
176
     1
 90
        1
176
     1
 90
        4
176
     1
 62
     7
176
     1
 62
   257
176
     1
 90
        1
176
     1
 90
        1
176
     1
 40
1.0
176
     1
 90
        8
176
     1
 62
     7
176
     1
 40
1.0
176
     1
 90
        1
176
     1
 90
        6
176
     1
 90
        2
176
     1
 62
     7
176
     1
 90
        5
176
     1
 90
        0
176
     1
 90
        0
176
     1
290
     0
176
     1
 90
        1
176
     1
 40
0.0
176
     1
 90
        0
176
     1
290
     0
176
     1
290
     1
176
     1
290
     1
176
     1
290
     0
176
     1
290
     0
176
     1
290
     0
176
     1
290
     0
176
     1
290
     0
176
     1
290
     0
176
     1
 90
       50
176
     1
 40
0.0
176
     1
 40
1.0
176
     1
 90
        0
176
     1
 62
    18
420
        0
176
     1
 90
       50
176
     1
 90
        3
176
     1
 62
     5
420
      255
176
     1
290
     0
176
     1
 90
       50
176
     1
 90
       50
176
     1
 90
       50
176
     1
290
     0
176
     1
 90
       50
176
     1
 62
   256
176
     0
 40
1.0
176
     0
 90
        2
176
     1
  1
strokes_ogs.tif
176
     1
290
     0
176
     1
 40
1.0
176
     1
 40
1.0
176
     1
1001
ACAD
1000
AcDbSavedByObjectVersion
1070
     0
  0
VISUALSTYLE
  5
2B
102
{ACAD_REACTORS
330
2A
102
}
330
2A
100
AcDbVisualStyle
  2

 70
     0
177
     3
291
     1
 70
    58
 90
        2
176
     1
 90
        1
176
     1
 90
        1
176
     1
 90
        2
176
     1
 40
0.6
176
     1
 40
30.0
176
     1
 62
     7
176
     1
 90
        0
176
     1
 90
        4
176
     1
 62
     7
176
     1
 62
   257
176
     1
 90
        1
176
     1
 90
        1
176
     1
 40
1.0
176
     1
 90
        8
176
     1
 62
     7
176
     1
 40
1.0
176
     1
 90
        1
176
     1
 90
        6
176
     1
 90
        2
176
     1
 62
     7
176
     1
 90
        5
176
     1
 90
        0
176
     1
 90
        0
176
     1
290
     0
176
     1
 90
       13
176
     1
 40
0.0
176
     1
 90
        0
176
     1
290
     0
176
     1
290
     1
176
     1
290
     1
176
     1
290
     0
176
     1
290
     0
176
     1
290
     0
176
     1
290
     0
176
     1
290
     0
176
     1
290
     0
176
     1
 90
       50
176
     1
 40
0.0
176
     1
 40
1.0
176
     1
 90
        0
176
     1
 62
    18
420
        0
176
     1
 90
       50
176
     1
 90
        3
176
     1
 62
     5
420
      255
176
     1
290
     0
176
     1
 90
       50
176
     1
 90
       50
176
     1
 90
       50
176
     1
290
     0
176
     1
 90
       50
176
     1
 62
   256
176
     0
 40
1.0
176
     0
 90
        2
176
     1
  1
strokes_ogs.tif
176
     1
290
     0
176
     1
 40
1.0
176
     1
 40
1.0
176
     1
1001
ACAD
1000
AcDbSavedByObjectVersion
1070
     0
  0
VISUALSTYLE
  5
2C
102
{ACAD_REACTORS
330
2A
102
}
330
2A
100
AcDbVisualStyle
  2

 70
     1
177
     3
291
     1
 70
    58
 90
        2
176
     1
 90
        1
176
     1
 90
        1
176
     1
 90
        2
176
     1
 40
0.6
176
     1
 40
30.0
176
     1
 62
     7
176
     1
 90
        1
176
     1
 90
        4
176
     1
 62
     7
176
     1
 62
   257
176
     1
 90
        1
176
     1
 90
        1
176
     1
 40
1.0
176
     1
 90
        0
176
     1
 62
   257
176
     1
 40
1.0
176
     1
 90
        1
176
     1
 90
        6
176
     1
 90
        2
176
     1
 62
     7
176
     1
 90
        5
176
     1
 90
        0
176
     1
 90
        0
176
     1
290
     0
176
     1
 90
       13
176
     1
 40
0.0
176
     1
 90
        0
176
     1
290
     0
176
     1
290
     1
176
     1
290
     1
176
     1
290
     0
176
     1
290
     0
176
     1
290
     0
176
     1
290
     0
176
     1
290
     0
176
     1
290
     0
176
     1
 90
       50
176
     1
 40
0.0
176
     1
 40
1.0
176
     1
 90
        0
176
     1
 62
    18
420
        0
176
     1
 90
       50
176
     1
 90
        3
176
     1
 62
     5
420
      255
176
     1
290
     0
176
     1
 90
       50
176
     1
 90
       50
176
     1
 90
       50
176
     1
290
     0
176
     1
 90
       50
176
     1
 62
   256
176
     0
 40
1.0
176
     0
 90
        2
176
     1
  1
strokes_ogs.tif
176
     1
290
     0
176
     1
 40
1.0
176
     1
 40
1.0
176
     1
1001
ACAD
1000
AcDbSavedByObjectVersion
1070
     0
  0
VISUALSTYLE
  5
2D
102
{ACAD_REACTORS
330
2A
102
}
330
2A
100
AcDbVisualStyle
  2

 70
     2
177
     3
291
     1
 70
    58
 90
        2
176
     1
 90
        2
176
     1
 90
        1
176
     1
 90
        2
176
     1
 40
0.6
176
     1
 40
30.0
176
     1
 62
     7
176
     1
 90
        0
176
     1
 90
        4
176
     1
 62
     7
176
     1
 62
   257
176
     1
 90
        1
176
     1
 90
        1
176
     1
 40
1.0
176
     1
 90
        0
176
     1
 62
     7
176
     1
 40
1.0
176
     1
 90
        1
176
     1
 90
        6
176
     1
 90
        2
176
     1
 62
     7
176
     1
 90
        5
176
     1
 90
        0
176
     1
 90
        0
176
     1
290
     0
176
     1
 90
       13
176
     1
 40
0.0
176
     1
 90
        0
176
     1
290
     0
176
     1
290
     1
176
     1
290
     1
176
     1
290
     0
176
     1
290
     0
176
     1
290
     0
176
     1
290
     0
176
     1
290
     0
176
     1
290
     0
176
     1
 90
       50
176
     1
 40
0.0
176
     1
 40
1.0
176
     1
 90
        0
176
     1
 62
    18
420
        0
176
     1
 90
       50
176
     1
 90
        3
176
     1
 62
     5
420
      255
176
     1
290
     0
176
     1
 90
       50
176
     1
 90
       50
176
     1
 90
       50
176
     1
290
     0
176
     1
 90
       50
176
     1
 62
   256
176
     0
 40
1.0
176
     0
 90
        2
176
     1
  1
strokes_ogs.tif
176
     1
290
     0
176
     1
 40
1.0
176
     1
 40
1.0
176
     1
1001
ACAD
1000
AcDbSavedByObjectVersion
1070
     0
  0
VISUALSTYLE
  5
2E
102
{ACAD_REACTORS
330
2A
102
}
330
2A
100
AcDbVisualStyle
  2

 70
     3
177
     3
291
     1
 70
    58
 90
        2
176
     1
 90
        2
176
     1
 90
        1
176
     1
 90
        2
176
     1
 40
0.6
176
     1
 40
30.0
176
     1
 62
     7
176
     1
 90
        1
176
     1
 90
        4
176
     1
 62
     7
176
     1
 62
   257
176
     1
 90
        1
176
     1
 90
        1
176
     1
 40
1.0
176
     1
 90
        0
176
     1
 62
   257
176
     1
 40
1.0
176
     1
 90
        1
176
     1
 90
        6
176
     1
 90
        2
176
     1
 62
     7
176
     1
 90
        5
176
     1
 90
        0
176
     1
 90
        0
176
     1
290
     0
176
     1
 90
       13
176
     1
 40
0.0
176
     1
 90
        0
176
     1
290
     0
176
     1
290
     1
176
     1
290
     1
176
     1
290
     0
176
     1
290
     0
176
     1
290
     0
176
     1
290
     0
176
     1
290
     0
176
     1
290
     0
176
     1
 90
       50
176
     1
 40
0.0
176
     1
 40
1.0
176
     1
 90
        0
176
     1
 62
    18
420
        0
176
     1
 90
       50
176
     1
 90
        3
176
     1
 62
     5
420
      255
176
     1
290
     0
176
     1
 90
       50
176
     1
 90
       50
176
     1
 90
       50
176
     1
290
     0
176
     1
 90
       50
176
     1
 62
   256
176
     0
 40
1.0
176
     0
 90
        2
176
     1
  1
strokes_ogs.tif
176
     1
290
     0
176
     1
 40
1.0
176
     1
 40
1.0
176
     1
1001
ACAD
1000
AcDbSavedByObjectVersion
1070
     0
  0
VISUALSTYLE
  5
9AD
102
{ACAD_REACTORS
330
2A
102
}
330
2A
100
AcDbVisualStyle
  2

 70
     6
177
     3
291
     0
 70
    58
 90
        1
176
     1
 90
        2
176
     1
 90
        2
176
     1
 90
        0
176
     1
 40
0.6
176
     1
 40
30.0
176
     1
 62
     7
420
 16777215
176
     1
 90
        2
176
     1
 90
        2
176
     1
 62
     7
176
     1
 62
   257
176
     1
 90
        2
176
     1
 90
        1
176
     1
 40
40.0
176
     1
 90
        0
176
     1
 62
   257
176
     1
 40
1.0
176
     1
 90
        1
176
     1
 90
        6
176
     1
 90
        2
176
     1
 62
     7
176
     1
 90
        3
176
     1
 90
        0
176
     1
 90
        0
176
     1
290
     0
176
     1
 90
        1
176
     1
 40
0.0
176
     1
 90
        0
176
     1
290
     0
176
     1
290
     1
176
     1
290
     1
176
     1
290
     0
176
     1
290
     0
176
     1
290
     0
176
     1
290
     0
176
     1
290
     0
176
     1
290
     0
176
     1
 90
       50
176
     1
 40
0.0
176
     1
 40
1.0
176
     1
 90
        0
176
     1
 62
    18
420
        0
176
     1
 90
       50
176
     1
 90
        3
176
     1
 62
     5
420
      255
176
     1
290
     0
176
     1
 90
       50
176
     1
 90
       50
176
     1
 90
       50
176
     1
290
     0
176
     1
 90
       50
176
     1
 62
   256
176
     0
 40
1.0
176
     0
 90
        2
176
     1
  1
strokes_ogs.tif
176
     1
290
     0
176
     1
 40
1.0
176
     1
 40
1.0
176
     1
1001
ACAD
1000
AcDbSavedByObjectVersion
1070
     0
  0
VISUALSTYLE
  5
9B3
102
{ACAD_REACTORS
330
2A
102
}
330
2A
100
AcDbVisualStyle
  2

 70
    20
177
     3
291
     1
 70
    58
 90
        2
176
     0
 90
        2
176
     0
 90
        0
176
     0
 90
        0
176
     0
 40
0.6
176
     0
 40
30.0
176
     0
 62
     7
420
 16777215
176
     0
 90
        1
176
     0
 90
        4
176
     0
 62
     7
176
     0
 62
   257
176
     0
 90
        1
176
     0
 90
        1
176
     0
 40
1.0
176
     0
 90
       10
176
     2
 62
     7
176
     0
 40
1.0
176
     0
 90
        1
176
     0
 90
        6
176
     0
 90
        2
176
     0
 62
     7
176
     0
 90
        5
176
     0
 90
        0
176
     0
 90
        0
176
     0
290
     0
176
     0
 90
        1
176
     0
 40
0.0
176
     0
 90
        0
176
     0
290
     0
176
     1
290
     1
176
     1
290
     1
176
     1
290
     0
176
     1
290
     0
176
     1
290
     0
176
     1
290
     0
176
     1
290
     0
176
     1
290
     0
176
     1
 90
       50
176
     0
 40
0.0
176
     0
 40
1.0
176
     0
 90
        0
176
     0
 62
    18
420
        0
176
     0
 90
       50
176
     0
 90
        3
176
     0
 62
     5
420
      255
176
     0
290
     0
176
     1
 90
       50
176
     0
 90
       50
176
     0
 90
       50
176
     0
290
     0
176
     1
 90
       50
176
     0
 62
   256
176
     0
 40
1.0
176
     0
 90
        2
176
     0
  1
strokes_ogs.tif
176
     0
290
     0
176
     1
 40
1.0
176
     0
 40
1.0
176
     0
1001
ACAD
1000
AcDbSavedByObjectVersion
1070
     0
  0
VISUALSTYLE
  5
38
102
{ACAD_REACTORS
330
2A
102
}
330
2A
100
AcDbVisualStyle
  2

 70
    14
177
     3
291
     1
 70
    58
 90
        2
176
     1
 90
        2
176
     1
 90
        0
176
     1
 90
        0
176
     1
 40
0.6
176
     1
 40
30.0
176
     1
 62
     7
176
     1
 90
        1
176
     1
 90
        4
176
     1
 62
     7
176
     1
 62
   257
176
     1
 90
        7
176
     1
 90
        7
176
     1
 40
1.0
176
     1
 90
        8
176
     1
 62
     7
176
     1
 40
1.0
176
     1
 90
        1
176
     1
 90
        6
176
     1
 90
        2
176
     1
 62
     7
176
     1
 90
        5
176
     1
 90
        0
176
     1
 90
        0
176
     1
290
     0
176
     1
 90
        1
176
     1
 40
0.0
176
     1
 90
        0
176
     1
290
     0
176
     1
290
     1
176
     1
290
     1
176
     1
290
     0
176
     1
290
     0
176
     1
290
     0
176
     1
290
     0
176
     1
290
     0
176
     1
290
     0
176
     1
 90
       50
176
     1
 40
0.0
176
     1
 40
1.0
176
     1
 90
        0
176
     1
 62
    18
420
        0
176
     1
 90
       50
176
     1
 90
        3
176
     1
 62
     5
420
      255
176
     1
290
     0
176
     1
 90
       50
176
     1
 90
       50
176
     1
 90
       50
176
     1
290
     0
176
     1
 90
       50
176
     1
 62
   256
176
     0
 40
1.0
176
     0
 90
        2
176
     1
  1
strokes_ogs.tif
176
     1
290
     0
176
     1
 40
1.0
176
     1
 40
1.0
176
     1
1001
ACAD
1000
AcDbSavedByObjectVersion
1070
     0
  0
VISUALSTYLE
  5
9B4
102
{ACAD_REACTORS
330
2A
102
}
330
2A
100
AcDbVisualStyle
  2

 70
    21
177
     3
291
     1
 70
    58
 90
        2
176
     0
 90
        2
176
     0
 90
        0
176
     0
 90
        0
176
     0
 40
0.6
176
     0
 40
30.0
176
     0
 62
     7
420
 16777215
176
     0
 90
        1
176
     0
 90
        4
176
     0
 62
     7
176
     0
 62
   257
176
     0
 90
        1
176
     0
 90
        1
176
     0
 40
1.0
176
     0
 90
        9
176
     2
 62
     7
176
     0
 40
1.0
176
     0
 90
        1
176
     0
 90
        6
176
     0
 90
        2
176
     0
 62
     7
176
     0
 90
        5
176
     0
 90
        0
176
     0
 90
        0
176
     0
290
     0
176
     0
 90
        1
176
     0
 40
0.0
176
     0
 90
        0
176
     0
290
     0
176
     1
290
     1
176
     1
290
     1
176
     1
290
     0
176
     1
290
     0
176
     1
290
     0
176
     1
290
     0
176
     1
290
     0
176
     1
290
     0
176
     1
 90
       50
176
     0
 40
0.0
176
     0
 40
1.0
176
     0
 90
        0
176
     0
 62
    18
420
        0
176
     0
 90
       50
176
     0
 90
        3
176
     0
 62
     5
420
      255
176
     0
290
     0
176
     1
 90
       50
176
     0
 90
       50
176
     0
 90
       50
176
     0
290
     0
176
     1
 90
       50
176
     0
 62
   256
176
     0
 40
1.0
176
     0
 90
        2
176
     0
  1
strokes_ogs.tif
176
     0
290
     0
176
     1
 40
1.0
176
     0
 40
1.0
176
     0
1001
ACAD
1000
AcDbSavedByObjectVersion
1070
     0
  0
VISUALSTYLE
  5
33
102
{ACAD_REACTORS
330
2A
102
}
330
2A
100
AcDbVisualStyle
  2

 70
     8
177
     3
291
     0
 70
    58
 90
        2
176
     1
 90
        2
176
     1
 90
        0
176
     1
 90
        0
176
     1
 40
0.6
176
     1
 40
30.0
176
     1
 62
     7
176
     1
 90
        1
176
     1
 90
        0
176
     1
 62
     7
176
     1
 62
   257
176
     1
 90
        1
176
     1
 90
        1
176
     1
 40
1.0
176
     1
 90
        8
176
     1
 62
     8
176
     1
 40
1.0
176
     1
 90
        1
176
     1
 90
        6
176
     1
 90
        2
176
     1
 62
     7
176
     1
 90
        5
176
     1
 90
        0
176
     1
 90
        0
176
     1
290
     0
176
     1
 90
       13
176
     1
 40
0.0
176
     1
 90
        0
176
     1
290
     0
176
     1
290
     1
176
     1
290
     1
176
     1
290
     0
176
     1
290
     0
176
     1
290
     0
176
     1
290
     0
176
     1
290
     0
176
     1
290
     0
176
     1
 90
       50
176
     1
 40
0.0
176
     1
 40
1.0
176
     1
 90
        0
176
     1
 62
    18
420
        0
176
     1
 90
       50
176
     1
 90
        3
176
     1
 62
     5
420
      255
176
     1
290
     0
176
     1
 90
       50
176
     1
 90
       50
176
     1
 90
       50
176
     1
290
     0
176
     1
 90
       50
176
     1
 62
   256
176
     0
 40
1.0
176
     0
 90
        2
176
     1
  1
strokes_ogs.tif
176
     1
290
     0
176
     1
 40
1.0
176
     1
 40
1.0
176
     1
1001
ACAD
1000
AcDbSavedByObjectVersion
1070
     0
  0
VISUALSTYLE
  5
9B2
102
{ACAD_REACTORS
330
2A
102
}
330
2A
100
AcDbVisualStyle
  2

 70
    27
177
     3
291
     0
 70
    58
 90
        2
176
     1
 90
        2
176
     1
 90
        1
176
     1
 90
        2
176
     1
 40
0.6
176
     1
 40
30.0
176
     1
 62
     7
420
 16777215
176
     1
 90
        0
176
     1
 90
        4
176
     1
 62
     7
176
     1
 62
   257
176
     1
 90
        1
176
     1
 90
        1
176
     1
 40
1.0
176
     1
 90
        8
176
     1
 62
   257
176
     1
 40
1.0
176
     1
 90
        1
176
     1
 90
        6
176
     1
 90
        2
176
     1
 62
     8
420
  7895160
176
     1
 90
        3
176
     1
 90
        0
176
     1
 90
        0
176
     1
290
     0
176
     1
 90
        5
176
     1
 40
0.0
176
     1
 90
        0
176
     1
290
     0
176
     1
290
     1
176
     1
290
     1
176
     1
290
     0
176
     1
290
     0
176
     1
290
     0
176
     1
290
     0
176
     1
290
     0
176
     1
290
     0
176
     1
 90
       50
176
     1
 40
0.0
176
     1
 40
1.0
176
     1
 90
        0
176
     1
 62
    18
420
        0
176
     1
 90
       50
176
     1
 90
        3
176
     1
 62
     5
420
      255
176
     1
290
     0
176
     1
 90
       50
176
     1
 90
       50
176
     1
 90
       50
176
     1
290
     0
176
     1
 90
       50
176
     1
 62
   256
176
     0
 40
1.0
176
     0
 90
        2
176
     1
  1
strokes_ogs.tif
176
     1
290
     0
176
     1
 40
1.0
176
     1
 40
1.0
176
     1
1001
ACAD
1000
AcDbSavedByObjectVersion
1070
     0
  0
VISUALSTYLE
  5
9B1
102
{ACAD_REACTORS
330
2A
102
}
330
2A
100
AcDbVisualStyle
  2

 70
    26
177
     3
291
     0
 70
    58
 90
        2
176
     1
 90
        2
176
     1
 90
        1
176
     1
 90
        2
176
     1
 40
0.6
176
     1
 40
30.0
176
     1
 62
     7
420
 16777215
176
     1
 90
        1
176
     1
 90
        2
176
     1
 62
     7
176
     1
 62
   257
176
     1
 90
        2
176
     1
 90
        1
176
     1
 40
1.0
176
     1
 90
        8
176
     1
 62
   257
176
     1
 40
1.0
176
     1
 90
        1
176
     1
 90
        6
176
     1
 90
        2
176
     1
 62
     7
176
     1
 90
        3
176
     1
 90
        0
176
     1
 90
        0
176
     1
290
     0
176
     1
 90
        5
176
     1
 40
0.0
176
     1
 90
        0
176
     1
290
     0
176
     1
290
     1
176
     1
290
     1
176
     1
290
     0
176
     1
290
     0
176
     1
290
     0
176
     1
290
     0
176
     1
290
     0
176
     1
290
     0
176
     1
 90
       50
176
     1
 40
0.0
176
     1
 40
1.0
176
     1
 90
        0
176
     1
 62
    18
420
        0
176
     1
 90
       50
176
     1
 90
        3
176
     1
 62
     5
420
      255
176
     1
290
     0
176
     1
 90
       50
176
     1
 90
       50
176
     1
 90
       50
176
     1
290
     0
176
     1
 90
       50
176
     1
 62
   256
176
     0
 40
1.0
176
     0
 90
        2
176
     1
  1
strokes_ogs.tif
176
     1
290
     0
176
     1
 40
1.0
176
     1
 40
1.0
176
     1
1001
ACAD
1000
AcDbSavedByObjectVersion
1070
     0
  0
VISUALSTYLE
  5
9AE
102
{ACAD_REACTORS
330
2A
102
}
330
2A
100
AcDbVisualStyle
  2

 70
    23
177
     3
291
     0
 70
    58
 90
        2
176
     1
 90
        2
176
     1
 90
        3
176
     1
 90
        0
176
     1
 40
0.6
176
     1
 40
30.0
176
     1
 62
     7
420
 16777215
176
     1
 90
        2
176
     1
 90
        2
176
     1
 62
     7
176
     1
 62
     7
176
     1
 90
        1
176
     1
 90
        1
176
     1
 40
40.0
176
     1
 90
        8
176
     1
 62
     7
176
     1
 40
1.0
176
     1
 90
        1
176
     1
 90
        6
176
     1
 90
        2
176
     1
 62
     7
176
     1
 90
        3
176
     1
 90
        0
176
     1
 90
        0
176
     1
290
     0
176
     1
 90
        1
176
     1
 40
0.0
176
     1
 90
        0
176
     1
290
     0
176
     1
290
     1
176
     1
290
     1
176
     1
290
     0
176
     1
290
     0
176
     1
290
     0
176
     1
290
     0
176
     1
290
     0
176
     1
290
     0
176
     1
 90
       50
176
     1
 40
0.0
176
     1
 40
1.0
176
     1
 90
        0
176
     1
 62
    18
420
        0
176
     1
 90
       50
176
     1
 90
        3
176
     1
 62
     5
420
      255
176
     1
290
     0
176
     1
 90
       50
176
     1
 90
       50
176
     1
 90
       50
176
     1
290
     0
176
     1
 90
       50
176
     1
 62
   256
176
     0
 40
1.0
176
     0
 90
        2
176
     1
  1
strokes_ogs.tif
176
     1
290
     0
176
     1
 40
1.0
176
     1
 40
1.0
176
     1
1001
ACAD
1000
AcDbSavedByObjectVersion
1070
     0
  0
VISUALSTYLE
  5
9AF
102
{ACAD_REACTORS
330
2A
102
}
330
2A
100
AcDbVisualStyle
  2

 70
    24
177
     3
291
     0
 70
    58
 90
        1
176
     1
 90
        2
176
     1
 90
        2
176
     1
 90
        0
176
     1
 40
0.6
176
     1
 40
30.0
176
     1
 62
     7
420
 16777215
176
     1
 90
        2
176
     1
 90
        2
176
     1
 62
     7
176
     1
 62
     7
176
     1
 90
        1
176
     1
 90
        1
176
     1
 40
40.0
176
     1
 90
       11
176
     1
 62
     7
176
     1
 40
1.0
176
     1
 90
        1
176
     1
 90
        6
176
     1
 90
        2
176
     1
 62
     7
176
     1
 90
        6
176
     1
 90
        0
176
     1
 90
        0
176
     1
290
     0
176
     1
 90
        1
176
     1
 40
0.0
176
     1
 90
        0
176
     1
290
     0
176
     1
290
     1
176
     1
290
     1
176
     1
290
     0
176
     1
290
     0
176
     1
290
     0
176
     1
290
     0
176
     1
290
     0
176
     1
290
     0
176
     1
 90
       50
176
     1
 40
0.0
176
     1
 40
1.0
176
     1
 90
        0
176
     1
 62
    18
420
        0
176
     1
 90
       50
176
     1
 90
        3
176
     1
 62
     5
420
      255
176
     1
290
     0
176
     1
 90
       50
176
     1
 90
       50
176
     1
 90
       50
176
     1
290
     0
176
     1
 90
       50
176
     1
 62
   256
176
     0
 40
1.0
176
     0
 90
        2
176
     1
  1
strokes_ogs.tif
176
     1
290
     0
176
     1
 40
1.0
176
     1
 40
1.0
176
     1
1001
ACAD
1000
AcDbSavedByObjectVersion
1070
     0
  0
VISUALSTYLE
  5
37
102
{ACAD_REACTORS
330
2A
102
}
330
2A
100
AcDbVisualStyle
  2

 70
    13
177
     3
291
     1
 70
    58
 90
        2
176
     1
 90
        2
176
     1
 90
        0
176
     1
 90
        0
176
     1
 40
0.6
176
     1
 40
30.0
176
     1
 62
     7
176
     1
 90
        1
176
     1
 90
        4
176
     1
 62
     7
176
     1
 62
   257
176
     1
 90
        1
176
     1
 90
        1
176
     1
 40
1.0
176
     1
 90
       12
176
     1
 62
     7
176
     1
 40
1.0
176
     1
 90
        1
176
     1
 90
        6
176
     1
 90
        2
176
     1
 62
     7
176
     1
 90
        5
176
     1
 90
        0
176
     1
 90
        0
176
     1
290
     0
176
     1
 90
        1
176
     1
 40
0.0
176
     1
 90
        0
176
     1
290
     0
176
     1
290
     1
176
     1
290
     1
176
     1
290
     0
176
     1
290
     0
176
     1
290
     0
176
     1
290
     0
176
     1
290
     0
176
     1
290
     0
176
     1
 90
       50
176
     1
 40
0.0
176
     1
 40
1.0
176
     1
 90
        0
176
     1
 62
    18
420
        0
176
     1
 90
       50
176
     1
 90
        3
176
     1
 62
     5
420
      255
176
     1
290
     0
176
     1
 90
       50
176
     1
 90
       50
176
     1
 90
       50
176
     1
290
     0
176
     1
 90
       50
176
     1
 62
   256
176
     0
 40
1.0
176
     0
 90
        2
176
     1
  1
strokes_ogs.tif
176
     1
290
     0
176
     1
 40
1.0
176
     1
 40
1.0
176
     1
1001
ACAD
1000
AcDbSavedByObjectVersion
1070
     0
  0
VISUALSTYLE
  5
9AC
102
{ACAD_REACTORS
330
2A
102
}
330
2A
100
AcDbVisualStyle
  2

 70
     5
177
     3
291
     0
 70
    58
 90
        0
176
     1
 90
        2
176
     1
 90
        0
176
     1
 90
        0
176
     1
 40
0.6
176
     1
 40
30.0
176
     1
 62
     7
420
 16777215
176
     1
 90
        1
176
     1
 90
        4
176
     1
 62
     7
176
     1
 62
   257
176
     1
 90
        1
176
     1
 90
        1
176
     1
 40
1.0
176
     1
 90
        0
176
     1
 62
   257
176
     1
 40
1.0
176
     1
 90
        1
176
     1
 90
        6
176
     1
 90
        2
176
     1
 62
     7
176
     1
 90
        3
176
     1
 90
        0
176
     1
 90
        0
176
     1
290
     0
176
     1
 90
        1
176
     1
 40
0.0
176
     1
 90
        0
176
     1
290
     0
176
     1
290
     1
176
     1
290
     1
176
     1
290
     0
176
     1
290
     0
176
     1
290
     0
176
     1
290
     0
176
     1
290
     0
176
     1
290
     0
176
     1
 90
       50
176
     1
 40
0.0
176
     1
 40
1.0
176
     1
 90
        0
176
     1
 62
    18
420
        0
176
     1
 90
       50
176
     1
 90
        3
176
     1
 62
     5
420
      255
176
     1
290
     0
176
     1
 90
       50
176
     1
 90
       50
176
     1
 90
       50
176
     1
290
     0
176
     1
 90
       50
176
     1
 62
   256
176
     0
 40
1.0
176
     0
 90
        2
176
     1
  1
strokes_ogs.tif
176
     1
290
     0
176
     1
 40
1.0
176
     1
 40
1.0
176
     1
1001
ACAD
1000
AcDbSavedByObjectVersion
1070
     0
  0
VISUALSTYLE
  5
9B0
102
{ACAD_REACTORS
330
2A
102
}
330
2A
100
AcDbVisualStyle
  2

 70
    25
177
     3
291
     0
 70
    58
 90
        2
176
     1
 90
        2
176
     1
 90
        1
176
     1
 90
        1
176
     1
 40
0.5
176
     1
 40
30.0
176
     1
 62
     7
420
 16777215
176
     1
 90
        1
176
     1
 90
        0
176
     1
 62
     7
176
     1
 62
   257
176
     1
 90
        1
176
     1
 90
        1
176
     1
 40
1.0
176
     1
 90
        8
176
     1
 62
     7
176
     1
 40
1.0
176
     1
 90
        1
176
     1
 90
        6
176
     1
 90
        2
176
     1
 62
     7
176
     1
 90
        3
176
     1
 90
        0
176
     1
 90
        0
176
     1
290
     0
176
     1
 90
       13
176
     1
 40
0.0
176
     1
 90
        0
176
     1
290
     0
176
     1
290
     1
176
     1
290
     1
176
     1
290
     0
176
     1
290
     0
176
     1
290
     0
176
     1
290
     0
176
     1
290
     0
176
     1
290
     0
176
     1
 90
       50
176
     1
 40
0.0
176
     1
 40
1.0
176
     1
 90
        0
176
     1
 62
    18
420
        0
176
     1
 90
       50
176
     1
 90
        3
176
     1
 62
     5
420
      255
176
     1
290
     0
176
     1
 90
       50
176
     1
 90
       50
176
     1
 90
       50
176
     1
290
     0
176
     1
 90
       50
176
     1
 62
   256
176
     0
 40
1.0
176
     0
 90
        2
176
     1
  1
strokes_ogs.tif
176
     1
290
     0
176
     1
 40
1.0
176
     1
 40
1.0
176
     1
1001
ACAD
1000
AcDbSavedByObjectVersion
1070
     0
  0
DICTIONARYVAR
  5
C1F
102
{ACAD_REACTORS
330
9D
102
}
330
9D
100
DictionaryVariables
280
     0
  1
1:1
  0
DICTIONARYVAR
  5
C1B
102
{ACAD_REACTORS
330
9D
102
}
330
9D
100
DictionaryVariables
280
     0
  1
STANDARD
  0
DICTIONARYVAR
  5
9E
102
{ACAD_REACTORS
330
9D
102
}
330
9D
100
DictionaryVariables
280
     0
  1
STANDARD
  0
DICTIONARYVAR
  5
C1C
102
{ACAD_REACTORS
330
9D
102
}
330
9D
100
DictionaryVariables
280
     0
  1
Imperial24
  0
DICTIONARYVAR
  5
C1D
102
{ACAD_REACTORS
330
9D
102
}
330
9D
100
DictionaryVariables
280
     0
  1
Imperial24
  0
DICTIONARYVAR
  5
A1
102
{ACAD_REACTORS
330
9D
102
}
330
9D
100
DictionaryVariables
280
     0
  1
1
  0
DICTIONARYVAR
  5
A0
102
{ACAD_REACTORS
330
9D
102
}
330
9D
100
DictionaryVariables
280
     0
  1
0
  0
DICTIONARYVAR
  5
C21
102
{ACAD_REACTORS
330
9D
102
}
330
9D
100
DictionaryVariables
280
     0
  1
1
  0
DICTIONARYVAR
  5
C22
102
{ACAD_REACTORS
330
9D
102
}
330
9D
100
DictionaryVariables
280
     0
  1
15
  0
DICTIONARYVAR
  5
C20
102
{ACAD_REACTORS
330
9D
102
}
330
9D
100
DictionaryVariables
280
     0
  1
0
  0
DICTIONARYVAR
  5
C1E
102
{ACAD_REACTORS
330
9D
102
}
330
9D
100
DictionaryVariables
280
     0
  1
0
  0
DICTIONARYVAR
  5
9F
102
{ACAD_REACTORS
330
9D
102
}
330
9D
100
DictionaryVariables
280
     0
  1
127
  0
DICTIONARY
  5
ED1
330
9CD
100
AcDbDictionary
280
     1
281
     1
  3
ACAD_XREC_ROUNDTRIP
360
ED2
  0
DICTIONARY
  5
A5
330
8E
100
AcDbDictionary
280
     1
281
     1
  3
ACAD_XREC_ROUNDTRIP
360
A6
  0
DICTIONARY
  5
A3
330
8D
100
AcDbDictionary
280
     1
281
     1
  3
ACAD_XREC_ROUNDTRIP
360
A4
  0
DICTIONARY
  5
A7
330
8F
100
AcDbDictionary
280
     1
281
     1
  3
ACAD_XREC_ROUNDTRIP
360
A8
  0
DICTIONARY
  5
ECF
330
9CB
100
AcDbDictionary
280
     1
281
     1
  3
ACAD_XREC_ROUNDTRIP
360
ED0
  0
DICTIONARY
  5
C24
330
92
100
AcDbDictionary
280
     1
281
     1
  3
ACAD_ROUNDTRIP_2008_TABLESTYLE_CELLSTYLEMAP
360
ECC
  0
XRECORD
  5
ED2
102
{ACAD_REACTORS
330
ED1
102
}
330
ED1
100
AcDbXrecord
280
     1
102
DISPLAYNAME
  1
Imperial24
102
FLAGS
 90
        0
  0
XRECORD
  5
A6
102
{ACAD_REACTORS
330
A5
102
}
330
A5
100
AcDbXrecord
280
     1
102
MATERIAL
148
0.0
149
0.0
149
0.0
 93
        0
 94
       63
282
     0
 72
     1
 77
     1
171
     1
175
     1
179
     1
273
     0
  0
XRECORD
  5
A4
102
{ACAD_REACTORS
330
A3
102
}
330
A3
100
AcDbXrecord
280
     1
102
MATERIAL
148
0.0
149
0.0
149
0.0
 93
        0
 94
       63
282
     0
 72
     1
 77
     1
171
     1
175
     1
179
     1
273
     0
  0
XRECORD
  5
A8
102
{ACAD_REACTORS
330
A7
102
}
330
A7
100
AcDbXrecord
280
     1
102
MATERIAL
148
0.0
149
0.0
149
0.0
 93
        0
 94
       63
282
     0
 72
     1
 77
     1
171
     1
175
     1
179
     1
273
     0
  0
XRECORD
  5
ED0
102
{ACAD_REACTORS
330
ECF
102
}
330
ECF
100
AcDbXrecord
280
     1
102
DISPLAYNAME
  1
Imperial24
102
FLAGS
 90
        0
  0
CELLSTYLEMAP
  5
ECC
102
{ACAD_REACTORS
330
C24
102
}
330
C24
100
AcDbCellStyleMap
 90
        3
300
CELLSTYLE
  1
TABLEFORMAT_BEGIN
 90
        5
170
     1
 91
        0
 92
    32768
 62
   257
 93
        1
300
CONTENTFORMAT
  1
CONTENTFORMAT_BEGIN
 90
        0
 91
        0
 92
      512
 93
        0
300

 40
0.0
140
1.0
 94
        5
 62
     0
340
11
144
0.25
309
CONTENTFORMAT_END
171
     1
301
MARGIN
  1
CELLMARGIN_BEGIN
 40
0.06
 40
0.06
 40
0.06
 40
0.06
 40
0.18
 40
0.18
309
CELLMARGIN_END
 94
        6
 95
        1
302
GRIDFORMAT
  1
GRIDFORMAT_BEGIN
 90
        0
 91
        1
 62
     0
 92
       -2
340
0
 93
        0
 40
0.045
309
GRIDFORMAT_END
 95
        2
302
GRIDFORMAT
  1
GRIDFORMAT_BEGIN
 90
        0
 91
        1
 62
     0
 92
       -2
340
0
 93
        0
 40
0.045
309
GRIDFORMAT_END
 95
        4
302
GRIDFORMAT
  1
GRIDFORMAT_BEGIN
 90
        0
 91
        1
 62
     0
 92
       -2
340
0
 93
        0
 40
0.045
309
GRIDFORMAT_END
 95
        8
302
GRIDFORMAT
  1
GRIDFORMAT_BEGIN
 90
        0
 91
        1
 62
     0
 92
       -2
340
0
 93
        0
 40
0.045
309
GRIDFORMAT_END
 95
       16
302
GRIDFORMAT
  1
GRIDFORMAT_BEGIN
 90
        0
 91
        1
 62
     0
 92
       -2
340
0
 93
        0
 40
0.045
309
GRIDFORMAT_END
 95
       32
302
GRIDFORMAT
  1
GRIDFORMAT_BEGIN
 90
        0
 91
        1
 62
     0
 92
       -2
340
0
 93
        0
 40
0.045
309
GRIDFORMAT_END
309
TABLEFORMAT_END
  1
CELLSTYLE_BEGIN
 90
        1
 91
        1
300
_TITLE
309
CELLSTYLE_END
300
CELLSTYLE
  1
TABLEFORMAT_BEGIN
 90
        5
170
     1
 91
        0
 92
        0
 62
   257
 93
        1
300
CONTENTFORMAT
  1
CONTENTFORMAT_BEGIN
 90
        0
 91
        0
 92
      512
 93
        0
300

 40
0.0
140
1.0
 94
        5
 62
     0
340
11
144
0.18
309
CONTENTFORMAT_END
171
     1
301
MARGIN
  1
CELLMARGIN_BEGIN
 40
0.06
 40
0.06
 40
0.06
 40
0.06
 40
0.18
 40
0.18
309
CELLMARGIN_END
 94
        6
 95
        1
302
GRIDFORMAT
  1
GRIDFORMAT_BEGIN
 90
        0
 91
        1
 62
     0
 92
       -2
340
0
 93
        0
 40
0.045
309
GRIDFORMAT_END
 95
        2
302
GRIDFORMAT
  1
GRIDFORMAT_BEGIN
 90
        0
 91
        1
 62
     0
 92
       -2
340
0
 93
        0
 40
0.045
309
GRIDFORMAT_END
 95
        4
302
GRIDFORMAT
  1
GRIDFORMAT_BEGIN
 90
        0
 91
        1
 62
     0
 92
       -2
340
0
 93
        0
 40
0.045
309
GRIDFORMAT_END
 95
        8
302
GRIDFORMAT
  1
GRIDFORMAT_BEGIN
 90
        0
 91
        1
 62
     0
 92
       -2
340
0
 93
        0
 40
0.045
309
GRIDFORMAT_END
 95
       16
302
GRIDFORMAT
  1
GRIDFORMAT_BEGIN
 90
        0
 91
        1
 62
     0
 92
       -2
340
0
 93
        0
 40
0.045
309
GRIDFORMAT_END
 95
       32
302
GRIDFORMAT
  1
GRIDFORMAT_BEGIN
 90
        0
 91
        1
 62
     0
 92
       -2
340
0
 93
        0
 40
0.045
309
GRIDFORMAT_END
309
TABLEFORMAT_END
  1
CELLSTYLE_BEGIN
 90
        2
 91
        1
300
_HEADER
309
CELLSTYLE_END
300
CELLSTYLE
  1
TABLEFORMAT_BEGIN
 90
        5
170
     1
 91
        0
 92
        0
 62
   257
 93
        1
300
CONTENTFORMAT
  1
CONTENTFORMAT_BEGIN
 90
        0
 91
        0
 92
      512
 93
        0
300

 40
0.0
140
1.0
 94
        2
 62
     0
340
11
144
0.18
309
CONTENTFORMAT_END
171
     1
301
MARGIN
  1
CELLMARGIN_BEGIN
 40
0.06
 40
0.06
 40
0.06
 40
0.06
 40
0.18
 40
0.18
309
CELLMARGIN_END
 94
        6
 95
        1
302
GRIDFORMAT
  1
GRIDFORMAT_BEGIN
 90
        0
 91
        1
 62
     0
 92
       -2
340
0
 93
        0
 40
0.045
309
GRIDFORMAT_END
 95
        2
302
GRIDFORMAT
  1
GRIDFORMAT_BEGIN
 90
        0
 91
        1
 62
     0
 92
       -2
340
0
 93
        0
 40
0.045
309
GRIDFORMAT_END
 95
        4
302
GRIDFORMAT
  1
GRIDFORMAT_BEGIN
 90
        0
 91
        1
 62
     0
 92
       -2
340
0
 93
        0
 40
0.045
309
GRIDFORMAT_END
 95
        8
302
GRIDFORMAT
  1
GRIDFORMAT_BEGIN
 90
        0
 91
        1
 62
     0
 92
       -2
340
0
 93
        0
 40
0.045
309
GRIDFORMAT_END
 95
       16
302
GRIDFORMAT
  1
GRIDFORMAT_BEGIN
 90
        0
 91
        1
 62
     0
 92
       -2
340
0
 93
        0
 40
0.045
309
GRIDFORMAT_END
 95
       32
302
GRIDFORMAT
  1
GRIDFORMAT_BEGIN
 90
        0
 91
        1
 62
     0
 92
       -2
340
0
 93
        0
 40
0.045
309
GRIDFORMAT_END
309
TABLEFORMAT_END
  1
CELLSTYLE_BEGIN
 90
        3
 91
        2
300
_DATA
309
CELLSTYLE_END
  0
ENDSEC
  0
EOF
