  0
SECTION
  2
HEADER
  9
$ACADVER
  1
AC1024
  9
$ACADMAINTVER
 70
   205
  9
$DWGCODEPAGE
  3
ANSI_1252
  9
$LASTSAVEDBY
  1
kaschu
  9
$INSBASE
 10
0.0
 20
0.0
 30
0.0
  9
$EXTMIN
 10
32.69333680055911
 20
42.55339504474796
 30
0.0
  9
$EXTMAX
 10
1292.308592983046
 20
1059.349610100679
 30
0.0
  9
$LIMMIN
 10
0.0
 20
0.0
  9
$LIMMAX
 10
12.0
 20
9.0
  9
$ORTHOMODE
 70
     0
  9
$REGENMODE
 70
     1
  9
$FILLMODE
 70
     1
  9
$QTEXTMODE
 70
     0
  9
$MIRRTEXT
 70
     1
  9
$LTSCALE
 40
1.0
  9
$ATTMODE
 70
     1
  9
$TEXTSIZE
 40
0.2
  9
$TRACEWID
 40
0.05
  9
$TEXTSTYLE
  7
STANDARD
  9
$CLAYER
  8
0
  9
$CELTYPE
  6
BYLAYER
  9
$CECOLOR
 62
   256
  9
$CELTSCALE
 40
1.0
  9
$DISPSILH
 70
     0
  9
$DIMSCALE
 40
1.0
  9
$DIMASZ
 40
0.18
  9
$DIMEXO
 40
0.0625
  9
$DIMDLI
 40
0.38
  9
$DIMRND
 40
0.0
  9
$DIMDLE
 40
0.0
  9
$DIMEXE
 40
0.18
  9
$DIMTP
 40
0.0
  9
$DIMTM
 40
0.0
  9
$DIMTXT
 40
0.18
  9
$DIMCEN
 40
0.09
  9
$DIMTSZ
 40
0.0
  9
$DIMTOL
 70
     0
  9
$DIMLIM
 70
     0
  9
$DIMTIH
 70
     1
  9
$DIMTOH
 70
     1
  9
$DIMSE1
 70
     0
  9
$DIMSE2
 70
     0
  9
$DIMTAD
 70
     0
  9
$DIMZIN
 70
     0
  9
$DIMBLK
  1

  9
$DIMASO
 70
     1
  9
$DIMSHO
 70
     1
  9
$DIMPOST
  1

  9
$DIMAPOST
  1

  9
$DIMALT
 70
     0
  9
$DIMALTD
 70
     2
  9
$DIMALTF
 40
25.4
  9
$DIMLFAC
 40
1.0
  9
$DIMTOFL
 70
     0
  9
$DIMTVP
 40
0.0
  9
$DIMTIX
 70
     0
  9
$DIMSOXD
 70
     0
  9
$DIMSAH
 70
     0
  9
$DIMBLK1
  1

  9
$DIMBLK2
  1

  9
$DIMSTYLE
  2
STANDARD
  9
$DIMCLRD
 70
     0
  9
$DIMCLRE
 70
     0
  9
$DIMCLRT
 70
     0
  9
$DIMTFAC
 40
1.0
  9
$DIMGAP
 40
0.09
  9
$DIMJUST
 70
     0
  9
$DIMSD1
 70
     0
  9
$DIMSD2
 70
     0
  9
$DIMTOLJ
 70
     1
  9
$DIMTZIN
 70
     0
  9
$DIMALTZ
 70
     0
  9
$DIMALTTZ
 70
     0
  9
$DIMUPT
 70
     0
  9
$DIMDEC
 70
     4
  9
$DIMTDEC
 70
     4
  9
$DIMALTU
 70
     2
  9
$DIMALTTD
 70
     2
  9
$DIMTXSTY
  7
STANDARD
  9
$DIMAUNIT
 70
     0
  9
$DIMADEC
 70
     0
  9
$DIMALTRND
 40
0.0
  9
$DIMAZIN
 70
     0
  9
$DIMDSEP
 70
    46
  9
$DIMATFIT
 70
     3
  9
$DIMFRAC
 70
     0
  9
$DIMLDRBLK
  1

  9
$DIMLUNIT
 70
     2
  9
$DIMLWD
 70
    -2
  9
$DIMLWE
 70
    -2
  9
$DIMTMOVE
 70
     0
  9
$DIMFXL
 40
1.0
  9
$DIMFXLON
 70
     0
  9
$DIMJOGANG
 40
1.570796326794896
  9
$DIMTFILL
 70
     0
  9
$DIMTFILLCLR
 70
     0
  9
$DIMARCSYM
 70
     0
  9
$DIMLTYPE
  6

  9
$DIMLTEX1
  6

  9
$DIMLTEX2
  6

  9
$DIMTXTDIRECTION
 70
     0
  9
$LUNITS
 70
     2
  9
$LUPREC
 70
     4
  9
$SKETCHINC
 40
0.1
  9
$FILLETRAD
 40
0.5
  9
$AUNITS
 70
     0
  9
$AUPREC
 70
     0
  9
$MENU
  1
.
  9
$ELEVATION
 40
0.0
  9
$PELEVATION
 40
0.0
  9
$THICKNESS
 40
0.0
  9
$LIMCHECK
 70
     0
  9
$CHAMFERA
 40
0.5
  9
$CHAMFERB
 40
0.5
  9
$CHAMFERC
 40
1.0
  9
$CHAMFERD
 40
0.0
  9
$SKPOLY
 70
     0
  9
$TDCREATE
 40
2451762.468371991
  9
$TDUCREATE
 40
2451762.426705324
  9
$TDUPDATE
 40
2458933.388349398
  9
$TDUUPDATE
 40
2458933.346682731
  9
$TDINDWG
 40
0.1076056250
  9
$TDUSRTIMER
 40
0.1075932870
  9
$USRTIMER
 70
     1
  9
$ANGBASE
 50
0.0
  9
$ANGDIR
 70
     0
  9
$PDMODE
 70
     0
  9
$PDSIZE
 40
0.0
  9
$PLINEWID
 40
0.0
  9
$SPLFRAME
 70
     0
  9
$SPLINETYPE
 70
     6
  9
$SPLINESEGS
 70
     8
  9
$HANDSEED
  5
41F7
  9
$SURFTAB1
 70
     6
  9
$SURFTAB2
 70
     6
  9
$SURFTYPE
 70
     6
  9
$SURFU
 70
     6
  9
$SURFV
 70
     6
  9
$UCSBASE
  2

  9
$UCSNAME
  2

  9
$UCSORG
 10
0.0
 20
0.0
 30
0.0
  9
$UCSXDIR
 10
1.0
 20
0.0
 30
0.0
  9
$UCSYDIR
 10
0.0
 20
1.0
 30
0.0
  9
$UCSORTHOREF
  2

  9
$UCSORTHOVIEW
 70
     0
  9
$UCSORGTOP
 10
0.0
 20
0.0
 30
0.0
  9
$UCSORGBOTTOM
 10
0.0
 20
0.0
 30
0.0
  9
$UCSORGLEFT
 10
0.0
 20
0.0
 30
0.0
  9
$UCSORGRIGHT
 10
0.0
 20
0.0
 30
0.0
  9
$UCSORGFRONT
 10
0.0
 20
0.0
 30
0.0
  9
$UCSORGBACK
 10
0.0
 20
0.0
 30
0.0
  9
$PUCSBASE
  2

  9
$PUCSNAME
  2

  9
$PUCSORG
 10
0.0
 20
0.0
 30
0.0
  9
$PUCSXDIR
 10
1.0
 20
0.0
 30
0.0
  9
$PUCSYDIR
 10
0.0
 20
1.0
 30
0.0
  9
$PUCSORTHOREF
  2

  9
$PUCSORTHOVIEW
 70
     0
  9
$PUCSORGTOP
 10
0.0
 20
0.0
 30
0.0
  9
$PUCSORGBOTTOM
 10
0.0
 20
0.0
 30
0.0
  9
$PUCSORGLEFT
 10
0.0
 20
0.0
 30
0.0
  9
$PUCSORGRIGHT
 10
0.0
 20
0.0
 30
0.0
  9
$PUCSORGFRONT
 10
0.0
 20
0.0
 30
0.0
  9
$PUCSORGBACK
 10
0.0
 20
0.0
 30
0.0
  9
$USERI1
 70
     0
  9
$USERI2
 70
     0
  9
$USERI3
 70
     0
  9
$USERI4
 70
     0
  9
$USERI5
 70
     0
  9
$USERR1
 40
0.0
  9
$USERR2
 40
0.0
  9
$USERR3
 40
0.0
  9
$USERR4
 40
0.0
  9
$USERR5
 40
0.0
  9
$WORLDVIEW
 70
     1
  9
$SHADEDGE
 70
     3
  9
$SHADEDIF
 70
    70
  9
$TILEMODE
 70
     1
  9
$MAXACTVP
 70
    64
  9
$PINSBASE
 10
0.0
 20
0.0
 30
0.0
  9
$PLIMCHECK
 70
     0
  9
$PEXTMIN
 10
1.000000000000000E+20
 20
1.000000000000000E+20
 30
1.000000000000000E+20
  9
$PEXTMAX
 10
-1.000000000000000E+20
 20
-1.000000000000000E+20
 30
-1.000000000000000E+20
  9
$PLIMMIN
 10
0.0
 20
0.0
  9
$PLIMMAX
 10
12.0
 20
9.0
  9
$UNITMODE
 70
     0
  9
$VISRETAIN
 70
     1
  9
$PLINEGEN
 70
     0
  9
$PSLTSCALE
 70
     1
  9
$TREEDEPTH
 70
  3020
  9
$CMLSTYLE
  2
STANDARD
  9
$CMLJUST
 70
     0
  9
$CMLSCALE
 40
1.0
  9
$PROXYGRAPHICS
 70
     1
  9
$MEASUREMENT
 70
     0
  9
$CELWEIGHT
370
    -1
  9
$ENDCAPS
280
     0
  9
$JOINSTYLE
280
     0
  9
$LWDISPLAY
290
     0
  9
$INSUNITS
 70
     0
  9
$HYPERLINKBASE
  1

  9
$STYLESHEET
  1

  9
$XEDIT
290
     1
  9
$CEPSNTYPE
380
     0
  9
$PSTYLEMODE
290
     1
  9
$FINGERPRINTGUID
  2
{07D082D4-8E9D-48F0-9949-F8C76B91C45A}
  9
$VERSIONGUID
  2
{731588CE-80A4-4DBB-89C7-873E13BA0071}
  9
$EXTNAMES
290
     1
  9
$PSVPSCALE
 40
0.0
  9
$OLESTARTUP
290
     0
  9
$SORTENTS
280
   127
  9
$INDEXCTL
280
     0
  9
$HIDETEXT
280
     0
  9
$XCLIPFRAME
280
     2
  9
$HALOGAP
280
     0
  9
$OBSCOLOR
 70
   257
  9
$OBSLTYPE
280
     0
  9
$INTERSECTIONDISPLAY
280
     0
  9
$INTERSECTIONCOLOR
 70
   257
  9
$DIMASSOC
280
     1
  9
$PROJECTNAME
  1

  9
$CAMERADISPLAY
290
     0
  9
$LENSLENGTH
 40
50.0
  9
$CAMERAHEIGHT
 40
0.0
  9
$STEPSPERSEC
 40
2.0
  9
$STEPSIZE
 40
6.0
  9
$3DDWFPREC
 40
2.0
  9
$PSOLWIDTH
 40
0.25
  9
$PSOLHEIGHT
 40
4.0
  9
$LOFTANG1
 40
1.570796326794896
  9
$LOFTANG2
 40
1.570796326794896
  9
$LOFTMAG1
 40
0.0
  9
$LOFTMAG2
 40
0.0
  9
$LOFTPARAM
 70
     7
  9
$LOFTNORMALS
280
     1
  9
$LATITUDE
 40
37.795
  9
$LONGITUDE
 40
-122.394
  9
$NORTHDIRECTION
 40
0.0
  9
$TIMEZONE
 70
 -8000
  9
$LIGHTGLYPHDISPLAY
280
     1
  9
$TILEMODELIGHTSYNCH
280
     1
  9
$CMATERIAL
347
1D7
  9
$SOLIDHIST
280
     0
  9
$SHOWHIST
280
     1
  9
$DWFFRAME
280
     2
  9
$DGNFRAME
280
     0
  9
$REALWORLDSCALE
290
     1
  9
$INTERFERECOLOR
 62
     1
  9
$INTERFEREOBJVS
345
1E4
  9
$INTERFEREVPVS
346
5CB
  9
$CSHADOW
280
     0
  9
$SHADOWPLANELOCATION
 40
0.0
  0
ENDSEC
  0
SECTION
  2
CLASSES
  0
CLASS
  1
ACDBDICTIONARYWDFLT
  2
AcDbDictionaryWithDefault
  3
ObjectDBX Classes
 90
        0
 91
        1
280
     0
281
     0
  0
CLASS
  1
MATERIAL
  2
AcDbMaterial
  3
ObjectDBX Classes
 90
     1153
 91
        3
280
     0
281
     0
  0
CLASS
  1
VISUALSTYLE
  2
AcDbVisualStyle
  3
ObjectDBX Classes
 90
     4095
 91
       26
280
     0
281
     0
  0
CLASS
  1
TABLESTYLE
  2
AcDbTableStyle
  3
ObjectDBX Classes
 90
     4095
 91
        1
280
     0
281
     0
  0
CLASS
  1
DICTIONARYVAR
  2
AcDbDictionaryVar
  3
ObjectDBX Classes
 90
        0
 91
       12
280
     0
281
     0
  0
CLASS
  1
SORTENTSTABLE
  2
AcDbSortentsTable
  3
ObjectDBX Classes
 90
        0
 91
        3
280
     0
281
     0
  0
CLASS
  1
SCALE
  2
AcDbScale
  3
ObjectDBX Classes
 90
     1153
 91
       17
280
     0
281
     0
  0
CLASS
  1
MLEADERSTYLE
  2
AcDbMLeaderStyle
  3
ACDB_MLEADERSTYLE_CLASS
 90
     4095
 91
        1
280
     0
281
     0
  0
CLASS
  1
ACDBSECTIONVIEWSTYLE
  2
AcDbSectionViewStyle
  3
ObjectDBX Classes
 90
     1025
 91
        2
280
     0
281
     0
  0
CLASS
  1
ACDBDETAILVIEWSTYLE
  2
AcDbDetailViewStyle
  3
ObjectDBX Classes
 90
     1025
 91
        2
280
     0
281
     0
  0
CLASS
  1
CELLSTYLEMAP
  2
AcDbCellStyleMap
  3
ObjectDBX Classes
 90
     1152
 91
        3
280
     0
281
     0
  0
ENDSEC
  0
SECTION
  2
TABLES
  0
TABLE
  2
VPORT
  5
8
330
0
100
AcDbSymbolTable
 70
     1
  0
VPORT
  5
1B1
330
8
100
AcDbSymbolTableRecord
100
AcDbViewportTableRecord
  2
*ACTIVE
 70
     0
 10
0.0
 20
0.0
 11
1.0
 21
1.0
 12
1064.828378220613
 22
581.1093059669006
 13
0.0
 23
0.0
 14
0.5
 24
0.5
 15
0.5
 25
0.5
 16
0.0
 26
0.0
 36
1.0
 17
0.0
 27
0.0
 37
0.0
 40
1438.143130899035
 41
2.271978021978021
 42
50.0
 43
0.0
 44
0.0
 50
0.0
 51
0.0
 71
     0
 72
   100
 73
     1
 74
     3
 75
     0
 76
     0
 77
     0
 78
     0
281
     0
 65
     1
110
0.0
120
0.0
130
0.0
111
1.0
121
0.0
131
0.0
112
0.0
122
1.0
132
0.0
 79
     0
146
0.0
348
1E0
 60
     3
 61
     5
292
     1
282
     1
141
0.0
142
0.0
 63
   250
421
  3355443
1001
ACAD_NAV_VCDISPLAY
1070
     3
  0
ENDTAB
  0
TABLE
  2
LTYPE
  5
5
330
0
100
AcDbSymbolTable
 70
     3
  0
LTYPE
  5
14
330
5
100
AcDbSymbolTableRecord
100
AcDbLinetypeTableRecord
  2
BYBLOCK
 70
     0
  3

 72
    65
 73
     0
 40
0.0
  0
LTYPE
  5
15
330
5
100
AcDbSymbolTableRecord
100
AcDbLinetypeTableRecord
  2
BYLAYER
 70
     0
  3

 72
    65
 73
     0
 40
0.0
  0
LTYPE
  5
16
330
5
100
AcDbSymbolTableRecord
100
AcDbLinetypeTableRecord
  2
CONTINUOUS
 70
     0
  3
Solid line
 72
    65
 73
     0
 40
0.0
  0
LTYPE
  5
3DA
330
5
100
AcDbSymbolTableRecord
100
AcDbLinetypeTableRecord
  2
IMPORT
 70
     0
  3

 72
    65
 73
     0
 40
0.0
  0
LTYPE
  5
4D5
330
5
100
AcDbSymbolTableRecord
100
AcDbLinetypeTableRecord
  2
VERDECKT
 70
     0
  3
__ __ __ __ __ __ __ __ __ __ __ __ __ __ __ __
 72
    65
 73
     2
 40
0.375
 49
0.25
 74
     0
 49
-0.125
 74
     0
  0
ENDTAB
  0
TABLE
  2
LAYER
  5
2
102
{ACAD_XDICTIONARY
360
3E4
102
}
330
0
100
AcDbSymbolTable
 70
     7
  0
LAYER
  5
10
102
{ACAD_XDICTIONARY
360
624
102
}
330
2
100
AcDbSymbolTableRecord
100
AcDbLayerTableRecord
  2
0
 70
     0
 62
     7
  6
CONTINUOUS
370
    -3
390
10E
347
1D9
  0
LAYER
  5
2DC
330
2
100
AcDbSymbolTableRecord
100
AcDbLayerTableRecord
  2
Defpoints
 70
     0
 62
     7
  6
CONTINUOUS
290
     0
370
    -3
390
10E
347
1D9
  0
LAYER
  5
3DD
102
{ACAD_XDICTIONARY
360
626
102
}
330
2
100
AcDbSymbolTableRecord
100
AcDbLayerTableRecord
  2
STANDARD
 70
     0
 62
     7
  6
CONTINUOUS
370
    -3
390
10E
347
1D9
  0
LAYER
  5
4D6
102
{ACAD_XDICTIONARY
360
628
102
}
330
2
100
AcDbSymbolTableRecord
100
AcDbLayerTableRecord
  2
VD
 70
     0
 62
     4
  6
VERDECKT
370
    -3
390
10E
347
1D9
  0
LAYER
  5
4D7
102
{ACAD_XDICTIONARY
360
62A
102
}
330
2
100
AcDbSymbolTableRecord
100
AcDbLayerTableRecord
  2
HEWI
 70
     0
 62
     7
  6
CONTINUOUS
370
    -3
390
10E
347
1D9
  0
LAYER
  5
675
330
2
100
AcDbSymbolTableRecord
100
AcDbLayerTableRecord
  2
1
 70
     0
 62
     7
420
 16777215
  6
CONTINUOUS
370
    -3
390
10E
347
1D9
  0
LAYER
  5
3EA9
102
{ACAD_XDICTIONARY
360
3EAA
102
}
330
2
100
AcDbSymbolTableRecord
100
AcDbLayerTableRecord
  2
KK
 70
     0
 62
     2
  6
CONTINUOUS
370
    -3
390
10E
347
1D9
  0
ENDTAB
  0
TABLE
  2
STYLE
  5
3
330
0
100
AcDbSymbolTable
 70
     2
  0
STYLE
  5
11
330
3
100
AcDbSymbolTableRecord
100
AcDbTextStyleTableRecord
  2
STANDARD
 70
     0
 40
0.0
 41
1.0
 50
0.0
 71
     0
 42
0.2
  3
txt
  4

  0
STYLE
  5
3DE
330
3
100
AcDbSymbolTableRecord
100
AcDbTextStyleTableRecord
  2
Entro
 70
     0
 40
0.0
 41
1.0
 50
0.0
 71
     0
 42
3.0
  3
isocpeur.ttf
  4

1001
ACAD
1000
ISOCPEUR
1071
       34
  0
ENDTAB
  0
TABLE
  2
VIEW
  5
6
330
0
100
AcDbSymbolTable
 70
     0
  0
ENDTAB
  0
TABLE
  2
UCS
  5
7
330
0
100
AcDbSymbolTable
 70
     0
  0
ENDTAB
  0
TABLE
  2
APPID
  5
9
330
0
100
AcDbSymbolTable
 70
     6
  0
APPID
  5
12
330
9
100
AcDbSymbolTableRecord
100
AcDbRegAppTableRecord
  2
ACAD
 70
     0
  0
APPID
  5
3E2
330
9
100
AcDbSymbolTableRecord
100
AcDbRegAppTableRecord
  2
ACAD_PSEXT
 70
     0
  0
APPID
  5
3E3
330
9
100
AcDbSymbolTableRecord
100
AcDbRegAppTableRecord
  2
ACAD_DSTYLE_DIMJOGGED_JOGANGLE_SYMBOL
 70
     0
  0
APPID
  5
5B6
330
9
100
AcDbSymbolTableRecord
100
AcDbRegAppTableRecord
  2
ACAD_EXEMPT_FROM_CAD_STANDARDS
 70
     0
  0
APPID
  5
616
330
9
100
AcDbSymbolTableRecord
100
AcDbRegAppTableRecord
  2
ACAD_NAV_VCDISPLAY
 70
     0
  0
APPID
  5
1626
330
9
100
AcDbSymbolTableRecord
100
AcDbRegAppTableRecord
  2
ACAD_DSTYLE_DIMRADIAL_EXTENSION
 70
     0
  0
ENDTAB
  0
TABLE
  2
DIMSTYLE
  5
A
330
0
100
AcDbSymbolTable
 70
     3
100
AcDbDimStyleTable
 71
     2
340
27
340
3DF
  0
DIMSTYLE
105
27
330
A
100
AcDbSymbolTableRecord
100
AcDbDimStyleTableRecord
  2
STANDARD
 70
     0
340
11
  0
DIMSTYLE
105
3DF
330
A
100
AcDbSymbolTableRecord
100
AcDbDimStyleTableRecord
  2
AM_DIN
 70
     0
  4
"
 41
2.5
 42
1.0
 43
10.0
 44
1.0
 47
0.1
 48
0.1
 50
89.99999999999998
 73
     0
 74
     0
 77
     1
 78
     8
 79
     2
140
3.5
141
0.0
143
0.0393701
146
0.71
147
1.5
172
     1
176
   256
177
   256
178
     2
271
     2
272
     3
274
     4
283
     0
284
     8
340
11
371
    -1
372
    -1
1001
ACAD_DSTYLE_DIMJOGGED_JOGANGLE_SYMBOL
1070
   384
1040
1.570796326794896
  0
DIMSTYLE
105
3E1
330
A
100
AcDbSymbolTableRecord
100
AcDbDimStyleTableRecord
  2
AM_DIN$0
 70
     0
  4
"
 41
25.0
 42
1.0
 43
10.0
 44
10.0
 47
0.1
 48
0.1
 50
89.99999999999998
 73
     0
 74
     0
 77
     1
 78
     8
 79
     2
140
25.0
141
0.0
143
0.0393701
146
0.71
147
10.0
172
     1
176
   256
177
   256
178
   256
271
     2
272
     2
283
     0
284
     8
340
3DE
371
    -1
372
    -1
1001
ACAD_DSTYLE_DIMJOGGED_JOGANGLE_SYMBOL
1070
   384
1040
1.570796326794896
  0
ENDTAB
  0
TABLE
  2
BLOCK_RECORD
  5
1
330
0
100
AcDbSymbolTable
 70
    47
  0
BLOCK_RECORD
  5
1F
102
{ACAD_XDICTIONARY
360
107
102
}
330
1
100
AcDbSymbolTableRecord
100
AcDbBlockTableRecord
  2
*MODEL_SPACE
340
1EF
 70
     0
280
     1
281
     0
  0
BLOCK_RECORD
  5
1B
102
{ACAD_XDICTIONARY
360
105
102
}
330
1
100
AcDbSymbolTableRecord
100
AcDbBlockTableRecord
  2
*PAPER_SPACE
340
1F0
 70
     0
280
     1
281
     0
  0
BLOCK_RECORD
  5
4C0
330
1
100
AcDbSymbolTableRecord
100
AcDbBlockTableRecord
  2
*D0
340
0
 70
     0
280
     1
281
     0
  0
BLOCK_RECORD
  5
4E6
330
1
100
AcDbSymbolTableRecord
100
AcDbBlockTableRecord
  2
*D1
340
0
 70
     0
280
     1
281
     0
  0
BLOCK_RECORD
  5
5A7
330
1
100
AcDbSymbolTableRecord
100
AcDbBlockTableRecord
  2
*D2
340
0
 70
     0
280
     1
281
     0
  0
BLOCK_RECORD
  5
D57
330
1
100
AcDbSymbolTableRecord
100
AcDbBlockTableRecord
  2
*D3
340
0
 70
     0
280
     1
281
     0
  0
BLOCK_RECORD
  5
D66
330
1
100
AcDbSymbolTableRecord
100
AcDbBlockTableRecord
  2
*D4
340
0
 70
     0
280
     1
281
     0
  0
BLOCK_RECORD
  5
D7C
330
1
100
AcDbSymbolTableRecord
100
AcDbBlockTableRecord
  2
*D5
340
0
 70
     0
280
     1
281
     0
  0
BLOCK_RECORD
  5
D8A
330
1
100
AcDbSymbolTableRecord
100
AcDbBlockTableRecord
  2
*D6
340
0
 70
     0
280
     1
281
     0
  0
BLOCK_RECORD
  5
D99
330
1
100
AcDbSymbolTableRecord
100
AcDbBlockTableRecord
  2
*D7
340
0
 70
     0
280
     1
281
     0
  0
BLOCK_RECORD
  5
1531
330
1
100
AcDbSymbolTableRecord
100
AcDbBlockTableRecord
  2
*D8
340
0
 70
     0
280
     1
281
     0
  0
BLOCK_RECORD
  5
153F
330
1
100
AcDbSymbolTableRecord
100
AcDbBlockTableRecord
  2
*D9
340
0
 70
     0
280
     1
281
     0
  0
BLOCK_RECORD
  5
15E1
330
1
100
AcDbSymbolTableRecord
100
AcDbBlockTableRecord
  2
*D10
340
0
 70
     0
280
     1
281
     0
  0
BLOCK_RECORD
  5
15EF
330
1
100
AcDbSymbolTableRecord
100
AcDbBlockTableRecord
  2
*D11
340
0
 70
     0
280
     1
281
     0
  0
BLOCK_RECORD
  5
1628
330
1
100
AcDbSymbolTableRecord
100
AcDbBlockTableRecord
  2
*D12
340
0
 70
     0
280
     1
281
     0
  0
BLOCK_RECORD
  5
1635
330
1
100
AcDbSymbolTableRecord
100
AcDbBlockTableRecord
  2
*D13
340
0
 70
     0
280
     1
281
     0
  0
BLOCK_RECORD
  5
1A4B
330
1
100
AcDbSymbolTableRecord
100
AcDbBlockTableRecord
  2
*D14
340
0
 70
     0
280
     1
281
     0
  0
BLOCK_RECORD
  5
1A59
330
1
100
AcDbSymbolTableRecord
100
AcDbBlockTableRecord
  2
*D15
340
0
 70
     0
280
     1
281
     0
  0
BLOCK_RECORD
  5
1A68
330
1
100
AcDbSymbolTableRecord
100
AcDbBlockTableRecord
  2
*D16
340
0
 70
     0
280
     1
281
     0
  0
BLOCK_RECORD
  5
208D
330
1
100
AcDbSymbolTableRecord
100
AcDbBlockTableRecord
  2
*D17
340
0
 70
     0
280
     1
281
     0
  0
BLOCK_RECORD
  5
209B
330
1
100
AcDbSymbolTableRecord
100
AcDbBlockTableRecord
  2
*D18
340
0
 70
     0
280
     1
281
     0
  0
BLOCK_RECORD
  5
20BC
330
1
100
AcDbSymbolTableRecord
100
AcDbBlockTableRecord
  2
*D19
340
0
 70
     0
280
     1
281
     0
  0
BLOCK_RECORD
  5
20F3
330
1
100
AcDbSymbolTableRecord
100
AcDbBlockTableRecord
  2
*D20
340
0
 70
     0
280
     1
281
     0
  0
BLOCK_RECORD
  5
212B
330
1
100
AcDbSymbolTableRecord
100
AcDbBlockTableRecord
  2
*D21
340
0
 70
     0
280
     1
281
     0
  0
BLOCK_RECORD
  5
2139
330
1
100
AcDbSymbolTableRecord
100
AcDbBlockTableRecord
  2
*D22
340
0
 70
     0
280
     1
281
     0
  0
BLOCK_RECORD
  5
2148
330
1
100
AcDbSymbolTableRecord
100
AcDbBlockTableRecord
  2
*D23
340
0
 70
     0
280
     1
281
     0
  0
BLOCK_RECORD
  5
27E8
330
1
100
AcDbSymbolTableRecord
100
AcDbBlockTableRecord
  2
*D24
340
0
 70
     0
280
     1
281
     0
  0
BLOCK_RECORD
  5
27F7
330
1
100
AcDbSymbolTableRecord
100
AcDbBlockTableRecord
  2
*D25
340
0
 70
     0
280
     1
281
     0
  0
BLOCK_RECORD
  5
2806
330
1
100
AcDbSymbolTableRecord
100
AcDbBlockTableRecord
  2
*D26
340
0
 70
     0
280
     1
281
     0
  0
BLOCK_RECORD
  5
2817
330
1
100
AcDbSymbolTableRecord
100
AcDbBlockTableRecord
  2
*D27
340
0
 70
     0
280
     1
281
     0
  0
BLOCK_RECORD
  5
2825
330
1
100
AcDbSymbolTableRecord
100
AcDbBlockTableRecord
  2
*D28
340
0
 70
     0
280
     1
281
     0
  0
BLOCK_RECORD
  5
2875
330
1
100
AcDbSymbolTableRecord
100
AcDbBlockTableRecord
  2
*D29
340
0
 70
     0
280
     1
281
     0
  0
BLOCK_RECORD
  5
28BF
330
1
100
AcDbSymbolTableRecord
100
AcDbBlockTableRecord
  2
*D30
340
0
 70
     0
280
     1
281
     0
  0
BLOCK_RECORD
  5
28CD
330
1
100
AcDbSymbolTableRecord
100
AcDbBlockTableRecord
  2
*D31
340
0
 70
     0
280
     1
281
     0
  0
BLOCK_RECORD
  5
28F1
330
1
100
AcDbSymbolTableRecord
100
AcDbBlockTableRecord
  2
*D32
340
0
 70
     0
280
     1
281
     0
  0
BLOCK_RECORD
  5
28FF
330
1
100
AcDbSymbolTableRecord
100
AcDbBlockTableRecord
  2
*D33
340
0
 70
     0
280
     1
281
     0
  0
BLOCK_RECORD
  5
2E8B
330
1
100
AcDbSymbolTableRecord
100
AcDbBlockTableRecord
  2
*D34
340
0
 70
     0
280
     1
281
     0
  0
BLOCK_RECORD
  5
2E99
330
1
100
AcDbSymbolTableRecord
100
AcDbBlockTableRecord
  2
*D35
340
0
 70
     0
280
     1
281
     0
  0
BLOCK_RECORD
  5
2EE7
330
1
100
AcDbSymbolTableRecord
100
AcDbBlockTableRecord
  2
*D36
340
0
 70
     0
280
     1
281
     0
  0
BLOCK_RECORD
  5
2EF5
330
1
100
AcDbSymbolTableRecord
100
AcDbBlockTableRecord
  2
*D37
340
0
 70
     0
280
     1
281
     0
  0
BLOCK_RECORD
  5
3D6F
330
1
100
AcDbSymbolTableRecord
100
AcDbBlockTableRecord
  2
*D38
340
0
 70
     0
280
     1
281
     0
  0
BLOCK_RECORD
  5
3D7D
330
1
100
AcDbSymbolTableRecord
100
AcDbBlockTableRecord
  2
*D39
340
0
 70
     0
280
     1
281
     0
  0
BLOCK_RECORD
  5
3DD5
330
1
100
AcDbSymbolTableRecord
100
AcDbBlockTableRecord
  2
*D40
340
0
 70
     0
280
     1
281
     0
  0
BLOCK_RECORD
  5
3DE3
330
1
100
AcDbSymbolTableRecord
100
AcDbBlockTableRecord
  2
*D41
340
0
 70
     0
280
     1
281
     0
  0
BLOCK_RECORD
  5
3DF2
330
1
100
AcDbSymbolTableRecord
100
AcDbBlockTableRecord
  2
*D42
340
0
 70
     0
280
     1
281
     0
  0
BLOCK_RECORD
  5
3E06
330
1
100
AcDbSymbolTableRecord
100
AcDbBlockTableRecord
  2
*D43
340
0
 70
     0
280
     1
281
     0
  0
BLOCK_RECORD
  5
3E14
330
1
100
AcDbSymbolTableRecord
100
AcDbBlockTableRecord
  2
*D44
340
0
 70
     0
280
     1
281
     0
  0
ENDTAB
  0
ENDSEC
  0
SECTION
  2
BLOCKS
  0
BLOCK
  5
20
330
1F
100
AcDbEntity
  8
0
100
AcDbBlockBegin
  2
*MODEL_SPACE
 70
     0
 10
0.0
 20
0.0
 30
0.0
  3
*MODEL_SPACE
  1

  0
ENDBLK
  5
21
330
1F
100
AcDbEntity
  8
0
100
AcDbBlockEnd
  0
BLOCK
  5
1C
330
1B
100
AcDbEntity
 67
     1
  8
0
100
AcDbBlockBegin
  2
*PAPER_SPACE
 70
     0
 10
0.0
 20
0.0
 30
0.0
  3
*PAPER_SPACE
  1

  0
ENDBLK
  5
1D
330
1B
100
AcDbEntity
 67
     1
  8
0
100
AcDbBlockEnd
  0
BLOCK
  5
4CA
330
4C0
100
AcDbEntity
  8
0
100
AcDbBlockBegin
  2
*D0
 70
     1
 10
0.0
 20
0.0
 30
0.0
  3
*D0
  1

  0
LINE
  5
600
330
4C0
100
AcDbEntity
  8
0
440
 16777216
100
AcDbLine
 10
638.7173827835728
 20
1048.40919819918
 30
0.0
 11
527.8929333861474
 21
1048.40919819918
 31
0.0
  0
LINE
  5
601
330
4C0
100
AcDbEntity
  8
0
440
 16777216
100
AcDbLine
 10
612.600559225214
 20
1184.909198199115
 30
0.0
 11
527.8929333861474
 21
1184.909198199115
 31
0.0
  0
LINE
  5
602
330
4C0
100
AcDbEntity
  8
0
440
 16777216
100
AcDbLine
 10
537.8929333861474
 20
1073.40919819918
 30
0.0
 11
537.8929333861474
 21
1159.909198199115
 31
0.0
  0
SOLID
  5
603
330
4C0
100
AcDbEntity
  8
0
440
 16777216
100
AcDbTrace
 10
533.7262667194806
 20
1073.40919819918
 30
0.0
 11
542.059600052814
 21
1073.40919819918
 31
0.0
 12
537.8929333861474
 22
1048.40919819918
 32
0.0
 13
537.8929333861474
 23
1048.40919819918
 33
0.0
  0
SOLID
  5
604
330
4C0
100
AcDbEntity
  8
0
440
 16777216
100
AcDbTrace
 10
533.7262667194806
 20
1159.909198199115
 30
0.0
 11
542.059600052814
 21
1159.909198199115
 31
0.0
 12
537.8929333861474
 22
1184.909198199115
 32
0.0
 13
537.8929333861474
 23
1184.909198199115
 33
0.0
  0
MTEXT
  5
605
330
4C0
100
AcDbEntity
  8
0
440
 16777216
100
AcDbMText
 10
505.3929333861471
 20
1116.659198199148
 30
0.0
 40
45.0
 41
0.0
 46
0.0
 71
     5
 72
     1
  1
150
  7
Entro
 11
0.0000000000000001
 21
1.0
 31
0.0
 73
     1
 44
1.0
  0
POINT
  5
606
330
4C0
100
AcDbEntity
  8
Defpoints
 62
     0
440
 16777216
100
AcDbPoint
 10
639.7173827835728
 20
1048.40919819918
 30
0.0
  0
POINT
  5
607
330
4C0
100
AcDbEntity
  8
Defpoints
 62
     0
440
 16777216
100
AcDbPoint
 10
613.600559225214
 20
1184.909198199115
 30
0.0
  0
POINT
  5
608
330
4C0
100
AcDbEntity
  8
Defpoints
 62
     0
440
 16777216
100
AcDbPoint
 10
537.8929333861474
 20
1184.909198199115
 30
0.0
  0
ENDBLK
  5
4CB
330
4C0
100
AcDbEntity
  8
0
100
AcDbBlockEnd
  0
BLOCK
  5
4F1
330
4E6
100
AcDbEntity
  8
0
100
AcDbBlockBegin
  2
*D1
 70
     1
 10
0.0
 20
0.0
 30
0.0
  3
*D1
  1

  0
LINE
  5
609
330
4E6
100
AcDbEntity
  8
0
440
 16777216
100
AcDbLine
 10
1403.258789852631
 20
1208.551258404823
 30
0.0
 11
1403.258789852631
 21
1333.120661769634
 31
0.0
  0
LINE
  5
60A
330
4E6
100
AcDbEntity
  8
0
440
 16777216
100
AcDbLine
 10
732.2587898526303
 20
1208.551258404758
 30
0.0
 11
732.2587898526303
 21
1333.120661769634
 31
0.0
  0
LINE
  5
60B
330
4E6
100
AcDbEntity
  8
0
440
 16777216
100
AcDbLine
 10
1378.258789852631
 20
1323.120661769634
 30
0.0
 11
757.2587898526303
 21
1323.120661769634
 31
0.0
  0
SOLID
  5
60C
330
4E6
100
AcDbEntity
  8
0
440
 16777216
100
AcDbTrace
 10
1378.258789852631
 20
1327.2873284363
 30
0.0
 11
1378.258789852631
 21
1318.953995102967
 31
0.0
 12
1403.258789852631
 22
1323.120661769634
 32
0.0
 13
1403.258789852631
 23
1323.120661769634
 33
0.0
  0
SOLID
  5
60D
330
4E6
100
AcDbEntity
  8
0
440
 16777216
100
AcDbTrace
 10
757.2587898526303
 20
1327.2873284363
 30
0.0
 11
757.2587898526303
 21
1318.953995102967
 31
0.0
 12
732.2587898526303
 22
1323.120661769634
 32
0.0
 13
732.2587898526303
 23
1323.120661769634
 33
0.0
  0
MTEXT
  5
60E
330
4E6
100
AcDbEntity
  8
0
440
 16777216
100
AcDbMText
 10
1067.758789852631
 20
1355.637707224179
 30
0.0
 40
45.0
 41
0.0
 46
0.0
 71
     5
 72
     1
  1
670 - 730 
  7
Entro
 73
     1
 44
1.0
  0
POINT
  5
60F
330
4E6
100
AcDbEntity
  8
Defpoints
 62
     0
440
 16777216
100
AcDbPoint
 10
1403.258789852631
 20
1207.551258404823
 30
0.0
  0
POINT
  5
610
330
4E6
100
AcDbEntity
  8
Defpoints
 62
     0
440
 16777216
100
AcDbPoint
 10
732.2587898526303
 20
1207.551258404758
 30
0.0
  0
POINT
  5
611
330
4E6
100
AcDbEntity
  8
Defpoints
 62
     0
440
 16777216
100
AcDbPoint
 10
732.2587898526303
 20
1323.120661769634
 30
0.0
  0
ENDBLK
  5
4F2
330
4E6
100
AcDbEntity
  8
0
100
AcDbBlockEnd
  0
BLOCK
  5
5B2
330
5A7
100
AcDbEntity
  8
0
100
AcDbBlockBegin
  2
*D2
 70
     1
 10
0.0
 20
0.0
 30
0.0
  3
*D2
  1

  0
LINE
  5
5A8
330
5A7
100
AcDbEntity
  8
0
 62
     0
370
    -2
100
AcDbLine
 10
1366.25878985262
 20
1721.063376911456
 30
0.0
 11
1366.25878985262
 21
1749.707032685414
 31
0.0
  0
LINE
  5
5A9
330
5A7
100
AcDbEntity
  8
0
 62
     0
370
    -2
100
AcDbLine
 10
1440.25878985262
 20
1721.063376911458
 30
0.0
 11
1440.25878985262
 21
1749.707032685414
 31
0.0
  0
LINE
  5
5AA
330
5A7
100
AcDbEntity
  8
0
 62
     0
370
    -2
100
AcDbLine
 10
1366.43878985262
 20
1749.527032685414
 30
0.0
 11
1402.68878985262
 21
1749.527032685414
 31
0.0
  0
LINE
  5
5AB
330
5A7
100
AcDbEntity
  8
0
 62
     0
370
    -2
100
AcDbLine
 10
1440.07878985262
 20
1749.527032685414
 30
0.0
 11
1403.82878985262
 21
1749.527032685414
 31
0.0
  0
SOLID
  5
5AC
330
5A7
100
AcDbEntity
  8
0
 62
     0
100
AcDbTrace
 10
1366.43878985262
 20
1749.557032685414
 30
0.0
 11
1366.43878985262
 21
1749.497032685414
 31
0.0
 12
1366.25878985262
 22
1749.527032685414
 32
0.0
 13
1366.25878985262
 23
1749.527032685414
 33
0.0
  0
SOLID
  5
5AD
330
5A7
100
AcDbEntity
  8
0
 62
     0
100
AcDbTrace
 10
1440.07878985262
 20
1749.557032685414
 30
0.0
 11
1440.07878985262
 21
1749.497032685414
 31
0.0
 12
1440.25878985262
 22
1749.527032685414
 32
0.0
 13
1440.25878985262
 23
1749.527032685414
 33
0.0
  0
MTEXT
  5
5AE
330
5A7
100
AcDbEntity
  8
0
 62
     0
100
AcDbMText
 10
1403.25878985262
 20
1749.527032685414
 30
0.0
 40
0.18
 41
0.0
 46
0.0
 71
     5
 72
     1
  1
\A1;74.0000
 73
     1
 44
1.0
1001
ACAD
1000
MTEXTBEGIN
1070
    73
1070
     1
1070
    44
1040
1.0
1070
    74
1070
     0
1000
MTEXTEND
  0
POINT
  5
5AF
330
5A7
100
AcDbEntity
  8
Defpoints
 62
     0
100
AcDbPoint
 10
1366.25878985262
 20
1721.000876911456
 30
0.0
  0
POINT
  5
5B0
330
5A7
100
AcDbEntity
  8
Defpoints
 62
     0
100
AcDbPoint
 10
1440.25878985262
 20
1721.000876911458
 30
0.0
  0
POINT
  5
5B1
330
5A7
100
AcDbEntity
  8
Defpoints
 62
     0
100
AcDbPoint
 10
1440.25878985262
 20
1749.527032685414
 30
0.0
  0
ENDBLK
  5
5B3
330
5A7
100
AcDbEntity
  8
0
100
AcDbBlockEnd
  0
BLOCK
  5
D58
330
D57
100
AcDbEntity
  8
0
100
AcDbBlockBegin
  2
*D3
 70
     1
 10
0.0
 20
0.0
 30
0.0
  3
*D3
  1

  0
LINE
  5
DAC
330
D57
100
AcDbEntity
  8
0
 62
     0
440
 16777216
370
    -2
100
AcDbLine
 10
-231.9684398513505
 20
695.7124804650937
 30
0.0
 11
-231.9684398513505
 21
668.3540667198414
 31
0.0
  0
LINE
  5
DAD
330
D57
100
AcDbEntity
  8
0
 62
     0
440
 16777216
370
    -2
100
AcDbLine
 10
-71.96843985135045
 20
695.7124804650937
 30
0.0
 11
-71.96843985135045
 21
668.3540667198414
 31
0.0
  0
LINE
  5
DAE
330
D57
100
AcDbEntity
  8
0
 62
     0
440
 16777216
370
    -2
100
AcDbLine
 10
-231.7884398513505
 20
668.5340667198412
 30
0.0
 11
-152.5834398513504
 21
668.5340667198412
 31
0.0
  0
LINE
  5
DAF
330
D57
100
AcDbEntity
  8
0
 62
     0
440
 16777216
370
    -2
100
AcDbLine
 10
-72.14843985135047
 20
668.5340667198412
 30
0.0
 11
-151.3534398513504
 21
668.5340667198412
 31
0.0
  0
SOLID
  5
DB0
330
D57
100
AcDbEntity
  8
0
 62
     0
440
 16777216
100
AcDbTrace
 10
-231.7884398513505
 20
668.5640667198412
 30
0.0
 11
-231.7884398513505
 21
668.5040667198412
 31
0.0
 12
-231.9684398513505
 22
668.5340667198412
 32
0.0
 13
-231.9684398513505
 23
668.5340667198412
 33
0.0
  0
SOLID
  5
DB1
330
D57
100
AcDbEntity
  8
0
 62
     0
440
 16777216
100
AcDbTrace
 10
-72.14843985135047
 20
668.5640667198412
 30
0.0
 11
-72.14843985135047
 21
668.5040667198412
 31
0.0
 12
-71.96843985135045
 22
668.5340667198412
 32
0.0
 13
-71.96843985135045
 23
668.5340667198412
 33
0.0
  0
MTEXT
  5
DB2
330
D57
100
AcDbEntity
  8
0
 62
     0
440
 16777216
100
AcDbMText
 10
-151.9684398513504
 20
668.5340667198412
 30
0.0
 40
0.18
 41
0.0
 46
0.0
 71
     5
 72
     1
  1
\A1;160.0000
 73
     1
 44
1.0
  0
POINT
  5
DB3
330
D57
100
AcDbEntity
  8
Defpoints
 62
     0
440
 16777216
100
AcDbPoint
 10
-231.9684398513505
 20
695.7749804650936
 30
0.0
  0
POINT
  5
DB4
330
D57
100
AcDbEntity
  8
Defpoints
 62
     0
440
 16777216
100
AcDbPoint
 10
-71.96843985135045
 20
695.7749804650936
 30
0.0
  0
POINT
  5
DB5
330
D57
100
AcDbEntity
  8
Defpoints
 62
     0
440
 16777216
100
AcDbPoint
 10
-71.96843985135045
 20
668.5340667198412
 30
0.0
  0
ENDBLK
  5
D59
330
D57
100
AcDbEntity
  8
0
100
AcDbBlockEnd
  0
BLOCK
  5
D67
330
D66
100
AcDbEntity
  8
0
100
AcDbBlockBegin
  2
*D4
 70
     1
 10
0.0
 20
0.0
 30
0.0
  3
*D4
  1

  0
LINE
  5
D69
330
D66
100
AcDbEntity
  8
0
 62
     0
440
 16777216
370
    -2
100
AcDbLine
 10
2116.161813919972
 20
1609.088916389609
 30
0.0
 11
2116.161813919972
 21
1595.527801713193
 31
0.0
  0
LINE
  5
D6A
330
D66
100
AcDbEntity
  8
0
 62
     0
440
 16777216
370
    -2
100
AcDbLine
 10
2253.161813919972
 20
1609.088916389609
 30
0.0
 11
2253.161813919972
 21
1595.527801713193
 31
0.0
  0
LINE
  5
D6B
330
D66
100
AcDbEntity
  8
0
 62
     0
440
 16777216
370
    -2
100
AcDbLine
 10
2116.341813919972
 20
1595.707801713193
 30
0.0
 11
2184.031813919972
 21
1595.707801713193
 31
0.0
  0
LINE
  5
D6C
330
D66
100
AcDbEntity
  8
0
 62
     0
440
 16777216
370
    -2
100
AcDbLine
 10
2252.981813919972
 20
1595.707801713193
 30
0.0
 11
2185.291813919972
 21
1595.707801713193
 31
0.0
  0
SOLID
  5
D6D
330
D66
100
AcDbEntity
  8
0
 62
     0
440
 16777216
100
AcDbTrace
 10
2116.341813919972
 20
1595.737801713193
 30
0.0
 11
2116.341813919972
 21
1595.677801713193
 31
0.0
 12
2116.161813919972
 22
1595.707801713193
 32
0.0
 13
2116.161813919972
 23
1595.707801713193
 33
0.0
  0
SOLID
  5
D6E
330
D66
100
AcDbEntity
  8
0
 62
     0
440
 16777216
100
AcDbTrace
 10
2252.981813919972
 20
1595.737801713193
 30
0.0
 11
2252.981813919972
 21
1595.677801713193
 31
0.0
 12
2253.161813919972
 22
1595.707801713193
 32
0.0
 13
2253.161813919972
 23
1595.707801713193
 33
0.0
  0
MTEXT
  5
D6F
330
D66
100
AcDbEntity
  8
0
 62
     0
440
 16777216
100
AcDbMText
 10
2184.661813919972
 20
1595.707801713193
 30
0.0
 40
0.18
 41
0.0
 46
0.0
 71
     5
 72
     1
  1
\A1;137.0000
 73
     1
 44
1.0
  0
POINT
  5
D70
330
D66
100
AcDbEntity
  8
Defpoints
 62
     0
440
 16777216
100
AcDbPoint
 10
2116.161813919972
 20
1609.151416389609
 30
0.0
  0
POINT
  5
D71
330
D66
100
AcDbEntity
  8
Defpoints
 62
     0
440
 16777216
100
AcDbPoint
 10
2253.161813919972
 20
1609.151416389609
 30
0.0
  0
POINT
  5
D72
330
D66
100
AcDbEntity
  8
Defpoints
 62
     0
440
 16777216
100
AcDbPoint
 10
2253.161813919972
 20
1595.707801713193
 30
0.0
  0
ENDBLK
  5
D68
330
D66
100
AcDbEntity
  8
0
100
AcDbBlockEnd
  0
BLOCK
  5
D7D
330
D7C
100
AcDbEntity
  8
0
100
AcDbBlockBegin
  2
*D5
 70
     1
 10
0.0
 20
0.0
 30
0.0
  3
*D5
  1

  0
LINE
  5
DB6
330
D7C
100
AcDbEntity
  8
0
 62
     0
440
 16777216
370
    -2
100
AcDbLine
 10
-166.9684398513507
 20
722.3017196924812
 30
0.0
 11
-166.9684398513507
 21
731.5707179990471
 31
0.0
  0
LINE
  5
DB7
330
D7C
100
AcDbEntity
  8
0
 62
     0
440
 16777216
370
    -2
100
AcDbLine
 10
-136.9684398513507
 20
722.3017196924812
 30
0.0
 11
-136.9684398513507
 21
731.5707179990471
 31
0.0
  0
LINE
  5
DB8
330
D7C
100
AcDbEntity
  8
0
 62
     0
440
 16777216
370
    -2
100
AcDbLine
 10
-166.7884398513507
 20
731.390717999047
 30
0.0
 11
-152.5234398513507
 21
731.390717999047
 31
0.0
  0
LINE
  5
DB9
330
D7C
100
AcDbEntity
  8
0
 62
     0
440
 16777216
370
    -2
100
AcDbLine
 10
-137.1484398513507
 20
731.390717999047
 30
0.0
 11
-151.4134398513507
 21
731.390717999047
 31
0.0
  0
SOLID
  5
DBA
330
D7C
100
AcDbEntity
  8
0
 62
     0
440
 16777216
100
AcDbTrace
 10
-166.7884398513507
 20
731.4207179990469
 30
0.0
 11
-166.7884398513507
 21
731.3607179990472
 31
0.0
 12
-166.9684398513507
 22
731.390717999047
 32
0.0
 13
-166.9684398513507
 23
731.390717999047
 33
0.0
  0
SOLID
  5
DBB
330
D7C
100
AcDbEntity
  8
0
 62
     0
440
 16777216
100
AcDbTrace
 10
-137.1484398513507
 20
731.4207179990469
 30
0.0
 11
-137.1484398513507
 21
731.3607179990472
 31
0.0
 12
-136.9684398513507
 22
731.390717999047
 32
0.0
 13
-136.9684398513507
 23
731.390717999047
 33
0.0
  0
MTEXT
  5
DBC
330
D7C
100
AcDbEntity
  8
0
 62
     0
440
 16777216
100
AcDbMText
 10
-151.9684398513507
 20
731.390717999047
 30
0.0
 40
0.18
 41
0.0
 46
0.0
 71
     5
 72
     1
  1
\A1;30.0000
 73
     1
 44
1.0
  0
POINT
  5
DBD
330
D7C
100
AcDbEntity
  8
Defpoints
 62
     0
440
 16777216
100
AcDbPoint
 10
-166.9684398513507
 20
722.2392196924812
 30
0.0
  0
POINT
  5
DBE
330
D7C
100
AcDbEntity
  8
Defpoints
 62
     0
440
 16777216
100
AcDbPoint
 10
-136.9684398513507
 20
722.2392196924812
 30
0.0
  0
POINT
  5
DBF
330
D7C
100
AcDbEntity
  8
Defpoints
 62
     0
440
 16777216
100
AcDbPoint
 10
-136.9684398513507
 20
731.390717999047
 30
0.0
  0
ENDBLK
  5
D7E
330
D7C
100
AcDbEntity
  8
0
100
AcDbBlockEnd
  0
BLOCK
  5
D8B
330
D8A
100
AcDbEntity
  8
0
100
AcDbBlockBegin
  2
*D6
 70
     1
 10
0.0
 20
0.0
 30
0.0
  3
*D6
  1

  0
LINE
  5
D8D
330
D8A
100
AcDbEntity
  8
0
 62
     0
440
 16777216
370
    -2
100
AcDbLine
 10
2263.161813919969
 20
1616.06501719027
 30
0.0
 11
2263.161813919969
 21
1634.583061451241
 31
0.0
  0
LINE
  5
D8E
330
D8A
100
AcDbEntity
  8
0
 62
     0
440
 16777216
370
    -2
100
AcDbLine
 10
2203.161813919969
 20
1616.06501719027
 30
0.0
 11
2203.161813919969
 21
1634.583061451241
 31
0.0
  0
LINE
  5
D8F
330
D8A
100
AcDbEntity
  8
0
 62
     0
440
 16777216
370
    -2
100
AcDbLine
 10
2262.981813919969
 20
1634.403061451241
 30
0.0
 11
2233.716813919969
 21
1634.403061451241
 31
0.0
  0
LINE
  5
D90
330
D8A
100
AcDbEntity
  8
0
 62
     0
440
 16777216
370
    -2
100
AcDbLine
 10
2203.341813919969
 20
1634.403061451241
 30
0.0
 11
2232.606813919969
 21
1634.403061451241
 31
0.0
  0
SOLID
  5
D91
330
D8A
100
AcDbEntity
  8
0
 62
     0
440
 16777216
100
AcDbTrace
 10
2262.981813919969
 20
1634.433061451241
 30
0.0
 11
2262.981813919969
 21
1634.373061451241
 31
0.0
 12
2263.161813919969
 22
1634.403061451241
 32
0.0
 13
2263.161813919969
 23
1634.403061451241
 33
0.0
  0
SOLID
  5
D92
330
D8A
100
AcDbEntity
  8
0
 62
     0
440
 16777216
100
AcDbTrace
 10
2203.341813919969
 20
1634.433061451241
 30
0.0
 11
2203.341813919969
 21
1634.373061451241
 31
0.0
 12
2203.161813919969
 22
1634.403061451241
 32
0.0
 13
2203.161813919969
 23
1634.403061451241
 33
0.0
  0
MTEXT
  5
D93
330
D8A
100
AcDbEntity
  8
0
 62
     0
440
 16777216
100
AcDbMText
 10
2233.161813919969
 20
1634.403061451241
 30
0.0
 40
0.18
 41
0.0
 46
0.0
 71
     5
 72
     1
  1
\A1;60.0000
 73
     1
 44
1.0
  0
POINT
  5
D94
330
D8A
100
AcDbEntity
  8
Defpoints
 62
     0
440
 16777216
100
AcDbPoint
 10
2263.161813919969
 20
1616.00251719027
 30
0.0
  0
POINT
  5
D95
330
D8A
100
AcDbEntity
  8
Defpoints
 62
     0
440
 16777216
100
AcDbPoint
 10
2203.161813919969
 20
1616.00251719027
 30
0.0
  0
POINT
  5
D96
330
D8A
100
AcDbEntity
  8
Defpoints
 62
     0
440
 16777216
100
AcDbPoint
 10
2203.161813919969
 20
1634.403061451241
 30
0.0
  0
ENDBLK
  5
D8C
330
D8A
100
AcDbEntity
  8
0
100
AcDbBlockEnd
  0
BLOCK
  5
D9A
330
D99
100
AcDbEntity
  8
0
100
AcDbBlockBegin
  2
*D7
 70
     1
 10
0.0
 20
0.0
 30
0.0
  3
*D7
  1

  0
LINE
  5
D9C
330
D99
100
AcDbEntity
  8
0
 62
     0
440
 16777216
370
    -2
100
AcDbLine
 10
2263.161813919969
 20
1615.06501719027
 30
0.0
 11
2263.161813919969
 21
1626.524019053845
 31
0.0
  0
LINE
  5
D9D
330
D99
100
AcDbEntity
  8
0
 62
     0
440
 16777216
370
    -2
100
AcDbLine
 10
2253.161813919972
 20
1610.726648786398
 30
0.0
 11
2253.161813919972
 21
1626.524019053845
 31
0.0
  0
LINE
  5
D9E
330
D99
100
AcDbEntity
  8
0
 62
     0
440
 16777216
370
    -2
100
AcDbLine
 10
2262.981813919969
 20
1626.344019053845
 30
0.0
 11
2258.68681391997
 21
1626.344019053845
 31
0.0
  0
LINE
  5
D9F
330
D99
100
AcDbEntity
  8
0
 62
     0
440
 16777216
370
    -2
100
AcDbLine
 10
2253.341813919972
 20
1626.344019053845
 30
0.0
 11
2257.63681391997
 21
1626.344019053845
 31
0.0
  0
SOLID
  5
DA0
330
D99
100
AcDbEntity
  8
0
 62
     0
440
 16777216
100
AcDbTrace
 10
2262.981813919969
 20
1626.374019053845
 30
0.0
 11
2262.981813919969
 21
1626.314019053845
 31
0.0
 12
2263.161813919969
 22
1626.344019053845
 32
0.0
 13
2263.161813919969
 23
1626.344019053845
 33
0.0
  0
SOLID
  5
DA1
330
D99
100
AcDbEntity
  8
0
 62
     0
440
 16777216
100
AcDbTrace
 10
2253.341813919972
 20
1626.374019053845
 30
0.0
 11
2253.341813919972
 21
1626.314019053845
 31
0.0
 12
2253.161813919972
 22
1626.344019053845
 32
0.0
 13
2253.161813919972
 23
1626.344019053845
 33
0.0
  0
MTEXT
  5
DA2
330
D99
100
AcDbEntity
  8
0
 62
     0
440
 16777216
100
AcDbMText
 10
2258.16181391997
 20
1626.344019053845
 30
0.0
 40
0.18
 41
0.0
 46
0.0
 71
     5
 72
     1
  1
\A1;10.0000
 73
     1
 44
1.0
  0
POINT
  5
DA3
330
D99
100
AcDbEntity
  8
Defpoints
 62
     0
440
 16777216
100
AcDbPoint
 10
2263.161813919969
 20
1615.002517190269
 30
0.0
  0
POINT
  5
DA4
330
D99
100
AcDbEntity
  8
Defpoints
 62
     0
440
 16777216
100
AcDbPoint
 10
2253.161813919972
 20
1610.664148786398
 30
0.0
  0
POINT
  5
DA5
330
D99
100
AcDbEntity
  8
Defpoints
 62
     0
440
 16777216
100
AcDbPoint
 10
2253.161813919972
 20
1626.344019053845
 30
0.0
  0
ENDBLK
  5
D9B
330
D99
100
AcDbEntity
  8
0
100
AcDbBlockEnd
  0
BLOCK
  5
1532
330
1531
100
AcDbEntity
  8
0
100
AcDbBlockBegin
  2
*D8
 70
     1
 10
0.0
 20
0.0
 30
0.0
  3
*D8
  1

  0
LINE
  5
156A
330
1531
100
AcDbEntity
  8
0
 62
     0
440
 16777216
370
    -2
100
AcDbLine
 10
439.5368040077123
 20
452.2913517095966
 30
0.0
 11
439.5368040077123
 21
418.7670753109125
 31
0.0
  0
LINE
  5
156B
330
1531
100
AcDbEntity
  8
0
 62
     0
440
 16777216
370
    -2
100
AcDbLine
 10
541.5368040077123
 20
452.2913517095966
 30
0.0
 11
541.5368040077123
 21
418.7670753109125
 31
0.0
  0
LINE
  5
156C
330
1531
100
AcDbEntity
  8
0
 62
     0
440
 16777216
370
    -2
100
AcDbLine
 10
439.7168040077123
 20
418.9470753109126
 30
0.0
 11
474.1968040077123
 21
418.9470753109126
 31
0.0
  0
LINE
  5
156D
330
1531
100
AcDbEntity
  8
0
 62
     0
440
 16777216
370
    -2
100
AcDbLine
 10
541.3568040077124
 20
418.9470753109126
 30
0.0
 11
506.8768040077123
 21
418.9470753109126
 31
0.0
  0
SOLID
  5
156E
330
1531
100
AcDbEntity
  8
0
 62
     0
440
 16777216
100
AcDbTrace
 10
439.7168040077123
 20
418.9770753109126
 30
0.0
 11
439.7168040077123
 21
418.9170753109126
 31
0.0
 12
439.5368040077123
 22
418.9470753109126
 32
0.0
 13
439.5368040077123
 23
418.9470753109126
 33
0.0
  0
SOLID
  5
156F
330
1531
100
AcDbEntity
  8
0
 62
     0
440
 16777216
100
AcDbTrace
 10
541.3568040077124
 20
418.9770753109126
 30
0.0
 11
541.3568040077124
 21
418.9170753109126
 31
0.0
 12
541.5368040077123
 22
418.9470753109126
 32
0.0
 13
541.5368040077123
 23
418.9470753109126
 33
0.0
  0
MTEXT
  5
1570
330
1531
100
AcDbEntity
  8
0
 62
     0
440
 16777216
100
AcDbMText
 10
490.5368040077124
 20
418.9470753109126
 30
0.0
 40
15.0
 41
0.0
 46
0.0
 71
     5
 72
     1
  1
\A1;102
 73
     1
 44
1.0
  0
POINT
  5
1571
330
1531
100
AcDbEntity
  8
Defpoints
 62
     0
440
 16777216
100
AcDbPoint
 10
439.5368040077123
 20
452.3538517095967
 30
0.0
  0
POINT
  5
1572
330
1531
100
AcDbEntity
  8
Defpoints
 62
     0
440
 16777216
100
AcDbPoint
 10
541.5368040077123
 20
452.3538517095967
 30
0.0
  0
POINT
  5
1573
330
1531
100
AcDbEntity
  8
Defpoints
 62
     0
440
 16777216
100
AcDbPoint
 10
541.5368040077123
 20
418.9470753109126
 30
0.0
  0
ENDBLK
  5
1533
330
1531
100
AcDbEntity
  8
0
100
AcDbBlockEnd
  0
BLOCK
  5
1540
330
153F
100
AcDbEntity
  8
0
100
AcDbBlockBegin
  2
*D9
 70
     1
 10
0.0
 20
0.0
 30
0.0
  3
*D9
  1

  0
LINE
  5
1560
330
153F
100
AcDbEntity
  8
0
 62
     0
440
 16777216
370
    -2
100
AcDbLine
 10
641.7185151653583
 20
506.2846866388643
 30
0.0
 11
641.7185151653583
 21
562.7761961085531
 31
0.0
  0
LINE
  5
1561
330
153F
100
AcDbEntity
  8
0
 62
     0
440
 16777216
370
    -2
100
AcDbLine
 10
736.7185151653587
 20
506.2846866388643
 30
0.0
 11
736.7185151653587
 21
562.7761961085531
 31
0.0
  0
LINE
  5
1562
330
153F
100
AcDbEntity
  8
0
 62
     0
440
 16777216
370
    -2
100
AcDbLine
 10
641.8985151653584
 20
562.5961961085531
 30
0.0
 11
676.6285151653586
 21
562.5961961085531
 31
0.0
  0
LINE
  5
1563
330
153F
100
AcDbEntity
  8
0
 62
     0
440
 16777216
370
    -2
100
AcDbLine
 10
736.5385151653587
 20
562.5961961085531
 30
0.0
 11
701.8085151653584
 21
562.5961961085531
 31
0.0
  0
SOLID
  5
1564
330
153F
100
AcDbEntity
  8
0
 62
     0
440
 16777216
100
AcDbTrace
 10
641.8985151653584
 20
562.6261961085531
 30
0.0
 11
641.8985151653584
 21
562.5661961085532
 31
0.0
 12
641.7185151653583
 22
562.5961961085531
 32
0.0
 13
641.7185151653583
 23
562.5961961085531
 33
0.0
  0
SOLID
  5
1565
330
153F
100
AcDbEntity
  8
0
 62
     0
440
 16777216
100
AcDbTrace
 10
736.5385151653587
 20
562.6261961085531
 30
0.0
 11
736.5385151653587
 21
562.5661961085532
 31
0.0
 12
736.7185151653587
 22
562.5961961085531
 32
0.0
 13
736.7185151653587
 23
562.5961961085531
 33
0.0
  0
MTEXT
  5
1566
330
153F
100
AcDbEntity
  8
0
 62
     0
440
 16777216
100
AcDbMText
 10
689.2185151653587
 20
562.5961961085531
 30
0.0
 40
15.0
 41
0.0
 46
0.0
 71
     5
 72
     1
  1
\A1;95
 73
     1
 44
1.0
  0
POINT
  5
1567
330
153F
100
AcDbEntity
  8
Defpoints
 62
     0
440
 16777216
100
AcDbPoint
 10
641.7185151653583
 20
506.2221866388642
 30
0.0
  0
POINT
  5
1568
330
153F
100
AcDbEntity
  8
Defpoints
 62
     0
440
 16777216
100
AcDbPoint
 10
736.7185151653587
 20
506.2221866388642
 30
0.0
  0
POINT
  5
1569
330
153F
100
AcDbEntity
  8
Defpoints
 62
     0
440
 16777216
100
AcDbPoint
 10
736.7185151653587
 20
562.5961961085531
 30
0.0
  0
ENDBLK
  5
1541
330
153F
100
AcDbEntity
  8
0
100
AcDbBlockEnd
  0
BLOCK
  5
15E2
330
15E1
100
AcDbEntity
  8
0
100
AcDbBlockBegin
  2
*D10
 70
     1
 10
0.0
 20
0.0
 30
0.0
  3
*D10
  1

  0
LINE
  5
1610
330
15E1
100
AcDbEntity
  8
0
 62
     0
440
 16777216
370
    -2
100
AcDbLine
 10
480.536804007712
 20
523.2846866388645
 30
0.0
 11
480.536804007712
 21
568.4679920757932
 31
0.0
  0
LINE
  5
1611
330
15E1
100
AcDbEntity
  8
0
 62
     0
440
 16777216
370
    -2
100
AcDbLine
 10
500.536804007712
 20
523.2846866388645
 30
0.0
 11
500.536804007712
 21
568.4679920757932
 31
0.0
  0
LINE
  5
1612
330
15E1
100
AcDbEntity
  8
0
 62
     0
440
 16777216
370
    -2
100
AcDbLine
 10
480.7168040077121
 20
568.2879920757932
 30
0.0
 11
500.3568040077123
 21
568.2879920757932
 31
0.0
  0
LINE
  5
1613
330
15E1
100
AcDbEntity
  8
0
 62
     0
440
 16777216
370
    -2
100
AcDbLine
 10
500.536804007712
 20
568.2879920757932
 30
0.0
 11
500.7168040077123
 21
568.2879920757932
 31
0.0
  0
SOLID
  5
1614
330
15E1
100
AcDbEntity
  8
0
 62
     0
440
 16777216
100
AcDbTrace
 10
480.7168040077121
 20
568.3179920757932
 30
0.0
 11
480.7168040077121
 21
568.2579920757932
 31
0.0
 12
480.536804007712
 22
568.2879920757932
 32
0.0
 13
480.536804007712
 23
568.2879920757932
 33
0.0
  0
SOLID
  5
1615
330
15E1
100
AcDbEntity
  8
0
 62
     0
440
 16777216
100
AcDbTrace
 10
500.3568040077123
 20
568.3179920757932
 30
0.0
 11
500.3568040077123
 21
568.2579920757932
 31
0.0
 12
500.536804007712
 22
568.2879920757932
 32
0.0
 13
500.536804007712
 23
568.2879920757932
 33
0.0
  0
MTEXT
  5
1616
330
15E1
100
AcDbEntity
  8
0
 62
     0
440
 16777216
100
AcDbMText
 10
512.0568040077123
 20
568.2879920757932
 30
0.0
 40
15.0
 41
0.0
 46
0.0
 71
     5
 72
     1
  1
\A1;20
 73
     1
 44
1.0
  0
POINT
  5
1617
330
15E1
100
AcDbEntity
  8
Defpoints
 62
     0
440
 16777216
100
AcDbPoint
 10
480.536804007712
 20
523.2221866388645
 30
0.0
  0
POINT
  5
1618
330
15E1
100
AcDbEntity
  8
Defpoints
 62
     0
440
 16777216
100
AcDbPoint
 10
500.536804007712
 20
523.2221866388645
 30
0.0
  0
POINT
  5
1619
330
15E1
100
AcDbEntity
  8
Defpoints
 62
     0
440
 16777216
100
AcDbPoint
 10
500.536804007712
 20
568.2879920757932
 30
0.0
  0
ENDBLK
  5
15E3
330
15E1
100
AcDbEntity
  8
0
100
AcDbBlockEnd
  0
BLOCK
  5
15F0
330
15EF
100
AcDbEntity
  8
0
100
AcDbBlockBegin
  2
*D11
 70
     1
 10
0.0
 20
0.0
 30
0.0
  3
*D11
  1

  0
LINE
  5
161A
330
15EF
100
AcDbEntity
  8
0
 62
     0
440
 16777216
370
    -2
100
AcDbLine
 10
483.7868040073905
 20
527.0846866384101
 30
0.0
 11
483.7868040073905
 21
588.3894390220462
 31
0.0
  0
LINE
  5
161B
330
15EF
100
AcDbEntity
  8
0
 62
     0
440
 16777216
370
    -2
100
AcDbLine
 10
497.0368040079015
 20
527.0846866384101
 30
0.0
 11
497.0368040079015
 21
588.3894390220462
 31
0.0
  0
LINE
  5
161C
330
15EF
100
AcDbEntity
  8
0
 62
     0
440
 16777216
370
    -2
100
AcDbLine
 10
483.9668040073905
 20
588.2094390220462
 30
0.0
 11
496.8568040079015
 21
588.2094390220462
 31
0.0
  0
LINE
  5
161D
330
15EF
100
AcDbEntity
  8
0
 62
     0
440
 16777216
370
    -2
100
AcDbLine
 10
497.0368040079015
 20
588.2094390220462
 30
0.0
 11
497.2168040079012
 21
588.2094390220462
 31
0.0
  0
SOLID
  5
161E
330
15EF
100
AcDbEntity
  8
0
 62
     0
440
 16777216
100
AcDbTrace
 10
483.9668040073905
 20
588.2394390220463
 30
0.0
 11
483.9668040073905
 21
588.1794390220464
 31
0.0
 12
483.7868040073905
 22
588.2094390220462
 32
0.0
 13
483.7868040073905
 23
588.2094390220462
 33
0.0
  0
SOLID
  5
161F
330
15EF
100
AcDbEntity
  8
0
 62
     0
440
 16777216
100
AcDbTrace
 10
496.8568040079015
 20
588.2394390220463
 30
0.0
 11
496.8568040079015
 21
588.1794390220464
 31
0.0
 12
497.0368040079015
 22
588.2094390220462
 32
0.0
 13
497.0368040079015
 23
588.2094390220462
 33
0.0
  0
MTEXT
  5
1620
330
15EF
100
AcDbEntity
  8
0
 62
     0
440
 16777216
100
AcDbMText
 10
507.3068040079014
 20
588.2094390220462
 30
0.0
 40
15.0
 41
0.0
 46
0.0
 71
     5
 72
     1
  1
\A1;13
 73
     1
 44
1.0
  0
POINT
  5
1621
330
15EF
100
AcDbEntity
  8
Defpoints
 62
     0
440
 16777216
100
AcDbPoint
 10
483.7868040073905
 20
527.0221866384099
 30
0.0
  0
POINT
  5
1622
330
15EF
100
AcDbEntity
  8
Defpoints
 62
     0
440
 16777216
100
AcDbPoint
 10
497.0368040079015
 20
527.0221866384099
 30
0.0
  0
POINT
  5
1623
330
15EF
100
AcDbEntity
  8
Defpoints
 62
     0
440
 16777216
100
AcDbPoint
 10
497.0368040079015
 20
588.2094390220462
 30
0.0
  0
ENDBLK
  5
15F1
330
15EF
100
AcDbEntity
  8
0
100
AcDbBlockEnd
  0
BLOCK
  5
1629
330
1628
100
AcDbEntity
  8
0
100
AcDbBlockBegin
  2
*D12
 70
     1
 10
0.0
 20
0.0
 30
0.0
  3
*D12
  1

  0
LINE
  5
162B
330
1628
100
AcDbEntity
  8
0
 62
     0
440
 16777216
370
    -2
100
AcDbLine
 10
512.8711892413957
 20
148.3920281191922
 30
0.0
 11
505.972076304611
 21
147.1302148079224
 31
0.0
  0
MTEXT
  5
162C
330
1628
100
AcDbEntity
  8
0
 62
     0
440
 16777216
100
AcDbMText
 10
513.5311892413958
 20
148.3920281191922
 30
0.0
 40
0.18
 41
0.0
 46
0.0
 71
     5
 72
     1
  1
\A1;∅26.0000
 73
     1
 44
1.0
  0
SOLID
  5
162D
330
1628
100
AcDbEntity
  8
0
 62
     0
440
 16777216
100
AcDbTrace
 10
505.9666789836168
 20
147.1597252963306
 30
0.0
 11
505.9774736256051
 21
147.1007043195143
 31
0.0
 12
505.7950133741623
 22
147.097830881957
 32
0.0
 13
505.7950133741623
 23
147.097830881957
 33
0.0
  0
LINE
  5
162E
330
1628
100
AcDbEntity
  8
0
 62
     0
440
 16777216
370
    -2
100
AcDbLine
 10
492.9171350639828
 20
144.758991784448
 30
0.0
 11
493.0971350639826
 21
144.758991784448
 31
0.0
  0
LINE
  5
162F
330
1628
100
AcDbEntity
  8
0
 62
     0
440
 16777216
370
    -2
100
AcDbLine
 10
493.0071350639828
 20
144.668991784448
 30
0.0
 11
493.0071350639828
 21
144.8489917844479
 31
0.0
  0
POINT
  5
1630
330
1628
100
AcDbEntity
  8
Defpoints
 62
     0
440
 16777216
100
AcDbPoint
 10
505.7950133741623
 20
147.097830881957
 30
0.0
  0
POINT
  5
1631
330
1628
100
AcDbEntity
  8
Defpoints
 62
     0
440
 16777216
100
AcDbPoint
 10
480.2192567538031
 20
142.420152686939
 30
0.0
  0
ENDBLK
  5
162A
330
1628
100
AcDbEntity
  8
0
100
AcDbBlockEnd
  0
BLOCK
  5
1636
330
1635
100
AcDbEntity
  8
0
100
AcDbBlockBegin
  2
*D13
 70
     1
 10
0.0
 20
0.0
 30
0.0
  3
*D13
  1

  0
LINE
  5
1638
330
1635
100
AcDbEntity
  8
0
 62
     0
440
 16777216
370
    -2
100
AcDbLine
 10
509.973947520682
 20
150.6042856344456
 30
0.0
 11
509.7939475206819
 21
150.6042856344456
 31
0.0
  0
LINE
  5
1639
330
1635
100
AcDbEntity
  8
0
 62
     0
440
 16777216
370
    -2
100
AcDbLine
 10
509.7939475206819
 20
150.6042856344456
 30
0.0
 11
499.3156267246948
 21
146.955655838582
 31
0.0
  0
MTEXT
  5
163A
330
1635
100
AcDbEntity
  8
0
 62
     0
440
 16777216
100
AcDbMText
 10
510.6039475206818
 20
150.6042856344456
 30
0.0
 40
0.18
 41
0.0
 46
0.0
 71
     5
 72
     1
  1
\A1;∅13.0000
 73
     1
 44
1.0
  0
SOLID
  5
163B
330
1635
100
AcDbEntity
  8
0
 62
     0
440
 16777216
100
AcDbTrace
 10
499.3057614669664
 20
146.9839873879565
 30
0.0
 11
499.325491982423
 21
146.9273242892076
 31
0.0
 12
499.1456374284481
 22
146.8964642922132
 32
0.0
 13
499.1456374284481
 23
146.8964642922132
 33
0.0
  0
LINE
  5
163C
330
1635
100
AcDbEntity
  8
0
 62
     0
440
 16777216
370
    -2
100
AcDbLine
 10
492.9171350639826
 20
144.7589917844479
 30
0.0
 11
493.0971350639826
 21
144.758991784448
 31
0.0
  0
LINE
  5
163D
330
1635
100
AcDbEntity
  8
0
 62
     0
440
 16777216
370
    -2
100
AcDbLine
 10
493.0071350639827
 20
144.6689917844479
 30
0.0
 11
493.0071350639827
 21
144.8489917844479
 31
0.0
  0
POINT
  5
163E
330
1635
100
AcDbEntity
  8
Defpoints
 62
     0
440
 16777216
100
AcDbPoint
 10
499.1456374284481
 20
146.8964642922132
 30
0.0
  0
POINT
  5
163F
330
1635
100
AcDbEntity
  8
Defpoints
 62
     0
440
 16777216
100
AcDbPoint
 10
486.8686326995172
 20
142.6215192766826
 30
0.0
  0
ENDBLK
  5
1637
330
1635
100
AcDbEntity
  8
0
100
AcDbBlockEnd
  0
BLOCK
  5
1A4C
330
1A4B
100
AcDbEntity
  8
0
100
AcDbBlockBegin
  2
*D14
 70
     1
 10
0.0
 20
0.0
 30
0.0
  3
*D14
  1

  0
LINE
  5
1A4E
330
1A4B
100
AcDbEntity
  8
0
 62
     0
440
 16777216
370
    -2
100
AcDbLine
 10
382.6564697564935
 20
23.47782153231765
 30
0.0
 11
382.6564697564935
 21
41.49405281237949
 31
0.0
  0
LINE
  5
1A4F
330
1A4B
100
AcDbEntity
  8
0
 62
     0
440
 16777216
370
    -2
100
AcDbLine
 10
406.6564697564935
 20
23.47782153231765
 30
0.0
 11
406.6564697564935
 21
41.49405281237949
 31
0.0
  0
LINE
  5
1A50
330
1A4B
100
AcDbEntity
  8
0
 62
     0
440
 16777216
370
    -2
100
AcDbLine
 10
382.8364697564936
 20
41.31405281237947
 30
0.0
 11
394.0864697564935
 21
41.31405281237947
 31
0.0
  0
LINE
  5
1A51
330
1A4B
100
AcDbEntity
  8
0
 62
     0
440
 16777216
370
    -2
100
AcDbLine
 10
406.4764697564934
 20
41.31405281237947
 30
0.0
 11
395.2264697564936
 21
41.31405281237947
 31
0.0
  0
SOLID
  5
1A52
330
1A4B
100
AcDbEntity
  8
0
 62
     0
440
 16777216
100
AcDbTrace
 10
382.8364697564936
 20
41.34405281237946
 30
0.0
 11
382.8364697564936
 21
41.28405281237947
 31
0.0
 12
382.6564697564935
 22
41.31405281237947
 32
0.0
 13
382.6564697564935
 23
41.31405281237947
 33
0.0
  0
SOLID
  5
1A53
330
1A4B
100
AcDbEntity
  8
0
 62
     0
440
 16777216
100
AcDbTrace
 10
406.4764697564934
 20
41.34405281237946
 30
0.0
 11
406.4764697564934
 21
41.28405281237947
 31
0.0
 12
406.6564697564935
 22
41.31405281237947
 32
0.0
 13
406.6564697564935
 23
41.31405281237947
 33
0.0
  0
MTEXT
  5
1A54
330
1A4B
100
AcDbEntity
  8
0
 62
     0
440
 16777216
100
AcDbMText
 10
394.6564697564935
 20
41.31405281237947
 30
0.0
 40
0.18
 41
0.0
 46
0.0
 71
     5
 72
     1
  1
\A1;24.0000
 73
     1
 44
1.0
  0
POINT
  5
1A55
330
1A4B
100
AcDbEntity
  8
Defpoints
 62
     0
440
 16777216
100
AcDbPoint
 10
382.6564697564935
 20
23.41532153231765
 30
0.0
  0
POINT
  5
1A56
330
1A4B
100
AcDbEntity
  8
Defpoints
 62
     0
440
 16777216
100
AcDbPoint
 10
406.6564697564935
 20
23.41532153231765
 30
0.0
  0
POINT
  5
1A57
330
1A4B
100
AcDbEntity
  8
Defpoints
 62
     0
440
 16777216
100
AcDbPoint
 10
406.6564697564935
 20
41.31405281237947
 30
0.0
  0
ENDBLK
  5
1A4D
330
1A4B
100
AcDbEntity
  8
0
100
AcDbBlockEnd
  0
BLOCK
  5
1A5A
330
1A59
100
AcDbEntity
  8
0
100
AcDbBlockBegin
  2
*D15
 70
     1
 10
0.0
 20
0.0
 30
0.0
  3
*D15
  1

  0
LINE
  5
1A5C
330
1A59
100
AcDbEntity
  8
0
 62
     0
440
 16777216
370
    -2
100
AcDbLine
 10
233.6423861599599
 20
422.8050019013716
 30
0.0
 11
233.6423861599599
 21
382.4443877504858
 31
0.0
  0
LINE
  5
1A5D
330
1A59
100
AcDbEntity
  8
0
 62
     0
440
 16777216
370
    -2
100
AcDbLine
 10
236.6465492159941
 20
422.8050019013716
 30
0.0
 11
236.6465492159941
 21
382.4443877504858
 31
0.0
  0
LINE
  5
1A5E
330
1A59
100
AcDbEntity
  8
0
 62
     0
440
 16777216
370
    -2
100
AcDbLine
 10
233.8223861599599
 20
382.6243877504858
 30
0.0
 11
234.634467687977
 21
382.6243877504858
 31
0.0
  0
LINE
  5
1A5F
330
1A59
100
AcDbEntity
  8
0
 62
     0
440
 16777216
370
    -2
100
AcDbLine
 10
236.4665492159941
 20
382.6243877504858
 30
0.0
 11
235.654467687977
 21
382.6243877504858
 31
0.0
  0
SOLID
  5
1A60
330
1A59
100
AcDbEntity
  8
0
 62
     0
440
 16777216
100
AcDbTrace
 10
233.8223861599599
 20
382.6543877504857
 30
0.0
 11
233.8223861599599
 21
382.5943877504859
 31
0.0
 12
233.6423861599599
 22
382.6243877504858
 32
0.0
 13
233.6423861599599
 23
382.6243877504858
 33
0.0
  0
SOLID
  5
1A61
330
1A59
100
AcDbEntity
  8
0
 62
     0
440
 16777216
100
AcDbTrace
 10
236.4665492159941
 20
382.6543877504857
 30
0.0
 11
236.4665492159941
 21
382.5943877504859
 31
0.0
 12
236.6465492159941
 22
382.6243877504858
 32
0.0
 13
236.6465492159941
 23
382.6243877504858
 33
0.0
  0
MTEXT
  5
1A62
330
1A59
100
AcDbEntity
  8
0
 62
     0
440
 16777216
100
AcDbMText
 10
235.144467687977
 20
382.6243877504858
 30
0.0
 40
0.18
 41
0.0
 46
0.0
 71
     5
 72
     1
  1
\A1;3.0042
 73
     1
 44
1.0
  0
POINT
  5
1A63
330
1A59
100
AcDbEntity
  8
Defpoints
 62
     0
440
 16777216
100
AcDbPoint
 10
233.6423861599599
 20
422.8675019013715
 30
-0.0000000000000002
  0
POINT
  5
1A64
330
1A59
100
AcDbEntity
  8
Defpoints
 62
     0
440
 16777216
100
AcDbPoint
 10
236.6465492159941
 20
422.8675019013715
 30
0.0
  0
POINT
  5
1A65
330
1A59
100
AcDbEntity
  8
Defpoints
 62
     0
440
 16777216
100
AcDbPoint
 10
236.6465492159941
 20
382.6243877504858
 30
0.0
  0
ENDBLK
  5
1A5B
330
1A59
100
AcDbEntity
  8
0
100
AcDbBlockEnd
  0
BLOCK
  5
1A69
330
1A68
100
AcDbEntity
  8
0
100
AcDbBlockBegin
  2
*D16
 70
     1
 10
0.0
 20
0.0
 30
0.0
  3
*D16
  1

  0
LINE
  5
1A6B
330
1A68
100
AcDbEntity
  8
0
 62
     0
440
 16777216
370
    -2
100
AcDbLine
 10
394.6564697564935
 20
29.91972298257031
 30
0.0
 11
394.6564697564935
 21
130.7283420898999
 31
0.0
  0
LINE
  5
1A6C
330
1A68
100
AcDbEntity
  8
0
 62
     0
440
 16777216
370
    -2
100
AcDbLine
 10
373.6564697564929
 20
29.91972298257031
 30
0.0
 11
373.6564697564929
 21
130.7283420898999
 31
0.0
  0
LINE
  5
1A6D
330
1A68
100
AcDbEntity
  8
0
 62
     0
440
 16777216
370
    -2
100
AcDbLine
 10
394.4764697564935
 20
130.5483420898999
 30
0.0
 11
384.6964697564932
 21
130.5483420898999
 31
0.0
  0
LINE
  5
1A6E
330
1A68
100
AcDbEntity
  8
0
 62
     0
440
 16777216
370
    -2
100
AcDbLine
 10
373.8364697564928
 20
130.5483420898999
 30
0.0
 11
383.6164697564931
 21
130.5483420898999
 31
0.0
  0
SOLID
  5
1A6F
330
1A68
100
AcDbEntity
  8
0
 62
     0
440
 16777216
100
AcDbTrace
 10
394.4764697564935
 20
130.5783420898999
 30
0.0
 11
394.4764697564935
 21
130.5183420898999
 31
0.0
 12
394.6564697564935
 22
130.5483420898999
 32
0.0
 13
394.6564697564935
 23
130.5483420898999
 33
0.0
  0
SOLID
  5
1A70
330
1A68
100
AcDbEntity
  8
0
 62
     0
440
 16777216
100
AcDbTrace
 10
373.8364697564928
 20
130.5783420898999
 30
0.0
 11
373.8364697564928
 21
130.5183420898999
 31
0.0
 12
373.6564697564929
 22
130.5483420898999
 32
0.0
 13
373.6564697564929
 23
130.5483420898999
 33
0.0
  0
MTEXT
  5
1A71
330
1A68
100
AcDbEntity
  8
0
 62
     0
440
 16777216
100
AcDbMText
 10
384.1564697564932
 20
130.5483420898999
 30
0.0
 40
0.18
 41
0.0
 46
0.0
 71
     5
 72
     1
  1
\A1;21.0000
 73
     1
 44
1.0
  0
POINT
  5
1A72
330
1A68
100
AcDbEntity
  8
Defpoints
 62
     0
440
 16777216
100
AcDbPoint
 10
394.6564697564935
 20
29.8572229825703
 30
0.0
  0
POINT
  5
1A73
330
1A68
100
AcDbEntity
  8
Defpoints
 62
     0
440
 16777216
100
AcDbPoint
 10
373.6564697564929
 20
29.8572229825703
 30
0.0
  0
POINT
  5
1A74
330
1A68
100
AcDbEntity
  8
Defpoints
 62
     0
440
 16777216
100
AcDbPoint
 10
373.6564697564929
 20
130.5483420898999
 30
0.0
  0
ENDBLK
  5
1A6A
330
1A68
100
AcDbEntity
  8
0
100
AcDbBlockEnd
  0
BLOCK
  5
208E
330
208D
100
AcDbEntity
  8
0
100
AcDbBlockBegin
  2
*D17
 70
     1
 10
0.0
 20
0.0
 30
0.0
  3
*D17
  1

  0
LINE
  5
2090
330
208D
100
AcDbEntity
  8
0
 62
     0
440
 16777216
370
    -2
100
AcDbLine
 10
427.2761784091929
 20
492.2367021139272
 30
0.0
 11
427.2761784091929
 21
540.862707244271
 31
0.0
  0
LINE
  5
2091
330
208D
100
AcDbEntity
  8
0
 62
     0
440
 16777216
370
    -2
100
AcDbLine
 10
757.2761784091929
 20
492.2367021139272
 30
0.0
 11
757.2761784091929
 21
540.862707244271
 31
0.0
  0
LINE
  5
2092
330
208D
100
AcDbEntity
  8
0
 62
     0
440
 16777216
370
    -2
100
AcDbLine
 10
427.4561784091931
 20
540.6827072442711
 30
0.0
 11
591.6311784091931
 21
540.6827072442711
 31
0.0
  0
LINE
  5
2093
330
208D
100
AcDbEntity
  8
0
 62
     0
440
 16777216
370
    -2
100
AcDbLine
 10
757.0961784091931
 20
540.6827072442711
 30
0.0
 11
592.9211784091931
 21
540.6827072442711
 31
0.0
  0
SOLID
  5
2094
330
208D
100
AcDbEntity
  8
0
 62
     0
440
 16777216
100
AcDbTrace
 10
427.4561784091931
 20
540.7127072442711
 30
0.0
 11
427.4561784091931
 21
540.6527072442711
 31
0.0
 12
427.2761784091929
 22
540.6827072442711
 32
0.0
 13
427.2761784091929
 23
540.6827072442711
 33
0.0
  0
SOLID
  5
2095
330
208D
100
AcDbEntity
  8
0
 62
     0
440
 16777216
100
AcDbTrace
 10
757.0961784091931
 20
540.7127072442711
 30
0.0
 11
757.0961784091931
 21
540.6527072442711
 31
0.0
 12
757.2761784091929
 22
540.6827072442711
 32
0.0
 13
757.2761784091929
 23
540.6827072442711
 33
0.0
  0
MTEXT
  5
2096
330
208D
100
AcDbEntity
  8
0
 62
     0
440
 16777216
100
AcDbMText
 10
592.2761784091931
 20
540.6827072442711
 30
0.0
 40
0.18
 41
0.0
 46
0.0
 71
     5
 72
     1
  1
\A1;330.0000
 73
     1
 44
1.0
  0
POINT
  5
2097
330
208D
100
AcDbEntity
  8
Defpoints
 62
     0
440
 16777216
100
AcDbPoint
 10
427.2761784091929
 20
492.1742021139269
 30
0.0
  0
POINT
  5
2098
330
208D
100
AcDbEntity
  8
Defpoints
 62
     0
440
 16777216
100
AcDbPoint
 10
757.2761784091929
 20
492.1742021139269
 30
0.0
  0
POINT
  5
2099
330
208D
100
AcDbEntity
  8
Defpoints
 62
     0
440
 16777216
100
AcDbPoint
 10
757.2761784091929
 20
540.6827072442711
 30
0.0
  0
ENDBLK
  5
208F
330
208D
100
AcDbEntity
  8
0
100
AcDbBlockEnd
  0
BLOCK
  5
209C
330
209B
100
AcDbEntity
  8
0
100
AcDbBlockBegin
  2
*D18
 70
     1
 10
0.0
 20
0.0
 30
0.0
  3
*D18
  1

  0
LINE
  5
209E
330
209B
100
AcDbEntity
  8
0
 62
     0
440
 16777216
370
    -2
100
AcDbLine
 10
869.3924830497373
 20
481.7296578438871
 30
0.0
 11
869.3924830497373
 21
552.2167948218464
 31
0.0
  0
LINE
  5
209F
330
209B
100
AcDbEntity
  8
0
 62
     0
440
 16777216
370
    -2
100
AcDbLine
 10
1011.392483049738
 20
486.2991122589773
 30
0.0
 11
1011.392483049738
 21
552.2167948218464
 31
0.0
  0
LINE
  5
20A0
330
209B
100
AcDbEntity
  8
0
 62
     0
440
 16777216
370
    -2
100
AcDbLine
 10
869.5724830497372
 20
552.0367948218463
 30
0.0
 11
939.7624830497376
 21
552.0367948218463
 31
0.0
  0
LINE
  5
20A1
330
209B
100
AcDbEntity
  8
0
 62
     0
440
 16777216
370
    -2
100
AcDbLine
 10
1011.212483049738
 20
552.0367948218463
 30
0.0
 11
941.0224830497375
 21
552.0367948218463
 31
0.0
  0
SOLID
  5
20A2
330
209B
100
AcDbEntity
  8
0
 62
     0
440
 16777216
100
AcDbTrace
 10
869.5724830497372
 20
552.0667948218463
 30
0.0
 11
869.5724830497372
 21
552.0067948218463
 31
0.0
 12
869.3924830497373
 22
552.0367948218463
 32
0.0
 13
869.3924830497373
 23
552.0367948218463
 33
0.0
  0
SOLID
  5
20A3
330
209B
100
AcDbEntity
  8
0
 62
     0
440
 16777216
100
AcDbTrace
 10
1011.212483049738
 20
552.0667948218463
 30
0.0
 11
1011.212483049738
 21
552.0067948218463
 31
0.0
 12
1011.392483049738
 22
552.0367948218463
 32
0.0
 13
1011.392483049738
 23
552.0367948218463
 33
0.0
  0
MTEXT
  5
20A4
330
209B
100
AcDbEntity
  8
0
 62
     0
440
 16777216
100
AcDbMText
 10
940.3924830497375
 20
552.0367948218463
 30
0.0
 40
0.18
 41
0.0
 46
0.0
 71
     5
 72
     1
  1
\A1;142.0000
 73
     1
 44
1.0
  0
POINT
  5
20A5
330
209B
100
AcDbEntity
  8
Defpoints
 62
     0
440
 16777216
100
AcDbPoint
 10
869.3924830497373
 20
481.6671578438872
 30
0.0
  0
POINT
  5
20A6
330
209B
100
AcDbEntity
  8
Defpoints
 62
     0
440
 16777216
100
AcDbPoint
 10
1011.392483049738
 20
486.2366122589773
 30
0.0
  0
POINT
  5
20A7
330
209B
100
AcDbEntity
  8
Defpoints
 62
     0
440
 16777216
100
AcDbPoint
 10
1011.392483049738
 20
552.0367948218463
 30
0.0
  0
ENDBLK
  5
209D
330
209B
100
AcDbEntity
  8
0
100
AcDbBlockEnd
  0
BLOCK
  5
20BD
330
20BC
100
AcDbEntity
  8
0
100
AcDbBlockBegin
  2
*D19
 70
     1
 10
0.0
 20
0.0
 30
0.0
  3
*D19
  1

  0
LINE
  5
20BF
330
20BC
100
AcDbEntity
  8
0
 62
     0
440
 16777216
370
    -2
100
AcDbLine
 10
427.2761784091929
 20
195.250101934047
 30
0.0
 11
427.2761784091929
 21
120.8408842177353
 31
0.0
  0
LINE
  5
20C0
330
20BC
100
AcDbEntity
  8
0
 62
     0
440
 16777216
370
    -2
100
AcDbLine
 10
428.876178409193
 20
195.250101934047
 30
0.0
 11
428.876178409193
 21
120.8408842177353
 31
0.0
  0
LINE
  5
20C1
330
20BC
100
AcDbEntity
  8
0
 62
     0
440
 16777216
370
    -2
100
AcDbLine
 10
427.4561784091929
 20
121.0208842177353
 30
0.0
 11
427.6111784091931
 21
121.0208842177353
 31
0.0
  0
LINE
  5
20C2
330
20BC
100
AcDbEntity
  8
0
 62
     0
440
 16777216
370
    -2
100
AcDbLine
 10
428.6961784091931
 20
121.0208842177353
 30
0.0
 11
428.5411784091929
 21
121.0208842177353
 31
0.0
  0
SOLID
  5
20C3
330
20BC
100
AcDbEntity
  8
0
 62
     0
440
 16777216
100
AcDbTrace
 10
427.4561784091929
 20
121.0508842177353
 30
0.0
 11
427.4561784091929
 21
120.9908842177353
 31
0.0
 12
427.2761784091929
 22
121.0208842177353
 32
0.0
 13
427.2761784091929
 23
121.0208842177353
 33
0.0
  0
SOLID
  5
20C4
330
20BC
100
AcDbEntity
  8
0
 62
     0
440
 16777216
100
AcDbTrace
 10
428.6961784091931
 20
121.0508842177353
 30
0.0
 11
428.6961784091931
 21
120.9908842177353
 31
0.0
 12
428.876178409193
 22
121.0208842177353
 32
0.0
 13
428.876178409193
 23
121.0208842177353
 33
0.0
  0
MTEXT
  5
20C5
330
20BC
100
AcDbEntity
  8
0
 62
     0
440
 16777216
100
AcDbMText
 10
428.0761784091929
 20
121.0208842177353
 30
0.0
 40
0.18
 41
0.0
 46
0.0
 71
     5
 72
     1
  1
\A1;1.6000
 73
     1
 44
1.0
  0
POINT
  5
20C6
330
20BC
100
AcDbEntity
  8
Defpoints
 62
     0
440
 16777216
100
AcDbPoint
 10
427.2761784091929
 20
195.312601934047
 30
0.0
  0
POINT
  5
20C7
330
20BC
100
AcDbEntity
  8
Defpoints
 62
     0
440
 16777216
100
AcDbPoint
 10
428.876178409193
 20
195.312601934047
 30
0.0
  0
POINT
  5
20C8
330
20BC
100
AcDbEntity
  8
Defpoints
 62
     0
440
 16777216
100
AcDbPoint
 10
428.876178409193
 20
121.0208842177353
 30
0.0
  0
ENDBLK
  5
20BE
330
20BC
100
AcDbEntity
  8
0
100
AcDbBlockEnd
  0
BLOCK
  5
20F4
330
20F3
100
AcDbEntity
  8
0
100
AcDbBlockBegin
  2
*D20
 70
     1
 10
0.0
 20
0.0
 30
0.0
  3
*D20
  1

  0
LINE
  5
20F6
330
20F3
100
AcDbEntity
  8
0
 62
     0
440
 16777216
370
    -2
100
AcDbLine
 10
882.3065856138397
 20
166.0954862175195
 30
0.0
 11
882.3065856138397
 21
109.2660838629647
 31
0.0
  0
LINE
  5
20F7
330
20F3
100
AcDbEntity
  8
0
 62
     0
440
 16777216
370
    -2
100
AcDbLine
 10
869.3924830497374
 20
166.0954862175195
 30
0.0
 11
869.3924830497374
 21
109.2660838629647
 31
0.0
  0
LINE
  5
20F8
330
20F3
100
AcDbEntity
  8
0
 62
     0
440
 16777216
370
    -2
100
AcDbLine
 10
882.1265856138399
 20
109.4460838629647
 30
0.0
 11
876.3895343317884
 21
109.4460838629647
 31
0.0
  0
LINE
  5
20F9
330
20F3
100
AcDbEntity
  8
0
 62
     0
440
 16777216
370
    -2
100
AcDbLine
 10
869.5724830497374
 20
109.4460838629647
 30
0.0
 11
875.3095343317886
 21
109.4460838629647
 31
0.0
  0
SOLID
  5
20FA
330
20F3
100
AcDbEntity
  8
0
 62
     0
440
 16777216
100
AcDbTrace
 10
882.1265856138399
 20
109.4760838629647
 30
0.0
 11
882.1265856138399
 21
109.4160838629647
 31
0.0
 12
882.3065856138397
 22
109.4460838629647
 32
0.0
 13
882.3065856138397
 23
109.4460838629647
 33
0.0
  0
SOLID
  5
20FB
330
20F3
100
AcDbEntity
  8
0
 62
     0
440
 16777216
100
AcDbTrace
 10
869.5724830497374
 20
109.4760838629647
 30
0.0
 11
869.5724830497374
 21
109.4160838629647
 31
0.0
 12
869.3924830497374
 22
109.4460838629647
 32
0.0
 13
869.3924830497374
 23
109.4460838629647
 33
0.0
  0
MTEXT
  5
20FC
330
20F3
100
AcDbEntity
  8
0
 62
     0
440
 16777216
100
AcDbMText
 10
875.8495343317886
 20
109.4460838629647
 30
0.0
 40
0.18
 41
0.0
 46
0.0
 71
     5
 72
     1
  1
\A1;12.9141
 73
     1
 44
1.0
  0
POINT
  5
20FD
330
20F3
100
AcDbEntity
  8
Defpoints
 62
     0
440
 16777216
100
AcDbPoint
 10
882.3065856138397
 20
166.1579862175195
 30
0.0
  0
POINT
  5
20FE
330
20F3
100
AcDbEntity
  8
Defpoints
 62
     0
440
 16777216
100
AcDbPoint
 10
869.3924830497374
 20
166.1579862175195
 30
0.0
  0
POINT
  5
20FF
330
20F3
100
AcDbEntity
  8
Defpoints
 62
     0
440
 16777216
100
AcDbPoint
 10
869.3924830497374
 20
109.4460838629647
 30
0.0
  0
ENDBLK
  5
20F5
330
20F3
100
AcDbEntity
  8
0
100
AcDbBlockEnd
  0
BLOCK
  5
212C
330
212B
100
AcDbEntity
  8
0
100
AcDbBlockBegin
  2
*D21
 70
     1
 10
0.0
 20
0.0
 30
0.0
  3
*D21
  1

  0
LINE
  5
212E
330
212B
100
AcDbEntity
  8
0
 62
     0
440
 16777216
370
    -2
100
AcDbLine
 10
1167.697856717411
 20
469.8615118585451
 30
0.0
 11
1167.697856717411
 21
487.4150737431452
 31
0.0
  0
LINE
  5
212F
330
212B
100
AcDbEntity
  8
0
 62
     0
440
 16777216
370
    -2
100
AcDbLine
 10
1194.697856717411
 20
469.8615118585451
 30
0.0
 11
1194.697856717411
 21
487.4150737431452
 31
0.0
  0
LINE
  5
2130
330
212B
100
AcDbEntity
  8
0
 62
     0
440
 16777216
370
    -2
100
AcDbLine
 10
1167.877856717411
 20
487.2350737431452
 30
0.0
 11
1180.627856717411
 21
487.2350737431452
 31
0.0
  0
LINE
  5
2131
330
212B
100
AcDbEntity
  8
0
 62
     0
440
 16777216
370
    -2
100
AcDbLine
 10
1194.517856717411
 20
487.2350737431452
 30
0.0
 11
1181.767856717411
 21
487.2350737431452
 31
0.0
  0
SOLID
  5
2132
330
212B
100
AcDbEntity
  8
0
 62
     0
440
 16777216
100
AcDbTrace
 10
1167.877856717411
 20
487.2650737431452
 30
0.0
 11
1167.877856717411
 21
487.2050737431451
 31
0.0
 12
1167.697856717411
 22
487.2350737431452
 32
0.0
 13
1167.697856717411
 23
487.2350737431452
 33
0.0
  0
SOLID
  5
2133
330
212B
100
AcDbEntity
  8
0
 62
     0
440
 16777216
100
AcDbTrace
 10
1194.517856717411
 20
487.2650737431452
 30
0.0
 11
1194.517856717411
 21
487.2050737431451
 31
0.0
 12
1194.697856717411
 22
487.2350737431452
 32
0.0
 13
1194.697856717411
 23
487.2350737431452
 33
0.0
  0
MTEXT
  5
2134
330
212B
100
AcDbEntity
  8
0
 62
     0
440
 16777216
100
AcDbMText
 10
1181.197856717411
 20
487.2350737431452
 30
0.0
 40
0.18
 41
0.0
 46
0.0
 71
     5
 72
     1
  1
\A1;27.0000
 73
     1
 44
1.0
  0
POINT
  5
2135
330
212B
100
AcDbEntity
  8
Defpoints
 62
     0
440
 16777216
100
AcDbPoint
 10
1167.697856717411
 20
469.7990118585451
 30
0.0
  0
POINT
  5
2136
330
212B
100
AcDbEntity
  8
Defpoints
 62
     0
440
 16777216
100
AcDbPoint
 10
1194.697856717411
 20
469.7990118585451
 30
0.0
  0
POINT
  5
2137
330
212B
100
AcDbEntity
  8
Defpoints
 62
     0
440
 16777216
100
AcDbPoint
 10
1194.697856717411
 20
487.2350737431452
 30
0.0
  0
ENDBLK
  5
212D
330
212B
100
AcDbEntity
  8
0
100
AcDbBlockEnd
  0
BLOCK
  5
213A
330
2139
100
AcDbEntity
  8
0
100
AcDbBlockBegin
  2
*D22
 70
     1
 10
0.0
 20
0.0
 30
0.0
  3
*D22
  1

  0
LINE
  5
213C
330
2139
100
AcDbEntity
  8
0
 62
     0
440
 16777216
370
    -2
100
AcDbLine
 10
866.388319993703
 20
447.7292030520032
 30
0.0
 11
866.388319993703
 21
415.0700194225321
 31
0.0
  0
LINE
  5
213D
330
2139
100
AcDbEntity
  8
0
 62
     0
440
 16777216
370
    -2
100
AcDbLine
 10
869.3924830497374
 20
447.7292030520032
 30
0.0
 11
869.3924830497374
 21
415.0700194225321
 31
0.0
  0
LINE
  5
213E
330
2139
100
AcDbEntity
  8
0
 62
     0
440
 16777216
370
    -2
100
AcDbLine
 10
866.568319993703
 20
415.2500194225321
 30
0.0
 11
867.3804015217202
 21
415.2500194225321
 31
0.0
  0
LINE
  5
213F
330
2139
100
AcDbEntity
  8
0
 62
     0
440
 16777216
370
    -2
100
AcDbLine
 10
869.2124830497375
 20
415.2500194225321
 30
0.0
 11
868.4004015217201
 21
415.2500194225321
 31
0.0
  0
SOLID
  5
2140
330
2139
100
AcDbEntity
  8
0
 62
     0
440
 16777216
100
AcDbTrace
 10
866.568319993703
 20
415.2800194225322
 30
0.0
 11
866.568319993703
 21
415.2200194225321
 31
0.0
 12
866.388319993703
 22
415.2500194225321
 32
0.0
 13
866.388319993703
 23
415.2500194225321
 33
0.0
  0
SOLID
  5
2141
330
2139
100
AcDbEntity
  8
0
 62
     0
440
 16777216
100
AcDbTrace
 10
869.2124830497375
 20
415.2800194225322
 30
0.0
 11
869.2124830497375
 21
415.2200194225321
 31
0.0
 12
869.3924830497374
 22
415.2500194225321
 32
0.0
 13
869.3924830497374
 23
415.2500194225321
 33
0.0
  0
MTEXT
  5
2142
330
2139
100
AcDbEntity
  8
0
 62
     0
440
 16777216
100
AcDbMText
 10
867.8904015217201
 20
415.2500194225321
 30
0.0
 40
0.18
 41
0.0
 46
0.0
 71
     5
 72
     1
  1
\A1;3.0042
 73
     1
 44
1.0
  0
POINT
  5
2143
330
2139
100
AcDbEntity
  8
Defpoints
 62
     0
440
 16777216
100
AcDbPoint
 10
866.388319993703
 20
447.7917030520033
 30
0.0
  0
POINT
  5
2144
330
2139
100
AcDbEntity
  8
Defpoints
 62
     0
440
 16777216
100
AcDbPoint
 10
869.3924830497374
 20
447.7917030520033
 30
0.0
  0
POINT
  5
2145
330
2139
100
AcDbEntity
  8
Defpoints
 62
     0
440
 16777216
100
AcDbPoint
 10
869.3924830497374
 20
415.2500194225321
 30
0.0
  0
ENDBLK
  5
213B
330
2139
100
AcDbEntity
  8
0
100
AcDbBlockEnd
  0
BLOCK
  5
2149
330
2148
100
AcDbEntity
  8
0
100
AcDbBlockBegin
  2
*D23
 70
     1
 10
0.0
 20
0.0
 30
0.0
  3
*D23
  1

  0
LINE
  5
214B
330
2148
100
AcDbEntity
  8
0
 62
     0
440
 16777216
370
    -2
100
AcDbLine
 10
1296.197856717411
 20
502.8615118585453
 30
0.0
 11
1296.197856717411
 21
544.8195848787332
 31
0.0
  0
LINE
  5
214C
330
2148
100
AcDbEntity
  8
0
 62
     0
440
 16777216
370
    -2
100
AcDbLine
 10
1181.197856717411
 20
467.4372477898332
 30
0.0
 11
1181.197856717411
 21
544.8195848787332
 31
0.0
  0
LINE
  5
214D
330
2148
100
AcDbEntity
  8
0
 62
     0
440
 16777216
370
    -2
100
AcDbLine
 10
1296.017856717411
 20
544.6395848787333
 30
0.0
 11
1239.297856717411
 21
544.6395848787333
 31
0.0
  0
LINE
  5
214E
330
2148
100
AcDbEntity
  8
0
 62
     0
440
 16777216
370
    -2
100
AcDbLine
 10
1181.377856717411
 20
544.6395848787333
 30
0.0
 11
1238.097856717411
 21
544.6395848787333
 31
0.0
  0
SOLID
  5
214F
330
2148
100
AcDbEntity
  8
0
 62
     0
440
 16777216
100
AcDbTrace
 10
1296.017856717411
 20
544.6695848787332
 30
0.0
 11
1296.017856717411
 21
544.6095848787332
 31
0.0
 12
1296.197856717411
 22
544.6395848787333
 32
0.0
 13
1296.197856717411
 23
544.6395848787333
 33
0.0
  0
SOLID
  5
2150
330
2148
100
AcDbEntity
  8
0
 62
     0
440
 16777216
100
AcDbTrace
 10
1181.377856717411
 20
544.6695848787332
 30
0.0
 11
1181.377856717411
 21
544.6095848787332
 31
0.0
 12
1181.197856717411
 22
544.6395848787333
 32
0.0
 13
1181.197856717411
 23
544.6395848787333
 33
0.0
  0
MTEXT
  5
2151
330
2148
100
AcDbEntity
  8
0
 62
     0
440
 16777216
100
AcDbMText
 10
1238.697856717411
 20
544.6395848787333
 30
0.0
 40
0.18
 41
0.0
 46
0.0
 71
     5
 72
     1
  1
\A1;115.0000
 73
     1
 44
1.0
  0
POINT
  5
2152
330
2148
100
AcDbEntity
  8
Defpoints
 62
     0
440
 16777216
100
AcDbPoint
 10
1296.197856717411
 20
502.7990118585453
 30
0.0
  0
POINT
  5
2153
330
2148
100
AcDbEntity
  8
Defpoints
 62
     0
440
 16777216
100
AcDbPoint
 10
1181.197856717411
 20
467.3747477898332
 30
0.0
  0
POINT
  5
2154
330
2148
100
AcDbEntity
  8
Defpoints
 62
     0
440
 16777216
100
AcDbPoint
 10
1181.197856717411
 20
544.6395848787333
 30
0.0
  0
ENDBLK
  5
214A
330
2148
100
AcDbEntity
  8
0
100
AcDbBlockEnd
  0
BLOCK
  5
27E9
330
27E8
100
AcDbEntity
  8
0
100
AcDbBlockBegin
  2
*D24
 70
     1
 10
0.0
 20
0.0
 30
0.0
  3
*D24
  1

  0
LINE
  5
27EB
330
27E8
100
AcDbEntity
  8
0
 62
     0
440
 16777216
370
    -2
100
AcDbLine
 10
1148.312193357678
 20
423.4947680885687
 30
0.0
 11
1148.312193357678
 21
394.0395660055713
 31
0.0
  0
LINE
  5
27EC
330
27E8
100
AcDbEntity
  8
0
 62
     0
440
 16777216
370
    -2
100
AcDbLine
 10
1355.312193357679
 20
421.9947680885687
 30
0.0
 11
1355.312193357679
 21
394.0395660055713
 31
0.0
  0
LINE
  5
27ED
330
27E8
100
AcDbEntity
  8
0
 62
     0
440
 16777216
370
    -2
100
AcDbLine
 10
1148.492193357678
 20
394.2195660055713
 30
0.0
 11
1251.167193357678
 21
394.2195660055713
 31
0.0
  0
LINE
  5
27EE
330
27E8
100
AcDbEntity
  8
0
 62
     0
440
 16777216
370
    -2
100
AcDbLine
 10
1355.132193357679
 20
394.2195660055713
 30
0.0
 11
1252.457193357678
 21
394.2195660055713
 31
0.0
  0
SOLID
  5
27EF
330
27E8
100
AcDbEntity
  8
0
 62
     0
440
 16777216
100
AcDbTrace
 10
1148.492193357678
 20
394.2495660055713
 30
0.0
 11
1148.492193357678
 21
394.1895660055714
 31
0.0
 12
1148.312193357678
 22
394.2195660055713
 32
0.0
 13
1148.312193357678
 23
394.2195660055713
 33
0.0
  0
SOLID
  5
27F0
330
27E8
100
AcDbEntity
  8
0
 62
     0
440
 16777216
100
AcDbTrace
 10
1355.132193357679
 20
394.2495660055713
 30
0.0
 11
1355.132193357679
 21
394.1895660055714
 31
0.0
 12
1355.312193357679
 22
394.2195660055713
 32
0.0
 13
1355.312193357679
 23
394.2195660055713
 33
0.0
  0
MTEXT
  5
27F1
330
27E8
100
AcDbEntity
  8
0
 62
     0
440
 16777216
100
AcDbMText
 10
1251.812193357678
 20
394.2195660055713
 30
0.0
 40
0.18
 41
0.0
 46
0.0
 71
     5
 72
     1
  1
\A1;207.0000
 73
     1
 44
1.0
  0
POINT
  5
27F2
330
27E8
100
AcDbEntity
  8
Defpoints
 62
     0
440
 16777216
100
AcDbPoint
 10
1148.312193357678
 20
423.5572680885686
 30
0.0
  0
POINT
  5
27F3
330
27E8
100
AcDbEntity
  8
Defpoints
 62
     0
440
 16777216
100
AcDbPoint
 10
1355.312193357679
 20
422.0572680885688
 30
0.0
  0
POINT
  5
27F4
330
27E8
100
AcDbEntity
  8
Defpoints
 62
     0
440
 16777216
100
AcDbPoint
 10
1355.312193357679
 20
394.2195660055713
 30
0.0
  0
ENDBLK
  5
27EA
330
27E8
100
AcDbEntity
  8
0
100
AcDbBlockEnd
  0
BLOCK
  5
27F8
330
27F7
100
AcDbEntity
  8
0
100
AcDbBlockBegin
  2
*D25
 70
     1
 10
0.0
 20
0.0
 30
0.0
  3
*D25
  1

  0
LINE
  5
27FA
330
27F7
100
AcDbEntity
  8
0
 62
     0
440
 16777216
370
    -2
100
AcDbLine
 10
1052.388932243386
 20
269.0379355713985
 30
0.0
 11
1052.388932243386
 21
196.2205942543472
 31
0.0
  0
LINE
  5
27FB
330
27F7
100
AcDbEntity
  8
0
 62
     0
440
 16777216
370
    -2
100
AcDbLine
 10
1053.988932243386
 20
269.0379355713985
 30
0.0
 11
1053.988932243386
 21
196.2205942543472
 31
0.0
  0
LINE
  5
27FC
330
27F7
100
AcDbEntity
  8
0
 62
     0
440
 16777216
370
    -2
100
AcDbLine
 10
1052.568932243386
 20
196.4005942543472
 30
0.0
 11
1052.723932243386
 21
196.4005942543472
 31
0.0
  0
LINE
  5
27FD
330
27F7
100
AcDbEntity
  8
0
 62
     0
440
 16777216
370
    -2
100
AcDbLine
 10
1053.808932243386
 20
196.4005942543472
 30
0.0
 11
1053.653932243386
 21
196.4005942543472
 31
0.0
  0
SOLID
  5
27FE
330
27F7
100
AcDbEntity
  8
0
 62
     0
440
 16777216
100
AcDbTrace
 10
1052.568932243386
 20
196.4305942543472
 30
0.0
 11
1052.568932243386
 21
196.3705942543472
 31
0.0
 12
1052.388932243386
 22
196.4005942543472
 32
0.0
 13
1052.388932243386
 23
196.4005942543472
 33
0.0
  0
SOLID
  5
27FF
330
27F7
100
AcDbEntity
  8
0
 62
     0
440
 16777216
100
AcDbTrace
 10
1053.808932243386
 20
196.4305942543472
 30
0.0
 11
1053.808932243386
 21
196.3705942543472
 31
0.0
 12
1053.988932243386
 22
196.4005942543472
 32
0.0
 13
1053.988932243386
 23
196.4005942543472
 33
0.0
  0
MTEXT
  5
2800
330
27F7
100
AcDbEntity
  8
0
 62
     0
440
 16777216
100
AcDbMText
 10
1053.188932243386
 20
196.4005942543472
 30
0.0
 40
0.18
 41
0.0
 46
0.0
 71
     5
 72
     1
  1
\A1;1.6000
 73
     1
 44
1.0
  0
POINT
  5
2801
330
27F7
100
AcDbEntity
  8
Defpoints
 62
     0
440
 16777216
100
AcDbPoint
 10
1052.388932243386
 20
269.1004355713985
 30
0.0
  0
POINT
  5
2802
330
27F7
100
AcDbEntity
  8
Defpoints
 62
     0
440
 16777216
100
AcDbPoint
 10
1053.988932243386
 20
269.1004355713985
 30
0.0
  0
POINT
  5
2803
330
27F7
100
AcDbEntity
  8
Defpoints
 62
     0
440
 16777216
100
AcDbPoint
 10
1053.988932243386
 20
196.4005942543472
 30
0.0
  0
ENDBLK
  5
27F9
330
27F7
100
AcDbEntity
  8
0
100
AcDbBlockEnd
  0
BLOCK
  5
2807
330
2806
100
AcDbEntity
  8
0
100
AcDbBlockBegin
  2
*D26
 70
     1
 10
0.0
 20
0.0
 30
0.0
  3
*D26
  1

  0
LINE
  5
2809
330
2806
100
AcDbEntity
  8
0
 62
     0
440
 16777216
370
    -2
100
AcDbLine
 10
1528.414642119927
 20
538.4947680885687
 30
0.0
 11
1528.414642119927
 21
480.6588638800606
 31
0.0
  0
LINE
  5
280A
330
2806
100
AcDbEntity
  8
0
 62
     0
440
 16777216
370
    -2
100
AcDbLine
 10
1486.614642119926
 20
538.4947680885687
 30
0.0
 11
1486.614642119926
 21
480.6588638800606
 31
0.0
  0
LINE
  5
280B
330
2806
100
AcDbEntity
  8
0
 62
     0
440
 16777216
370
    -2
100
AcDbLine
 10
1528.234642119927
 20
480.8388638800606
 30
0.0
 11
1508.069642119927
 21
480.8388638800606
 31
0.0
  0
LINE
  5
280C
330
2806
100
AcDbEntity
  8
0
 62
     0
440
 16777216
370
    -2
100
AcDbLine
 10
1486.794642119926
 20
480.8388638800606
 30
0.0
 11
1506.959642119926
 21
480.8388638800606
 31
0.0
  0
SOLID
  5
280D
330
2806
100
AcDbEntity
  8
0
 62
     0
440
 16777216
100
AcDbTrace
 10
1528.234642119927
 20
480.8688638800606
 30
0.0
 11
1528.234642119927
 21
480.8088638800606
 31
0.0
 12
1528.414642119927
 22
480.8388638800606
 32
0.0
 13
1528.414642119927
 23
480.8388638800606
 33
0.0
  0
SOLID
  5
280E
330
2806
100
AcDbEntity
  8
0
 62
     0
440
 16777216
100
AcDbTrace
 10
1486.794642119926
 20
480.8688638800606
 30
0.0
 11
1486.794642119926
 21
480.8088638800606
 31
0.0
 12
1486.614642119926
 22
480.8388638800606
 32
0.0
 13
1486.614642119926
 23
480.8388638800606
 33
0.0
  0
MTEXT
  5
280F
330
2806
100
AcDbEntity
  8
0
 62
     0
440
 16777216
100
AcDbMText
 10
1507.514642119927
 20
480.8388638800606
 30
0.0
 40
0.18
 41
0.0
 46
0.0
 71
     5
 72
     1
  1
\A1;41.8000
 73
     1
 44
1.0
  0
POINT
  5
2810
330
2806
100
AcDbEntity
  8
Defpoints
 62
     0
440
 16777216
100
AcDbPoint
 10
1528.414642119927
 20
538.5572680885688
 30
0.0
  0
POINT
  5
2811
330
2806
100
AcDbEntity
  8
Defpoints
 62
     0
440
 16777216
100
AcDbPoint
 10
1486.614642119926
 20
538.5572680885688
 30
0.0
  0
POINT
  5
2812
330
2806
100
AcDbEntity
  8
Defpoints
 62
     0
440
 16777216
100
AcDbPoint
 10
1486.614642119926
 20
480.8388638800606
 30
0.0
  0
ENDBLK
  5
2808
330
2806
100
AcDbEntity
  8
0
100
AcDbBlockEnd
  0
BLOCK
  5
2818
330
2817
100
AcDbEntity
  8
0
100
AcDbBlockBegin
  2
*D27
 70
     1
 10
0.0
 20
0.0
 30
0.0
  3
*D27
  1

  0
LINE
  5
281A
330
2817
100
AcDbEntity
  8
0
 62
     0
440
 16777216
370
    -2
100
AcDbLine
 10
770.3889322433861
 20
393.1342113351129
 30
0.0
 11
770.3889322433861
 21
349.7458961147152
 31
0.0
  0
LINE
  5
281B
330
2817
100
AcDbEntity
  8
0
 62
     0
440
 16777216
370
    -2
100
AcDbLine
 10
1053.988932243386
 20
393.1342113351129
 30
0.0
 11
1053.988932243386
 21
349.7458961147152
 31
0.0
  0
LINE
  5
281C
330
2817
100
AcDbEntity
  8
0
 62
     0
440
 16777216
370
    -2
100
AcDbLine
 10
770.5689322433859
 20
349.9258961147152
 30
0.0
 11
911.513932243386
 21
349.9258961147152
 31
0.0
  0
LINE
  5
281D
330
2817
100
AcDbEntity
  8
0
 62
     0
440
 16777216
370
    -2
100
AcDbLine
 10
1053.808932243386
 20
349.9258961147152
 30
0.0
 11
912.8639322433858
 21
349.9258961147152
 31
0.0
  0
SOLID
  5
281E
330
2817
100
AcDbEntity
  8
0
 62
     0
440
 16777216
100
AcDbTrace
 10
770.5689322433859
 20
349.9558961147152
 30
0.0
 11
770.5689322433859
 21
349.8958961147152
 31
0.0
 12
770.3889322433861
 22
349.9258961147152
 32
0.0
 13
770.3889322433861
 23
349.9258961147152
 33
0.0
  0
SOLID
  5
281F
330
2817
100
AcDbEntity
  8
0
 62
     0
440
 16777216
100
AcDbTrace
 10
1053.808932243386
 20
349.9558961147152
 30
0.0
 11
1053.808932243386
 21
349.8958961147152
 31
0.0
 12
1053.988932243386
 22
349.9258961147152
 32
0.0
 13
1053.988932243386
 23
349.9258961147152
 33
0.0
  0
MTEXT
  5
2820
330
2817
100
AcDbEntity
  8
0
 62
     0
440
 16777216
100
AcDbMText
 10
912.1889322433858
 20
349.9258961147152
 30
0.0
 40
0.18
 41
0.0
 46
0.0
 71
     5
 72
     1
  1
\A1;283.6000
 73
     1
 44
1.0
  0
POINT
  5
2821
330
2817
100
AcDbEntity
  8
Defpoints
 62
     0
440
 16777216
100
AcDbPoint
 10
770.3889322433861
 20
393.1967113351129
 30
0.0
  0
POINT
  5
2822
330
2817
100
AcDbEntity
  8
Defpoints
 62
     0
440
 16777216
100
AcDbPoint
 10
1053.988932243386
 20
393.1967113351129
 30
0.0
  0
POINT
  5
2823
330
2817
100
AcDbEntity
  8
Defpoints
 62
     0
440
 16777216
100
AcDbPoint
 10
1053.988932243386
 20
349.9258961147152
 30
0.0
  0
ENDBLK
  5
2819
330
2817
100
AcDbEntity
  8
0
100
AcDbBlockEnd
  0
BLOCK
  5
2826
330
2825
100
AcDbEntity
  8
0
100
AcDbBlockBegin
  2
*D28
 70
     1
 10
0.0
 20
0.0
 30
0.0
  3
*D28
  1

  0
LINE
  5
2828
330
2825
100
AcDbEntity
  8
0
 62
     0
440
 16777216
370
    -2
100
AcDbLine
 10
1148.312193357678
 20
607.3493132507119
 30
0.0
 11
1148.312193357678
 21
654.6500534787806
 31
0.0
  0
LINE
  5
2829
330
2825
100
AcDbEntity
  8
0
 62
     0
440
 16777216
370
    -2
100
AcDbLine
 10
1355.312193357679
 20
607.3493132507119
 30
0.0
 11
1355.312193357679
 21
654.6500534787806
 31
0.0
  0
LINE
  5
282A
330
2825
100
AcDbEntity
  8
0
 62
     0
440
 16777216
370
    -2
100
AcDbLine
 10
1148.492193357678
 20
654.4700534787807
 30
0.0
 11
1251.167193357678
 21
654.4700534787807
 31
0.0
  0
LINE
  5
282B
330
2825
100
AcDbEntity
  8
0
 62
     0
440
 16777216
370
    -2
100
AcDbLine
 10
1355.132193357679
 20
654.4700534787807
 30
0.0
 11
1252.457193357678
 21
654.4700534787807
 31
0.0
  0
SOLID
  5
282C
330
2825
100
AcDbEntity
  8
0
 62
     0
440
 16777216
100
AcDbTrace
 10
1148.492193357678
 20
654.5000534787807
 30
0.0
 11
1148.492193357678
 21
654.4400534787808
 31
0.0
 12
1148.312193357678
 22
654.4700534787807
 32
0.0
 13
1148.312193357678
 23
654.4700534787807
 33
0.0
  0
SOLID
  5
282D
330
2825
100
AcDbEntity
  8
0
 62
     0
440
 16777216
100
AcDbTrace
 10
1355.132193357679
 20
654.5000534787807
 30
0.0
 11
1355.132193357679
 21
654.4400534787808
 31
0.0
 12
1355.312193357679
 22
654.4700534787807
 32
0.0
 13
1355.312193357679
 23
654.4700534787807
 33
0.0
  0
MTEXT
  5
282E
330
2825
100
AcDbEntity
  8
0
 62
     0
440
 16777216
100
AcDbMText
 10
1251.812193357678
 20
654.4700534787807
 30
0.0
 40
0.18
 41
0.0
 46
0.0
 71
     5
 72
     1
  1
\A1;207.0000
 73
     1
 44
1.0
  0
POINT
  5
282F
330
2825
100
AcDbEntity
  8
Defpoints
 62
     0
440
 16777216
100
AcDbPoint
 10
1148.312193357678
 20
607.2868132507119
 30
0.0
  0
POINT
  5
2830
330
2825
100
AcDbEntity
  8
Defpoints
 62
     0
440
 16777216
100
AcDbPoint
 10
1355.312193357679
 20
607.2868132507119
 30
0.0
  0
POINT
  5
2831
330
2825
100
AcDbEntity
  8
Defpoints
 62
     0
440
 16777216
100
AcDbPoint
 10
1355.312193357679
 20
654.4700534787807
 30
0.0
  0
ENDBLK
  5
2827
330
2825
100
AcDbEntity
  8
0
100
AcDbBlockEnd
  0
BLOCK
  5
2876
330
2875
100
AcDbEntity
  8
0
100
AcDbBlockBegin
  2
*D29
 70
     1
 10
0.0
 20
0.0
 30
0.0
  3
*D29
  1

  0
LINE
  5
28B4
330
2875
100
AcDbEntity
  8
0
 62
     0
440
 16777216
370
    -2
100
AcDbLine
 10
1528.414642119927
 20
578.0705040198567
 30
0.0
 11
1528.414642119927
 21
62.53914717430814
 31
0.0
  0
LINE
  5
28B5
330
2875
100
AcDbEntity
  8
0
 62
     0
440
 16777216
370
    -2
100
AcDbLine
 10
1486.614642119926
 20
578.0705040198567
 30
0.0
 11
1486.614642119926
 21
62.53914717430814
 31
0.0
  0
LINE
  5
28B6
330
2875
100
AcDbEntity
  8
0
 62
     0
440
 16777216
370
    -2
100
AcDbLine
 10
1520.414642119927
 20
62.71914717430809
 30
0.0
 11
1494.614642119926
 21
62.71914717430809
 31
0.0
  0
LINE
  5
28B7
330
2875
100
AcDbEntity
  8
0
 62
     0
440
 16777216
370
    -2
100
AcDbLine
 10
1486.614642119926
 20
62.71914717430809
 30
0.0
 11
1478.614642119926
 21
62.71914717430809
 31
0.0
  0
SOLID
  5
28B8
330
2875
100
AcDbEntity
  8
0
 62
     0
440
 16777216
100
AcDbTrace
 10
1520.414642119927
 20
64.05248050764142
 30
0.0
 11
1520.414642119927
 21
61.38581384097475
 31
0.0
 12
1528.414642119927
 22
62.71914717430809
 32
0.0
 13
1528.414642119927
 23
62.71914717430809
 33
0.0
  0
SOLID
  5
28B9
330
2875
100
AcDbEntity
  8
0
 62
     0
440
 16777216
100
AcDbTrace
 10
1494.614642119926
 20
64.05248050764142
 30
0.0
 11
1494.614642119926
 21
61.38581384097475
 31
0.0
 12
1486.614642119926
 22
62.71914717430809
 32
0.0
 13
1486.614642119926
 23
62.71914717430809
 33
0.0
  0
MTEXT
  5
28BA
330
2875
100
AcDbEntity
  8
0
 62
     0
440
 16777216
100
AcDbMText
 10
1466.947975453259
 20
62.71914717430809
 30
0.0
 40
8.0
 41
0.0
 46
0.0
 71
     5
 72
     1
  1
\A1;42
 73
     1
 44
1.0
  0
POINT
  5
28BB
330
2875
100
AcDbEntity
  8
Defpoints
 62
     0
440
 16777216
100
AcDbPoint
 10
1528.414642119927
 20
578.1330040198566
 30
0.0
  0
POINT
  5
28BC
330
2875
100
AcDbEntity
  8
Defpoints
 62
     0
440
 16777216
100
AcDbPoint
 10
1486.614642119926
 20
578.1330040198566
 30
0.0
  0
POINT
  5
28BD
330
2875
100
AcDbEntity
  8
Defpoints
 62
     0
440
 16777216
100
AcDbPoint
 10
1486.614642119926
 20
62.71914717430809
 30
0.0
  0
ENDBLK
  5
2877
330
2875
100
AcDbEntity
  8
0
100
AcDbBlockEnd
  0
BLOCK
  5
28C0
330
28BF
100
AcDbEntity
  8
0
100
AcDbBlockBegin
  2
*D30
 70
     1
 10
0.0
 20
0.0
 30
0.0
  3
*D30
  1

  0
LINE
  5
28E4
330
28BF
100
AcDbEntity
  8
0
 62
     0
440
 16777216
370
    -2
100
AcDbLine
 10
1575.414642119927
 20
283.4947680885688
 30
0.0
 11
1575.414642119927
 21
113.7403273336852
 31
0.0
  0
LINE
  5
28E5
330
28BF
100
AcDbEntity
  8
0
 62
     0
440
 16777216
370
    -2
100
AcDbLine
 10
1528.414642119927
 20
283.4947680885688
 30
0.0
 11
1528.414642119927
 21
113.7403273336852
 31
0.0
  0
LINE
  5
28E6
330
28BF
100
AcDbEntity
  8
0
 62
     0
440
 16777216
370
    -2
100
AcDbLine
 10
1567.414642119927
 20
113.9203273336852
 30
0.0
 11
1536.414642119927
 21
113.9203273336852
 31
0.0
  0
LINE
  5
28E7
330
28BF
100
AcDbEntity
  8
0
 62
     0
440
 16777216
370
    -2
100
AcDbLine
 10
1528.414642119927
 20
113.9203273336852
 30
0.0
 11
1520.414642119927
 21
113.9203273336852
 31
0.0
  0
SOLID
  5
28E8
330
28BF
100
AcDbEntity
  8
0
 62
     0
440
 16777216
100
AcDbTrace
 10
1567.414642119927
 20
115.2536606670185
 30
0.0
 11
1567.414642119927
 21
112.5869940003519
 31
0.0
 12
1575.414642119927
 22
113.9203273336852
 32
0.0
 13
1575.414642119927
 23
113.9203273336852
 33
0.0
  0
SOLID
  5
28E9
330
28BF
100
AcDbEntity
  8
0
 62
     0
440
 16777216
100
AcDbTrace
 10
1536.414642119927
 20
115.2536606670185
 30
0.0
 11
1536.414642119927
 21
112.5869940003519
 31
0.0
 12
1528.414642119927
 22
113.9203273336852
 32
0.0
 13
1528.414642119927
 23
113.9203273336852
 33
0.0
  0
MTEXT
  5
28EA
330
28BF
100
AcDbEntity
  8
0
 62
     0
440
 16777216
100
AcDbMText
 10
1508.74797545326
 20
113.9203273336852
 30
0.0
 40
8.0
 41
0.0
 46
0.0
 71
     5
 72
     1
  1
\A1;47
 73
     1
 44
1.0
  0
POINT
  5
28EB
330
28BF
100
AcDbEntity
  8
Defpoints
 62
     0
440
 16777216
100
AcDbPoint
 10
1575.414642119927
 20
283.5572680885688
 30
0.0
  0
POINT
  5
28EC
330
28BF
100
AcDbEntity
  8
Defpoints
 62
     0
440
 16777216
100
AcDbPoint
 10
1528.414642119927
 20
283.5572680885688
 30
0.0
  0
POINT
  5
28ED
330
28BF
100
AcDbEntity
  8
Defpoints
 62
     0
440
 16777216
100
AcDbPoint
 10
1528.414642119927
 20
113.9203273336852
 30
0.0
  0
ENDBLK
  5
28C1
330
28BF
100
AcDbEntity
  8
0
100
AcDbBlockEnd
  0
BLOCK
  5
28CE
330
28CD
100
AcDbEntity
  8
0
100
AcDbBlockBegin
  2
*D31
 70
     1
 10
0.0
 20
0.0
 30
0.0
  3
*D31
  1

  0
LINE
  5
28DA
330
28CD
100
AcDbEntity
  8
0
 62
     0
440
 16777216
370
    -2
100
AcDbLine
 10
1575.414642119927
 20
283.4322680885687
 30
0.0
 11
1575.414642119927
 21
130.1621004963138
 31
0.0
  0
LINE
  5
28DB
330
28CD
100
AcDbEntity
  8
0
 62
     0
440
 16777216
370
    -2
100
AcDbLine
 10
1707.414642119927
 20
283.4947680885688
 30
0.0
 11
1707.414642119927
 21
130.1621004963138
 31
0.0
  0
LINE
  5
28DC
330
28CD
100
AcDbEntity
  8
0
 62
     0
440
 16777216
370
    -2
100
AcDbLine
 10
1583.414642119927
 20
130.3421004963138
 30
0.0
 11
1627.081308786594
 21
130.3421004963138
 31
0.0
  0
LINE
  5
28DD
330
28CD
100
AcDbEntity
  8
0
 62
     0
440
 16777216
370
    -2
100
AcDbLine
 10
1699.414642119927
 20
130.3421004963138
 30
0.0
 11
1655.74797545326
 21
130.3421004963138
 31
0.0
  0
SOLID
  5
28DE
330
28CD
100
AcDbEntity
  8
0
 62
     0
440
 16777216
100
AcDbTrace
 10
1583.414642119927
 20
131.6754338296471
 30
0.0
 11
1583.414642119927
 21
129.0087671629805
 31
0.0
 12
1575.414642119927
 22
130.3421004963138
 32
0.0
 13
1575.414642119927
 23
130.3421004963138
 33
0.0
  0
SOLID
  5
28DF
330
28CD
100
AcDbEntity
  8
0
 62
     0
440
 16777216
100
AcDbTrace
 10
1699.414642119927
 20
131.6754338296471
 30
0.0
 11
1699.414642119927
 21
129.0087671629805
 31
0.0
 12
1707.414642119927
 22
130.3421004963138
 32
0.0
 13
1707.414642119927
 23
130.3421004963138
 33
0.0
  0
MTEXT
  5
28E0
330
28CD
100
AcDbEntity
  8
0
 62
     0
440
 16777216
100
AcDbMText
 10
1641.414642119927
 20
130.3421004963138
 30
0.0
 40
8.0
 41
0.0
 46
0.0
 71
     5
 72
     1
  1
\A1;132
 73
     1
 44
1.0
  0
POINT
  5
28E1
330
28CD
100
AcDbEntity
  8
Defpoints
 62
     0
440
 16777216
100
AcDbPoint
 10
1575.414642119927
 20
283.4947680885688
 30
0.0
  0
POINT
  5
28E2
330
28CD
100
AcDbEntity
  8
Defpoints
 62
     0
440
 16777216
100
AcDbPoint
 10
1707.414642119927
 20
283.5572680885688
 30
0.0
  0
POINT
  5
28E3
330
28CD
100
AcDbEntity
  8
Defpoints
 62
     0
440
 16777216
100
AcDbPoint
 10
1707.414642119927
 20
130.3421004963138
 30
0.0
  0
ENDBLK
  5
28CF
330
28CD
100
AcDbEntity
  8
0
100
AcDbBlockEnd
  0
BLOCK
  5
28F2
330
28F1
100
AcDbEntity
  8
0
100
AcDbBlockBegin
  2
*D32
 70
     1
 10
0.0
 20
0.0
 30
0.0
  3
*D32
  1

  0
LINE
  5
28F4
330
28F1
100
AcDbEntity
  8
0
 62
     0
440
 16777216
370
    -2
100
AcDbLine
 10
811.9889322433861
 20
152.4307962161865
 30
0.0
 11
811.9889322433861
 21
183.6904023219137
 31
0.0
  0
LINE
  5
28F5
330
28F1
100
AcDbEntity
  8
0
 62
     0
440
 16777216
370
    -2
100
AcDbLine
 10
858.9889322433862
 20
152.4307962161865
 30
0.0
 11
858.9889322433862
 21
183.6904023219137
 31
0.0
  0
LINE
  5
28F6
330
28F1
100
AcDbEntity
  8
0
 62
     0
440
 16777216
370
    -2
100
AcDbLine
 10
812.1689322433862
 20
183.5104023219137
 30
0.0
 11
834.918932243386
 21
183.5104023219137
 31
0.0
  0
LINE
  5
28F7
330
28F1
100
AcDbEntity
  8
0
 62
     0
440
 16777216
370
    -2
100
AcDbLine
 10
858.8089322433862
 20
183.5104023219137
 30
0.0
 11
836.0589322433863
 21
183.5104023219137
 31
0.0
  0
SOLID
  5
28F8
330
28F1
100
AcDbEntity
  8
0
 62
     0
440
 16777216
100
AcDbTrace
 10
812.1689322433862
 20
183.5404023219137
 30
0.0
 11
812.1689322433862
 21
183.4804023219137
 31
0.0
 12
811.9889322433861
 22
183.5104023219137
 32
0.0
 13
811.9889322433861
 23
183.5104023219137
 33
0.0
  0
SOLID
  5
28F9
330
28F1
100
AcDbEntity
  8
0
 62
     0
440
 16777216
100
AcDbTrace
 10
858.8089322433862
 20
183.5404023219137
 30
0.0
 11
858.8089322433862
 21
183.4804023219137
 31
0.0
 12
858.9889322433862
 22
183.5104023219137
 32
0.0
 13
858.9889322433862
 23
183.5104023219137
 33
0.0
  0
MTEXT
  5
28FA
330
28F1
100
AcDbEntity
  8
0
 62
     0
440
 16777216
100
AcDbMText
 10
835.4889322433862
 20
183.5104023219137
 30
0.0
 40
0.18
 41
0.0
 46
0.0
 71
     5
 72
     1
  1
\A1;47.0000
 73
     1
 44
1.0
  0
POINT
  5
28FB
330
28F1
100
AcDbEntity
  8
Defpoints
 62
     0
440
 16777216
100
AcDbPoint
 10
811.9889322433861
 20
152.3682962161865
 30
0.0
  0
POINT
  5
28FC
330
28F1
100
AcDbEntity
  8
Defpoints
 62
     0
440
 16777216
100
AcDbPoint
 10
858.9889322433862
 20
152.3682962161865
 30
0.0
  0
POINT
  5
28FD
330
28F1
100
AcDbEntity
  8
Defpoints
 62
     0
440
 16777216
100
AcDbPoint
 10
858.9889322433862
 20
183.5104023219137
 30
0.0
  0
ENDBLK
  5
28F3
330
28F1
100
AcDbEntity
  8
0
100
AcDbBlockEnd
  0
BLOCK
  5
2900
330
28FF
100
AcDbEntity
  8
0
100
AcDbBlockBegin
  2
*D33
 70
     1
 10
0.0
 20
0.0
 30
0.0
  3
*D33
  1

  0
LINE
  5
2902
330
28FF
100
AcDbEntity
  8
0
 62
     0
440
 16777216
370
    -2
100
AcDbLine
 10
1728.414642119927
 20
538.4947680885687
 30
0.0
 11
1728.414642119927
 21
104.6668236125554
 31
0.0
  0
LINE
  5
2903
330
28FF
100
AcDbEntity
  8
0
 62
     0
440
 16777216
370
    -2
100
AcDbLine
 10
1707.414642119927
 20
323.0705040198568
 30
0.0
 11
1707.414642119927
 21
104.6668236125554
 31
0.0
  0
LINE
  5
2904
330
28FF
100
AcDbEntity
  8
0
 62
     0
440
 16777216
370
    -2
100
AcDbLine
 10
1728.234642119927
 20
104.8468236125554
 30
0.0
 11
1718.454642119927
 21
104.8468236125554
 31
0.0
  0
LINE
  5
2905
330
28FF
100
AcDbEntity
  8
0
 62
     0
440
 16777216
370
    -2
100
AcDbLine
 10
1707.594642119927
 20
104.8468236125554
 30
0.0
 11
1717.374642119927
 21
104.8468236125554
 31
0.0
  0
SOLID
  5
2906
330
28FF
100
AcDbEntity
  8
0
 62
     0
440
 16777216
100
AcDbTrace
 10
1728.234642119927
 20
104.8768236125554
 30
0.0
 11
1728.234642119927
 21
104.8168236125554
 31
0.0
 12
1728.414642119927
 22
104.8468236125554
 32
0.0
 13
1728.414642119927
 23
104.8468236125554
 33
0.0
  0
SOLID
  5
2907
330
28FF
100
AcDbEntity
  8
0
 62
     0
440
 16777216
100
AcDbTrace
 10
1707.594642119927
 20
104.8768236125554
 30
0.0
 11
1707.594642119927
 21
104.8168236125554
 31
0.0
 12
1707.414642119927
 22
104.8468236125554
 32
0.0
 13
1707.414642119927
 23
104.8468236125554
 33
0.0
  0
MTEXT
  5
2908
330
28FF
100
AcDbEntity
  8
0
 62
     0
440
 16777216
100
AcDbMText
 10
1717.914642119927
 20
104.8468236125554
 30
0.0
 40
0.18
 41
0.0
 46
0.0
 71
     5
 72
     1
  1
\A1;21.0000
 73
     1
 44
1.0
  0
POINT
  5
2909
330
28FF
100
AcDbEntity
  8
Defpoints
 62
     0
440
 16777216
100
AcDbPoint
 10
1728.414642119927
 20
538.5572680885688
 30
0.0
  0
POINT
  5
290A
330
28FF
100
AcDbEntity
  8
Defpoints
 62
     0
440
 16777216
100
AcDbPoint
 10
1707.414642119927
 20
323.1330040198569
 30
0.0
  0
POINT
  5
290B
330
28FF
100
AcDbEntity
  8
Defpoints
 62
     0
440
 16777216
100
AcDbPoint
 10
1707.414642119927
 20
104.8468236125554
 30
0.0
  0
ENDBLK
  5
2901
330
28FF
100
AcDbEntity
  8
0
100
AcDbBlockEnd
  0
BLOCK
  5
2E8C
330
2E8B
100
AcDbEntity
  8
0
100
AcDbBlockBegin
  2
*D34
 70
     1
 10
0.0
 20
0.0
 30
0.0
  3
*D34
  1

  0
LINE
  5
2E8E
330
2E8B
100
AcDbEntity
  8
0
 62
     0
440
 16777216
370
    -2
100
AcDbLine
 10
784.3516652221381
 20
623.1532601791315
 30
0.0
 11
784.3516652221381
 21
806.7044384994085
 31
0.0
  0
LINE
  5
2E8F
330
2E8B
100
AcDbEntity
  8
0
 62
     0
440
 16777216
370
    -2
100
AcDbLine
 10
1044.351665222138
 20
623.1532601791315
 30
0.0
 11
1044.351665222138
 21
806.7044384994085
 31
0.0
  0
LINE
  5
2E90
330
2E8B
100
AcDbEntity
  8
0
 62
     0
440
 16777216
370
    -2
100
AcDbLine
 10
784.5316652221379
 20
806.5244384994084
 30
0.0
 11
913.7066652221378
 21
806.5244384994084
 31
0.0
  0
LINE
  5
2E91
330
2E8B
100
AcDbEntity
  8
0
 62
     0
440
 16777216
370
    -2
100
AcDbLine
 10
1044.171665222138
 20
806.5244384994084
 30
0.0
 11
914.9966652221378
 21
806.5244384994084
 31
0.0
  0
SOLID
  5
2E92
330
2E8B
100
AcDbEntity
  8
0
 62
     0
440
 16777216
100
AcDbTrace
 10
784.5316652221379
 20
806.5544384994083
 30
0.0
 11
784.5316652221379
 21
806.4944384994086
 31
0.0
 12
784.3516652221381
 22
806.5244384994084
 32
0.0
 13
784.3516652221381
 23
806.5244384994084
 33
0.0
  0
SOLID
  5
2E93
330
2E8B
100
AcDbEntity
  8
0
 62
     0
440
 16777216
100
AcDbTrace
 10
1044.171665222138
 20
806.5544384994083
 30
0.0
 11
1044.171665222138
 21
806.4944384994086
 31
0.0
 12
1044.351665222138
 22
806.5244384994084
 32
0.0
 13
1044.351665222138
 23
806.5244384994084
 33
0.0
  0
MTEXT
  5
2E94
330
2E8B
100
AcDbEntity
  8
0
 62
     0
440
 16777216
100
AcDbMText
 10
914.351665222138
 20
806.5244384994084
 30
0.0
 40
0.18
 41
0.0
 46
0.0
 71
     5
 72
     1
  1
\A1;260.0000
 73
     1
 44
1.0
  0
POINT
  5
2E95
330
2E8B
100
AcDbEntity
  8
Defpoints
 62
     0
440
 16777216
100
AcDbPoint
 10
784.3516652221381
 20
623.0907601791315
 30
0.0
  0
POINT
  5
2E96
330
2E8B
100
AcDbEntity
  8
Defpoints
 62
     0
440
 16777216
100
AcDbPoint
 10
1044.351665222138
 20
623.0907601791315
 30
0.0
  0
POINT
  5
2E97
330
2E8B
100
AcDbEntity
  8
Defpoints
 62
     0
440
 16777216
100
AcDbPoint
 10
1044.351665222138
 20
806.5244384994084
 30
0.0
  0
ENDBLK
  5
2E8D
330
2E8B
100
AcDbEntity
  8
0
100
AcDbBlockEnd
  0
BLOCK
  5
2E9A
330
2E99
100
AcDbEntity
  8
0
100
AcDbBlockBegin
  2
*D35
 70
     1
 10
0.0
 20
0.0
 30
0.0
  3
*D35
  1

  0
LINE
  5
2E9C
330
2E99
100
AcDbEntity
  8
0
 62
     0
440
 16777216
370
    -2
100
AcDbLine
 10
1191.186419847298
 20
707.8920790770257
 30
0.0
 11
1191.186419847298
 21
757.087129095919
 31
0.0
  0
LINE
  5
2E9D
330
2E99
100
AcDbEntity
  8
0
 62
     0
440
 16777216
370
    -2
100
AcDbLine
 10
1328.186419847299
 20
707.8920790770257
 30
0.0
 11
1328.186419847299
 21
757.087129095919
 31
0.0
  0
LINE
  5
2E9E
330
2E99
100
AcDbEntity
  8
0
 62
     0
440
 16777216
370
    -2
100
AcDbLine
 10
1191.366419847298
 20
756.9071290959192
 30
0.0
 11
1259.056419847298
 21
756.9071290959192
 31
0.0
  0
LINE
  5
2E9F
330
2E99
100
AcDbEntity
  8
0
 62
     0
440
 16777216
370
    -2
100
AcDbLine
 10
1328.006419847299
 20
756.9071290959192
 30
0.0
 11
1260.316419847298
 21
756.9071290959192
 31
0.0
  0
SOLID
  5
2EA0
330
2E99
100
AcDbEntity
  8
0
 62
     0
440
 16777216
100
AcDbTrace
 10
1191.366419847298
 20
756.9371290959192
 30
0.0
 11
1191.366419847298
 21
756.8771290959191
 31
0.0
 12
1191.186419847298
 22
756.9071290959192
 32
0.0
 13
1191.186419847298
 23
756.9071290959192
 33
0.0
  0
SOLID
  5
2EA1
330
2E99
100
AcDbEntity
  8
0
 62
     0
440
 16777216
100
AcDbTrace
 10
1328.006419847299
 20
756.9371290959192
 30
0.0
 11
1328.006419847299
 21
756.8771290959191
 31
0.0
 12
1328.186419847299
 22
756.9071290959192
 32
0.0
 13
1328.186419847299
 23
756.9071290959192
 33
0.0
  0
MTEXT
  5
2EA2
330
2E99
100
AcDbEntity
  8
0
 62
     0
440
 16777216
100
AcDbMText
 10
1259.686419847298
 20
756.9071290959192
 30
0.0
 40
0.18
 41
0.0
 46
0.0
 71
     5
 72
     1
  1
\A1;137.0000
 73
     1
 44
1.0
  0
POINT
  5
2EA3
330
2E99
100
AcDbEntity
  8
Defpoints
 62
     0
440
 16777216
100
AcDbPoint
 10
1191.186419847298
 20
707.8295790770257
 30
0.0
  0
POINT
  5
2EA4
330
2E99
100
AcDbEntity
  8
Defpoints
 62
     0
440
 16777216
100
AcDbPoint
 10
1328.186419847299
 20
707.8295790770257
 30
0.0
  0
POINT
  5
2EA5
330
2E99
100
AcDbEntity
  8
Defpoints
 62
     0
440
 16777216
100
AcDbPoint
 10
1328.186419847299
 20
756.9071290959192
 30
0.0
  0
ENDBLK
  5
2E9B
330
2E99
100
AcDbEntity
  8
0
100
AcDbBlockEnd
  0
BLOCK
  5
2EE8
330
2EE7
100
AcDbEntity
  8
0
100
AcDbBlockBegin
  2
*D36
 70
     1
 10
0.0
 20
0.0
 30
0.0
  3
*D36
  1

  0
LINE
  5
2EEA
330
2EE7
100
AcDbEntity
  8
0
 62
     0
440
 16777216
370
    -2
100
AcDbLine
 10
1542.559152786395
 20
504.1010583095433
 30
0.0
 11
1542.559152786395
 21
571.3056621270112
 31
0.0
  0
LINE
  5
2EEB
330
2EE7
100
AcDbEntity
  8
0
 62
     0
440
 16777216
370
    -2
100
AcDbLine
 10
1502.559152786395
 20
504.1010583095433
 30
0.0
 11
1502.559152786395
 21
571.3056621270112
 31
0.0
  0
LINE
  5
2EEC
330
2EE7
100
AcDbEntity
  8
0
 62
     0
440
 16777216
370
    -2
100
AcDbLine
 10
1542.379152786396
 20
571.1256621270113
 30
0.0
 11
1523.114152786396
 21
571.1256621270113
 31
0.0
  0
LINE
  5
2EED
330
2EE7
100
AcDbEntity
  8
0
 62
     0
440
 16777216
370
    -2
100
AcDbLine
 10
1502.739152786396
 20
571.1256621270113
 30
0.0
 11
1522.004152786396
 21
571.1256621270113
 31
0.0
  0
SOLID
  5
2EEE
330
2EE7
100
AcDbEntity
  8
0
 62
     0
440
 16777216
100
AcDbTrace
 10
1542.379152786396
 20
571.1556621270112
 30
0.0
 11
1542.379152786396
 21
571.0956621270112
 31
0.0
 12
1542.559152786395
 22
571.1256621270113
 32
0.0
 13
1542.559152786395
 23
571.1256621270113
 33
0.0
  0
SOLID
  5
2EEF
330
2EE7
100
AcDbEntity
  8
0
 62
     0
440
 16777216
100
AcDbTrace
 10
1502.739152786396
 20
571.1556621270112
 30
0.0
 11
1502.739152786396
 21
571.0956621270112
 31
0.0
 12
1502.559152786395
 22
571.1256621270113
 32
0.0
 13
1502.559152786395
 23
571.1256621270113
 33
0.0
  0
MTEXT
  5
2EF0
330
2EE7
100
AcDbEntity
  8
0
 62
     0
440
 16777216
100
AcDbMText
 10
1522.559152786396
 20
571.1256621270113
 30
0.0
 40
0.18
 41
0.0
 46
0.0
 71
     5
 72
     1
  1
\A1;40.0000
 73
     1
 44
1.0
  0
POINT
  5
2EF1
330
2EE7
100
AcDbEntity
  8
Defpoints
 62
     0
440
 16777216
100
AcDbPoint
 10
1542.559152786395
 20
504.0385583095431
 30
0.0
  0
POINT
  5
2EF2
330
2EE7
100
AcDbEntity
  8
Defpoints
 62
     0
440
 16777216
100
AcDbPoint
 10
1502.559152786395
 20
504.0385583095431
 30
0.0
  0
POINT
  5
2EF3
330
2EE7
100
AcDbEntity
  8
Defpoints
 62
     0
440
 16777216
100
AcDbPoint
 10
1502.559152786395
 20
571.1256621270113
 30
0.0
  0
ENDBLK
  5
2EE9
330
2EE7
100
AcDbEntity
  8
0
100
AcDbBlockEnd
  0
BLOCK
  5
2EF6
330
2EF5
100
AcDbEntity
  8
0
100
AcDbBlockBegin
  2
*D37
 70
     1
 10
0.0
 20
0.0
 30
0.0
  3
*D37
  1

  0
LINE
  5
2EF8
330
2EF5
100
AcDbEntity
  8
0
 62
     0
440
 16777216
370
    -2
100
AcDbLine
 10
1529.059152786396
 20
505.9760583095433
 30
0.0
 11
1529.059152786396
 21
447.0726694688011
 31
0.0
  0
LINE
  5
2EF9
330
2EF5
100
AcDbEntity
  8
0
 62
     0
440
 16777216
370
    -2
100
AcDbLine
 10
1556.059152786396
 20
505.9760583095433
 30
0.0
 11
1556.059152786396
 21
447.0726694688011
 31
0.0
  0
LINE
  5
2EFA
330
2EF5
100
AcDbEntity
  8
0
 62
     0
440
 16777216
370
    -2
100
AcDbLine
 10
1529.239152786396
 20
447.2526694688013
 30
0.0
 11
1541.989152786396
 21
447.2526694688013
 31
0.0
  0
LINE
  5
2EFB
330
2EF5
100
AcDbEntity
  8
0
 62
     0
440
 16777216
370
    -2
100
AcDbLine
 10
1555.879152786396
 20
447.2526694688013
 30
0.0
 11
1543.129152786396
 21
447.2526694688013
 31
0.0
  0
SOLID
  5
2EFC
330
2EF5
100
AcDbEntity
  8
0
 62
     0
440
 16777216
100
AcDbTrace
 10
1529.239152786396
 20
447.2826694688012
 30
0.0
 11
1529.239152786396
 21
447.2226694688012
 31
0.0
 12
1529.059152786396
 22
447.2526694688013
 32
0.0
 13
1529.059152786396
 23
447.2526694688013
 33
0.0
  0
SOLID
  5
2EFD
330
2EF5
100
AcDbEntity
  8
0
 62
     0
440
 16777216
100
AcDbTrace
 10
1555.879152786396
 20
447.2826694688012
 30
0.0
 11
1555.879152786396
 21
447.2226694688012
 31
0.0
 12
1556.059152786396
 22
447.2526694688013
 32
0.0
 13
1556.059152786396
 23
447.2526694688013
 33
0.0
  0
MTEXT
  5
2EFE
330
2EF5
100
AcDbEntity
  8
0
 62
     0
440
 16777216
100
AcDbMText
 10
1542.559152786395
 20
447.2526694688013
 30
0.0
 40
0.18
 41
0.0
 46
0.0
 71
     5
 72
     1
  1
\A1;27.0000
 73
     1
 44
1.0
  0
POINT
  5
2EFF
330
2EF5
100
AcDbEntity
  8
Defpoints
 62
     0
440
 16777216
100
AcDbPoint
 10
1529.059152786396
 20
506.0385583095433
 30
0.0
  0
POINT
  5
2F00
330
2EF5
100
AcDbEntity
  8
Defpoints
 62
     0
440
 16777216
100
AcDbPoint
 10
1556.059152786396
 20
506.0385583095433
 30
0.0
  0
POINT
  5
2F01
330
2EF5
100
AcDbEntity
  8
Defpoints
 62
     0
440
 16777216
100
AcDbPoint
 10
1556.059152786396
 20
447.2526694688013
 30
0.0
  0
ENDBLK
  5
2EF7
330
2EF5
100
AcDbEntity
  8
0
100
AcDbBlockEnd
  0
BLOCK
  5
3D70
330
3D6F
100
AcDbEntity
  8
0
100
AcDbBlockBegin
  2
*D38
 70
     1
 10
0.0
 20
0.0
 30
0.0
  3
*D38
  1

  0
LINE
  5
3D72
330
3D6F
100
AcDbEntity
  8
0
 62
     0
440
 16777216
370
    -2
100
AcDbLine
 10
657.3606446970744
 20
962.4565325527536
 30
0.0
 11
657.3606446970744
 21
881.6591151499373
 31
0.0
  0
LINE
  5
3D73
330
3D6F
100
AcDbEntity
  8
0
 62
     0
440
 16777216
370
    -2
100
AcDbLine
 10
997.3606446970745
 20
962.4565325527536
 30
0.0
 11
997.3606446970745
 21
881.6591151499373
 31
0.0
  0
LINE
  5
3D74
330
3D6F
100
AcDbEntity
  8
0
 62
     0
440
 16777216
370
    -2
100
AcDbLine
 10
657.5406446970745
 20
881.8391151499373
 30
0.0
 11
826.7156446970744
 21
881.8391151499373
 31
0.0
  0
LINE
  5
3D75
330
3D6F
100
AcDbEntity
  8
0
 62
     0
440
 16777216
370
    -2
100
AcDbLine
 10
997.1806446970743
 20
881.8391151499373
 30
0.0
 11
828.0056446970744
 21
881.8391151499373
 31
0.0
  0
SOLID
  5
3D76
330
3D6F
100
AcDbEntity
  8
0
 62
     0
440
 16777216
100
AcDbTrace
 10
657.5406446970745
 20
881.8691151499374
 30
0.0
 11
657.5406446970745
 21
881.8091151499372
 31
0.0
 12
657.3606446970744
 22
881.8391151499373
 32
0.0
 13
657.3606446970744
 23
881.8391151499373
 33
0.0
  0
SOLID
  5
3D77
330
3D6F
100
AcDbEntity
  8
0
 62
     0
440
 16777216
100
AcDbTrace
 10
997.1806446970743
 20
881.8691151499374
 30
0.0
 11
997.1806446970743
 21
881.8091151499372
 31
0.0
 12
997.3606446970745
 22
881.8391151499373
 32
0.0
 13
997.3606446970745
 23
881.8391151499373
 33
0.0
  0
MTEXT
  5
3D78
330
3D6F
100
AcDbEntity
  8
0
 62
     0
440
 16777216
100
AcDbMText
 10
827.3606446970742
 20
881.8391151499373
 30
0.0
 40
0.18
 41
0.0
 46
0.0
 71
     5
 72
     1
  1
\A1;340.0000
 73
     1
 44
1.0
  0
POINT
  5
3D79
330
3D6F
100
AcDbEntity
  8
Defpoints
 62
     0
440
 16777216
100
AcDbPoint
 10
657.3606446970744
 20
962.5190325527537
 30
0.0
  0
POINT
  5
3D7A
330
3D6F
100
AcDbEntity
  8
Defpoints
 62
     0
440
 16777216
100
AcDbPoint
 10
997.3606446970745
 20
962.5190325527537
 30
0.0
  0
POINT
  5
3D7B
330
3D6F
100
AcDbEntity
  8
Defpoints
 62
     0
440
 16777216
100
AcDbPoint
 10
997.3606446970745
 20
881.8391151499373
 30
0.0
  0
ENDBLK
  5
3D71
330
3D6F
100
AcDbEntity
  8
0
100
AcDbBlockEnd
  0
BLOCK
  5
3D7E
330
3D7D
100
AcDbEntity
  8
0
100
AcDbBlockBegin
  2
*D39
 70
     1
 10
0.0
 20
0.0
 30
0.0
  3
*D39
  1

  0
LINE
  5
3D80
330
3D7D
100
AcDbEntity
  8
0
 62
     0
440
 16777216
370
    -2
100
AcDbLine
 10
1064.798569667094
 20
994.9252778653237
 30
0.0
 11
1064.798569667094
 21
922.9829769415776
 31
0.0
  0
LINE
  5
3D81
330
3D7D
100
AcDbEntity
  8
0
 62
     0
440
 16777216
370
    -2
100
AcDbLine
 10
1324.798569667094
 20
994.9252778653237
 30
0.0
 11
1324.798569667094
 21
922.9829769415776
 31
0.0
  0
LINE
  5
3D82
330
3D7D
100
AcDbEntity
  8
0
 62
     0
440
 16777216
370
    -2
100
AcDbLine
 10
1064.978569667094
 20
923.1629769415777
 30
0.0
 11
1194.153569667094
 21
923.1629769415777
 31
0.0
  0
LINE
  5
3D83
330
3D7D
100
AcDbEntity
  8
0
 62
     0
440
 16777216
370
    -2
100
AcDbLine
 10
1324.618569667094
 20
923.1629769415777
 30
0.0
 11
1195.443569667094
 21
923.1629769415777
 31
0.0
  0
SOLID
  5
3D84
330
3D7D
100
AcDbEntity
  8
0
 62
     0
440
 16777216
100
AcDbTrace
 10
1064.978569667094
 20
923.1929769415776
 30
0.0
 11
1064.978569667094
 21
923.1329769415776
 31
0.0
 12
1064.798569667094
 22
923.1629769415777
 32
0.0
 13
1064.798569667094
 23
923.1629769415777
 33
0.0
  0
SOLID
  5
3D85
330
3D7D
100
AcDbEntity
  8
0
 62
     0
440
 16777216
100
AcDbTrace
 10
1324.618569667094
 20
923.1929769415776
 30
0.0
 11
1324.618569667094
 21
923.1329769415776
 31
0.0
 12
1324.798569667094
 22
923.1629769415777
 32
0.0
 13
1324.798569667094
 23
923.1629769415777
 33
0.0
  0
MTEXT
  5
3D86
330
3D7D
100
AcDbEntity
  8
0
 62
     0
440
 16777216
100
AcDbMText
 10
1194.798569667094
 20
923.1629769415777
 30
0.0
 40
0.18
 41
0.0
 46
0.0
 71
     5
 72
     1
  1
\A1;260.0000
 73
     1
 44
1.0
  0
POINT
  5
3D87
330
3D7D
100
AcDbEntity
  8
Defpoints
 62
     0
440
 16777216
100
AcDbPoint
 10
1064.798569667094
 20
994.9877778653236
 30
0.0
  0
POINT
  5
3D88
330
3D7D
100
AcDbEntity
  8
Defpoints
 62
     0
440
 16777216
100
AcDbPoint
 10
1324.798569667094
 20
994.9877778653236
 30
0.0
  0
POINT
  5
3D89
330
3D7D
100
AcDbEntity
  8
Defpoints
 62
     0
440
 16777216
100
AcDbPoint
 10
1324.798569667094
 20
923.1629769415777
 30
0.0
  0
ENDBLK
  5
3D7F
330
3D7D
100
AcDbEntity
  8
0
100
AcDbBlockEnd
  0
BLOCK
  5
3DD6
330
3DD5
100
AcDbEntity
  8
0
100
AcDbBlockBegin
  2
*D40
 70
     1
 10
0.0
 20
0.0
 30
0.0
  3
*D40
  1

  0
LINE
  5
3DD8
330
3DD5
100
AcDbEntity
  8
0
 62
     0
440
 16777216
370
    -2
100
AcDbLine
 10
1258.798569667096
 20
1049.823213939936
 30
0.0
 11
1258.798569667096
 21
1068.533592606992
 31
0.0
  0
LINE
  5
3DD9
330
3DD5
100
AcDbEntity
  8
0
 62
     0
440
 16777216
370
    -2
100
AcDbLine
 10
1334.798569667096
 20
1049.823213939936
 30
0.0
 11
1334.798569667096
 21
1068.533592606992
 31
0.0
  0
LINE
  5
3DDA
330
3DD5
100
AcDbEntity
  8
0
 62
     0
440
 16777216
370
    -2
100
AcDbLine
 10
1258.978569667096
 20
1068.353592606992
 30
0.0
 11
1296.228569667096
 21
1068.353592606992
 31
0.0
  0
LINE
  5
3DDB
330
3DD5
100
AcDbEntity
  8
0
 62
     0
440
 16777216
370
    -2
100
AcDbLine
 10
1334.618569667096
 20
1068.353592606992
 30
0.0
 11
1297.368569667096
 21
1068.353592606992
 31
0.0
  0
SOLID
  5
3DDC
330
3DD5
100
AcDbEntity
  8
0
 62
     0
440
 16777216
100
AcDbTrace
 10
1258.978569667096
 20
1068.383592606992
 30
0.0
 11
1258.978569667096
 21
1068.323592606992
 31
0.0
 12
1258.798569667096
 22
1068.353592606992
 32
0.0
 13
1258.798569667096
 23
1068.353592606992
 33
0.0
  0
SOLID
  5
3DDD
330
3DD5
100
AcDbEntity
  8
0
 62
     0
440
 16777216
100
AcDbTrace
 10
1334.618569667096
 20
1068.383592606992
 30
0.0
 11
1334.618569667096
 21
1068.323592606992
 31
0.0
 12
1334.798569667096
 22
1068.353592606992
 32
0.0
 13
1334.798569667096
 23
1068.353592606992
 33
0.0
  0
MTEXT
  5
3DDE
330
3DD5
100
AcDbEntity
  8
0
 62
     0
440
 16777216
100
AcDbMText
 10
1296.798569667096
 20
1068.353592606992
 30
0.0
 40
0.18
 41
0.0
 46
0.0
 71
     5
 72
     1
  1
\A1;76.0000
 73
     1
 44
1.0
  0
POINT
  5
3DDF
330
3DD5
100
AcDbEntity
  8
Defpoints
 62
     0
440
 16777216
100
AcDbPoint
 10
1258.798569667096
 20
1049.760713939936
 30
0.0
  0
POINT
  5
3DE0
330
3DD5
100
AcDbEntity
  8
Defpoints
 62
     0
440
 16777216
100
AcDbPoint
 10
1334.798569667096
 20
1049.760713939936
 30
0.0
  0
POINT
  5
3DE1
330
3DD5
100
AcDbEntity
  8
Defpoints
 62
     0
440
 16777216
100
AcDbPoint
 10
1334.798569667096
 20
1068.353592606992
 30
0.0
  0
ENDBLK
  5
3DD7
330
3DD5
100
AcDbEntity
  8
0
100
AcDbBlockEnd
  0
BLOCK
  5
3DE4
330
3DE3
100
AcDbEntity
  8
0
100
AcDbBlockBegin
  2
*D41
 70
     1
 10
0.0
 20
0.0
 30
0.0
  3
*D41
  1

  0
LINE
  5
3E43
330
3DE3
100
AcDbEntity
  8
HEWI
 62
     0
440
 16777216
370
    -2
100
AcDbLine
 10
190.1933368005566
 20
1048.823213939936
 30
0.0
 11
190.1933368005566
 21
1059.349610100679
 31
0.0
  0
LINE
  5
3E44
330
3DE3
100
AcDbEntity
  8
HEWI
 62
     0
440
 16777216
370
    -2
100
AcDbLine
 10
215.1933368005566
 20
1048.823213939936
 30
0.0
 11
215.1933368005566
 21
1059.349610100679
 31
0.0
  0
LINE
  5
3E45
330
3DE3
100
AcDbEntity
  8
HEWI
 62
     0
440
 16777216
370
    -2
100
AcDbLine
 10
190.3733368005566
 20
1059.169610100679
 30
0.0
 11
202.1233368005566
 21
1059.169610100679
 31
0.0
  0
LINE
  5
3E46
330
3DE3
100
AcDbEntity
  8
HEWI
 62
     0
440
 16777216
370
    -2
100
AcDbLine
 10
215.0133368005566
 20
1059.169610100679
 30
0.0
 11
203.2633368005566
 21
1059.169610100679
 31
0.0
  0
SOLID
  5
3E47
330
3DE3
100
AcDbEntity
  8
HEWI
 62
     0
440
 16777216
100
AcDbTrace
 10
190.3733368005566
 20
1059.199610100679
 30
0.0
 11
190.3733368005566
 21
1059.139610100679
 31
0.0
 12
190.1933368005566
 22
1059.169610100679
 32
0.0
 13
190.1933368005566
 23
1059.169610100679
 33
0.0
  0
SOLID
  5
3E48
330
3DE3
100
AcDbEntity
  8
HEWI
 62
     0
440
 16777216
100
AcDbTrace
 10
215.0133368005566
 20
1059.199610100679
 30
0.0
 11
215.0133368005566
 21
1059.139610100679
 31
0.0
 12
215.1933368005566
 22
1059.169610100679
 32
0.0
 13
215.1933368005566
 23
1059.169610100679
 33
0.0
  0
MTEXT
  5
3E49
330
3DE3
100
AcDbEntity
  8
HEWI
 62
     0
440
 16777216
100
AcDbMText
 10
202.6933368005566
 20
1059.169610100679
 30
0.0
 40
0.18
 41
0.0
 46
0.0
 71
     5
 72
     1
  1
\A1;25.0000
 73
     1
 44
1.0
  0
POINT
  5
3E4A
330
3DE3
100
AcDbEntity
  8
Defpoints
 62
     0
440
 16777216
100
AcDbPoint
 10
190.1933368005566
 20
1048.760713939936
 30
0.0
  0
POINT
  5
3E4B
330
3DE3
100
AcDbEntity
  8
Defpoints
 62
     0
440
 16777216
100
AcDbPoint
 10
215.1933368005566
 20
1048.760713939936
 30
0.0
  0
POINT
  5
3E4C
330
3DE3
100
AcDbEntity
  8
Defpoints
 62
     0
440
 16777216
100
AcDbPoint
 10
215.1933368005566
 20
1059.169610100679
 30
0.0
  0
ENDBLK
  5
3DE5
330
3DE3
100
AcDbEntity
  8
0
100
AcDbBlockEnd
  0
BLOCK
  5
3DF3
330
3DF2
100
AcDbEntity
  8
0
100
AcDbBlockBegin
  2
*D42
 70
     1
 10
0.0
 20
0.0
 30
0.0
  3
*D42
  1

  0
LINE
  5
3DF5
330
3DF2
100
AcDbEntity
  8
0
 62
     0
440
 16777216
370
    -2
100
AcDbLine
 10
1324.798569667094
 20
1046.298213939937
 30
0.0
 11
1324.798569667094
 21
1031.246374850482
 31
0.0
  0
LINE
  5
3DF6
330
3DF2
100
AcDbEntity
  8
0
 62
     0
440
 16777216
370
    -2
100
AcDbLine
 10
1334.798569667096
 20
1047.698213939936
 30
0.0
 11
1334.798569667096
 21
1031.246374850482
 31
0.0
  0
LINE
  5
3DF7
330
3DF2
100
AcDbEntity
  8
0
 62
     0
440
 16777216
370
    -2
100
AcDbLine
 10
1324.978569667094
 20
1031.426374850482
 30
0.0
 11
1329.273569667095
 21
1031.426374850482
 31
0.0
  0
LINE
  5
3DF8
330
3DF2
100
AcDbEntity
  8
0
 62
     0
440
 16777216
370
    -2
100
AcDbLine
 10
1334.618569667096
 20
1031.426374850482
 30
0.0
 11
1330.323569667095
 21
1031.426374850482
 31
0.0
  0
SOLID
  5
3DF9
330
3DF2
100
AcDbEntity
  8
0
 62
     0
440
 16777216
100
AcDbTrace
 10
1324.978569667094
 20
1031.456374850483
 30
0.0
 11
1324.978569667094
 21
1031.396374850483
 31
0.0
 12
1324.798569667094
 22
1031.426374850482
 32
0.0
 13
1324.798569667094
 23
1031.426374850482
 33
0.0
  0
SOLID
  5
3DFA
330
3DF2
100
AcDbEntity
  8
0
 62
     0
440
 16777216
100
AcDbTrace
 10
1334.618569667096
 20
1031.456374850483
 30
0.0
 11
1334.618569667096
 21
1031.396374850483
 31
0.0
 12
1334.798569667096
 22
1031.426374850482
 32
0.0
 13
1334.798569667096
 23
1031.426374850482
 33
0.0
  0
MTEXT
  5
3DFB
330
3DF2
100
AcDbEntity
  8
0
 62
     0
440
 16777216
100
AcDbMText
 10
1329.798569667095
 20
1031.426374850482
 30
0.0
 40
0.18
 41
0.0
 46
0.0
 71
     5
 72
     1
  1
\A1;10.0000
 73
     1
 44
1.0
  0
POINT
  5
3DFC
330
3DF2
100
AcDbEntity
  8
Defpoints
 62
     0
440
 16777216
100
AcDbPoint
 10
1324.798569667094
 20
1046.360713939937
 30
0.0
  0
POINT
  5
3DFD
330
3DF2
100
AcDbEntity
  8
Defpoints
 62
     0
440
 16777216
100
AcDbPoint
 10
1334.798569667096
 20
1047.760713939936
 30
0.0
  0
POINT
  5
3DFE
330
3DF2
100
AcDbEntity
  8
Defpoints
 62
     0
440
 16777216
100
AcDbPoint
 10
1334.798569667096
 20
1031.426374850482
 30
0.0
  0
ENDBLK
  5
3DF4
330
3DF2
100
AcDbEntity
  8
0
100
AcDbBlockEnd
  0
BLOCK
  5
3E07
330
3E06
100
AcDbEntity
  8
0
100
AcDbBlockBegin
  2
*D43
 70
     1
 10
0.0
 20
0.0
 30
0.0
  3
*D43
  1

  0
LINE
  5
3E09
330
3E06
100
AcDbEntity
  8
0
 62
     0
440
 16777216
370
    -2
100
AcDbLine
 10
1421.794213688733
 20
947.823213939937
 30
0.0
 11
1421.794213688733
 21
998.9307657077748
 31
0.0
  0
LINE
  5
3E0A
330
3E06
100
AcDbEntity
  8
0
 62
     0
440
 16777216
370
    -2
100
AcDbLine
 10
1448.794213688734
 20
947.823213939937
 30
0.0
 11
1448.794213688734
 21
998.9307657077748
 31
0.0
  0
LINE
  5
3E0B
330
3E06
100
AcDbEntity
  8
0
 62
     0
440
 16777216
370
    -2
100
AcDbLine
 10
1421.974213688734
 20
998.7507657077747
 30
0.0
 11
1434.724213688734
 21
998.7507657077747
 31
0.0
  0
LINE
  5
3E0C
330
3E06
100
AcDbEntity
  8
0
 62
     0
440
 16777216
370
    -2
100
AcDbLine
 10
1448.614213688734
 20
998.7507657077747
 30
0.0
 11
1435.864213688734
 21
998.7507657077747
 31
0.0
  0
SOLID
  5
3E0D
330
3E06
100
AcDbEntity
  8
0
 62
     0
440
 16777216
100
AcDbTrace
 10
1421.974213688734
 20
998.7807657077748
 30
0.0
 11
1421.974213688734
 21
998.720765707775
 31
0.0
 12
1421.794213688733
 22
998.7507657077747
 32
0.0
 13
1421.794213688733
 23
998.7507657077747
 33
0.0
  0
SOLID
  5
3E0E
330
3E06
100
AcDbEntity
  8
0
 62
     0
440
 16777216
100
AcDbTrace
 10
1448.614213688734
 20
998.7807657077748
 30
0.0
 11
1448.614213688734
 21
998.720765707775
 31
0.0
 12
1448.794213688734
 22
998.7507657077747
 32
0.0
 13
1448.794213688734
 23
998.7507657077747
 33
0.0
  0
MTEXT
  5
3E0F
330
3E06
100
AcDbEntity
  8
0
 62
     0
440
 16777216
100
AcDbMText
 10
1435.294213688734
 20
998.7507657077747
 30
0.0
 40
0.18
 41
0.0
 46
0.0
 71
     5
 72
     1
  1
\A1;27.0000
 73
     1
 44
1.0
  0
POINT
  5
3E10
330
3E06
100
AcDbEntity
  8
Defpoints
 62
     0
440
 16777216
100
AcDbPoint
 10
1421.794213688733
 20
947.7607139399365
 30
0.0
  0
POINT
  5
3E11
330
3E06
100
AcDbEntity
  8
Defpoints
 62
     0
440
 16777216
100
AcDbPoint
 10
1448.794213688734
 20
947.7607139399365
 30
0.0
  0
POINT
  5
3E12
330
3E06
100
AcDbEntity
  8
Defpoints
 62
     0
440
 16777216
100
AcDbPoint
 10
1448.794213688734
 20
998.7507657077747
 30
0.0
  0
ENDBLK
  5
3E08
330
3E06
100
AcDbEntity
  8
0
100
AcDbBlockEnd
  0
BLOCK
  5
3E15
330
3E14
100
AcDbEntity
  8
0
100
AcDbBlockBegin
  2
*D44
 70
     1
 10
0.0
 20
0.0
 30
0.0
  3
*D44
  1

  0
LINE
  5
3E17
330
3E14
100
AcDbEntity
  8
0
 62
     0
440
 16777216
370
    -2
100
AcDbLine
 10
1435.294213688734
 20
967.8232139399366
 30
0.0
 11
1435.294213688734
 21
1001.339272129526
 31
0.0
  0
LINE
  5
3E18
330
3E14
100
AcDbEntity
  8
0
 62
     0
440
 16777216
370
    -2
100
AcDbLine
 10
1410.294213688734
 20
967.8232139399366
 30
0.0
 11
1410.294213688734
 21
1001.339272129526
 31
0.0
  0
LINE
  5
3E19
330
3E14
100
AcDbEntity
  8
0
 62
     0
440
 16777216
370
    -2
100
AcDbLine
 10
1435.114213688733
 20
1001.159272129526
 30
0.0
 11
1423.364213688734
 21
1001.159272129526
 31
0.0
  0
LINE
  5
3E1A
330
3E14
100
AcDbEntity
  8
0
 62
     0
440
 16777216
370
    -2
100
AcDbLine
 10
1410.474213688734
 20
1001.159272129526
 30
0.0
 11
1422.224213688734
 21
1001.159272129526
 31
0.0
  0
SOLID
  5
3E1B
330
3E14
100
AcDbEntity
  8
0
 62
     0
440
 16777216
100
AcDbTrace
 10
1435.114213688733
 20
1001.189272129526
 30
0.0
 11
1435.114213688733
 21
1001.129272129526
 31
0.0
 12
1435.294213688734
 22
1001.159272129526
 32
0.0
 13
1435.294213688734
 23
1001.159272129526
 33
0.0
  0
SOLID
  5
3E1C
330
3E14
100
AcDbEntity
  8
0
 62
     0
440
 16777216
100
AcDbTrace
 10
1410.474213688734
 20
1001.189272129526
 30
0.0
 11
1410.474213688734
 21
1001.129272129526
 31
0.0
 12
1410.294213688734
 22
1001.159272129526
 32
0.0
 13
1410.294213688734
 23
1001.159272129526
 33
0.0
  0
MTEXT
  5
3E1D
330
3E14
100
AcDbEntity
  8
0
 62
     0
440
 16777216
100
AcDbMText
 10
1422.794213688734
 20
1001.159272129526
 30
0.0
 40
0.18
 41
0.0
 46
0.0
 71
     5
 72
     1
  1
\A1;25.0000
 73
     1
 44
1.0
  0
POINT
  5
3E1E
330
3E14
100
AcDbEntity
  8
Defpoints
 62
     0
440
 16777216
100
AcDbPoint
 10
1435.294213688734
 20
967.760713939937
 30
0.0
  0
POINT
  5
3E1F
330
3E14
100
AcDbEntity
  8
Defpoints
 62
     0
440
 16777216
100
AcDbPoint
 10
1410.294213688734
 20
967.760713939937
 30
0.0
  0
POINT
  5
3E20
330
3E14
100
AcDbEntity
  8
Defpoints
 62
     0
440
 16777216
100
AcDbPoint
 10
1410.294213688734
 20
1001.159272129526
 30
0.0
  0
ENDBLK
  5
3E16
330
3E14
100
AcDbEntity
  8
0
100
AcDbBlockEnd
  0
ENDSEC
  0
SECTION
  2
ENTITIES
  0
LINE
  5
40AA
330
1F
100
AcDbEntity
  8
HEWI
  6
Continuous
370
    18
100
AcDbLine
 10
402.4107769029178
 20
300.3819487170285
 30
0.0
 11
376.8393166136411
 21
300.3819487170285
 31
0.0
  0
LINE
  5
40AB
330
1F
100
AcDbEntity
  8
HEWI
  6
Continuous
370
    18
100
AcDbLine
 10
373.8393166136412
 20
300.3819487170285
 30
0.0
 11
376.8393166136411
 21
300.3819487170285
 31
0.0
  0
LINE
  5
40AC
330
1F
100
AcDbEntity
  8
HEWI
  6
Continuous
370
    18
100
AcDbLine
 10
393.8393166136411
 20
320.3819487170286
 30
0.0
 11
401.4467493854208
 21
320.3819487170286
 31
0.0
  0
LINE
  5
40AD
330
1F
100
AcDbEntity
  8
HEWI
  6
Continuous
370
    18
100
AcDbLine
 10
393.8393166136411
 20
320.3819487170286
 30
0.0
 11
393.8393166136411
 21
317.3819487170285
 31
0.0
  0
LINE
  5
40AE
330
1F
100
AcDbEntity
  8
HEWI
  6
Continuous
370
    18
100
AcDbLine
 10
402.4107769029178
 20
317.3819487170285
 30
0.0
 11
393.8393166136411
 21
317.3819487170285
 31
0.0
  0
LINE
  5
40AF
330
1F
100
AcDbEntity
  8
HEWI
  6
Continuous
370
    18
100
AcDbLine
 10
564.8393166136411
 20
330.3819487170285
 30
0.0
 11
400.8393166136411
 21
330.3819487170285
 31
0.0
  0
LINE
  5
40B0
330
1F
100
AcDbEntity
  8
HEWI
  6
Continuous
370
    18
100
AcDbLine
 10
402.4107769029178
 20
300.3819487170285
 30
0.0
 11
402.4107769029178
 21
317.3819487170285
 31
0.0
  0
LINE
  5
40B1
330
1F
100
AcDbEntity
  8
HEWI
  6
Continuous
370
    18
100
AcDbLine
 10
567.8393166136411
 20
327.3819487170285
 30
0.0
 11
397.8393166136411
 21
327.3819487170285
 31
0.0
  0
LINE
  5
40B2
330
1F
100
AcDbEntity
  8
HEWI
  6
Continuous
370
    18
100
AcDbLine
 10
604.3393166136411
 20
92.38194871702853
 30
0.0
 11
573.8393166136411
 21
92.38194871702853
 31
0.0
  0
LINE
  5
40B3
330
1F
100
AcDbEntity
  8
HEWI
  6
Continuous
370
    18
100
AcDbLine
 10
604.3393166136411
 20
93.38194871702853
 30
0.0
 11
604.3393166136411
 21
92.38194871702853
 31
0.0
  0
LINE
  5
40B4
330
1F
100
AcDbEntity
  8
HEWI
  6
Continuous
370
    18
100
AcDbLine
 10
573.8393166136411
 20
93.38194871702853
 30
0.0
 11
573.8393166136411
 21
92.38194871702853
 31
0.0
  0
LINE
  5
40B5
330
1F
100
AcDbEntity
  8
HEWI
  6
Continuous
370
    18
100
AcDbLine
 10
559.3393166136411
 20
93.38194871702853
 30
0.0
 11
559.3393166136411
 21
92.38194871702853
 31
0.0
  0
LINE
  5
40B6
330
1F
100
AcDbEntity
  8
HEWI
  6
Continuous
370
    18
100
AcDbLine
 10
573.8393166136411
 20
92.38194871702853
 30
0.0
 11
559.3393166136411
 21
92.38194871702853
 31
0.0
  0
LINE
  5
40B7
330
1F
100
AcDbEntity
  8
HEWI
  6
Continuous
370
    18
100
AcDbLine
 10
573.8393166136411
 20
93.38194871702853
 30
0.0
 11
559.3393166136411
 21
93.38194871702853
 31
0.0
  0
LINE
  5
40B8
330
1F
100
AcDbEntity
  8
HEWI
  6
Continuous
370
    18
100
AcDbLine
 10
560.196459470786
 20
95.38194871702854
 30
0.0
 11
573.8393166136411
 21
95.38194871702854
 31
0.0
  0
LINE
  5
40B9
330
1F
100
AcDbEntity
  8
HEWI
  6
Continuous
370
    18
100
AcDbLine
 10
573.8393166136411
 20
95.38194871702854
 30
0.0
 11
573.8393166136411
 21
93.38194871702853
 31
0.0
  0
LINE
  5
40BA
330
1F
100
AcDbEntity
  8
HEWI
  6
Continuous
370
    18
100
AcDbLine
 10
604.3393166136411
 20
93.38194871702853
 30
0.0
 11
573.8393166136411
 21
93.38194871702853
 31
0.0
  0
LINE
  5
40BB
330
1F
100
AcDbEntity
  8
HEWI
  6
Continuous
370
    18
100
AcDbLine
 10
602.3393166136411
 20
95.38194871702854
 30
0.0
 11
573.8393166136411
 21
95.38194871702854
 31
0.0
  0
LINE
  5
40C6
330
1F
100
AcDbEntity
  8
HEWI
  6
Continuous
370
    18
100
AcDbLine
 10
568.3099138051729
 20
283.767908716768
 30
0.0
 11
568.3265256799532
 21
283.767908716768
 31
0.0
  0
LINE
  5
40C7
330
1F
100
AcDbEntity
  8
HEWI
  6
Continuous
370
    18
100
AcDbLine
 10
568.3099138051729
 20
282.7251087169998
 30
0.0
 11
568.3265256799532
 21
282.7251087169998
 31
0.0
  0
LINE
  5
40C8
330
1F
100
AcDbEntity
  8
HEWI
  6
Continuous
370
    18
100
AcDbLine
 10
568.3099138051729
 20
285.2183487169959
 30
0.0
 11
568.3265256799532
 21
285.2183487169959
 31
0.0
  0
LINE
  5
40C9
330
1F
100
AcDbEntity
  8
HEWI
  6
Continuous
370
    18
100
AcDbLine
 10
568.3099138051729
 20
284.3699013567939
 30
0.0
 11
568.3265256799532
 21
284.3699013567939
 31
0.0
  0
LINE
  5
40CA
330
1F
100
AcDbEntity
  8
HEWI
  6
Continuous
370
    18
100
AcDbLine
 10
568.1415909347743
 20
284.3699013567939
 30
0.0
 11
568.1901605390557
 21
284.3699013567939
 31
0.0
  0
LINE
  5
40CB
330
1F
100
AcDbEntity
  8
HEWI
  6
Continuous
370
    18
100
AcDbLine
 10
568.1415909347743
 20
283.767908716768
 30
0.0
 11
568.1901605390557
 21
283.767908716768
 31
0.0
  0
LINE
  5
40CC
330
1F
100
AcDbEntity
  8
HEWI
  6
Continuous
370
    18
100
AcDbLine
 10
567.524294030034
 20
287.8819487170285
 30
0.0
 11
568.0261430600767
 21
287.8819487170285
 31
0.0
  0
LINE
  5
40CD
330
1F
100
AcDbEntity
  8
HEWI
  6
Continuous
370
    18
100
AcDbLine
 10
567.524294030034
 20
279.8819487170285
 30
0.0
 11
568.0261430600767
 21
279.8819487170285
 31
0.0
  0
LINE
  5
40CE
330
1F
100
AcDbEntity
  8
HEWI
  6
Continuous
370
    18
100
AcDbLine
 10
567.4796387700153
 20
280.3819487170285
 30
0.0
 11
567.9817510088069
 21
280.3819487170285
 31
0.0
  0
LINE
  5
40CF
330
1F
100
AcDbEntity
  8
HEWI
  6
Continuous
370
    18
100
AcDbLine
 10
567.4796387700153
 20
287.3819487170285
 30
0.0
 11
567.9817510088069
 21
287.3819487170285
 31
0.0
  0
LINE
  5
40D0
330
1F
100
AcDbEntity
  8
HEWI
  6
Continuous
370
    18
100
AcDbLine
 10
567.4796387700225
 20
280.3819487170285
 30
0.0
 11
567.4796387700225
 21
287.3819487170285
 31
0.0
  0
LINE
  5
40D1
330
1F
100
AcDbEntity
  8
HEWI
  6
Continuous
370
    18
100
AcDbLine
 10
568.0261430600767
 20
279.8819487170285
 30
0.0
 11
568.339316613641
 21
279.8819487170285
 31
0.0
  0
LINE
  5
40D2
330
1F
100
AcDbEntity
  8
HEWI
  6
Continuous
370
    18
100
AcDbLine
 10
568.339316613641
 20
287.8819487170285
 30
0.0
 11
568.0261430600767
 21
287.8819487170285
 31
0.0
  0
LINE
  5
40D3
330
1F
100
AcDbEntity
  8
HEWI
  6
Continuous
370
    18
100
AcDbLine
 10
567.9817510088069
 20
280.3819487170285
 30
0.0
 11
567.9817510088069
 21
287.3819487170285
 31
0.0
  0
LINE
  5
40D4
330
1F
100
AcDbEntity
  8
HEWI
  6
Continuous
370
    18
100
AcDbLine
 10
568.2669466313782
 20
282.089948717029
 30
0.0
 11
568.2949527347045
 21
282.089948717029
 31
0.0
  0
LINE
  5
40D5
330
1F
100
AcDbEntity
  8
HEWI
  6
Continuous
370
    18
100
AcDbLine
 10
568.2669466313782
 20
283.767908716768
 30
0.0
 11
568.2669466313782
 21
282.089948717029
 31
0.0
  0
LINE
  5
40D6
330
1F
100
AcDbEntity
  8
HEWI
  6
Continuous
370
    18
100
AcDbLine
 10
568.1901605390557
 20
283.767908716768
 30
0.0
 11
568.2669466313782
 21
283.767908716768
 31
0.0
  0
LINE
  5
40D7
330
1F
100
AcDbEntity
  8
HEWI
  6
Continuous
370
    18
100
AcDbLine
 10
568.1901605390557
 20
282.089948717029
 30
0.0
 11
568.1901605390557
 21
283.767908716768
 31
0.0
  0
LINE
  5
40D8
330
1F
100
AcDbEntity
  8
HEWI
  6
Continuous
370
    18
100
AcDbLine
 10
568.1415979187331
 20
282.089948717029
 30
0.0
 11
568.1901605390557
 21
282.089948717029
 31
0.0
  0
LINE
  5
40D9
330
1F
100
AcDbEntity
  8
HEWI
  6
Continuous
370
    18
100
AcDbLine
 10
568.1415979187331
 20
285.8819487170285
 30
0.0
 11
568.1415979187331
 21
282.089948717029
 31
0.0
  0
LINE
  5
40DA
330
1F
100
AcDbEntity
  8
HEWI
  6
Continuous
370
    18
100
AcDbLine
 10
568.1901605390557
 20
285.8819487170285
 30
0.0
 11
568.1415979187331
 21
285.8819487170285
 31
0.0
  0
LINE
  5
40DB
330
1F
100
AcDbEntity
  8
HEWI
  6
Continuous
370
    18
100
AcDbLine
 10
568.1901605390557
 20
284.3699013567939
 30
0.0
 11
568.1901605390557
 21
285.8819487170285
 31
0.0
  0
LINE
  5
40DC
330
1F
100
AcDbEntity
  8
HEWI
  6
Continuous
370
    18
100
AcDbLine
 10
568.2669466313782
 20
284.3699013567939
 30
0.0
 11
568.1901605390557
 21
284.3699013567939
 31
0.0
  0
LINE
  5
40DD
330
1F
100
AcDbEntity
  8
HEWI
  6
Continuous
370
    18
100
AcDbLine
 10
568.2669466313782
 20
285.8819487170285
 30
0.0
 11
568.2669466313782
 21
284.3699013567939
 31
0.0
  0
LINE
  5
40DE
330
1F
100
AcDbEntity
  8
HEWI
  6
Continuous
370
    18
100
AcDbLine
 10
568.2949527347045
 20
285.8819487170285
 30
0.0
 11
568.2669466313782
 21
285.8819487170285
 31
0.0
  0
LINE
  5
40DF
330
1F
100
AcDbEntity
  8
HEWI
  6
Continuous
370
    18
100
AcDbLine
 10
568.2949527347045
 20
282.089948717029
 30
0.0
 11
568.2949527347045
 21
285.8819487170285
 31
0.0
  0
LINE
  5
40E0
330
1F
100
AcDbEntity
  8
HEWI
  6
Continuous
370
    18
100
AcDbLine
 10
568.3392208495824
 20
282.7251087169998
 30
0.0
 11
568.3392208495824
 21
282.089948717029
 31
0.0
  0
LINE
  5
40E1
330
1F
100
AcDbEntity
  8
HEWI
  6
Continuous
370
    18
100
AcDbLine
 10
568.339316613641
 20
282.089948717029
 30
0.0
 11
568.3099155915588
 21
282.089948717029
 31
0.0
  0
LINE
  5
40E2
330
1F
100
AcDbEntity
  8
HEWI
  6
Continuous
370
    18
100
AcDbLine
 10
568.3099155915588
 20
282.089948717029
 30
0.0
 11
568.3099155915588
 21
285.8819487170285
 31
0.0
  0
LINE
  5
40E3
330
1F
100
AcDbEntity
  8
HEWI
  6
Continuous
370
    18
100
AcDbLine
 10
568.339316613641
 20
285.8819487170285
 30
0.0
 11
568.3099155915588
 21
285.8819487170285
 31
0.0
  0
LINE
  5
40E4
330
1F
100
AcDbEntity
  8
HEWI
  6
Continuous
370
    18
100
AcDbLine
 10
568.3392208495824
 20
285.8819487170285
 30
0.0
 11
568.3392208495824
 21
285.2183487169959
 31
0.0
  0
LINE
  5
40E5
330
1F
100
AcDbEntity
  8
HEWI
  6
Continuous
370
    18
100
AcDbLine
 10
568.339316613641
 20
285.2183487169959
 30
0.0
 11
568.3265256799532
 21
285.2183487169959
 31
0.0
  0
LINE
  5
40E6
330
1F
100
AcDbEntity
  8
HEWI
  6
Continuous
370
    18
100
AcDbLine
 10
568.3265256799532
 20
285.2183487169959
 30
0.0
 11
568.3265256799532
 21
284.3699013567939
 31
0.0
  0
LINE
  5
40E7
330
1F
100
AcDbEntity
  8
HEWI
  6
Continuous
370
    18
100
AcDbLine
 10
568.339316613641
 20
284.3699013567939
 30
0.0
 11
568.3265256799532
 21
284.3699013567939
 31
0.0
  0
LINE
  5
40E8
330
1F
100
AcDbEntity
  8
HEWI
  6
Continuous
370
    18
100
AcDbLine
 10
568.339316613641
 20
284.3699013567939
 30
0.0
 11
568.339316613641
 21
283.767908716768
 31
0.0
  0
LINE
  5
40E9
330
1F
100
AcDbEntity
  8
HEWI
  6
Continuous
370
    18
100
AcDbLine
 10
568.339316613641
 20
283.767908716768
 30
0.0
 11
568.3265256799532
 21
283.767908716768
 31
0.0
  0
LINE
  5
40EA
330
1F
100
AcDbEntity
  8
HEWI
  6
Continuous
370
    18
100
AcDbLine
 10
568.3265256799532
 20
283.767908716768
 30
0.0
 11
568.3265256799532
 21
282.7251087169998
 31
0.0
  0
LINE
  5
40EB
330
1F
100
AcDbEntity
  8
HEWI
  6
Continuous
370
    18
100
AcDbLine
 10
568.339316613641
 20
282.7251087169998
 30
0.0
 11
568.3265256799532
 21
282.7251087169998
 31
0.0
  0
LINE
  5
40EC
330
1F
100
AcDbEntity
  8
HEWI
  6
Continuous
370
    18
100
AcDbLine
 10
567.8393166136411
 20
297.8819487170285
 30
0.0
 11
397.8393166136411
 21
297.8819487170285
 31
0.0
  0
LINE
  5
40ED
330
1F
100
AcDbEntity
  8
HEWI
  6
Continuous
370
    18
100
AcDbLine
 10
373.8393166136412
 20
229.3819487170285
 30
0.0
 11
373.8393166136412
 21
234.3819487170285
 31
0.0
  0
LINE
  5
40EE
330
1F
100
AcDbEntity
  8
HEWI
  6
Continuous
370
    18
100
AcDbLine
 10
383.8393166136411
 20
229.3819487170285
 30
0.0
 11
373.8393166136412
 21
229.3819487170285
 31
0.0
  0
LINE
  5
40EF
330
1F
100
AcDbEntity
  8
HEWI
  6
Continuous
370
    18
100
AcDbLine
 10
383.8393166136411
 20
229.3819487170285
 30
0.0
 11
383.8393166136411
 21
231.3819487170285
 31
0.0
  0
LINE
  5
40F0
330
1F
100
AcDbEntity
  8
HEWI
  6
Continuous
370
    18
100
AcDbLine
 10
373.8393166136412
 20
257.3819487170285
 30
0.0
 11
373.8393166136412
 21
234.3819487170285
 31
0.0
  0
LINE
  5
40F1
330
1F
100
AcDbEntity
  8
HEWI
  6
Continuous
370
    18
100
AcDbLine
 10
373.8393166136412
 20
234.3819487170285
 30
0.0
 11
384.4231181265459
 21
234.3819487170285
 31
0.0
  0
LINE
  5
40F2
330
1F
100
AcDbEntity
  8
HEWI
  6
Continuous
370
    18
100
AcDbLine
 10
402.4107769029178
 20
239.3819487170286
 30
0.0
 11
391.8393166136411
 21
239.3819487170286
 31
0.0
  0
LINE
  5
40F3
330
1F
100
AcDbEntity
  8
HEWI
  6
Continuous
370
    18
100
AcDbLine
 10
373.8393166136412
 20
297.3819487170285
 30
0.0
 11
373.8393166136412
 21
257.3819487170285
 31
0.0
  0
LINE
  5
40F4
330
1F
100
AcDbEntity
  8
HEWI
  6
Continuous
370
    18
100
AcDbLine
 10
403.4683521493025
 20
299.3819487170285
 30
0.0
 11
375.8393166136411
 21
299.3819487170285
 31
0.0
  0
LINE
  5
40F5
330
1F
100
AcDbEntity
  8
HEWI
  6
Continuous
370
    18
100
AcDbLine
 10
593.8393166136411
 20
95.88194871702853
 30
0.0
 11
593.8393166136411
 21
95.38194090452908
 31
0.0
  0
LINE
  5
40F6
330
1F
100
AcDbEntity
  8
HEWI
  6
Continuous
370
    18
100
AcDbLine
 10
593.8393166136411
 20
95.88194871702853
 30
0.0
 11
573.8393166136411
 21
95.88194871702853
 31
0.0
  0
LINE
  5
40F7
330
1F
100
AcDbEntity
  8
HEWI
  6
Continuous
370
    18
100
AcDbLine
 10
593.339316613641
 20
96.38194871702854
 30
0.0
 11
573.8393166136411
 21
96.38194871702854
 31
0.0
  0
LINE
  5
40F8
330
1F
100
AcDbEntity
  8
HEWI
  6
Continuous
370
    18
100
AcDbLine
 10
573.8393166136411
 20
96.38194871702854
 30
0.0
 11
573.8393166136411
 21
95.88194871702853
 31
0.0
  0
LINE
  5
40F9
330
1F
100
AcDbEntity
  8
HEWI
  6
Continuous
370
    18
100
AcDbLine
 10
564.044473677317
 20
96.38194871702854
 30
0.0
 11
573.8393166136411
 21
96.38194871702854
 31
0.0
  0
LINE
  5
40FA
330
1F
100
AcDbEntity
  8
HEWI
  6
Continuous
370
    18
100
AcDbLine
 10
573.8393166136411
 20
95.88194871702853
 30
0.0
 11
563.8393166136411
 21
95.88194871702853
 31
0.0
  0
LINE
  5
40FB
330
1F
100
AcDbEntity
  8
HEWI
  6
Continuous
370
    18
100
AcDbLine
 10
563.8393166136411
 20
95.88194871702853
 30
0.0
 11
563.8393166136411
 21
95.38194090452908
 31
0.0
  0
LINE
  5
40FC
330
1F
100
AcDbEntity
  8
HEWI
  6
Continuous
370
    18
100
AcDbLine
 10
567.8393166136411
 20
91.38194871702854
 30
0.0
 11
557.8393166136411
 21
91.38194871702854
 31
0.0
  0
LINE
  5
40FD
330
1F
100
AcDbEntity
  8
HEWI
  6
Continuous
370
    18
100
AcDbLine
 10
570.2581834847697
 20
88.4992554333594
 30
0.0
 11
567.8393166136411
 21
91.38194871702854
 31
0.0
  0
LINE
  5
40FE
330
1F
100
AcDbEntity
  8
HEWI
  6
Continuous
370
    18
100
AcDbLine
 10
573.8393166136411
 20
86.71940187351628
 30
0.0
 11
573.8393166136411
 21
92.38194871702853
 31
0.0
  0
LINE
  5
40FF
330
1F
100
AcDbEntity
  8
HEWI
  6
Continuous
370
    18
100
AcDbLine
 10
603.8393166136411
 20
91.88194871702853
 30
0.0
 11
574.9566465886927
 21
86.78915471673008
 31
0.0
  0
LINE
  5
4100
330
1F
100
AcDbEntity
  8
HEWI
  6
Continuous
370
    18
100
AcDbLine
 10
603.8393166136411
 20
92.38194871702853
 30
0.0
 11
603.8393166136411
 21
91.88194871702853
 31
0.0
  0
LINE
  5
4101
330
1F
100
AcDbEntity
  8
HEWI
  6
Continuous
370
    18
100
AcDbLine
 10
402.4107769029178
 20
239.3819487170286
 30
0.0
 11
402.4107769029178
 21
297.8819487170285
 31
0.0
  0
LINE
  5
4102
330
1F
100
AcDbEntity
  8
HEWI
  6
Continuous
370
    18
100
AcDbLine
 10
557.2973584895844
 20
91.38194871702854
 30
0.0
 11
557.8393166136411
 21
91.38194871702854
 31
0.0
  0
LINE
  5
4103
330
1F
100
AcDbEntity
  8
HEWI
  6
Continuous
370
    18
100
AcDbLine
 10
557.2973584895844
 20
93.38194871702853
 30
0.0
 11
557.2973584895844
 21
91.38194871702854
 31
0.0
  0
LINE
  5
4104
330
1F
100
AcDbEntity
  8
HEWI
  6
Continuous
370
    18
100
AcDbLine
 10
557.8379984554885
 20
70.38194871702853
 30
0.0
 11
397.8393166136411
 21
70.38194871702853
 31
0.0
  0
LINE
  5
4105
330
1F
100
AcDbEntity
  8
HEWI
  6
Continuous
370
    18
100
AcDbLine
 10
589.8393166136411
 20
65.38194871702853
 30
0.0
 11
559.8393166136411
 21
65.38194871702853
 31
0.0
  0
LINE
  5
4106
330
1F
100
AcDbEntity
  8
HEWI
  6
Continuous
370
    18
100
AcDbLine
 10
559.8393166136411
 20
74.94444871702853
 30
0.0
 11
589.8393166136411
 21
68.38194871702853
 31
0.0
  0
LINE
  5
4107
330
1F
100
AcDbEntity
  8
HEWI
  6
Continuous
370
    18
100
AcDbLine
 10
589.8393166136411
 20
68.38194871702853
 30
0.0
 11
589.8393166136411
 21
65.38194871702853
 31
0.0
  0
LINE
  5
4108
330
1F
100
AcDbEntity
  8
HEWI
  6
Continuous
370
    18
100
AcDbLine
 10
558.4055127598003
 20
70.38194871702853
 30
0.0
 11
557.8393166136411
 21
70.38194871702853
 31
0.0
  0
LINE
  5
4109
330
1F
100
AcDbEntity
  8
HEWI
  6
Continuous
370
    18
100
AcDbLine
 10
559.8393166136411
 20
65.38194871702853
 30
0.0
 11
557.8393166136411
 21
65.38194871702853
 31
0.0
  0
LINE
  5
410A
330
1F
100
AcDbEntity
  8
HEWI
  6
Continuous
370
    18
100
AcDbLine
 10
559.8393166136411
 20
65.38194871702853
 30
0.0
 11
559.8393166136411
 21
74.94444871702853
 31
0.0
  0
LINE
  5
410B
330
1F
100
AcDbEntity
  8
HEWI
  6
Continuous
370
    18
100
AcDbLine
 10
559.8393166136411
 20
74.94444871702853
 30
0.0
 11
558.4055127598003
 21
75.2580933100553
 31
0.0
  0
LINE
  5
410C
330
1F
100
AcDbEntity
  8
HEWI
  6
Continuous
370
    18
100
AcDbLine
 10
558.4055127598003
 20
70.38194871702853
 30
0.0
 11
558.4055127598003
 21
75.2580933100553
 31
0.0
  0
LINE
  5
410D
330
1F
100
AcDbEntity
  8
HEWI
  6
Continuous
370
    18
100
AcDbLine
 10
557.8393166136411
 20
65.38194871702853
 30
0.0
 11
397.8393166136411
 21
65.38194871702853
 31
0.0
  0
LINE
  5
410E
330
1F
100
AcDbEntity
  8
HEWI
  6
Continuous
370
    18
100
AcDbLine
 10
557.8393166136411
 20
70.38194871702853
 30
0.0
 11
557.8393166136411
 21
65.38194871702853
 31
0.0
  0
LINE
  5
410F
330
1F
100
AcDbEntity
  8
HEWI
  6
Continuous
370
    18
100
AcDbLine
 10
567.8393166136411
 20
300.3819487170285
 30
0.0
 11
567.8393166136411
 21
327.3819487170285
 31
0.0
  0
LINE
  5
4110
330
1F
100
AcDbEntity
  8
HEWI
  6
Continuous
370
    18
100
AcDbLine
 10
397.8393166136411
 20
327.3819487170285
 30
0.0
 11
397.8393166136411
 21
320.3819487170286
 31
0.0
  0
LINE
  5
4111
330
1F
100
AcDbEntity
  8
HEWI
  6
Continuous
370
    18
100
AcDbLine
 10
568.339316613641
 20
279.8819487170285
 30
0.0
 11
568.339316613641
 21
282.089948717029
 31
0.0
  0
LINE
  5
4112
330
1F
100
AcDbEntity
  8
HEWI
  6
Continuous
370
    18
100
AcDbLine
 10
568.339316613641
 20
282.7251087169998
 30
0.0
 11
568.339316613641
 21
283.767908716768
 31
0.0
  0
LINE
  5
4113
330
1F
100
AcDbEntity
  8
HEWI
  6
Continuous
370
    18
100
AcDbLine
 10
568.339316613641
 20
284.3699013567939
 30
0.0
 11
568.339316613641
 21
285.2183487169959
 31
0.0
  0
LINE
  5
4114
330
1F
100
AcDbEntity
  8
HEWI
  6
Continuous
370
    18
100
AcDbLine
 10
568.339316613641
 20
285.8819487170285
 30
0.0
 11
568.339316613641
 21
287.8819487170285
 31
0.0
  0
LINE
  5
4115
330
1F
100
AcDbEntity
  8
HEWI
  6
Continuous
370
    18
100
AcDbLine
 10
567.8393166136411
 20
297.8819487170285
 30
0.0
 11
567.8393166136411
 21
300.3819487170285
 31
0.0
  0
LINE
  5
4116
330
1F
100
AcDbEntity
  8
HEWI
  6
Continuous
370
    18
100
AcDbLine
 10
397.8393166136411
 20
300.3819487170285
 30
0.0
 11
397.8393166136411
 21
299.3819487170285
 31
0.0
  0
LINE
  5
4117
330
1F
100
AcDbEntity
  8
HEWI
  6
Continuous
370
    18
100
AcDbLine
 10
567.8393166136411
 20
73.19463621702834
 30
0.0
 11
567.8393166136411
 21
91.38194871702854
 31
0.0
  0
LINE
  5
4118
330
1F
100
AcDbEntity
  8
HEWI
  6
Continuous
370
    18
100
AcDbLine
 10
567.8393166136411
 20
96.38234715452837
 30
0.0
 11
567.8393166136411
 21
279.8795580920278
 31
0.0
  0
LINE
  5
4119
330
1F
100
AcDbEntity
  8
HEWI
  6
Continuous
370
    18
100
AcDbLine
 10
567.8393166136411
 20
287.8806205920291
 30
0.0
 11
567.8393166136411
 21
297.8819487170285
 31
0.0
  0
LINE
  5
411A
330
1F
100
AcDbEntity
  8
HEWI
  6
Continuous
370
    18
100
AcDbLine
 10
397.8393166136411
 20
239.3819487170286
 30
0.0
 11
397.8393166136411
 21
70.38194871702853
 31
0.0
  0
LINE
  5
411B
330
1F
100
AcDbEntity
  8
HEWI
  6
Continuous
370
    18
100
AcDbLine
 10
397.8393166136411
 20
70.38194871702853
 30
0.0
 11
397.8393166136411
 21
65.38194871702853
 31
0.0
  0
LINE
  5
411C
330
1F
100
AcDbEntity
  8
HEWI
  6
Continuous
370
    18
100
AcDbLine
 10
252.4087610580864
 20
300.3819487170285
 30
0.0
 11
82.40876105808638
 21
300.3819487170285
 31
0.0
  0
LINE
  5
411D
330
1F
100
AcDbEntity
  8
HEWI
  6
Continuous
370
    18
100
AcDbLine
 10
249.4087610580864
 20
330.3819487170285
 30
0.0
 11
167.4087610580864
 21
330.3819487170285
 31
0.0
  0
LINE
  5
411E
330
1F
100
AcDbEntity
  8
HEWI
  6
Continuous
370
    18
100
AcDbLine
 10
167.4087610580864
 20
330.3819487170285
 30
0.0
 11
85.40876105808639
 21
330.3819487170285
 31
0.0
  0
LINE
  5
411F
330
1F
100
AcDbEntity
  8
HEWI
  6
Continuous
370
    18
100
AcDbLine
 10
82.40876105808638
 20
327.3819487170285
 30
0.0
 11
167.4087610580864
 21
327.3819487170285
 31
0.0
  0
LINE
  5
4120
330
1F
100
AcDbEntity
  8
HEWI
  6
Continuous
370
    18
100
AcDbLine
 10
167.4087610580864
 20
327.3819487170285
 30
0.0
 11
252.4087610580864
 21
327.3819487170285
 31
0.0
  0
LINE
  5
4121
330
1F
100
AcDbEntity
  8
HEWI
  6
Continuous
370
    18
100
AcDbLine
 10
128.9087610580864
 20
95.38194871702854
 30
0.0
 11
157.4087610580864
 21
95.38194871702854
 31
0.0
  0
LINE
  5
4122
330
1F
100
AcDbEntity
  8
HEWI
  6
Continuous
370
    18
100
AcDbLine
 10
157.4087610580864
 20
93.38194871702853
 30
0.0
 11
126.9087610580864
 21
93.38194871702853
 31
0.0
  0
LINE
  5
4123
330
1F
100
AcDbEntity
  8
HEWI
  6
Continuous
370
    18
100
AcDbLine
 10
126.9087610580864
 20
93.38194871702853
 30
0.0
 11
126.9087610580864
 21
92.38194871702853
 31
0.0
  0
LINE
  5
4124
330
1F
100
AcDbEntity
  8
HEWI
  6
Continuous
370
    18
100
AcDbLine
 10
157.4087610580864
 20
92.38194871702853
 30
0.0
 11
126.9087610580864
 21
92.38194871702853
 31
0.0
  0
LINE
  5
4125
330
1F
100
AcDbEntity
  8
HEWI
  6
Continuous
370
    18
100
AcDbLine
 10
157.4087610580864
 20
93.38194871702853
 30
0.0
 11
157.4087610580864
 21
92.38194871702853
 31
0.0
  0
LINE
  5
4126
330
1F
100
AcDbEntity
  8
HEWI
  6
Continuous
370
    18
100
AcDbLine
 10
177.4087610580864
 20
92.38194871702853
 30
0.0
 11
157.4087610580864
 21
92.38194871702853
 31
0.0
  0
LINE
  5
4127
330
1F
100
AcDbEntity
  8
HEWI
  6
Continuous
370
    18
100
AcDbLine
 10
207.9087610580864
 20
93.38194871702853
 30
0.0
 11
207.9087610580864
 21
92.38194871702853
 31
0.0
  0
LINE
  5
4128
330
1F
100
AcDbEntity
  8
HEWI
  6
Continuous
370
    18
100
AcDbLine
 10
177.4087610580864
 20
93.38194871702853
 30
0.0
 11
177.4087610580864
 21
92.38194871702853
 31
0.0
  0
LINE
  5
4129
330
1F
100
AcDbEntity
  8
HEWI
  6
Continuous
370
    18
100
AcDbLine
 10
207.9087610580864
 20
92.38194871702853
 30
0.0
 11
177.4087610580864
 21
92.38194871702853
 31
0.0
  0
LINE
  5
412A
330
1F
100
AcDbEntity
  8
HEWI
  6
Continuous
370
    18
100
AcDbLine
 10
207.9087610580864
 20
93.38194871702853
 30
0.0
 11
177.4087610580864
 21
93.38194871702853
 31
0.0
  0
LINE
  5
412B
330
1F
100
AcDbEntity
  8
HEWI
  6
Continuous
370
    18
100
AcDbLine
 10
177.4087610580864
 20
95.38194871702854
 30
0.0
 11
205.9087610580864
 21
95.38194871702854
 31
0.0
  0
LINE
  5
412C
330
1F
100
AcDbEntity
  8
HEWI
  6
Continuous
370
    18
100
AcDbLine
 10
157.4087610580864
 20
95.38194871702854
 30
0.0
 11
157.4087610580864
 21
93.38194871702853
 31
0.0
  0
LINE
  5
412D
330
1F
100
AcDbEntity
  8
HEWI
  6
Continuous
370
    18
100
AcDbLine
 10
177.4087610580864
 20
93.38194871702853
 30
0.0
 11
157.4087610580864
 21
93.38194871702853
 31
0.0
  0
LINE
  5
412E
330
1F
100
AcDbEntity
  8
HEWI
  6
Continuous
370
    18
100
AcDbLine
 10
177.4087610580864
 20
95.38194871702854
 30
0.0
 11
177.4087610580864
 21
93.38194871702853
 31
0.0
  0
LINE
  5
412F
330
1F
100
AcDbEntity
  8
HEWI
  6
Continuous
370
    18
100
AcDbLine
 10
157.4087610580864
 20
95.38194871702854
 30
0.0
 11
177.4087610580864
 21
95.38194871702854
 31
0.0
  0
LINE
  5
4130
330
1F
100
AcDbEntity
  8
HEWI
  6
Continuous
370
    18
100
AcDbLine
 10
171.0490810581941
 20
283.2370287165259
 30
0.0
 11
170.4707757783872
 21
285.8819487170285
 31
0.0
  0
LINE
  5
4131
330
1F
100
AcDbEntity
  8
HEWI
  6
Continuous
370
    18
100
AcDbLine
 10
170.4707757783872
 20
285.8819487170285
 30
0.0
 11
169.6981684184684
 21
285.8819487170285
 31
0.0
  0
LINE
  5
4132
330
1F
100
AcDbEntity
  8
HEWI
  6
Continuous
370
    18
100
AcDbLine
 10
169.6981684184684
 20
285.8819487170285
 30
0.0
 11
169.1151357786111
 21
283.2559887164834
 31
0.0
  0
LINE
  5
4133
330
1F
100
AcDbEntity
  8
HEWI
  6
Continuous
370
    18
100
AcDbLine
 10
169.1151357786111
 20
283.2559887164834
 30
0.0
 11
168.4562884186198
 21
285.8819487170285
 31
0.0
  0
LINE
  5
4134
330
1F
100
AcDbEntity
  8
HEWI
  6
Continuous
370
    18
100
AcDbLine
 10
165.1667284186223
 20
285.8819487170285
 30
0.0
 11
165.1667284186223
 21
282.089948717029
 31
0.0
  0
LINE
  5
4135
330
1F
100
AcDbEntity
  8
HEWI
  6
Continuous
370
    18
100
AcDbLine
 10
165.1667284186223
 20
282.089948717029
 30
0.0
 11
167.5367284186177
 21
282.089948717029
 31
0.0
  0
LINE
  5
4136
330
1F
100
AcDbEntity
  8
HEWI
  6
Continuous
370
    18
100
AcDbLine
 10
167.5367284186177
 20
282.089948717029
 30
0.0
 11
167.5367284186177
 21
282.7251087169998
 31
0.0
  0
LINE
  5
4137
330
1F
100
AcDbEntity
  8
HEWI
  6
Continuous
370
    18
100
AcDbLine
 10
167.5367284186177
 20
282.7251087169998
 30
0.0
 11
165.9298810586806
 21
282.7251087169998
 31
0.0
  0
LINE
  5
4138
330
1F
100
AcDbEntity
  8
HEWI
  6
Continuous
370
    18
100
AcDbLine
 10
165.9298810586806
 20
282.7251087169998
 30
0.0
 11
165.9298810586806
 21
283.767908716768
 31
0.0
  0
LINE
  5
4139
330
1F
100
AcDbEntity
  8
HEWI
  6
Continuous
370
    18
100
AcDbLine
 10
165.9298810586806
 20
283.767908716768
 30
0.0
 11
167.4087610580864
 21
283.767908716768
 31
0.0
  0
LINE
  5
413A
330
1F
100
AcDbEntity
  8
HEWI
  6
Continuous
370
    18
100
AcDbLine
 10
167.4087610580864
 20
283.767908716768
 30
0.0
 11
167.4087610580864
 21
284.3699013567939
 31
0.0
  0
LINE
  5
413B
330
1F
100
AcDbEntity
  8
HEWI
  6
Continuous
370
    18
100
AcDbLine
 10
167.4087610580864
 20
284.3699013567939
 30
0.0
 11
165.9298810586806
 21
284.3699013567939
 31
0.0
  0
LINE
  5
413C
330
1F
100
AcDbEntity
  8
HEWI
  6
Continuous
370
    18
100
AcDbLine
 10
165.9298810586806
 20
284.3699013567939
 30
0.0
 11
165.9298810586806
 21
285.2183487169959
 31
0.0
  0
LINE
  5
413D
330
1F
100
AcDbEntity
  8
HEWI
  6
Continuous
370
    18
100
AcDbLine
 10
165.9298810586806
 20
285.2183487169959
 30
0.0
 11
167.5367284186177
 21
285.2183487169959
 31
0.0
  0
LINE
  5
413E
330
1F
100
AcDbEntity
  8
HEWI
  6
Continuous
370
    18
100
AcDbLine
 10
167.5367284186177
 20
285.2183487169959
 30
0.0
 11
167.5367284186177
 21
285.8819487170285
 31
0.0
  0
LINE
  5
413F
330
1F
100
AcDbEntity
  8
HEWI
  6
Continuous
370
    18
100
AcDbLine
 10
167.5367284186177
 20
285.8819487170285
 30
0.0
 11
165.1667284186223
 21
285.8819487170285
 31
0.0
  0
LINE
  5
4140
330
1F
100
AcDbEntity
  8
HEWI
  6
Continuous
370
    18
100
AcDbLine
 10
161.5974957787075
 20
282.089948717029
 30
0.0
 11
161.5974957787075
 21
285.8819487170285
 31
0.0
  0
LINE
  5
4141
330
1F
100
AcDbEntity
  8
HEWI
  6
Continuous
370
    18
100
AcDbLine
 10
161.5974957787075
 20
285.8819487170285
 30
0.0
 11
162.360648418773
 21
285.8819487170285
 31
0.0
  0
LINE
  5
4142
330
1F
100
AcDbEntity
  8
HEWI
  6
Continuous
370
    18
100
AcDbLine
 10
162.360648418773
 20
285.8819487170285
 30
0.0
 11
162.360648418773
 21
284.3699013567939
 31
0.0
  0
LINE
  5
4143
330
1F
100
AcDbEntity
  8
HEWI
  6
Continuous
370
    18
100
AcDbLine
 10
162.360648418773
 20
284.3699013567939
 30
0.0
 11
163.8916557777738
 21
284.3699013567939
 31
0.0
  0
LINE
  5
4144
330
1F
100
AcDbEntity
  8
HEWI
  6
Continuous
370
    18
100
AcDbLine
 10
163.8916557777738
 20
284.3699013567939
 30
0.0
 11
163.8916557777738
 21
285.8819487170285
 31
0.0
  0
LINE
  5
4145
330
1F
100
AcDbEntity
  8
HEWI
  6
Continuous
370
    18
100
AcDbLine
 10
163.8916557777738
 20
285.8819487170285
 30
0.0
 11
164.6548084178321
 21
285.8819487170285
 31
0.0
  0
LINE
  5
4146
330
1F
100
AcDbEntity
  8
HEWI
  6
Continuous
370
    18
100
AcDbLine
 10
164.6548084178321
 20
285.8819487170285
 30
0.0
 11
164.6548084178321
 21
282.089948717029
 31
0.0
  0
LINE
  5
4147
330
1F
100
AcDbEntity
  8
HEWI
  6
Continuous
370
    18
100
AcDbLine
 10
164.6548084178321
 20
282.089948717029
 30
0.0
 11
163.8916557777738
 21
282.089948717029
 31
0.0
  0
LINE
  5
4148
330
1F
100
AcDbEntity
  8
HEWI
  6
Continuous
370
    18
100
AcDbLine
 10
163.8916557777738
 20
282.089948717029
 30
0.0
 11
163.8916557777738
 21
283.767908716768
 31
0.0
  0
LINE
  5
4149
330
1F
100
AcDbEntity
  8
HEWI
  6
Continuous
370
    18
100
AcDbLine
 10
163.8916557777738
 20
283.767908716768
 30
0.0
 11
162.360648418773
 21
283.767908716768
 31
0.0
  0
LINE
  5
414A
330
1F
100
AcDbEntity
  8
HEWI
  6
Continuous
370
    18
100
AcDbLine
 10
162.360648418773
 20
283.767908716768
 30
0.0
 11
162.360648418773
 21
282.089948717029
 31
0.0
  0
LINE
  5
414B
330
1F
100
AcDbEntity
  8
HEWI
  6
Continuous
370
    18
100
AcDbLine
 10
162.360648418773
 20
282.089948717029
 30
0.0
 11
161.5974957787075
 21
282.089948717029
 31
0.0
  0
LINE
  5
414C
330
1F
100
AcDbEntity
  8
HEWI
  6
Continuous
370
    18
100
AcDbLine
 10
159.5974957787075
 20
287.3819487170285
 30
0.0
 11
159.5974957787075
 21
280.3819487170285
 31
0.0
  0
LINE
  5
414D
330
1F
100
AcDbEntity
  8
HEWI
  6
Continuous
370
    18
100
AcDbLine
 10
175.0974957787075
 20
287.8819487170285
 30
0.0
 11
160.0974957787075
 21
287.8819487170285
 31
0.0
  0
LINE
  5
414E
330
1F
100
AcDbEntity
  8
HEWI
  6
Continuous
370
    18
100
AcDbLine
 10
175.5974957787075
 20
280.3819487170285
 30
0.0
 11
175.5974957787075
 21
287.3819487170285
 31
0.0
  0
LINE
  5
414F
330
1F
100
AcDbEntity
  8
HEWI
  6
Continuous
370
    18
100
AcDbLine
 10
160.0974957787075
 20
279.8819487170285
 30
0.0
 11
175.0974957787075
 21
279.8819487170285
 31
0.0
  0
LINE
  5
4150
330
1F
100
AcDbEntity
  8
HEWI
  6
Continuous
370
    18
100
AcDbLine
 10
170.6840884186276
 20
282.089948717029
 30
0.0
 11
171.4282810585173
 21
282.089948717029
 31
0.0
  0
LINE
  5
4151
330
1F
100
AcDbEntity
  8
HEWI
  6
Continuous
370
    18
100
AcDbLine
 10
171.4282810585173
 20
282.089948717029
 30
0.0
 11
172.5658810562272
 21
285.8819487170285
 31
0.0
  0
LINE
  5
4152
330
1F
100
AcDbEntity
  8
HEWI
  6
Continuous
370
    18
100
AcDbLine
 10
172.5658810562272
 20
285.8819487170285
 30
0.0
 11
171.7268884192417
 21
285.8819487170285
 31
0.0
  0
LINE
  5
4153
330
1F
100
AcDbEntity
  8
HEWI
  6
Continuous
370
    18
100
AcDbLine
 10
168.4562884186198
 20
285.8819487170285
 30
0.0
 11
167.6504884186324
 21
285.8819487170285
 31
0.0
  0
LINE
  5
4154
330
1F
100
AcDbEntity
  8
HEWI
  6
Continuous
370
    18
100
AcDbLine
 10
171.7268884192417
 20
285.8819487170285
 30
0.0
 11
171.0490810581941
 21
283.2370287165259
 31
0.0
  0
LINE
  5
4155
330
1F
100
AcDbEntity
  8
HEWI
  6
Continuous
370
    18
100
AcDbLine
 10
170.0773684186315
 20
284.6779887169478
 30
0.0
 11
170.6840884186276
 21
282.089948717029
 31
0.0
  0
LINE
  5
4156
330
1F
100
AcDbEntity
  8
HEWI
  6
Continuous
370
    18
100
AcDbLine
 10
169.4611684186711
 20
282.089948717029
 30
0.0
 11
170.0773684186315
 21
284.6779887169478
 31
0.0
  0
LINE
  5
4157
330
1F
100
AcDbEntity
  8
HEWI
  6
Continuous
370
    18
100
AcDbLine
 10
168.7169757786359
 20
282.089948717029
 30
0.0
 11
169.4611684186711
 21
282.089948717029
 31
0.0
  0
LINE
  5
4158
330
1F
100
AcDbEntity
  8
HEWI
  6
Continuous
370
    18
100
AcDbLine
 10
167.6504884186324
 20
285.8819487170285
 30
0.0
 11
168.7169757786359
 21
282.089948717029
 31
0.0
  0
LINE
  5
4159
330
1F
100
AcDbEntity
  8
HEWI
  6
Continuous
370
    18
100
AcDbLine
 10
172.7696884162396
 20
285.8819487170285
 30
0.0
 11
172.7696884162396
 21
282.089948717029
 31
0.0
  0
LINE
  5
415A
330
1F
100
AcDbEntity
  8
HEWI
  6
Continuous
370
    18
100
AcDbLine
 10
173.5565284163131
 20
285.8819487170285
 30
0.0
 11
172.7696884162396
 21
285.8819487170285
 31
0.0
  0
LINE
  5
415B
330
1F
100
AcDbEntity
  8
HEWI
  6
Continuous
370
    18
100
AcDbLine
 10
173.5565284163131
 20
282.089948717029
 30
0.0
 11
173.5565284163131
 21
285.8819487170285
 31
0.0
  0
LINE
  5
415C
330
1F
100
AcDbEntity
  8
HEWI
  6
Continuous
370
    18
100
AcDbLine
 10
172.7696884162396
 20
282.089948717029
 30
0.0
 11
173.5565284163131
 21
282.089948717029
 31
0.0
  0
LINE
  5
415D
330
1F
100
AcDbEntity
  8
HEWI
  6
Continuous
370
    18
100
AcDbLine
 10
252.4087610580864
 20
297.8819487170285
 30
0.0
 11
167.4087610580864
 21
297.8819487170285
 31
0.0
  0
LINE
  5
415E
330
1F
100
AcDbEntity
  8
HEWI
  6
Continuous
370
    18
100
AcDbLine
 10
208.4087610580864
 20
91.38194871702854
 30
0.0
 11
208.4087610580864
 21
93.38194871702853
 31
0.0
  0
LINE
  5
415F
330
1F
100
AcDbEntity
  8
HEWI
  6
Continuous
370
    18
100
AcDbLine
 10
207.4087610580864
 20
91.38194871702854
 30
0.0
 11
208.4087610580864
 21
91.38194871702854
 31
0.0
  0
LINE
  5
4160
330
1F
100
AcDbEntity
  8
HEWI
  6
Continuous
370
    18
100
AcDbLine
 10
126.4087610580864
 20
91.38194871702854
 30
0.0
 11
127.4087610580864
 21
91.38194871702854
 31
0.0
  0
LINE
  5
4161
330
1F
100
AcDbEntity
  8
HEWI
  6
Continuous
370
    18
100
AcDbLine
 10
126.4087610580864
 20
93.38194871702853
 30
0.0
 11
126.4087610580864
 21
91.38194871702854
 31
0.0
  0
LINE
  5
4162
330
1F
100
AcDbEntity
  8
HEWI
  6
Continuous
370
    18
100
AcDbLine
 10
252.4087610580864
 20
70.38194871702853
 30
0.0
 11
207.4112325065544
 21
70.38194871702853
 31
0.0
  0
LINE
  5
4163
330
1F
100
AcDbEntity
  8
HEWI
  6
Continuous
370
    18
100
AcDbLine
 10
127.4062896096184
 20
70.38194871702853
 30
0.0
 11
82.40876105808638
 21
70.38194871702853
 31
0.0
  0
LINE
  5
4164
330
1F
100
AcDbEntity
  8
HEWI
  6
Continuous
370
    18
100
AcDbLine
 10
197.4087610580864
 20
95.88194871702853
 30
0.0
 11
197.4087610580864
 21
95.38194090452908
 31
0.0
  0
LINE
  5
4165
330
1F
100
AcDbEntity
  8
HEWI
  6
Continuous
370
    18
100
AcDbLine
 10
157.4087610580864
 20
96.38194871702854
 30
0.0
 11
177.4087610580864
 21
96.38194871702854
 31
0.0
  0
LINE
  5
4166
330
1F
100
AcDbEntity
  8
HEWI
  6
Continuous
370
    18
100
AcDbLine
 10
157.4087610580864
 20
96.38194871702854
 30
0.0
 11
157.4087610580864
 21
95.88194871702853
 31
0.0
  0
LINE
  5
4167
330
1F
100
AcDbEntity
  8
HEWI
  6
Continuous
370
    18
100
AcDbLine
 10
137.9087610580864
 20
96.38194871702854
 30
0.0
 11
157.4087610580864
 21
96.38194871702854
 31
0.0
  0
LINE
  5
4168
330
1F
100
AcDbEntity
  8
HEWI
  6
Continuous
370
    18
100
AcDbLine
 10
177.4087610580864
 20
95.88194871702853
 30
0.0
 11
157.4087610580864
 21
95.88194871702853
 31
0.0
  0
LINE
  5
4169
330
1F
100
AcDbEntity
  8
HEWI
  6
Continuous
370
    18
100
AcDbLine
 10
177.4087610580864
 20
96.38194871702854
 30
0.0
 11
177.4087610580864
 21
95.88194871702853
 31
0.0
  0
LINE
  5
416A
330
1F
100
AcDbEntity
  8
HEWI
  6
Continuous
370
    18
100
AcDbLine
 10
197.4087610580864
 20
95.88194871702853
 30
0.0
 11
177.4087610580864
 21
95.88194871702853
 31
0.0
  0
LINE
  5
416B
330
1F
100
AcDbEntity
  8
HEWI
  6
Continuous
370
    18
100
AcDbLine
 10
177.4087610580864
 20
96.38194871702854
 30
0.0
 11
196.9087610580864
 21
96.38194871702854
 31
0.0
  0
LINE
  5
416C
330
1F
100
AcDbEntity
  8
HEWI
  6
Continuous
370
    18
100
AcDbLine
 10
157.4087610580864
 20
95.88194871702853
 30
0.0
 11
137.4087610580864
 21
95.88194871702853
 31
0.0
  0
LINE
  5
416D
330
1F
100
AcDbEntity
  8
HEWI
  6
Continuous
370
    18
100
AcDbLine
 10
137.4087610580864
 20
95.88194871702853
 30
0.0
 11
137.4087610580864
 21
95.38194090452908
 31
0.0
  0
LINE
  5
416E
330
1F
100
AcDbEntity
  8
HEWI
  6
Continuous
370
    18
100
AcDbLine
 10
177.4087610580864
 20
91.88194871702853
 30
0.0
 11
177.4087610580864
 21
92.38194871702853
 31
0.0
  0
LINE
  5
416F
330
1F
100
AcDbEntity
  8
HEWI
  6
Continuous
370
    18
100
AcDbLine
 10
207.4087610580864
 20
92.38194871702853
 30
0.0
 11
207.4087610580864
 21
86.71940187351628
 31
0.0
  0
LINE
  5
4170
330
1F
100
AcDbEntity
  8
HEWI
  6
Continuous
370
    18
100
AcDbLine
 10
157.4087610580864
 20
91.88194871702853
 30
0.0
 11
177.4087610580864
 21
91.88194871702853
 31
0.0
  0
LINE
  5
4171
330
1F
100
AcDbEntity
  8
HEWI
  6
Continuous
370
    18
100
AcDbLine
 10
127.4295753832448
 20
86.78915471673008
 30
0.0
 11
207.3879467329352
 21
86.78915471673008
 31
0.0
  0
LINE
  5
4172
330
1F
100
AcDbEntity
  8
HEWI
  6
Continuous
370
    18
100
AcDbLine
 10
127.4087610580864
 20
86.71940187351628
 30
0.0
 11
127.4087610580864
 21
92.38194871702853
 31
0.0
  0
LINE
  5
4173
330
1F
100
AcDbEntity
  8
HEWI
  6
Continuous
370
    18
100
AcDbLine
 10
157.4087610580864
 20
92.38194871702853
 30
0.0
 11
157.4087610580864
 21
91.88194871702853
 31
0.0
  0
LINE
  5
4174
330
1F
100
AcDbEntity
  8
HEWI
  6
Continuous
370
    18
100
AcDbLine
 10
252.4087610580864
 20
65.38194871702853
 30
0.0
 11
207.4087610580864
 21
65.38194871702853
 31
0.0
  0
LINE
  5
4175
330
1F
100
AcDbEntity
  8
HEWI
  6
Continuous
370
    18
100
AcDbLine
 10
127.4087610580864
 20
65.38194871702853
 30
0.0
 11
82.40876105808638
 21
65.38194871702853
 31
0.0
  0
LINE
  5
4176
330
1F
100
AcDbEntity
  8
HEWI
  6
Continuous
370
    18
100
AcDbLine
 10
177.4087610580864
 20
65.38194871702853
 30
0.0
 11
157.4087610580864
 21
65.38194871702853
 31
0.0
  0
LINE
  5
4177
330
1F
100
AcDbEntity
  8
HEWI
  6
Continuous
370
    18
100
AcDbLine
 10
177.4087610580864
 20
68.38194871702853
 30
0.0
 11
157.4087610580864
 21
68.38194871702853
 31
0.0
  0
LINE
  5
4178
330
1F
100
AcDbEntity
  8
HEWI
  6
Continuous
370
    18
100
AcDbLine
 10
207.4087610580864
 20
75.2580933100553
 30
0.0
 11
207.4087610580864
 21
74.94444871702853
 31
0.0
  0
LINE
  5
4179
330
1F
100
AcDbEntity
  8
HEWI
  6
Continuous
370
    18
100
AcDbLine
 10
127.4087610580864
 20
74.94444871702853
 30
0.0
 11
127.4087610580864
 21
75.2580933100553
 31
0.0
  0
LINE
  5
417A
330
1F
100
AcDbEntity
  8
HEWI
  6
Continuous
370
    18
100
AcDbLine
 10
177.4087610580864
 20
65.38194871702853
 30
0.0
 11
177.4087610580864
 21
68.38194871702853
 31
0.0
  0
LINE
  5
417B
330
1F
100
AcDbEntity
  8
HEWI
  6
Continuous
370
    18
100
AcDbLine
 10
207.4087610580864
 20
65.38194871702853
 30
0.0
 11
177.4087610580864
 21
65.38194871702853
 31
0.0
  0
LINE
  5
417C
330
1F
100
AcDbEntity
  8
HEWI
  6
Continuous
370
    18
100
AcDbLine
 10
207.4087610580864
 20
74.94444871702853
 30
0.0
 11
207.4087610580864
 21
65.38194871702853
 31
0.0
  0
LINE
  5
417D
330
1F
100
AcDbEntity
  8
HEWI
  6
Continuous
370
    18
100
AcDbLine
 10
127.4087610580864
 20
65.38194871702853
 30
0.0
 11
127.4087610580864
 21
74.94444871702853
 31
0.0
  0
LINE
  5
417E
330
1F
100
AcDbEntity
  8
HEWI
  6
Continuous
370
    18
100
AcDbLine
 10
157.4087610580864
 20
65.38194871702853
 30
0.0
 11
127.4087610580864
 21
65.38194871702853
 31
0.0
  0
LINE
  5
417F
330
1F
100
AcDbEntity
  8
HEWI
  6
Continuous
370
    18
100
AcDbLine
 10
157.4087610580864
 20
68.38194871702853
 30
0.0
 11
157.4087610580864
 21
65.38194871702853
 31
0.0
  0
LINE
  5
4180
330
1F
100
AcDbEntity
  8
HEWI
  6
Continuous
370
    18
100
AcDbLine
 10
252.4087610580864
 20
300.3819487170285
 30
0.0
 11
252.4087610580864
 21
327.3819487170285
 31
0.0
  0
LINE
  5
4181
330
1F
100
AcDbEntity
  8
HEWI
  6
Continuous
370
    18
100
AcDbLine
 10
82.40876105808638
 20
327.3819487170285
 30
0.0
 11
82.40876105808638
 21
300.3819487170285
 31
0.0
  0
LINE
  5
4182
330
1F
100
AcDbEntity
  8
HEWI
  6
Continuous
370
    18
100
AcDbLine
 10
252.4087610580864
 20
297.8819487170285
 30
0.0
 11
252.4087610580864
 21
300.3819487170285
 31
0.0
  0
LINE
  5
4183
330
1F
100
AcDbEntity
  8
HEWI
  6
Continuous
370
    18
100
AcDbLine
 10
82.40876105808638
 20
300.3819487170285
 30
0.0
 11
82.40876105808638
 21
297.8819487170285
 31
0.0
  0
LINE
  5
4184
330
1F
100
AcDbEntity
  8
HEWI
  6
Continuous
370
    18
100
AcDbLine
 10
252.4087610580864
 20
70.38194871702853
 30
0.0
 11
252.4087610580864
 21
297.8819487170285
 31
0.0
  0
LINE
  5
4185
330
1F
100
AcDbEntity
  8
HEWI
  6
Continuous
370
    18
100
AcDbLine
 10
82.40876105808638
 20
297.8819487170285
 30
0.0
 11
82.40876105808638
 21
70.38194871702853
 31
0.0
  0
LINE
  5
4186
330
1F
100
AcDbEntity
  8
HEWI
  6
Continuous
370
    18
100
AcDbLine
 10
127.4087610580864
 20
86.71319348179077
 30
0.0
 11
207.4087610580864
 21
86.71319348179077
 31
0.0
  0
LINE
  5
4187
330
1F
100
AcDbEntity
  8
HEWI
  6
Continuous
370
    18
100
AcDbLine
 10
252.4087610580864
 20
65.38194871702853
 30
0.0
 11
252.4087610580864
 21
70.38194871702853
 31
0.0
  0
LINE
  5
4188
330
1F
100
AcDbEntity
  8
HEWI
  6
Continuous
370
    18
100
AcDbLine
 10
82.40876105808638
 20
70.38194871702853
 30
0.0
 11
82.40876105808638
 21
65.38194871702853
 31
0.0
  0
LINE
  5
4189
330
1F
100
AcDbEntity
  8
HEWI
  6
Continuous
370
    18
100
AcDbLine
 10
402.4107769029178
 20
300.3819487170285
 30
0.0
 11
567.8393166136411
 21
300.3819487170285
 31
0.0
  0
LINE
  5
418A
330
1F
100
AcDbEntity
  8
HEWI
  6
Continuous
370
    18
100
AcDbLine
 10
557.2975509886418
 20
92.38194871702853
 30
0.0
 11
559.3393166136411
 21
92.38194871702853
 31
0.0
  0
LINE
  5
418B
330
1F
100
AcDbEntity
  8
HEWI
  6
Continuous
370
    18
100
AcDbLine
 10
557.2973584895844
 20
93.38194871702853
 30
0.0
 11
559.3393166136411
 21
93.38194871702853
 31
0.0
  0
LINE
  5
418C
330
1F
100
AcDbEntity
  8
HEWI
  6
Continuous
370
    18
100
AcDbLine
 10
557.8379984554885
 20
70.38194871702853
 30
0.0
 11
557.8393166136411
 21
70.38194871702853
 31
0.0
  0
LINE
  5
418D
330
1F
100
AcDbEntity
  8
HEWI
  6
Continuous
370
    18
100
AcDbLine
 10
126.4087610580864
 20
93.38194871702853
 30
0.0
 11
126.9087610580864
 21
93.38194871702853
 31
0.0
  0
LINE
  5
418E
330
1F
100
AcDbEntity
  8
HEWI
  6
Continuous
370
    18
100
AcDbLine
 10
207.9087610580864
 20
93.38194871702853
 30
0.0
 11
208.4087610580864
 21
93.38194871702853
 31
0.0
  0
LINE
  5
418F
330
1F
100
AcDbEntity
  8
HEWI
  6
Continuous
370
    18
100
AcDbLine
 10
82.40876105808638
 20
297.8819487170285
 30
0.0
 11
167.4087610580864
 21
297.8819487170285
 31
0.0
  0
LINE
  5
4190
330
1F
100
AcDbEntity
  8
HEWI
  6
Continuous
370
    18
100
AcDbLine
 10
207.4087610580864
 20
70.38194871702853
 30
0.0
 11
207.4112325065544
 21
70.38194871702853
 31
0.0
  0
LINE
  5
4191
330
1F
100
AcDbEntity
  8
HEWI
  6
Continuous
370
    18
100
AcDbLine
 10
127.4062896096184
 20
70.38194871702853
 30
0.0
 11
127.4087610580864
 21
70.38194871702853
 31
0.0
  0
LINE
  5
4192
330
1F
100
AcDbEntity
  8
HEWI
  6
Continuous
370
    18
100
AcDbLine
 10
573.8393166136411
 20
95.38194871702854
 30
0.0
 11
573.8393166136411
 21
95.88194871702853
 31
0.0
  0
LINE
  5
4193
330
1F
100
AcDbEntity
  8
HEWI
  6
Continuous
370
    18
100
AcDbLine
 10
157.4087610580864
 20
95.38194871702854
 30
0.0
 11
157.4087610580864
 21
95.88194871702853
 31
0.0
  0
LINE
  5
4194
330
1F
100
AcDbEntity
  8
HEWI
  6
Continuous
370
    18
100
AcDbLine
 10
177.4087610580864
 20
95.38194871702854
 30
0.0
 11
177.4087610580864
 21
95.88194871702853
 31
0.0
  0
ARC
  5
4195
330
1F
100
AcDbEntity
  8
HEWI
  6
Continuous
370
    18
100
AcDbCircle
 10
393.8393166136411
 20
300.3819487170285
 30
0.0
 40
20.0
100
AcDbArc
 50
90.0
 51
180.0
  0
ARC
  5
4196
330
1F
100
AcDbEntity
  8
HEWI
  6
Continuous
370
    18
100
AcDbCircle
 10
393.8393166136411
 20
300.3819487170285
 30
0.0
 40
17.0
100
AcDbArc
 50
90.0
 51
180.0
  0
ARC
  5
4197
330
1F
100
AcDbEntity
  8
HEWI
  6
Continuous
370
    18
100
AcDbCircle
 10
602.3393166136411
 20
93.38194871702853
 30
0.0
 40
2.0
100
AcDbArc
 50
0.0
 51
90.0
  0
ARC
  5
4198
330
1F
100
AcDbEntity
  8
HEWI
  6
Continuous
370
    18
100
AcDbCircle
 10
391.8393166136411
 20
231.3819487170285
 30
0.0
 40
8.0
100
AcDbArc
 50
90.0
 51
157.9756871629785
  0
ARC
  5
4199
330
1F
100
AcDbEntity
  8
HEWI
  6
Continuous
370
    18
100
AcDbCircle
 10
391.8393166136411
 20
257.3819487170285
 30
0.0
 40
18.0
100
AcDbArc
 50
180.0
 51
270.0
  0
ARC
  5
419A
330
1F
100
AcDbEntity
  8
HEWI
  6
Continuous
370
    18
100
AcDbCircle
 10
375.8393166136411
 20
297.3819487170285
 30
0.0
 40
2.0
100
AcDbArc
 50
90.0
 51
180.0
  0
ARC
  5
419B
330
1F
100
AcDbEntity
  8
HEWI
  6
Continuous
370
    18
100
AcDbCircle
 10
593.339316613641
 20
95.88194871702853
 30
0.0
 40
0.5
100
AcDbArc
 50
0.0
 51
90.0
  0
ARC
  5
419C
330
1F
100
AcDbEntity
  8
HEWI
  6
Continuous
370
    18
100
AcDbCircle
 10
574.0884057003604
 20
91.71319348179077
 30
0.0
 40
5.0
100
AcDbArc
 50
220.0000000001411
 51
267.1444673394233
  0
ARC
  5
419D
330
1F
100
AcDbEntity
  8
HEWI
  6
Continuous
370
    18
100
AcDbCircle
 10
564.8393166136411
 20
327.3819487170285
 30
0.0
 40
3.0
100
AcDbArc
 50
0.0
 51
90.0
  0
ARC
  5
419E
330
1F
100
AcDbEntity
  8
HEWI
  6
Continuous
370
    18
100
AcDbCircle
 10
400.8393166136411
 20
327.3819487170285
 30
0.0
 40
3.0
100
AcDbArc
 50
90.0
 51
180.0
  0
ARC
  5
419F
330
1F
100
AcDbEntity
  8
HEWI
  6
Continuous
370
    18
100
AcDbCircle
 10
128.9087610580864
 20
93.38194871702853
 30
0.0
 40
2.0
100
AcDbArc
 50
90.0
 51
180.0
  0
ARC
  5
41A0
330
1F
100
AcDbEntity
  8
HEWI
  6
Continuous
370
    18
100
AcDbCircle
 10
205.9087610580864
 20
93.38194871702853
 30
0.0
 40
2.0
100
AcDbArc
 50
0.0
 51
90.0
  0
ARC
  5
41A1
330
1F
100
AcDbEntity
  8
HEWI
  6
Continuous
370
    18
100
AcDbCircle
 10
160.0974957787075
 20
280.3819487170285
 30
0.0
 40
0.5
100
AcDbArc
 50
180.0
 51
270.0
  0
ARC
  5
41A2
330
1F
100
AcDbEntity
  8
HEWI
  6
Continuous
370
    18
100
AcDbCircle
 10
175.0974957787075
 20
280.3819487170285
 30
0.0
 40
0.5
100
AcDbArc
 50
270.0
 51
0.0
  0
ARC
  5
41A3
330
1F
100
AcDbEntity
  8
HEWI
  6
Continuous
370
    18
100
AcDbCircle
 10
175.0974957787075
 20
287.3819487170285
 30
0.0
 40
0.5
100
AcDbArc
 50
0.0
 51
90.0
  0
ARC
  5
41A4
330
1F
100
AcDbEntity
  8
HEWI
  6
Continuous
370
    18
100
AcDbCircle
 10
160.0974957787075
 20
287.3819487170285
 30
0.0
 40
0.5
100
AcDbArc
 50
90.0
 51
180.0
  0
ARC
  5
41A5
330
1F
100
AcDbEntity
  8
HEWI
  6
Continuous
370
    18
100
AcDbCircle
 10
137.9087610580864
 20
95.88194871702853
 30
0.0
 40
0.5
100
AcDbArc
 50
90.0
 51
180.0
  0
ARC
  5
41A6
330
1F
100
AcDbEntity
  8
HEWI
  6
Continuous
370
    18
100
AcDbCircle
 10
196.9087610580864
 20
95.88194871702853
 30
0.0
 40
0.5
100
AcDbArc
 50
0.0
 51
90.0
  0
ARC
  5
41A7
330
1F
100
AcDbEntity
  8
HEWI
  6
Continuous
370
    18
100
AcDbCircle
 10
249.4087610580864
 20
327.3819487170285
 30
0.0
 40
3.0
100
AcDbArc
 50
0.0
 51
90.0
  0
ARC
  5
41A8
330
1F
100
AcDbEntity
  8
HEWI
  6
Continuous
370
    18
100
AcDbCircle
 10
85.40876105808639
 20
327.3819487170285
 30
0.0
 40
3.0
100
AcDbArc
 50
90.0
 51
180.0
  0
ELLIPSE
  5
41A9
330
1F
100
AcDbEntity
  8
HEWI
  6
Continuous
370
    18
100
AcDbEllipse
 10
560.196459470786
 20
93.38194871702853
 30
0.0
 11
0.0000000000000023
 21
2.000000000000515
 31
0.0
210
0.0
220
0.0
230
1.0
 40
0.4285714285714178
 41
0.0
 42
1.570796326794896
  0
ELLIPSE
  5
41AA
330
1F
100
AcDbEntity
  8
HEWI
  6
Continuous
370
    18
100
AcDbEllipse
 10
177.4087610580864
 20
86.59213929577436
 30
0.0
 11
29.99999999999936
 21
0.0
 31
0.0
210
0.0
220
0.0
230
1.0
 40
0.1763269807084648
 41
0.0372529484001318
 42
1.570796326794896
  0
ELLIPSE
  5
41AB
330
1F
100
AcDbEntity
  8
HEWI
  6
Continuous
370
    18
100
AcDbEllipse
 10
157.4087610580864
 20
86.59213929577436
 30
0.0
 11
29.99999999999945
 21
0.0
 31
0.0
210
0.0
220
0.0
230
1.0
 40
0.1763269807084646
 41
1.570796326794896
 42
3.104339705189659
  0
ELLIPSE
  5
41AC
330
1F
100
AcDbEntity
  8
HEWI
  6
Continuous
370
    18
100
AcDbEllipse
 10
167.4087610580864
 20
91.78819871702854
 30
0.0
 11
85.50000000000151
 21
0.0
 31
0.0
210
0.0
220
0.0
230
1.0
 40
0.2187500000000043
 41
4.225547977832901
 42
5.199229982936476
  0
ELLIPSE
  5
41AD
330
1F
100
AcDbEntity
  8
HEWI
  6
Continuous
370
    18
100
AcDbEllipse
 10
177.4087610580864
 20
74.94444871702853
 30
0.0
 11
30.00000000000019
 21
0.0
 31
0.0
210
0.0
220
0.0
230
1.0
 40
0.2187500000000002
 41
4.712388980384689
 42
6.283185307179586
  0
ELLIPSE
  5
41AE
330
1F
100
AcDbEntity
  8
HEWI
  6
Continuous
370
    18
100
AcDbEllipse
 10
157.4087610580864
 20
74.94444871702853
 30
0.0
 11
29.99999999999961
 21
0.0
 31
0.0
210
0.0
220
0.0
230
1.0
 40
0.21875
 41
3.141592653589793
 42
4.712388980384689
  0
SPLINE
  5
41AF
330
1F
100
AcDbEntity
  8
HEWI
  6
Continuous
370
    18
100
AcDbSpline
210
0.0
220
0.0
230
1.0
 70
     8
 71
     3
 72
    46
 73
    42
 74
     0
 42
0.000000001
 43
0.0000000001
 40
0.0
 40
0.0
 40
0.0
 40
0.0
 40
0.0625000000000185
 40
0.0625000000000185
 40
0.125000000000037
 40
0.1875000000000555
 40
0.1875000000000555
 40
0.2187500000000638
 40
0.2187500000000638
 40
0.234375000000067
 40
0.234375000000067
 40
0.2500000000000702
 40
0.3125000000000722
 40
0.3750000000000742
 40
0.3750000000000742
 40
0.4375000000000762
 40
0.4375000000000762
 40
0.4531250000000759
 40
0.4531250000000759
 40
0.4687500000000756
 40
0.4687500000000756
 40
0.500000000000075
 40
0.500000000000075
 40
0.5625000000000709
 40
0.6250000000000667
 40
0.6250000000000667
 40
0.6562500000000639
 40
0.6718750000000623
 40
0.6718750000000623
 40
0.6875000000000609
 40
0.6875000000000609
 40
0.7500000000000501
 40
0.8125000000000394
 40
0.8125000000000394
 40
0.8750000000000287
 40
0.8750000000000287
 40
0.906250000000022
 40
0.906250000000022
 40
0.9375000000000154
 40
0.9375000000000154
 40
1.0
 40
1.0
 40
1.0
 40
1.0
 10
401.4467493854208
 20
320.3819487170286
 30
0.0
 10
401.476005559507
 20
320.3819487170286
 30
0.0
 10
401.505205242447
 20
320.3772373057063
 30
0.0
 10
401.5634920013871
 20
320.3587249928123
 30
0.0
 10
401.6216660772297
 20
320.3311210925176
 30
0.0
 10
401.679591153621
 20
320.2854760897235
 30
0.0
 10
401.7229232231147
 20
320.2443390505405
 30
0.0
 10
401.7373485221069
 20
320.2294741561955
 30
0.0
 10
401.758955088113
 20
320.2054114586472
 30
0.0
 10
401.7661610874311
 20
320.1970849441959
 30
0.0
 10
401.7804966894727
 20
320.1799151361074
 30
0.0
 10
401.8161643313105
 20
320.1356782522462
 30
0.0
 10
401.8788327985421
 20
320.0443912805358
 30
0.0
 10
401.932321315533
 20
319.9469498716216
 30
0.0
 10
401.9846458298307
 20
319.8412680753545
 30
0.0
 10
402.0102263217595
 20
319.7843080176381
 30
0.0
 10
402.0414139982058
 20
319.707746823854
 30
0.0
 10
402.0476120236671
 20
319.6921658709953
 30
0.0
 10
402.0599270594503
 20
319.6604584730712
 30
0.0
 10
402.0660349266726
 20
319.6443545536104
 30
0.0
 10
402.0841362539031
 20
319.5954866492584
 30
0.0
 10
402.0959364914561
 20
319.5620928939925
 30
0.0
 10
402.1305350903239
 20
319.4594952573252
 30
0.0
 10
402.1745312297388
 20
319.316265955048
 30
0.0
 10
402.214162527216
 20
319.1601981074846
 30
0.0
 10
402.242165183412
 20
319.0381990364886
 30
0.0
 10
402.2557355288336
 20
318.9759601855194
 30
0.0
 10
402.2686358762694
 20
318.9118149926826
 30
0.0
 10
402.2770839996264
 20
318.8686209229027
 30
0.0
 10
402.2812373532542
 20
318.846778673259
 30
0.0
 10
402.3015050982539
 20
318.737080753318
 30
0.0
 10
402.330874465053
 20
318.5578578281848
 30
0.0
 10
402.3541673974578
 20
318.3713764542054
 30
0.0
 10
402.3743599317058
 20
318.1812342029198
 30
0.0
 10
402.3829063868434
 20
318.0843330592843
 30
0.0
 10
402.3932886054353
 20
317.9361277529142
 30
0.0
 10
402.396347656384
 20
317.8861301460338
 30
0.0
 10
402.401585200434
 20
317.7859555648674
 30
0.0
 10
402.4037684257455
 20
317.7357455005668
 30
0.0
 10
402.4090145548653
 20
317.5847486256034
 30
0.0
 10
402.4107769029178
 20
317.4835960741193
 30
0.0
 10
402.4107769029178
 20
317.3819487170285
 30
0.0
  0
SPLINE
  5
41B0
330
1F
100
AcDbEntity
  8
HEWI
  6
Continuous
370
    18
100
AcDbSpline
210
0.0
220
0.0
230
1.0
 70
     8
 71
     3
 72
    29
 73
    25
 74
     0
 42
0.000000001
 43
0.0000000001
 40
0.0
 40
0.0
 40
0.0
 40
0.0
 40
0.1250000000000866
 40
0.1250000000000866
 40
0.1875000000001403
 40
0.1875000000001403
 40
0.2500000000001939
 40
0.2500000000001939
 40
0.3750000000002652
 40
0.3750000000002652
 40
0.4375000000003029
 40
0.4375000000003029
 40
0.5000000000003406
 40
0.5000000000003406
 40
0.6250000000003433
 40
0.6250000000003433
 40
0.6875000000003033
 40
0.6875000000003033
 40
0.7500000000002631
 40
0.8125000000002231
 40
0.8125000000002231
 40
0.8750000000001831
 40
0.8750000000001831
 40
1.0
 40
1.0
 40
1.0
 40
1.0
 10
567.524294030034
 20
279.8819487170285
 30
0.0
 10
567.5214488176098
 20
279.8819487170285
 30
0.0
 10
567.5186316160725
 20
279.8851750390104
 30
0.0
 10
567.5144476891837
 20
279.8946565339693
 30
0.0
 10
567.5130601074524
 20
279.8985964289923
 30
0.0
 10
567.5103000403214
 20
279.9080703637183
 30
0.0
 10
567.5089231850688
 20
279.9136331009167
 30
0.0
 10
567.5049046377134
 20
279.9323835332916
 30
0.0
 10
567.5023465068989
 20
279.9476854323193
 30
0.0
 10
567.4986958991467
 20
279.9748039633332
 30
0.0
 10
567.4975073900022
 20
279.9845697953015
 30
0.0
 10
567.495209677585
 20
280.0054386030088
 30
0.0
 10
567.4941132285858
 20
280.0164203229769
 30
0.0
 10
567.4909782380892
 20
280.0509560307974
 30
0.0
 10
567.489092576292
 20
280.0760855210892
 30
0.0
 10
567.4865860890677
 20
280.1170130908968
 30
0.0
 10
567.4858047835551
 20
280.1312184879835
 30
0.0
 10
567.4843868404168
 20
280.1600912885178
 30
0.0
 10
567.4831035965726
 20
280.1895766984535
 30
0.0
 10
567.4820876406993
 20
280.2202680608889
 30
0.0
 10
567.4812079582298
 20
280.2515702581541
 30
0.0
 10
567.4808351439751
 20
280.2675904219313
 30
0.0
 10
567.4799390066
 20
280.3161430159043
 30
0.0
 10
567.4796387700225
 20
280.3488669471217
 30
0.0
 10
567.4796387700225
 20
280.3819487170285
 30
0.0
  0
SPLINE
  5
41B1
330
1F
100
AcDbEntity
  8
HEWI
  6
Continuous
370
    18
100
AcDbSpline
210
0.0
220
0.0
230
1.0
 70
     8
 71
     3
 72
    30
 73
    26
 74
     0
 42
0.000000001
 43
0.0000000001
 40
0.0
 40
0.0
 40
0.0
 40
0.0
 40
0.1250000000000182
 40
0.1250000000000182
 40
0.1874999999999752
 40
0.1874999999999752
 40
0.2499999999999321
 40
0.2499999999999321
 40
0.3749999999999436
 40
0.3749999999999436
 40
0.4374999999999054
 40
0.4374999999999054
 40
0.4999999999998672
 40
0.4999999999998672
 40
0.6249999999998646
 40
0.6249999999998646
 40
0.6562499999998775
 40
0.6562499999998775
 40
0.6874999999998903
 40
0.7499999999999132
 40
0.812499999999936
 40
0.812499999999936
 40
0.8749999999999589
 40
0.8749999999999589
 40
1.0
 40
1.0
 40
1.0
 40
1.0
 10
567.4796387700225
 20
287.3819487170285
 30
0.0
 10
567.4796387700225
 20
287.4150281817865
 30
0.0
 10
567.4799389193613
 20
287.4475512315103
 30
0.0
 10
567.4808191264346
 20
287.4955357307017
 30
0.0
 10
567.4811846971388
 20
287.511396223209
 30
0.0
 10
567.4820627785993
 20
287.542842441896
 30
0.0
 10
567.4825775898098
 20
287.5584651038053
 30
0.0
 10
567.4843091309558
 20
287.6038973260302
 30
0.0
 10
567.4857188984788
 20
287.6326216324387
 30
0.0
 10
567.4882060378404
 20
287.6733852169791
 30
0.0
 10
567.4891014887653
 20
287.6866343747997
 30
0.0
 10
567.491003000734
 20
287.7120856572828
 30
0.0
 10
567.4920014457129
 20
287.724197076951
 30
0.0
 10
567.4951333096723
 20
287.7587464003164
 30
0.0
 10
567.4974019826586
 20
287.7794162463133
 30
0.0
 10
567.5004622472515
 20
287.8022300951097
 30
0.0
 10
567.5010871738013
 20
287.8066498938961
 30
0.0
 10
567.502347197038
 20
287.8150939247216
 30
0.0
 10
567.504255523203
 20
287.8271919136068
 30
0.0
 10
567.5075244686341
 20
287.8445742167378
 30
0.0
 10
567.5102304109059
 20
287.8555578104415
 30
0.0
 10
567.5129815031141
 20
287.8650598651812
 30
0.0
 10
567.5143860993229
 20
287.8690832068669
 30
0.0
 10
567.5186160379853
 20
287.8787224553644
 30
0.0
 10
567.5214490189937
 20
287.8819487170285
 30
0.0
 10
567.524294030034
 20
287.8819487170285
 30
0.0
  0
SPLINE
  5
41B2
330
1F
100
AcDbEntity
  8
HEWI
  6
Continuous
370
    18
100
AcDbSpline
210
0.0
220
0.0
230
1.0
 70
     8
 71
     3
 72
    29
 73
    25
 74
     0
 42
0.000000001
 43
0.0000000001
 40
0.0
 40
0.0
 40
0.0
 40
0.0
 40
0.1249999999999011
 40
0.1249999999999011
 40
0.1874999999998413
 40
0.1874999999998413
 40
0.2499999999997815
 40
0.2499999999997815
 40
0.3749999999996694
 40
0.3749999999996694
 40
0.4374999999996459
 40
0.4374999999996459
 40
0.4999999999996225
 40
0.4999999999996225
 40
0.624999999999648
 40
0.624999999999648
 40
0.6874999999997069
 40
0.6874999999997069
 40
0.7499999999997656
 40
0.8124999999998243
 40
0.8124999999998243
 40
0.8749999999998831
 40
0.8749999999998831
 40
1.0
 40
1.0
 40
1.0
 40
1.0
 10
568.0261430600767
 20
279.8819487170285
 30
0.0
 10
568.0233145511411
 20
279.8819487170285
 30
0.0
 10
568.0205138915589
 20
279.8851751703324
 30
0.0
 10
568.0163545360665
 20
279.894657045631
 30
0.0
 10
568.0149751040844
 20
279.8985970984422
 30
0.0
 10
568.0122312493658
 20
279.9080714136753
 30
0.0
 10
568.0108624879976
 20
279.9136343552973
 30
0.0
 10
568.0068675796611
 20
279.9323853905871
 30
0.0
 10
568.0043245042216
 20
279.9476877479801
 30
0.0
 10
568.0006953922165
 20
279.9748070321684
 30
0.0
 10
567.9995138722042
 20
279.9845732303047
 30
0.0
 10
567.9972297272143
 20
280.0054423011015
 30
0.0
 10
567.9961397536935
 20
280.0164241451467
 30
0.0
 10
567.9930232817532
 20
280.0509602030061
 30
0.0
 10
567.9911487638346
 20
280.0760898974486
 30
0.0
 10
567.9886570978451
 20
280.1170177238118
 30
0.0
 10
567.9878804271175
 20
280.1312229651439
 30
0.0
 10
567.98647089519
 20
280.1600954042542
 30
0.0
 10
567.9851952624049
 20
280.1895804496571
 30
0.0
 10
567.9841853336292
 20
280.2202714303394
 30
0.0
 10
567.9833108699859
 20
280.2515732485799
 30
0.0
 10
567.9829402666327
 20
280.2675933145811
 30
0.0
 10
567.9820494604682
 20
280.3161446412842
 30
0.0
 10
567.9817510088069
 20
280.3488677480554
 30
0.0
 10
567.9817510088069
 20
280.3819487170285
 30
0.0
  0
SPLINE
  5
41B3
330
1F
100
AcDbEntity
  8
HEWI
  6
Continuous
370
    18
100
AcDbSpline
210
0.0
220
0.0
230
1.0
 70
     8
 71
     3
 72
    30
 73
    26
 74
     0
 42
0.000000001
 43
0.0000000001
 40
0.0
 40
0.0
 40
0.0
 40
0.0
 40
0.1250000000000057
 40
0.1250000000000057
 40
0.1875000000000086
 40
0.1875000000000086
 40
0.2500000000000115
 40
0.2500000000000115
 40
0.3750000000000171
 40
0.3750000000000171
 40
0.4374999999999751
 40
0.4374999999999751
 40
0.4999999999999331
 40
0.4999999999999331
 40
0.6249999999999262
 40
0.6249999999999262
 40
0.6562499999999099
 40
0.6562499999999099
 40
0.6874999999998935
 40
0.7499999999999149
 40
0.8124999999999362
 40
0.8124999999999362
 40
0.8749999999999573
 40
0.8749999999999573
 40
1.0
 40
1.0
 40
1.0
 40
1.0
 10
567.9817510088069
 20
287.3819487170285
 30
0.0
 10
567.9817510088069
 20
287.4150274081831
 30
0.0
 10
567.9820493742481
 20
287.4475497437133
 30
0.0
 10
567.9829243525273
 20
287.4955332522559
 30
0.0
 10
567.9832877517874
 20
287.5113934281353
 30
0.0
 10
567.9841606181034
 20
287.5428390410079
 30
0.0
 10
567.9846723742339
 20
287.5584614910613
 30
0.0
 10
567.9863936480142
 20
287.6038932528309
 30
0.0
 10
567.9877950607005
 20
287.6326173527568
 30
0.0
 10
567.9902674687873
 20
287.6733807591763
 30
0.0
 10
567.9911576101185
 20
287.6866297901461
 30
0.0
 10
567.9930478910501
 20
287.7120813866304
 30
0.0
 10
567.9940404404296
 20
287.7241929647926
 30
0.0
 10
567.9971538157952
 20
287.7587427680182
 30
0.0
 10
567.999409101485
 20
287.7794129396016
 30
0.0
 10
568.0024513139324
 20
287.802227203777
 30
0.0
 10
568.0030725586512
 20
287.8066471186476
 30
0.0
 10
568.0043251725619
 20
287.8150914584812
 30
0.0
 10
568.0062222772212
 20
287.8271898828634
 30
0.0
 10
568.0094720001252
 20
287.8445727858862
 30
0.0
 10
568.012162029543
 20
287.8555567479661
 30
0.0
 10
568.0148969425754
 20
287.8650591241867
 30
0.0
 10
568.0162932752319
 20
287.8690826040574
 30
0.0
 10
568.0204983940456
 20
287.878722318811
 30
0.0
 10
568.0233147490253
 20
287.8819487170285
 30
0.0
 10
568.0261430600767
 20
287.8819487170285
 30
0.0
  0
SPLINE
  5
41B4
330
1F
100
AcDbEntity
  8
HEWI
  6
Continuous
370
    18
100
AcDbSpline
210
0.0
220
0.0
230
1.0
 70
     8
 71
     3
 72
    25
 73
    21
 74
     0
 42
0.000000001
 43
0.0000000001
 40
0.0
 40
0.0
 40
0.0
 40
0.0
 40
0.2500000000000211
 40
0.2500000000000211
 40
0.375000000000044
 40
0.375000000000044
 40
0.437500000000055
 40
0.437500000000055
 40
0.4687500000000606
 40
0.4687500000000606
 40
0.5000000000000661
 40
0.6250000000000552
 40
0.6250000000000552
 40
0.7500000000000444
 40
0.7500000000000444
 40
0.8750000000000333
 40
0.8750000000000333
 40
0.9375000000000166
 40
0.9375000000000166
 40
1.0
 40
1.0
 40
1.0
 40
1.0
 10
384.4231181265459
 20
234.3819487170285
 30
0.0
 10
384.3194096670377
 20
234.125574543531
 30
0.0
 10
384.2304801832688
 20
233.8675861134007
 30
0.0
 10
384.1178520106514
 20
233.4788942712557
 30
0.0
 10
384.0837774993233
 20
233.349045978076
 30
0.0
 10
384.0377474322195
 20
233.1539484220384
 30
0.0
 10
384.0232513527335
 20
233.0888618448453
 30
0.0
 10
384.00276571824
 20
232.9911650514286
 30
0.0
 10
383.9961394307284
 20
232.9585484422068
 30
0.0
 10
383.9833652113193
 20
232.8936109082488
 30
0.0
 10
383.9525982559244
 20
232.7318852962717
 30
0.0
 10
383.9275091489362
 20
232.5732451583653
 30
0.0
 10
383.8939088881561
 20
232.3234266219197
 30
0.0
 10
383.8803810809295
 20
232.2005200202048
 30
0.0
 10
383.8592222507541
 20
231.9588436395979
 30
0.0
 10
383.8515922288025
 20
231.8400734377856
 30
0.0
 10
383.844119061705
 20
231.6651816291824
 30
0.0
 10
383.8422896363227
 20
231.6073505285067
 30
0.0
 10
383.8398903531743
 20
231.4934204889732
 30
0.0
 10
383.8393166136411
 20
231.4372742320038
 30
0.0
 10
383.8393166136411
 20
231.3819487170285
 30
0.0
  0
SPLINE
  5
41B5
330
1F
100
AcDbEntity
  8
HEWI
  6
Continuous
370
    18
100
AcDbSpline
210
0.0
220
0.0
230
1.0
 70
     8
 71
     3
 72
    30
 73
    26
 74
     0
 42
0.000000001
 43
0.0000000001
 40
0.0
 40
0.0
 40
0.0
 40
0.0
 40
0.12500000000001
 40
0.12500000000001
 40
0.1875000000000172
 40
0.1875000000000172
 40
0.2500000000000244
 40
0.2500000000000244
 40
0.3750000000000305
 40
0.3750000000000305
 40
0.406250000000032
 40
0.406250000000032
 40
0.4375000000000335
 40
0.5000000000000365
 40
0.5625000000000396
 40
0.5625000000000396
 40
0.6250000000000426
 40
0.6250000000000426
 40
0.7500000000000321
 40
0.7500000000000321
 40
0.8125000000000246
 40
0.8125000000000246
 40
0.8750000000000172
 40
0.8750000000000172
 40
1.0
 40
1.0
 40
1.0
 40
1.0
 10
563.8393166136411
 20
95.88194871702853
 30
0.0
 10
563.8393166136411
 20
95.91632855306944
 30
0.0
 10
563.8407701108335
 20
95.95005000889887
 30
0.0
 10
563.8450188378228
 20
95.9996942878779
 30
0.0
 10
563.8467825948282
 20
96.01608479061088
 30
0.0
 10
563.8510189727348
 20
96.04854394498488
 30
0.0
 10
563.8534720912757
 20
96.06444187739271
 30
0.0
 10
563.8617089263316
 20
96.11064789119428
 30
0.0
 10
563.8683918208226
 20
96.13971657754428
 30
0.0
 10
563.8781972276738
 20
96.17392800146536
 30
0.0
 10
563.880235544424
 20
96.18067392091052
 30
0.0
 10
563.8844150984914
 20
96.19381192421769
 30
0.0
 10
563.8908520613949
 20
96.21303699134386
 30
0.0
 10
563.9023917863268
 20
96.24274157118907
 30
0.0
 10
563.9124580788666
 20
96.26409262809557
 30
0.0
 10
563.92293868653
 20
96.28424144045949
 30
0.0
 10
563.9284031962851
 20
96.29373297925212
 30
0.0
 10
563.9450963276649
 20
96.31988500486023
 30
0.0
 10
563.9567119841049
 20
96.33444024851542
 30
0.0
 10
563.9748286170251
 20
96.35213222888433
 30
0.0
 10
563.9809989019958
 20
96.35734499807131
 30
0.0
 10
563.9935102441777
 20
96.36630547536789
 30
0.0
 10
563.9998009503942
 20
96.37002120175839
 30
0.0
 10
564.0187739986104
 20
96.37894478574253
 30
0.0
 10
564.0315562559881
 20
96.38194871702854
 30
0.0
 10
564.044473677317
 20
96.38194871702854
 30
0.0
  0
SPLINE
  5
41B6
330
1F
100
AcDbEntity
  8
HEWI
  6
Continuous
370
    18
100
AcDbSpline
210
0.0
220
0.0
230
1.0
 70
     8
 71
     3
 72
     9
 73
     5
 74
     0
 42
0.000000001
 43
0.0000000001
 40
0.0
 40
0.0
 40
0.0
 40
0.0
 40
0.5
 40
1.0
 40
1.0
 40
1.0
 40
1.0
 10
574.9566465886927
 20
86.78915471673008
 30
0.0
 10
574.7717976588574
 20
86.7565608630457
 30
0.0
 10
574.4007164523536
 20
86.71252583528348
 30
0.0
 10
574.0269128126201
 20
86.71004462164365
 30
0.0
 10
573.8393166136411
 20
86.71940187351628
 30
0.0
  0
SPLINE
  5
41B7
330
1F
100
AcDbEntity
  8
HEWI
  6
Continuous
370
    18
100
AcDbSpline
210
0.0
220
0.0
230
1.0
 70
     8
 71
     3
 72
     9
 73
     5
 74
     0
 42
0.000000001
 43
0.0000000001
 40
0.0
 40
0.0
 40
0.0
 40
0.0
 40
0.358549483090234
 40
1.0
 40
1.0
 40
1.0
 40
1.0
 10
207.4077376666283
 20
86.71318749201509
 30
0.0
 10
207.4068743194766
 20
86.71315954990223
 30
0.0
 10
207.4029477183322
 20
86.72223622060755
 30
0.0
 10
207.3948360878457
 20
86.7565608630457
 30
0.0
 10
207.3879467329352
 20
86.78915471673008
 30
0.0
  0
SPLINE
  5
41B8
330
1F
100
AcDbEntity
  8
HEWI
  6
Continuous
370
    18
100
AcDbSpline
210
0.0
220
0.0
230
1.0
 70
     8
 71
     3
 72
     9
 73
     5
 74
     0
 42
0.000000001
 43
0.0000000001
 40
0.0
 40
0.0
 40
0.0
 40
0.0
 40
0.6414490652225315
 40
1.0
 40
1.0
 40
1.0
 40
1.0
 10
127.4295753832448
 20
86.78915471673008
 30
0.0
 10
127.422686028327
 20
86.7565608630457
 30
0.0
 10
127.4145745059977
 20
86.72223621425564
 30
0.0
 10
127.4106478347203
 20
86.71315954027795
 30
0.0
 10
127.4097844666284
 20
86.71318751139461
 30
0.0
  0
ENDSEC
  0
SECTION
  2
OBJECTS
  0
DICTIONARY
  5
C
330
0
100
AcDbDictionary
281
     1
  3
ACAD_CIP_PREVIOUS_PRODUCT_INFO
350
615
  3
ACAD_COLOR
350
1EB
  3
ACAD_DETAILVIEWSTYLE
350
5EB
  3
ACAD_GROUP
350
D
  3
ACAD_LAYOUT
350
1EE
  3
ACAD_MATERIAL
350
1D6
  3
ACAD_MLEADERSTYLE
350
5E7
  3
ACAD_MLINESTYLE
350
17
  3
ACAD_PLOTSETTINGS
350
19
  3
ACAD_PLOTSTYLENAME
350
10D
  3
ACAD_SCALELIST
350
5D5
  3
ACAD_SECTIONVIEWSTYLE
350
5E9
  3
ACAD_TABLESTYLE
350
1EC
  3
ACAD_VISUALSTYLE
350
1DA
  3
ACDB_RECOMPOSE_DATA
350
41BA
  3
AcDbVariableDictionary
350
1F3
  0
DICTIONARY
  5
3E4
330
2
100
AcDbDictionary
280
     1
281
     1
  3
ACAD_LAYERSTATES
360
3E5
  0
DICTIONARY
  5
624
330
10
100
AcDbDictionary
280
     1
281
     1
  3
ADSK_XREC_LAYER_RECONCILED
360
625
  0
DICTIONARY
  5
626
330
3DD
100
AcDbDictionary
280
     1
281
     1
  3
ADSK_XREC_LAYER_RECONCILED
360
627
  0
DICTIONARY
  5
628
330
4D6
100
AcDbDictionary
280
     1
281
     1
  3
ADSK_XREC_LAYER_RECONCILED
360
629
  0
DICTIONARY
  5
62A
330
4D7
100
AcDbDictionary
280
     1
281
     1
  3
ADSK_XREC_LAYER_RECONCILED
360
62B
  0
DICTIONARY
  5
3EAA
330
3EA9
100
AcDbDictionary
280
     1
281
     1
  0
DICTIONARY
  5
107
330
1F
100
AcDbDictionary
280
     1
281
     1
  3
ACAD_LAYOUTSELFREF
360
1D3
  3
ACAD_SORTENTS
360
3BB
  0
DICTIONARY
  5
105
330
1B
100
AcDbDictionary
280
     1
281
     1
  3
ACAD_LAYOUTSELFREF
360
1D2
  0
XRECORD
  5
615
102
{ACAD_REACTORS
330
C
102
}
330
C
100
AcDbXrecord
280
     1
300
ACDLT
300
2016
300
ACDLT_F_S
  0
DICTIONARY
  5
1EB
102
{ACAD_REACTORS
330
C
102
}
330
C
100
AcDbDictionary
281
     1
  0
DICTIONARY
  5
5EB
102
{ACAD_REACTORS
330
C
102
}
330
C
100
AcDbDictionary
281
     1
  3
Imperial24
350
5EC
  3
Metric50
350
677
  0
DICTIONARY
  5
D
102
{ACAD_REACTORS
330
C
102
}
330
C
100
AcDbDictionary
281
     1
  0
DICTIONARY
  5
1EE
102
{ACAD_REACTORS
330
C
102
}
330
C
100
AcDbDictionary
281
     1
  3
Layout1
350
1F0
  3
Model
350
1EF
  0
DICTIONARY
  5
1D6
102
{ACAD_REACTORS
330
C
102
}
330
C
100
AcDbDictionary
281
     1
  3
ByBlock
350
1D8
  3
ByLayer
350
1D7
  3
Global
350
1D9
  0
DICTIONARY
  5
5E7
102
{ACAD_REACTORS
330
C
102
}
330
C
100
AcDbDictionary
281
     1
  3
Standard
350
5E8
  0
DICTIONARY
  5
17
102
{ACAD_REACTORS
330
C
102
}
330
C
100
AcDbDictionary
281
     1
  3
STANDARD
350
18
  0
DICTIONARY
  5
19
102
{ACAD_REACTORS
330
C
102
}
330
C
100
AcDbDictionary
281
     1
  0
ACDBDICTIONARYWDFLT
  5
10D
102
{ACAD_REACTORS
330
C
102
}
330
C
100
AcDbDictionary
281
     1
  3
Normal
350
10E
100
AcDbDictionaryWithDefault
340
10E
  0
DICTIONARY
  5
5D5
102
{ACAD_REACTORS
330
C
102
}
330
C
100
AcDbDictionary
281
     1
  3
A0
350
5D6
  3
A1
350
5D7
  3
A2
350
5D8
  3
A3
350
5D9
  3
A4
350
5DA
  3
A5
350
5DB
  3
A6
350
5DC
  3
A7
350
5DD
  3
A8
350
5DE
  3
A9
350
5DF
  3
B0
350
5E0
  3
B1
350
5E1
  3
B2
350
5E2
  3
B3
350
5E3
  3
B4
350
5E4
  3
B5
350
5E5
  3
B6
350
5E6
  0
DICTIONARY
  5
5E9
102
{ACAD_REACTORS
330
C
102
}
330
C
100
AcDbDictionary
281
     1
  3
Imperial24
350
5EA
  3
Metric50
350
676
  0
DICTIONARY
  5
1EC
102
{ACAD_REACTORS
330
C
102
}
330
C
100
AcDbDictionary
281
     1
  3
Standard
350
1ED
  0
DICTIONARY
  5
1DA
102
{ACAD_REACTORS
330
C
102
}
330
C
100
AcDbDictionary
281
     1
  3
2dWireframe
350
1E0
  3
3D Hidden
350
1E2
  3
3dWireframe
350
1E1
  3
Basic
350
1DF
  3
Brighten
350
1E6
  3
ColorChange
350
1EA
  3
Conceptual
350
1E3
  3
Dim
350
1E5
  3
EdgeColorOff
350
5D4
  3
Facepattern
350
1E9
  3
Flat
350
1DB
  3
FlatWithEdges
350
1DC
  3
Gouraud
350
1DD
  3
GouraudWithEdges
350
1DE
  3
Hidden
350
5CC
  3
JitterOff
350
5D2
  3
Linepattern
350
1E8
  3
OverhangOff
350
5D3
  3
Realistic
350
1E4
  3
Shaded
350
5D1
  3
Shaded with edges
350
5D0
  3
Shades of Gray
350
5CD
  3
Sketchy
350
5CE
  3
Thicken
350
1E7
  3
Wireframe
350
5CB
  3
X-Ray
350
5CF
  0
XRECORD
  5
41BA
102
{ACAD_REACTORS
330
C
102
}
330
C
100
AcDbXrecord
280
     1
 90
        1
330
1ED
  0
DICTIONARY
  5
1F3
102
{ACAD_REACTORS
330
C
102
}
330
C
100
AcDbDictionary
281
     1
  3
CANNOSCALE
350
630
  3
CMLEADERSTYLE
350
62C
  3
CTABLESTYLE
350
1F4
  3
CVIEWDETAILSTYLE
350
62D
  3
CVIEWSECTIONSTYLE
350
62E
  3
DIMASSOC
350
586
  3
INDEXCTL
350
585
  3
LAYEREVAL
350
632
  3
LAYERNOTIFY
350
633
  3
LIGHTINGUNITS
350
631
  3
MSLTSCALE
350
62F
  3
SORTENTS
350
584
  0
DICTIONARY
  5
3E5
102
{ACAD_REACTORS
330
3E4
102
}
330
3E4
100
AcDbDictionary
281
     1
  0
XRECORD
  5
625
102
{ACAD_REACTORS
330
624
102
}
330
624
100
AcDbXrecord
280
     1
290
     1
  0
XRECORD
  5
627
102
{ACAD_REACTORS
330
626
102
}
330
626
100
AcDbXrecord
280
     1
290
     1
  0
XRECORD
  5
629
102
{ACAD_REACTORS
330
628
102
}
330
628
100
AcDbXrecord
280
     1
290
     1
  0
XRECORD
  5
62B
102
{ACAD_REACTORS
330
62A
102
}
330
62A
100
AcDbXrecord
280
     1
290
     1
  0
XRECORD
  5
1D3
102
{ACAD_REACTORS
330
107
102
}
330
107
100
AcDbXrecord
280
     1
340
1F
  0
SORTENTSTABLE
  5
3BB
102
{ACAD_REACTORS
330
107
102
}
330
107
100
AcDbSortentsTable
330
1F
  0
XRECORD
  5
1D2
102
{ACAD_REACTORS
330
105
102
}
330
105
100
AcDbXrecord
280
     1
340
1B
  0
ACDBDETAILVIEWSTYLE
  5
5EC
102
{ACAD_XDICTIONARY
360
41F1
102
}
102
{ACAD_REACTORS
330
5EB
102
}
330
5EB
100
AcDbModelDocViewStyle
 70
     0
  3
Imperial24
290
     0
100
AcDbDetailViewStyle
 70
     0
 71
     0
 90
        3
 71
     1
340
11
 62
   256
 40
0.24
340
0
 62
   256
 40
0.24
300

 40
0.36
280
     3
 71
     2
340
16
 90
       25
 62
   256
 71
     3
340
11
 62
   256
 40
0.24
 90
        1
 40
0.75
 90
        1
300
%<\AcVar ViewType \f "%tc1">% %<\AcVar ViewDetailId>%\PVARIA %<\AcVar ViewScale \f "%sn">%
 71
     4
340
16
 90
       25
 62
   256
340
16
 90
       25
 62
   256
280
     0
  0
ACDBDETAILVIEWSTYLE
  5
677
102
{ACAD_XDICTIONARY
360
41F5
102
}
102
{ACAD_REACTORS
330
5EB
102
}
330
5EB
100
AcDbModelDocViewStyle
 70
     0
  3
Metric50
290
     0
100
AcDbDetailViewStyle
 70
     0
 71
     0
 90
        3
 71
     1
340
11
 62
   256
 40
5.0
340
0
 62
   256
 40
5.0
300

 40
0.0
280
     1
 71
     2
340
16
 90
       25
 62
   256
 71
     3
340
11
 62
   256
 40
5.0
 90
        0
 40
15.0
 90
        1
300
%<\AcVar ViewDetailId>% (%<\AcVar ViewScale \f "%sn">%)
 71
     4
340
16
 90
       25
 62
   256
340
16
 90
       25
 62
   256
280
     0
  0
LAYOUT
  5
1F0
102
{ACAD_REACTORS
330
1EE
102
}
330
1EE
100
AcDbPlotSettings
  1

  2
\\druckserv1\AROBBE04
  4

  6

 40
0.0
 41
0.0
 42
0.0
 43
0.0
 44
0.0
 45
0.0
 46
0.0
 47
0.0
 48
0.0
 49
0.0
140
0.0
141
0.0
142
1.0
143
1.0
 70
   688
 72
     0
 73
     0
 74
     5
  7

 75
    16
147
1.0
 76
     0
 77
     2
 78
   300
148
0.0
149
0.0
100
AcDbLayout
  1
Layout1
 70
     1
 71
     1
 10
0.0
 20
0.0
 11
12.0
 21
9.0
 12
0.0
 22
0.0
 32
0.0
 14
1.000000000000000E+20
 24
1.000000000000000E+20
 34
1.000000000000000E+20
 15
-1.000000000000000E+20
 25
-1.000000000000000E+20
 35
-1.000000000000000E+20
146
0.0
 13
0.0
 23
0.0
 33
0.0
 16
1.0
 26
0.0
 36
0.0
 17
0.0
 27
1.0
 37
0.0
 76
     0
330
1B
  0
LAYOUT
  5
1EF
102
{ACAD_REACTORS
330
1EE
102
}
330
1EE
100
AcDbPlotSettings
  1

  2
\\druckserv1\AROBBE04
  4

  6

 40
0.0
 41
0.0
 42
0.0
 43
0.0
 44
0.0
 45
0.0
 46
0.0
 47
0.0
 48
0.0
 49
0.0
140
0.0
141
0.0
142
1.0
143
1.0
 70
  1712
 72
     0
 73
     0
 74
     0
  7

 75
     0
147
1.0
 76
     0
 77
     2
 78
   300
148
0.0
149
0.0
100
AcDbLayout
  1
Model
 70
     1
 71
     0
 10
0.0
 20
0.0
 11
12.0
 21
9.0
 12
0.0
 22
0.0
 32
0.0
 14
0.0
 24
0.0
 34
0.0
 15
0.0
 25
0.0
 35
0.0
146
0.0
 13
0.0
 23
0.0
 33
0.0
 16
1.0
 26
0.0
 36
0.0
 17
0.0
 27
1.0
 37
0.0
 76
     0
330
1F
331
1B1
  0
MATERIAL
  5
1D8
102
{ACAD_XDICTIONARY
360
5BF
102
}
102
{ACAD_REACTORS
330
1D6
102
}
330
1D6
100
AcDbMaterial
  1
ByBlock
  0
MATERIAL
  5
1D7
102
{ACAD_XDICTIONARY
360
5BD
102
}
102
{ACAD_REACTORS
330
1D6
102
}
330
1D6
100
AcDbMaterial
  1
ByLayer
  0
MATERIAL
  5
1D9
102
{ACAD_XDICTIONARY
360
5C1
102
}
102
{ACAD_REACTORS
330
1D6
102
}
330
1D6
100
AcDbMaterial
  1
Global
  0
MLEADERSTYLE
  5
5E8
102
{ACAD_REACTORS
330
5E7
102
}
330
5E7
100
AcDbMLeaderStyle
179
     2
170
     2
171
     1
172
     0
 90
        2
 40
0.0
 41
0.0
173
     1
 91
-1056964608
340
14
 92
       -2
290
     1
 42
0.09
291
     1
 43
0.36
  3
Standard
 44
0.18
300

342
11
174
     1
178
     6
175
     1
176
     0
 93
-1056964608
 45
0.18
292
     0
297
     0
 46
0.18
 94
-1056964608
 47
1.0
 49
1.0
140
1.0
293
     1
141
0.0
294
     1
177
     0
142
1.0
295
     0
296
     0
143
0.125
271
     0
272
     9
273
     9
  0
MLINESTYLE
  5
18
102
{ACAD_REACTORS
330
17
102
}
330
17
100
AcDbMlineStyle
  2
STANDARD
 70
     0
  3

 62
   256
 51
90.0
 52
90.0
 71
     2
 49
0.5
 62
   256
  6
BYLAYER
 49
-0.5
 62
   256
  6
BYLAYER
  0
ACDBPLACEHOLDER
  5
10E
102
{ACAD_REACTORS
330
10D
102
}
330
10D
  0
SCALE
  5
5D6
102
{ACAD_REACTORS
330
5D5
102
}
330
5D5
100
AcDbScale
 70
     0
300
1:1
140
1.0
141
1.0
290
     1
  0
SCALE
  5
5D7
102
{ACAD_REACTORS
330
5D5
102
}
330
5D5
100
AcDbScale
 70
     0
300
1/128" = 1'-0"
140
0.0078125
141
12.0
290
     0
  0
SCALE
  5
5D8
102
{ACAD_REACTORS
330
5D5
102
}
330
5D5
100
AcDbScale
 70
     0
300
1/64" = 1'-0"
140
0.015625
141
12.0
290
     0
  0
SCALE
  5
5D9
102
{ACAD_REACTORS
330
5D5
102
}
330
5D5
100
AcDbScale
 70
     0
300
1/32" = 1'-0"
140
0.03125
141
12.0
290
     0
  0
SCALE
  5
5DA
102
{ACAD_REACTORS
330
5D5
102
}
330
5D5
100
AcDbScale
 70
     0
300
1/16" = 1'-0"
140
0.0625
141
12.0
290
     0
  0
SCALE
  5
5DB
102
{ACAD_REACTORS
330
5D5
102
}
330
5D5
100
AcDbScale
 70
     0
300
3/32" = 1'-0"
140
0.09375
141
12.0
290
     0
  0
SCALE
  5
5DC
102
{ACAD_REACTORS
330
5D5
102
}
330
5D5
100
AcDbScale
 70
     0
300
1/8" = 1'-0"
140
0.125
141
12.0
290
     0
  0
SCALE
  5
5DD
102
{ACAD_REACTORS
330
5D5
102
}
330
5D5
100
AcDbScale
 70
     0
300
3/16" = 1'-0"
140
0.1875
141
12.0
290
     0
  0
SCALE
  5
5DE
102
{ACAD_REACTORS
330
5D5
102
}
330
5D5
100
AcDbScale
 70
     0
300
1/4" = 1'-0"
140
0.25
141
12.0
290
     0
  0
SCALE
  5
5DF
102
{ACAD_REACTORS
330
5D5
102
}
330
5D5
100
AcDbScale
 70
     0
300
3/8" = 1'-0"
140
0.375
141
12.0
290
     0
  0
SCALE
  5
5E0
102
{ACAD_REACTORS
330
5D5
102
}
330
5D5
100
AcDbScale
 70
     0
300
1/2" = 1'-0"
140
0.5
141
12.0
290
     0
  0
SCALE
  5
5E1
102
{ACAD_REACTORS
330
5D5
102
}
330
5D5
100
AcDbScale
 70
     0
300
3/4" = 1'-0"
140
0.75
141
12.0
290
     0
  0
SCALE
  5
5E2
102
{ACAD_REACTORS
330
5D5
102
}
330
5D5
100
AcDbScale
 70
     0
300
1" = 1'-0"
140
1.0
141
12.0
290
     0
  0
SCALE
  5
5E3
102
{ACAD_REACTORS
330
5D5
102
}
330
5D5
100
AcDbScale
 70
     0
300
1-1/2" = 1'-0"
140
1.5
141
12.0
290
     0
  0
SCALE
  5
5E4
102
{ACAD_REACTORS
330
5D5
102
}
330
5D5
100
AcDbScale
 70
     0
300
3" = 1'-0"
140
3.0
141
12.0
290
     0
  0
SCALE
  5
5E5
102
{ACAD_REACTORS
330
5D5
102
}
330
5D5
100
AcDbScale
 70
     0
300
6" = 1'-0"
140
6.0
141
12.0
290
     0
  0
SCALE
  5
5E6
102
{ACAD_REACTORS
330
5D5
102
}
330
5D5
100
AcDbScale
 70
     0
300
1'-0" = 1'-0"
140
12.0
141
12.0
290
     0
  0
ACDBSECTIONVIEWSTYLE
  5
5EA
102
{ACAD_XDICTIONARY
360
41EF
102
}
102
{ACAD_REACTORS
330
5E9
102
}
330
5E9
100
AcDbModelDocViewStyle
 70
     0
  3
Imperial24
290
     0
100
AcDbSectionViewStyle
 70
     0
 71
     0
 90
       78
 71
     1
340
11
 62
   256
 40
0.24
340
0
340
0
 62
   256
 40
0.24
300
I, O, Q, S, X, Z
 40
0.48
 90
        3
 40
0.18
 90
        1
 71
     2
340
16
 90
       25
 62
   256
340
16
 90
       50
 62
   256
 40
0.24
 40
0.0
 40
0.24
 71
     3
340
11
 62
   256
 40
0.24
 90
        1
 40
0.75
 90
        1
300
%<\AcVar ViewType \f "%tc1">% %<\AcVar ViewSectionStartId>%-%<\AcVar ViewSectionEndId>%\PVARIA %<\AcVar ViewScale \f "%sn">%
 71
     4
 62
   256
 62
   257
300
ANSI31
 40
1.0
 90
        0
290
     0
290
     0
 90
        6
 40
0.0
 40
1.570796326794896
 40
0.2617993877991494
 40
1.308996938995747
 40
-0.2617993877991494
 40
1.832595714594044
  0
ACDBSECTIONVIEWSTYLE
  5
676
102
{ACAD_XDICTIONARY
360
41F3
102
}
102
{ACAD_REACTORS
330
5E9
102
}
330
5E9
100
AcDbModelDocViewStyle
 70
     0
  3
Metric50
290
     0
100
AcDbSectionViewStyle
 70
     0
 71
     0
 90
      102
 71
     1
340
11
 62
   256
 40
5.0
340
0
340
0
 62
   256
 40
5.0
300
I, O, Q, S, X, Z
 40
10.0
 90
        0
 40
2.5
 90
        0
 71
     2
340
16
 90
       25
 62
   256
340
16
 90
       50
 62
   256
 40
5.0
 40
2.5
 40
5.0
 71
     3
340
11
 62
   256
 40
5.0
 90
        0
 40
15.0
 90
        1
300
%<\AcVar ViewSectionStartId>%-%<\AcVar ViewSectionEndId>% (%<\AcVar ViewScale \f "%sn">%)
 71
     4
 62
   256
 62
   257
300
ANSI31
 40
1.0
 90
        0
290
     0
290
     0
 90
        6
 40
0.0
 40
1.570796326794896
 40
0.2617993877991494
 40
1.308996938995747
 40
-0.2617993877991494
 40
1.832595714594044
  0
TABLESTYLE
  5
1ED
102
{ACAD_XDICTIONARY
360
634
102
}
102
{ACAD_REACTORS
330
1EC
102
}
330
1EC
100
AcDbTableStyle
280
     0
  3
Standard
 70
     0
 71
     0
 40
0.06
 41
0.06
280
     0
281
     0
  7
STANDARD
140
0.18
170
     2
 62
     0
 63
     7
283
     0
 90
      512
 91
        0
  1

274
    -2
284
     1
 64
     0
275
    -2
285
     1
 65
     0
276
    -2
286
     1
 66
     0
277
    -2
287
     1
 67
     0
278
    -2
288
     1
 68
     0
279
    -2
289
     1
 69
     0
  7
STANDARD
140
0.25
170
     5
 62
     0
 63
     7
283
     0
 90
      512
 91
        0
  1

274
    -2
284
     1
 64
     0
275
    -2
285
     1
 65
     0
276
    -2
286
     1
 66
     0
277
    -2
287
     1
 67
     0
278
    -2
288
     1
 68
     0
279
    -2
289
     1
 69
     0
  7
STANDARD
140
0.18
170
     5
 62
     0
 63
     7
283
     0
 90
      512
 91
        0
  1

274
    -2
284
     1
 64
     0
275
    -2
285
     1
 65
     0
276
    -2
286
     1
 66
     0
277
    -2
287
     1
 67
     0
278
    -2
288
     1
 68
     0
279
    -2
289
     1
 69
     0
  0
VISUALSTYLE
  5
1E0
102
{ACAD_XDICTIONARY
360
41C5
102
}
102
{ACAD_REACTORS
330
1DA
102
}
330
1DA
100
AcDbVisualStyle
  2

 70
     4
177
     2
291
     0
 71
     0
176
     1
 72
     2
176
     1
 73
     0
176
     1
 90
        0
176
     1
 40
0.6
176
     1
 41
30.0
176
     1
 63
     7
176
     1
 74
     1
176
     1
 91
        4
176
     1
 64
     7
176
     1
 65
   257
176
     1
 75
     1
176
     1
175
     1
176
     1
 42
1.0
176
     1
 92
        0
176
     1
 66
   257
176
     1
 43
1.0
176
     1
 76
     1
176
     1
 77
     6
176
     1
 78
     2
176
     1
 67
     7
176
     1
 79
     5
176
     1
170
     0
176
     1
171
     0
176
     1
290
     0
176
     1
 93
        1
176
     1
 44
0.0
176
     1
173
     0
176
     1
1001
ACAD
1000
AcDbSavedByObjectVersion
1070
     0
  0
VISUALSTYLE
  5
1E2
102
{ACAD_XDICTIONARY
360
41C9
102
}
102
{ACAD_REACTORS
330
1DA
102
}
330
1DA
100
AcDbVisualStyle
  2

 70
     6
177
     2
291
     0
 71
     1
176
     1
 72
     2
176
     1
 73
     2
176
     1
 90
        0
176
     1
 40
0.6
176
     1
 41
30.0
176
     1
 63
     7
176
     1
 74
     2
176
     1
 91
        2
176
     1
 64
     7
176
     1
 65
   257
176
     1
 75
     2
176
     1
175
     1
176
     1
 42
40.0
176
     1
 92
        0
176
     1
 66
   257
176
     1
 43
1.0
176
     1
 76
     1
176
     1
 77
     6
176
     1
 78
     2
176
     1
 67
     7
176
     1
 79
     3
176
     1
170
     0
176
     1
171
     0
176
     1
290
     0
176
     1
 93
        1
176
     1
 44
0.0
176
     1
173
     0
176
     1
1001
ACAD
1000
AcDbSavedByObjectVersion
1070
     0
  0
VISUALSTYLE
  5
1E1
102
{ACAD_XDICTIONARY
360
41C7
102
}
102
{ACAD_REACTORS
330
1DA
102
}
330
1DA
100
AcDbVisualStyle
  2

 70
     5
177
     2
291
     0
 71
     0
176
     1
 72
     2
176
     1
 73
     0
176
     1
 90
        0
176
     1
 40
0.6
176
     1
 41
30.0
176
     1
 63
     7
176
     1
 74
     1
176
     1
 91
        4
176
     1
 64
     7
176
     1
 65
   257
176
     1
 75
     1
176
     1
175
     1
176
     1
 42
1.0
176
     1
 92
        0
176
     1
 66
   257
176
     1
 43
1.0
176
     1
 76
     1
176
     1
 77
     6
176
     1
 78
     2
176
     1
 67
     7
176
     1
 79
     5
176
     1
170
     0
176
     1
171
     0
176
     1
290
     0
176
     1
 93
        1
176
     1
 44
0.0
176
     1
173
     0
176
     1
1001
ACAD
1000
AcDbSavedByObjectVersion
1070
     0
  0
VISUALSTYLE
  5
1DF
102
{ACAD_XDICTIONARY
360
41C3
102
}
102
{ACAD_REACTORS
330
1DA
102
}
330
1DA
100
AcDbVisualStyle
  2

 70
     7
177
     2
291
     1
 71
     1
176
     1
 72
     0
176
     1
 73
     1
176
     1
 90
        0
176
     1
 40
0.6
176
     1
 41
30.0
176
     1
 63
     7
176
     1
 74
     0
176
     1
 91
        4
176
     1
 64
     7
176
     1
 65
   257
176
     1
 75
     1
176
     1
175
     1
176
     1
 42
1.0
176
     1
 92
        8
176
     1
 66
     7
176
     1
 43
1.0
176
     1
 76
     1
176
     1
 77
     6
176
     1
 78
     2
176
     1
 67
     7
176
     1
 79
     5
176
     1
170
     0
176
     1
171
     0
176
     1
290
     0
176
     1
 93
        1
176
     1
 44
0.0
176
     1
173
     0
176
     1
1001
ACAD
1000
AcDbSavedByObjectVersion
1070
     0
  0
VISUALSTYLE
  5
1E6
102
{ACAD_XDICTIONARY
360
41D1
102
}
102
{ACAD_REACTORS
330
1DA
102
}
330
1DA
100
AcDbVisualStyle
  2

 70
    12
177
     2
291
     1
 71
     2
176
     1
 72
     2
176
     1
 73
     0
176
     1
 90
        0
176
     1
 40
0.6
176
     1
 41
30.0
176
     1
 63
     7
176
     1
 74
     1
176
     1
 91
        4
176
     1
 64
     7
176
     1
 65
   257
176
     1
 75
     1
176
     1
175
     1
176
     1
 42
1.0
176
     1
 92
        8
176
     1
 66
     7
176
     1
 43
1.0
176
     1
 76
     1
176
     1
 77
     6
176
     1
 78
     2
176
     1
 67
     7
176
     1
 79
     5
176
     1
170
     0
176
     1
171
     0
176
     1
290
     0
176
     1
 93
        1
176
     1
 44
50.0
176
     1
173
     0
176
     1
1001
ACAD
1000
AcDbSavedByObjectVersion
1070
     0
  0
VISUALSTYLE
  5
1EA
102
{ACAD_XDICTIONARY
360
41D9
102
}
102
{ACAD_REACTORS
330
1DA
102
}
330
1DA
100
AcDbVisualStyle
  2

 70
    16
177
     2
291
     1
 71
     2
176
     1
 72
     2
176
     1
 73
     3
176
     1
 90
        0
176
     1
 40
0.6
176
     1
 41
30.0
176
     1
 63
     8
176
     1
 74
     1
176
     1
 91
        4
176
     1
 64
     7
176
     1
 65
   257
176
     1
 75
     1
176
     1
175
     1
176
     1
 42
1.0
176
     1
 92
        8
176
     1
 66
     8
176
     1
 43
1.0
176
     1
 76
     1
176
     1
 77
     6
176
     1
 78
     2
176
     1
 67
     7
176
     1
 79
     5
176
     1
170
     0
176
     1
171
     0
176
     1
290
     0
176
     1
 93
        1
176
     1
 44
0.0
176
     1
173
     0
176
     1
1001
ACAD
1000
AcDbSavedByObjectVersion
1070
     0
  0
VISUALSTYLE
  5
1E3
102
{ACAD_XDICTIONARY
360
41CB
102
}
102
{ACAD_REACTORS
330
1DA
102
}
330
1DA
100
AcDbVisualStyle
  2

 70
     9
177
     2
291
     0
 71
     3
176
     1
 72
     2
176
     1
 73
     0
176
     1
 90
        0
176
     1
 40
0.6
176
     1
 41
30.0
176
     1
 63
     7
176
     1
 74
     2
176
     1
 91
        2
176
     1
 64
     7
176
     1
 65
   257
176
     1
 75
     1
176
     1
175
     1
176
     1
 42
40.0
176
     1
 92
        8
176
     1
 66
     7
176
     1
 43
1.0
176
     1
 76
     1
176
     1
 77
     6
176
     1
 78
     2
176
     1
 67
     7
176
     1
 79
     3
176
     1
170
     0
176
     1
171
     0
176
     1
290
     0
176
     1
 93
        1
176
     1
 44
0.0
176
     1
173
     0
176
     1
1001
ACAD
1000
AcDbSavedByObjectVersion
1070
     0
  0
VISUALSTYLE
  5
1E5
102
{ACAD_XDICTIONARY
360
41CF
102
}
102
{ACAD_REACTORS
330
1DA
102
}
330
1DA
100
AcDbVisualStyle
  2

 70
    11
177
     2
291
     1
 71
     2
176
     1
 72
     2
176
     1
 73
     0
176
     1
 90
        0
176
     1
 40
0.6
176
     1
 41
30.0
176
     1
 63
     7
176
     1
 74
     1
176
     1
 91
        4
176
     1
 64
     7
176
     1
 65
   257
176
     1
 75
     1
176
     1
175
     1
176
     1
 42
1.0
176
     1
 92
        8
176
     1
 66
     7
176
     1
 43
1.0
176
     1
 76
     1
176
     1
 77
     6
176
     1
 78
     2
176
     1
 67
     7
176
     1
 79
     5
176
     1
170
     0
176
     1
171
     0
176
     1
290
     0
176
     1
 93
        1
176
     1
 44
-50.0
176
     1
173
     0
176
     1
1001
ACAD
1000
AcDbSavedByObjectVersion
1070
     0
  0
VISUALSTYLE
  5
5D4
102
{ACAD_XDICTIONARY
360
41ED
102
}
102
{ACAD_REACTORS
330
1DA
102
}
330
1DA
100
AcDbVisualStyle
  2
EdgeColorOff
 70
    22
177
     2
291
     1
 71
     2
176
     0
 72
     2
176
     0
 73
     0
176
     0
 90
        0
176
     0
 40
0.6
176
     0
 41
30.0
176
     0
 63
     7
421
 16777215
176
     0
 74
     1
176
     0
 91
        4
176
     0
 64
     7
176
     0
 65
   257
176
     0
 75
     1
176
     0
175
     1
176
     0
 42
1.0
176
     0
 92
        8
176
     2
 66
     7
176
     0
 43
1.0
176
     0
 76
     1
176
     0
 77
     6
176
     0
 78
     2
176
     0
 67
     7
176
     0
 79
     5
176
     0
170
     0
176
     0
171
     0
176
     0
290
     0
176
     0
 93
        1
176
     0
 44
0.0
176
     0
173
     0
176
     0
1001
ACAD
1000
AcDbSavedByObjectVersion
1070
     0
  0
VISUALSTYLE
  5
1E9
102
{ACAD_XDICTIONARY
360
41D7
102
}
102
{ACAD_REACTORS
330
1DA
102
}
330
1DA
100
AcDbVisualStyle
  2

 70
    15
177
     2
291
     1
 71
     2
176
     1
 72
     2
176
     1
 73
     0
176
     1
 90
        0
176
     1
 40
0.6
176
     1
 41
30.0
176
     1
 63
     7
176
     1
 74
     1
176
     1
 91
        4
176
     1
 64
     7
176
     1
 65
   257
176
     1
 75
     1
176
     1
175
     1
176
     1
 42
1.0
176
     1
 92
        8
176
     1
 66
     7
176
     1
 43
1.0
176
     1
 76
     1
176
     1
 77
     6
176
     1
 78
     2
176
     1
 67
     7
176
     1
 79
     5
176
     1
170
     0
176
     1
171
     0
176
     1
290
     0
176
     1
 93
        1
176
     1
 44
0.0
176
     1
173
     0
176
     1
1001
ACAD
1000
AcDbSavedByObjectVersion
1070
     0
  0
VISUALSTYLE
  5
1DB
102
{ACAD_XDICTIONARY
360
41BB
102
}
102
{ACAD_REACTORS
330
1DA
102
}
330
1DA
100
AcDbVisualStyle
  2

 70
     0
177
     2
291
     1
 71
     2
176
     1
 72
     1
176
     1
 73
     1
176
     1
 90
        2
176
     1
 40
0.6
176
     1
 41
30.0
176
     1
 63
     7
176
     1
 74
     0
176
     1
 91
        4
176
     1
 64
     7
176
     1
 65
   257
176
     1
 75
     1
176
     1
175
     1
176
     1
 42
1.0
176
     1
 92
        8
176
     1
 66
     7
176
     1
 43
1.0
176
     1
 76
     1
176
     1
 77
     6
176
     1
 78
     2
176
     1
 67
     7
176
     1
 79
     5
176
     1
170
     0
176
     1
171
     0
176
     1
290
     0
176
     1
 93
       13
176
     1
 44
0.0
176
     1
173
     0
176
     1
1001
ACAD
1000
AcDbSavedByObjectVersion
1070
     0
  0
VISUALSTYLE
  5
1DC
102
{ACAD_XDICTIONARY
360
41BD
102
}
102
{ACAD_REACTORS
330
1DA
102
}
330
1DA
100
AcDbVisualStyle
  2

 70
     1
177
     2
291
     1
 71
     2
176
     1
 72
     1
176
     1
 73
     1
176
     1
 90
        2
176
     1
 40
0.6
176
     1
 41
30.0
176
     1
 63
     7
176
     1
 74
     1
176
     1
 91
        4
176
     1
 64
     7
176
     1
 65
   257
176
     1
 75
     1
176
     1
175
     1
176
     1
 42
1.0
176
     1
 92
        0
176
     1
 66
   257
176
     1
 43
1.0
176
     1
 76
     1
176
     1
 77
     6
176
     1
 78
     2
176
     1
 67
     7
176
     1
 79
     5
176
     1
170
     0
176
     1
171
     0
176
     1
290
     0
176
     1
 93
       13
176
     1
 44
0.0
176
     1
173
     0
176
     1
1001
ACAD
1000
AcDbSavedByObjectVersion
1070
     0
  0
VISUALSTYLE
  5
1DD
102
{ACAD_XDICTIONARY
360
41BF
102
}
102
{ACAD_REACTORS
330
1DA
102
}
330
1DA
100
AcDbVisualStyle
  2

 70
     2
177
     2
291
     1
 71
     2
176
     1
 72
     2
176
     1
 73
     1
176
     1
 90
        2
176
     1
 40
0.6
176
     1
 41
30.0
176
     1
 63
     7
176
     1
 74
     0
176
     1
 91
        4
176
     1
 64
     7
176
     1
 65
   257
176
     1
 75
     1
176
     1
175
     1
176
     1
 42
1.0
176
     1
 92
        0
176
     1
 66
     7
176
     1
 43
1.0
176
     1
 76
     1
176
     1
 77
     6
176
     1
 78
     2
176
     1
 67
     7
176
     1
 79
     5
176
     1
170
     0
176
     1
171
     0
176
     1
290
     0
176
     1
 93
       13
176
     1
 44
0.0
176
     1
173
     0
176
     1
1001
ACAD
1000
AcDbSavedByObjectVersion
1070
     0
  0
VISUALSTYLE
  5
1DE
102
{ACAD_XDICTIONARY
360
41C1
102
}
102
{ACAD_REACTORS
330
1DA
102
}
330
1DA
100
AcDbVisualStyle
  2

 70
     3
177
     2
291
     1
 71
     2
176
     1
 72
     2
176
     1
 73
     1
176
     1
 90
        2
176
     1
 40
0.6
176
     1
 41
30.0
176
     1
 63
     7
176
     1
 74
     1
176
     1
 91
        4
176
     1
 64
     7
176
     1
 65
   257
176
     1
 75
     1
176
     1
175
     1
176
     1
 42
1.0
176
     1
 92
        0
176
     1
 66
   257
176
     1
 43
1.0
176
     1
 76
     1
176
     1
 77
     6
176
     1
 78
     2
176
     1
 67
     7
176
     1
 79
     5
176
     1
170
     0
176
     1
171
     0
176
     1
290
     0
176
     1
 93
       13
176
     1
 44
0.0
176
     1
173
     0
176
     1
1001
ACAD
1000
AcDbSavedByObjectVersion
1070
     0
  0
VISUALSTYLE
  5
5CC
102
{ACAD_XDICTIONARY
360
41DD
102
}
102
{ACAD_REACTORS
330
1DA
102
}
330
1DA
100
AcDbVisualStyle
  2
Hidden
 70
     6
177
     2
291
     0
 71
     1
176
     1
 72
     2
176
     1
 73
     2
176
     1
 90
        0
176
     1
 40
0.6
176
     1
 41
30.0
176
     1
 63
     7
421
 16777215
176
     1
 74
     2
176
     1
 91
        2
176
     1
 64
     7
176
     1
 65
   257
176
     1
 75
     2
176
     1
175
     1
176
     1
 42
40.0
176
     1
 92
        0
176
     1
 66
   257
176
     1
 43
1.0
176
     1
 76
     1
176
     1
 77
     6
176
     1
 78
     2
176
     1
 67
     7
176
     1
 79
     3
176
     1
170
     0
176
     1
171
     0
176
     1
290
     0
176
     1
 93
        1
176
     1
 44
0.0
176
     1
173
     0
176
     1
1001
ACAD
1000
AcDbSavedByObjectVersion
1070
     0
  0
VISUALSTYLE
  5
5D2
102
{ACAD_XDICTIONARY
360
41E9
102
}
102
{ACAD_REACTORS
330
1DA
102
}
330
1DA
100
AcDbVisualStyle
  2
JitterOff
 70
    20
177
     2
291
     1
 71
     2
176
     0
 72
     2
176
     0
 73
     0
176
     0
 90
        0
176
     0
 40
0.6
176
     0
 41
30.0
176
     0
 63
     7
421
 16777215
176
     0
 74
     1
176
     0
 91
        4
176
     0
 64
     7
176
     0
 65
   257
176
     0
 75
     1
176
     0
175
     1
176
     0
 42
1.0
176
     0
 92
       10
176
     2
 66
     7
176
     0
 43
1.0
176
     0
 76
     1
176
     0
 77
     6
176
     0
 78
     2
176
     0
 67
     7
176
     0
 79
     5
176
     0
170
     0
176
     0
171
     0
176
     0
290
     0
176
     0
 93
        1
176
     0
 44
0.0
176
     0
173
     0
176
     0
1001
ACAD
1000
AcDbSavedByObjectVersion
1070
     0
  0
VISUALSTYLE
  5
1E8
102
{ACAD_XDICTIONARY
360
41D5
102
}
102
{ACAD_REACTORS
330
1DA
102
}
330
1DA
100
AcDbVisualStyle
  2

 70
    14
177
     2
291
     1
 71
     2
176
     1
 72
     2
176
     1
 73
     0
176
     1
 90
        0
176
     1
 40
0.6
176
     1
 41
30.0
176
     1
 63
     7
176
     1
 74
     1
176
     1
 91
        4
176
     1
 64
     7
176
     1
 65
   257
176
     1
 75
     7
176
     1
175
     7
176
     1
 42
1.0
176
     1
 92
        8
176
     1
 66
     7
176
     1
 43
1.0
176
     1
 76
     1
176
     1
 77
     6
176
     1
 78
     2
176
     1
 67
     7
176
     1
 79
     5
176
     1
170
     0
176
     1
171
     0
176
     1
290
     0
176
     1
 93
        1
176
     1
 44
0.0
176
     1
173
     0
176
     1
1001
ACAD
1000
AcDbSavedByObjectVersion
1070
     0
  0
VISUALSTYLE
  5
5D3
102
{ACAD_XDICTIONARY
360
41EB
102
}
102
{ACAD_REACTORS
330
1DA
102
}
330
1DA
100
AcDbVisualStyle
  2
OverhangOff
 70
    21
177
     2
291
     1
 71
     2
176
     0
 72
     2
176
     0
 73
     0
176
     0
 90
        0
176
     0
 40
0.6
176
     0
 41
30.0
176
     0
 63
     7
421
 16777215
176
     0
 74
     1
176
     0
 91
        4
176
     0
 64
     7
176
     0
 65
   257
176
     0
 75
     1
176
     0
175
     1
176
     0
 42
1.0
176
     0
 92
        9
176
     2
 66
     7
176
     0
 43
1.0
176
     0
 76
     1
176
     0
 77
     6
176
     0
 78
     2
176
     0
 67
     7
176
     0
 79
     5
176
     0
170
     0
176
     0
171
     0
176
     0
290
     0
176
     0
 93
        1
176
     0
 44
0.0
176
     0
173
     0
176
     0
1001
ACAD
1000
AcDbSavedByObjectVersion
1070
     0
  0
VISUALSTYLE
  5
1E4
102
{ACAD_XDICTIONARY
360
41CD
102
}
102
{ACAD_REACTORS
330
1DA
102
}
330
1DA
100
AcDbVisualStyle
  2

 70
     8
177
     2
291
     0
 71
     2
176
     1
 72
     2
176
     1
 73
     0
176
     1
 90
        0
176
     1
 40
0.6
176
     1
 41
30.0
176
     1
 63
     7
176
     1
 74
     1
176
     1
 91
        0
176
     1
 64
     7
176
     1
 65
   257
176
     1
 75
     1
176
     1
175
     1
176
     1
 42
1.0
176
     1
 92
        8
176
     1
 66
     8
176
     1
 43
1.0
176
     1
 76
     1
176
     1
 77
     6
176
     1
 78
     2
176
     1
 67
     7
176
     1
 79
     5
176
     1
170
     0
176
     1
171
     0
176
     1
290
     0
176
     1
 93
       13
176
     1
 44
0.0
176
     1
173
     0
176
     1
1001
ACAD
1000
AcDbSavedByObjectVersion
1070
     0
  0
VISUALSTYLE
  5
5D1
102
{ACAD_XDICTIONARY
360
41E7
102
}
102
{ACAD_REACTORS
330
1DA
102
}
330
1DA
100
AcDbVisualStyle
  2
Shaded
 70
    27
177
     2
291
     0
 71
     2
176
     1
 72
     2
176
     1
 73
     1
176
     1
 90
        2
176
     1
 40
0.6
176
     1
 41
30.0
176
     1
 63
     7
421
 16777215
176
     1
 74
     0
176
     1
 91
        4
176
     1
 64
     7
176
     1
 65
   257
176
     1
 75
     1
176
     1
175
     1
176
     1
 42
1.0
176
     1
 92
        8
176
     1
 66
   257
176
     1
 43
1.0
176
     1
 76
     1
176
     1
 77
     6
176
     1
 78
     2
176
     1
 67
     8
425
  7895160
176
     1
 79
     3
176
     1
170
     0
176
     1
171
     0
176
     1
290
     0
176
     1
 93
        5
176
     1
 44
0.0
176
     1
173
     0
176
     1
1001
ACAD
1000
AcDbSavedByObjectVersion
1070
     0
  0
VISUALSTYLE
  5
5D0
102
{ACAD_XDICTIONARY
360
41E5
102
}
102
{ACAD_REACTORS
330
1DA
102
}
330
1DA
100
AcDbVisualStyle
  2
Shaded with edges
 70
    26
177
     2
291
     0
 71
     2
176
     1
 72
     2
176
     1
 73
     1
176
     1
 90
        2
176
     1
 40
0.6
176
     1
 41
30.0
176
     1
 63
     7
421
 16777215
176
     1
 74
     1
176
     1
 91
        2
176
     1
 64
     7
176
     1
 65
   257
176
     1
 75
     2
176
     1
175
     1
176
     1
 42
1.0
176
     1
 92
        8
176
     1
 66
   257
176
     1
 43
1.0
176
     1
 76
     1
176
     1
 77
     6
176
     1
 78
     2
176
     1
 67
     7
176
     1
 79
     3
176
     1
170
     0
176
     1
171
     0
176
     1
290
     0
176
     1
 93
        5
176
     1
 44
0.0
176
     1
173
     0
176
     1
1001
ACAD
1000
AcDbSavedByObjectVersion
1070
     0
  0
VISUALSTYLE
  5
5CD
102
{ACAD_XDICTIONARY
360
41DF
102
}
102
{ACAD_REACTORS
330
1DA
102
}
330
1DA
100
AcDbVisualStyle
  2
Shades of Gray
 70
    23
177
     2
291
     0
 71
     2
176
     1
 72
     2
176
     1
 73
     3
176
     1
 90
        0
176
     1
 40
0.6
176
     1
 41
30.0
176
     1
 63
     7
421
 16777215
176
     1
 74
     2
176
     1
 91
        2
176
     1
 64
     7
176
     1
 65
     7
176
     1
 75
     1
176
     1
175
     1
176
     1
 42
40.0
176
     1
 92
        8
176
     1
 66
     7
176
     1
 43
1.0
176
     1
 76
     1
176
     1
 77
     6
176
     1
 78
     2
176
     1
 67
     7
176
     1
 79
     3
176
     1
170
     0
176
     1
171
     0
176
     1
290
     0
176
     1
 93
        1
176
     1
 44
0.0
176
     1
173
     0
176
     1
1001
ACAD
1000
AcDbSavedByObjectVersion
1070
     0
  0
VISUALSTYLE
  5
5CE
102
{ACAD_XDICTIONARY
360
41E1
102
}
102
{ACAD_REACTORS
330
1DA
102
}
330
1DA
100
AcDbVisualStyle
  2
Sketchy
 70
    24
177
     2
291
     0
 71
     1
176
     1
 72
     2
176
     1
 73
     2
176
     1
 90
        0
176
     1
 40
0.6
176
     1
 41
30.0
176
     1
 63
     7
421
 16777215
176
     1
 74
     2
176
     1
 91
        2
176
     1
 64
     7
176
     1
 65
     7
176
     1
 75
     1
176
     1
175
     1
176
     1
 42
40.0
176
     1
 92
       11
176
     1
 66
     7
176
     1
 43
1.0
176
     1
 76
     1
176
     1
 77
     6
176
     1
 78
     2
176
     1
 67
     7
176
     1
 79
     6
176
     1
170
     0
176
     1
171
     0
176
     1
290
     0
176
     1
 93
        1
176
     1
 44
0.0
176
     1
173
     0
176
     1
1001
ACAD
1000
AcDbSavedByObjectVersion
1070
     0
  0
VISUALSTYLE
  5
1E7
102
{ACAD_XDICTIONARY
360
41D3
102
}
102
{ACAD_REACTORS
330
1DA
102
}
330
1DA
100
AcDbVisualStyle
  2

 70
    13
177
     2
291
     1
 71
     2
176
     1
 72
     2
176
     1
 73
     0
176
     1
 90
        0
176
     1
 40
0.6
176
     1
 41
30.0
176
     1
 63
     7
176
     1
 74
     1
176
     1
 91
        4
176
     1
 64
     7
176
     1
 65
   257
176
     1
 75
     1
176
     1
175
     1
176
     1
 42
1.0
176
     1
 92
       12
176
     1
 66
     7
176
     1
 43
1.0
176
     1
 76
     1
176
     1
 77
     6
176
     1
 78
     2
176
     1
 67
     7
176
     1
 79
     5
176
     1
170
     0
176
     1
171
     0
176
     1
290
     0
176
     1
 93
        1
176
     1
 44
0.0
176
     1
173
     0
176
     1
1001
ACAD
1000
AcDbSavedByObjectVersion
1070
     0
  0
VISUALSTYLE
  5
5CB
102
{ACAD_XDICTIONARY
360
41DB
102
}
102
{ACAD_REACTORS
330
1DA
102
}
330
1DA
100
AcDbVisualStyle
  2
Wireframe
 70
     5
177
     2
291
     0
 71
     0
176
     1
 72
     2
176
     1
 73
     0
176
     1
 90
        0
176
     1
 40
0.6
176
     1
 41
30.0
176
     1
 63
     7
421
 16777215
176
     1
 74
     1
176
     1
 91
        4
176
     1
 64
     7
176
     1
 65
   257
176
     1
 75
     1
176
     1
175
     1
176
     1
 42
1.0
176
     1
 92
        0
176
     1
 66
   257
176
     1
 43
1.0
176
     1
 76
     1
176
     1
 77
     6
176
     1
 78
     2
176
     1
 67
     7
176
     1
 79
     3
176
     1
170
     0
176
     1
171
     0
176
     1
290
     0
176
     1
 93
        1
176
     1
 44
0.0
176
     1
173
     0
176
     1
1001
ACAD
1000
AcDbSavedByObjectVersion
1070
     0
  0
VISUALSTYLE
  5
5CF
102
{ACAD_XDICTIONARY
360
41E3
102
}
102
{ACAD_REACTORS
330
1DA
102
}
330
1DA
100
AcDbVisualStyle
  2
X-Ray
 70
    25
177
     2
291
     0
 71
     2
176
     1
 72
     2
176
     1
 73
     1
176
     1
 90
        1
176
     1
 40
0.5
176
     1
 41
30.0
176
     1
 63
     7
421
 16777215
176
     1
 74
     1
176
     1
 91
        0
176
     1
 64
     7
176
     1
 65
   257
176
     1
 75
     1
176
     1
175
     1
176
     1
 42
1.0
176
     1
 92
        8
176
     1
 66
     7
176
     1
 43
1.0
176
     1
 76
     1
176
     1
 77
     6
176
     1
 78
     2
176
     1
 67
     7
176
     1
 79
     3
176
     1
170
     0
176
     1
171
     0
176
     1
290
     0
176
     1
 93
       13
176
     1
 44
0.0
176
     1
173
     0
176
     1
1001
ACAD
1000
AcDbSavedByObjectVersion
1070
     0
  0
DICTIONARYVAR
  5
630
102
{ACAD_REACTORS
330
1F3
102
}
330
1F3
100
DictionaryVariables
280
     0
  1
1:1
  0
DICTIONARYVAR
  5
62C
102
{ACAD_REACTORS
330
1F3
102
}
330
1F3
100
DictionaryVariables
280
     0
  1
STANDARD
  0
DICTIONARYVAR
  5
1F4
102
{ACAD_REACTORS
330
1F3
102
}
330
1F3
100
DictionaryVariables
280
     0
  1
STANDARD
  0
DICTIONARYVAR
  5
62D
102
{ACAD_REACTORS
330
1F3
102
}
330
1F3
100
DictionaryVariables
280
     0
  1
Imperial24
  0
DICTIONARYVAR
  5
62E
102
{ACAD_REACTORS
330
1F3
102
}
330
1F3
100
DictionaryVariables
280
     0
  1
Imperial24
  0
DICTIONARYVAR
  5
586
102
{ACAD_REACTORS
330
1F3
102
}
330
1F3
100
DictionaryVariables
280
     0
  1
1
  0
DICTIONARYVAR
  5
585
102
{ACAD_REACTORS
330
1F3
102
}
330
1F3
100
DictionaryVariables
280
     0
  1
0
  0
DICTIONARYVAR
  5
632
102
{ACAD_REACTORS
330
1F3
102
}
330
1F3
100
DictionaryVariables
280
     0
  1
1
  0
DICTIONARYVAR
  5
633
102
{ACAD_REACTORS
330
1F3
102
}
330
1F3
100
DictionaryVariables
280
     0
  1
15
  0
DICTIONARYVAR
  5
631
102
{ACAD_REACTORS
330
1F3
102
}
330
1F3
100
DictionaryVariables
280
     0
  1
0
  0
DICTIONARYVAR
  5
62F
102
{ACAD_REACTORS
330
1F3
102
}
330
1F3
100
DictionaryVariables
280
     0
  1
0
  0
DICTIONARYVAR
  5
584
102
{ACAD_REACTORS
330
1F3
102
}
330
1F3
100
DictionaryVariables
280
     0
  1
127
  0
DICTIONARY
  5
41F1
330
5EC
100
AcDbDictionary
280
     1
281
     1
  3
ACAD_XREC_ROUNDTRIP
360
41F2
  0
DICTIONARY
  5
41F5
330
677
100
AcDbDictionary
280
     1
281
     1
  3
ACAD_XREC_ROUNDTRIP
360
41F6
  0
DICTIONARY
  5
5BF
330
1D8
100
AcDbDictionary
280
     1
281
     1
  3
ACAD_XREC_ROUNDTRIP
360
5C0
  0
DICTIONARY
  5
5BD
330
1D7
100
AcDbDictionary
280
     1
281
     1
  3
ACAD_XREC_ROUNDTRIP
360
5BE
  0
DICTIONARY
  5
5C1
330
1D9
100
AcDbDictionary
280
     1
281
     1
  3
ACAD_XREC_ROUNDTRIP
360
5C2
  0
DICTIONARY
  5
41EF
330
5EA
100
AcDbDictionary
280
     1
281
     1
  3
ACAD_XREC_ROUNDTRIP
360
41F0
  0
DICTIONARY
  5
41F3
330
676
100
AcDbDictionary
280
     1
281
     1
  3
ACAD_XREC_ROUNDTRIP
360
41F4
  0
DICTIONARY
  5
634
330
1ED
100
AcDbDictionary
280
     1
281
     1
  3
ACAD_ROUNDTRIP_2008_TABLESTYLE_CELLSTYLEMAP
360
41B9
  0
DICTIONARY
  5
41C5
330
1E0
100
AcDbDictionary
280
     1
281
     1
  3
ACAD_XREC_ROUNDTRIP
360
41C6
  0
DICTIONARY
  5
41C9
330
1E2
100
AcDbDictionary
280
     1
281
     1
  3
ACAD_XREC_ROUNDTRIP
360
41CA
  0
DICTIONARY
  5
41C7
330
1E1
100
AcDbDictionary
280
     1
281
     1
  3
ACAD_XREC_ROUNDTRIP
360
41C8
  0
DICTIONARY
  5
41C3
330
1DF
100
AcDbDictionary
280
     1
281
     1
  3
ACAD_XREC_ROUNDTRIP
360
41C4
  0
DICTIONARY
  5
41D1
330
1E6
100
AcDbDictionary
280
     1
281
     1
  3
ACAD_XREC_ROUNDTRIP
360
41D2
  0
DICTIONARY
  5
41D9
330
1EA
100
AcDbDictionary
280
     1
281
     1
  3
ACAD_XREC_ROUNDTRIP
360
41DA
  0
DICTIONARY
  5
41CB
330
1E3
100
AcDbDictionary
280
     1
281
     1
  3
ACAD_XREC_ROUNDTRIP
360
41CC
  0
DICTIONARY
  5
41CF
330
1E5
100
AcDbDictionary
280
     1
281
     1
  3
ACAD_XREC_ROUNDTRIP
360
41D0
  0
DICTIONARY
  5
41ED
330
5D4
100
AcDbDictionary
280
     1
281
     1
  3
ACAD_XREC_ROUNDTRIP
360
41EE
  0
DICTIONARY
  5
41D7
330
1E9
100
AcDbDictionary
280
     1
281
     1
  3
ACAD_XREC_ROUNDTRIP
360
41D8
  0
DICTIONARY
  5
41BB
330
1DB
100
AcDbDictionary
280
     1
281
     1
  3
ACAD_XREC_ROUNDTRIP
360
41BC
  0
DICTIONARY
  5
41BD
330
1DC
100
AcDbDictionary
280
     1
281
     1
  3
ACAD_XREC_ROUNDTRIP
360
41BE
  0
DICTIONARY
  5
41BF
330
1DD
100
AcDbDictionary
280
     1
281
     1
  3
ACAD_XREC_ROUNDTRIP
360
41C0
  0
DICTIONARY
  5
41C1
330
1DE
100
AcDbDictionary
280
     1
281
     1
  3
ACAD_XREC_ROUNDTRIP
360
41C2
  0
DICTIONARY
  5
41DD
330
5CC
100
AcDbDictionary
280
     1
281
     1
  3
ACAD_XREC_ROUNDTRIP
360
41DE
  0
DICTIONARY
  5
41E9
330
5D2
100
AcDbDictionary
280
     1
281
     1
  3
ACAD_XREC_ROUNDTRIP
360
41EA
  0
DICTIONARY
  5
41D5
330
1E8
100
AcDbDictionary
280
     1
281
     1
  3
ACAD_XREC_ROUNDTRIP
360
41D6
  0
DICTIONARY
  5
41EB
330
5D3
100
AcDbDictionary
280
     1
281
     1
  3
ACAD_XREC_ROUNDTRIP
360
41EC
  0
DICTIONARY
  5
41CD
330
1E4
100
AcDbDictionary
280
     1
281
     1
  3
ACAD_XREC_ROUNDTRIP
360
41CE
  0
DICTIONARY
  5
41E7
330
5D1
100
AcDbDictionary
280
     1
281
     1
  3
ACAD_XREC_ROUNDTRIP
360
41E8
  0
DICTIONARY
  5
41E5
330
5D0
100
AcDbDictionary
280
     1
281
     1
  3
ACAD_XREC_ROUNDTRIP
360
41E6
  0
DICTIONARY
  5
41DF
330
5CD
100
AcDbDictionary
280
     1
281
     1
  3
ACAD_XREC_ROUNDTRIP
360
41E0
  0
DICTIONARY
  5
41E1
330
5CE
100
AcDbDictionary
280
     1
281
     1
  3
ACAD_XREC_ROUNDTRIP
360
41E2
  0
DICTIONARY
  5
41D3
330
1E7
100
AcDbDictionary
280
     1
281
     1
  3
ACAD_XREC_ROUNDTRIP
360
41D4
  0
DICTIONARY
  5
41DB
330
5CB
100
AcDbDictionary
280
     1
281
     1
  3
ACAD_XREC_ROUNDTRIP
360
41DC
  0
DICTIONARY
  5
41E3
330
5CF
100
AcDbDictionary
280
     1
281
     1
  3
ACAD_XREC_ROUNDTRIP
360
41E4
  0
XRECORD
  5
41F2
102
{ACAD_REACTORS
330
41F1
102
}
330
41F1
100
AcDbXrecord
280
     1
102
DISPLAYNAME
  1
Imperial24
102
FLAGS
 90
        0
  0
XRECORD
  5
41F6
102
{ACAD_REACTORS
330
41F5
102
}
330
41F5
100
AcDbXrecord
280
     1
102
DISPLAYNAME
  1
Metric50
102
FLAGS
 90
        0
  0
XRECORD
  5
5C0
102
{ACAD_REACTORS
330
5BF
102
}
330
5BF
100
AcDbXrecord
280
     1
102
MATERIAL
148
0.0
149
0.0
149
0.0
 93
        0
 94
       63
282
     0
 72
     1
 77
     1
171
     1
175
     1
179
     1
273
     0
  0
XRECORD
  5
5BE
102
{ACAD_REACTORS
330
5BD
102
}
330
5BD
100
AcDbXrecord
280
     1
102
MATERIAL
148
0.0
149
0.0
149
0.0
 93
        0
 94
       63
282
     0
 72
     1
 77
     1
171
     1
175
     1
179
     1
273
     0
  0
XRECORD
  5
5C2
102
{ACAD_REACTORS
330
5C1
102
}
330
5C1
100
AcDbXrecord
280
     1
102
MATERIAL
148
0.0
149
0.0
149
0.0
 93
        0
 94
       63
282
     0
 72
     1
 77
     1
171
     1
175
     1
179
     1
273
     0
  0
XRECORD
  5
41F0
102
{ACAD_REACTORS
330
41EF
102
}
330
41EF
100
AcDbXrecord
280
     1
102
DISPLAYNAME
  1
Imperial24
102
FLAGS
 90
        0
  0
XRECORD
  5
41F4
102
{ACAD_REACTORS
330
41F3
102
}
330
41F3
100
AcDbXrecord
280
     1
102
DISPLAYNAME
  1
Metric50
102
FLAGS
 90
        0
  0
CELLSTYLEMAP
  5
41B9
102
{ACAD_REACTORS
330
634
102
}
330
634
100
AcDbCellStyleMap
 90
        3
300
CELLSTYLE
  1
TABLEFORMAT_BEGIN
 90
        5
170
     1
 91
        0
 92
    32768
 62
   257
 93
        1
300
CONTENTFORMAT
  1
CONTENTFORMAT_BEGIN
 90
        0
 91
        0
 92
      512
 93
        0
300

 40
0.0
140
1.0
 94
        5
 62
     0
340
11
144
0.25
309
CONTENTFORMAT_END
171
     1
301
MARGIN
  1
CELLMARGIN_BEGIN
 40
0.06
 40
0.06
 40
0.06
 40
0.06
 40
0.18
 40
0.18
309
CELLMARGIN_END
 94
        6
 95
        1
302
GRIDFORMAT
  1
GRIDFORMAT_BEGIN
 90
        0
 91
        1
 62
     0
 92
       -2
340
0
 93
        0
 40
0.045
309
GRIDFORMAT_END
 95
        2
302
GRIDFORMAT
  1
GRIDFORMAT_BEGIN
 90
        0
 91
        1
 62
     0
 92
       -2
340
0
 93
        0
 40
0.045
309
GRIDFORMAT_END
 95
        4
302
GRIDFORMAT
  1
GRIDFORMAT_BEGIN
 90
        0
 91
        1
 62
     0
 92
       -2
340
0
 93
        0
 40
0.045
309
GRIDFORMAT_END
 95
        8
302
GRIDFORMAT
  1
GRIDFORMAT_BEGIN
 90
        0
 91
        1
 62
     0
 92
       -2
340
0
 93
        0
 40
0.045
309
GRIDFORMAT_END
 95
       16
302
GRIDFORMAT
  1
GRIDFORMAT_BEGIN
 90
        0
 91
        1
 62
     0
 92
       -2
340
0
 93
        0
 40
0.045
309
GRIDFORMAT_END
 95
       32
302
GRIDFORMAT
  1
GRIDFORMAT_BEGIN
 90
        0
 91
        1
 62
     0
 92
       -2
340
0
 93
        0
 40
0.045
309
GRIDFORMAT_END
309
TABLEFORMAT_END
  1
CELLSTYLE_BEGIN
 90
        1
 91
        1
300
_TITLE
309
CELLSTYLE_END
300
CELLSTYLE
  1
TABLEFORMAT_BEGIN
 90
        5
170
     1
 91
        0
 92
        0
 62
   257
 93
        1
300
CONTENTFORMAT
  1
CONTENTFORMAT_BEGIN
 90
        0
 91
        0
 92
      512
 93
        0
300

 40
0.0
140
1.0
 94
        5
 62
     0
340
11
144
0.18
309
CONTENTFORMAT_END
171
     1
301
MARGIN
  1
CELLMARGIN_BEGIN
 40
0.06
 40
0.06
 40
0.06
 40
0.06
 40
0.18
 40
0.18
309
CELLMARGIN_END
 94
        6
 95
        1
302
GRIDFORMAT
  1
GRIDFORMAT_BEGIN
 90
        0
 91
        1
 62
     0
 92
       -2
340
0
 93
        0
 40
0.045
309
GRIDFORMAT_END
 95
        2
302
GRIDFORMAT
  1
GRIDFORMAT_BEGIN
 90
        0
 91
        1
 62
     0
 92
       -2
340
0
 93
        0
 40
0.045
309
GRIDFORMAT_END
 95
        4
302
GRIDFORMAT
  1
GRIDFORMAT_BEGIN
 90
        0
 91
        1
 62
     0
 92
       -2
340
0
 93
        0
 40
0.045
309
GRIDFORMAT_END
 95
        8
302
GRIDFORMAT
  1
GRIDFORMAT_BEGIN
 90
        0
 91
        1
 62
     0
 92
       -2
340
0
 93
        0
 40
0.045
309
GRIDFORMAT_END
 95
       16
302
GRIDFORMAT
  1
GRIDFORMAT_BEGIN
 90
        0
 91
        1
 62
     0
 92
       -2
340
0
 93
        0
 40
0.045
309
GRIDFORMAT_END
 95
       32
302
GRIDFORMAT
  1
GRIDFORMAT_BEGIN
 90
        0
 91
        1
 62
     0
 92
       -2
340
0
 93
        0
 40
0.045
309
GRIDFORMAT_END
309
TABLEFORMAT_END
  1
CELLSTYLE_BEGIN
 90
        2
 91
        1
300
_HEADER
309
CELLSTYLE_END
300
CELLSTYLE
  1
TABLEFORMAT_BEGIN
 90
        5
170
     1
 91
        0
 92
        0
 62
   257
 93
        1
300
CONTENTFORMAT
  1
CONTENTFORMAT_BEGIN
 90
        0
 91
        0
 92
      512
 93
        0
300

 40
0.0
140
1.0
 94
        2
 62
     0
340
11
144
0.18
309
CONTENTFORMAT_END
171
     1
301
MARGIN
  1
CELLMARGIN_BEGIN
 40
0.06
 40
0.06
 40
0.06
 40
0.06
 40
0.18
 40
0.18
309
CELLMARGIN_END
 94
        6
 95
        1
302
GRIDFORMAT
  1
GRIDFORMAT_BEGIN
 90
        0
 91
        1
 62
     0
 92
       -2
340
0
 93
        0
 40
0.045
309
GRIDFORMAT_END
 95
        2
302
GRIDFORMAT
  1
GRIDFORMAT_BEGIN
 90
        0
 91
        1
 62
     0
 92
       -2
340
0
 93
        0
 40
0.045
309
GRIDFORMAT_END
 95
        4
302
GRIDFORMAT
  1
GRIDFORMAT_BEGIN
 90
        0
 91
        1
 62
     0
 92
       -2
340
0
 93
        0
 40
0.045
309
GRIDFORMAT_END
 95
        8
302
GRIDFORMAT
  1
GRIDFORMAT_BEGIN
 90
        0
 91
        1
 62
     0
 92
       -2
340
0
 93
        0
 40
0.045
309
GRIDFORMAT_END
 95
       16
302
GRIDFORMAT
  1
GRIDFORMAT_BEGIN
 90
        0
 91
        1
 62
     0
 92
       -2
340
0
 93
        0
 40
0.045
309
GRIDFORMAT_END
 95
       32
302
GRIDFORMAT
  1
GRIDFORMAT_BEGIN
 90
        0
 91
        1
 62
     0
 92
       -2
340
0
 93
        0
 40
0.045
309
GRIDFORMAT_END
309
TABLEFORMAT_END
  1
CELLSTYLE_BEGIN
 90
        3
 91
        2
300
_DATA
309
CELLSTYLE_END
  0
XRECORD
  5
41C6
102
{ACAD_REACTORS
330
41C5
102
}
330
41C5
100
AcDbXrecord
280
     1
102
RTVSPost2010Prop28
280
     1
102
RTVSPost2010PropOp28
 70
     1
102
RTVSPost2010Prop29
280
     1
102
RTVSPost2010PropOp29
 70
     1
102
RTVSPost2010Prop30
280
     0
102
RTVSPost2010PropOp30
 70
     1
102
RTVSPost2010Prop31
280
     0
102
RTVSPost2010PropOp31
 70
     1
102
RTVSPost2010Prop32
280
     0
102
RTVSPost2010PropOp32
 70
     1
102
RTVSPost2010Prop33
280
     0
102
RTVSPost2010PropOp33
 70
     1
102
RTVSPost2010Prop34
280
     0
102
RTVSPost2010PropOp34
 70
     1
102
RTVSPost2010Prop35
280
     0
102
RTVSPost2010PropOp35
 70
     1
102
RTVSPost2010Prop36
280
     0
102
RTVSPost2010PropOp36
 70
     1
102
RTVSPost2010Prop37
 90
       50
102
RTVSPost2010PropOp37
 70
     1
102
RTVSPost2010Prop38
140
0.0
102
RTVSPost2010PropOp38
 70
     1
102
RTVSPost2010Prop39
140
1.0
102
RTVSPost2010PropOp39
 70
     1
102
RTVSPost2010Prop40
 90
        0
102
RTVSPost2010PropOp40
 70
     1
102
RTVSPost2010Prop41ColorIndex
 90
       18
102
RTVSPost2010Prop41ColorRGB
 90
        0
102
RTVSPost2010PropOp41
 70
     1
102
RTVSPost2010Prop42
 90
       50
102
RTVSPost2010PropOp42
 70
     1
102
RTVSPost2010Prop43
 90
        3
102
RTVSPost2010PropOp43
 70
     1
102
RTVSPost2010Prop44ColorIndex
 90
        5
102
RTVSPost2010Prop44ColorRGB
 90
      255
102
RTVSPost2010PropOp44
 70
     1
102
RTVSPost2010Prop45
280
     0
102
RTVSPost2010PropOp45
 70
     1
102
RTVSPost2010Prop46
 90
       50
102
RTVSPost2010PropOp46
 70
     1
102
RTVSPost2010Prop47
 90
       50
102
RTVSPost2010PropOp47
 70
     1
102
RTVSPost2010Prop48
 90
       50
102
RTVSPost2010PropOp48
 70
     1
102
RTVSPost2010Prop49
280
     0
102
RTVSPost2010PropOp49
 70
     1
102
RTVSPost2010Prop50
 90
       50
102
RTVSPost2010PropOp50
 70
     1
102
RTVSPost2010Prop51ColorIndex
 90
      256
102
RTVSPost2010Prop51ColorRGB
 90
-16777216
102
RTVSPost2010PropOp51
 70
     0
102
RTVSPost2010Prop52
140
1.0
102
RTVSPost2010PropOp52
 70
     0
102
RTVSPost2010Prop53
 90
        2
102
RTVSPost2010PropOp53
 70
     1
102
RTVSPost2010Prop54
  1
strokes_ogs.tif
102
RTVSPost2010PropOp54
 70
     1
102
RTVSPost2010Prop55
280
     0
102
RTVSPost2010PropOp55
 70
     1
102
RTVSPost2010Prop56
140
1.0
102
RTVSPost2010PropOp56
 70
     1
102
RTVSPost2010Prop57
140
1.0
102
RTVSPost2010PropOp57
 70
     1
  0
XRECORD
  5
41CA
102
{ACAD_REACTORS
330
41C9
102
}
330
41C9
100
AcDbXrecord
280
     1
102
RTVSPost2010Prop28
280
     0
102
RTVSPost2010PropOp28
 70
     1
102
RTVSPost2010Prop29
280
     1
102
RTVSPost2010PropOp29
 70
     1
102
RTVSPost2010Prop30
280
     1
102
RTVSPost2010PropOp30
 70
     1
102
RTVSPost2010Prop31
280
     0
102
RTVSPost2010PropOp31
 70
     1
102
RTVSPost2010Prop32
280
     0
102
RTVSPost2010PropOp32
 70
     1
102
RTVSPost2010Prop33
280
     0
102
RTVSPost2010PropOp33
 70
     1
102
RTVSPost2010Prop34
280
     0
102
RTVSPost2010PropOp34
 70
     1
102
RTVSPost2010Prop35
280
     0
102
RTVSPost2010PropOp35
 70
     1
102
RTVSPost2010Prop36
280
     0
102
RTVSPost2010PropOp36
 70
     1
102
RTVSPost2010Prop37
 90
       50
102
RTVSPost2010PropOp37
 70
     1
102
RTVSPost2010Prop38
140
0.0
102
RTVSPost2010PropOp38
 70
     1
102
RTVSPost2010Prop39
140
1.0
102
RTVSPost2010PropOp39
 70
     1
102
RTVSPost2010Prop40
 90
        0
102
RTVSPost2010PropOp40
 70
     1
102
RTVSPost2010Prop41ColorIndex
 90
       18
102
RTVSPost2010Prop41ColorRGB
 90
        0
102
RTVSPost2010PropOp41
 70
     1
102
RTVSPost2010Prop42
 90
       50
102
RTVSPost2010PropOp42
 70
     1
102
RTVSPost2010Prop43
 90
        3
102
RTVSPost2010PropOp43
 70
     1
102
RTVSPost2010Prop44ColorIndex
 90
        5
102
RTVSPost2010Prop44ColorRGB
 90
      255
102
RTVSPost2010PropOp44
 70
     1
102
RTVSPost2010Prop45
280
     0
102
RTVSPost2010PropOp45
 70
     1
102
RTVSPost2010Prop46
 90
       50
102
RTVSPost2010PropOp46
 70
     1
102
RTVSPost2010Prop47
 90
       50
102
RTVSPost2010PropOp47
 70
     1
102
RTVSPost2010Prop48
 90
       50
102
RTVSPost2010PropOp48
 70
     1
102
RTVSPost2010Prop49
280
     0
102
RTVSPost2010PropOp49
 70
     1
102
RTVSPost2010Prop50
 90
       50
102
RTVSPost2010PropOp50
 70
     1
102
RTVSPost2010Prop51ColorIndex
 90
      256
102
RTVSPost2010Prop51ColorRGB
 90
-16777216
102
RTVSPost2010PropOp51
 70
     0
102
RTVSPost2010Prop52
140
1.0
102
RTVSPost2010PropOp52
 70
     0
102
RTVSPost2010Prop53
 90
        2
102
RTVSPost2010PropOp53
 70
     1
102
RTVSPost2010Prop54
  1
strokes_ogs.tif
102
RTVSPost2010PropOp54
 70
     1
102
RTVSPost2010Prop55
280
     0
102
RTVSPost2010PropOp55
 70
     1
102
RTVSPost2010Prop56
140
1.0
102
RTVSPost2010PropOp56
 70
     1
102
RTVSPost2010Prop57
140
1.0
102
RTVSPost2010PropOp57
 70
     1
  0
XRECORD
  5
41C8
102
{ACAD_REACTORS
330
41C7
102
}
330
41C7
100
AcDbXrecord
280
     1
102
RTVSPost2010Prop28
280
     0
102
RTVSPost2010PropOp28
 70
     1
102
RTVSPost2010Prop29
280
     1
102
RTVSPost2010PropOp29
 70
     1
102
RTVSPost2010Prop30
280
     1
102
RTVSPost2010PropOp30
 70
     1
102
RTVSPost2010Prop31
280
     0
102
RTVSPost2010PropOp31
 70
     1
102
RTVSPost2010Prop32
280
     0
102
RTVSPost2010PropOp32
 70
     1
102
RTVSPost2010Prop33
280
     0
102
RTVSPost2010PropOp33
 70
     1
102
RTVSPost2010Prop34
280
     0
102
RTVSPost2010PropOp34
 70
     1
102
RTVSPost2010Prop35
280
     0
102
RTVSPost2010PropOp35
 70
     1
102
RTVSPost2010Prop36
280
     0
102
RTVSPost2010PropOp36
 70
     1
102
RTVSPost2010Prop37
 90
       50
102
RTVSPost2010PropOp37
 70
     1
102
RTVSPost2010Prop38
140
0.0
102
RTVSPost2010PropOp38
 70
     1
102
RTVSPost2010Prop39
140
1.0
102
RTVSPost2010PropOp39
 70
     1
102
RTVSPost2010Prop40
 90
        0
102
RTVSPost2010PropOp40
 70
     1
102
RTVSPost2010Prop41ColorIndex
 90
       18
102
RTVSPost2010Prop41ColorRGB
 90
        0
102
RTVSPost2010PropOp41
 70
     1
102
RTVSPost2010Prop42
 90
       50
102
RTVSPost2010PropOp42
 70
     1
102
RTVSPost2010Prop43
 90
        3
102
RTVSPost2010PropOp43
 70
     1
102
RTVSPost2010Prop44ColorIndex
 90
        5
102
RTVSPost2010Prop44ColorRGB
 90
      255
102
RTVSPost2010PropOp44
 70
     1
102
RTVSPost2010Prop45
280
     0
102
RTVSPost2010PropOp45
 70
     1
102
RTVSPost2010Prop46
 90
       50
102
RTVSPost2010PropOp46
 70
     1
102
RTVSPost2010Prop47
 90
       50
102
RTVSPost2010PropOp47
 70
     1
102
RTVSPost2010Prop48
 90
       50
102
RTVSPost2010PropOp48
 70
     1
102
RTVSPost2010Prop49
280
     0
102
RTVSPost2010PropOp49
 70
     1
102
RTVSPost2010Prop50
 90
       50
102
RTVSPost2010PropOp50
 70
     1
102
RTVSPost2010Prop51ColorIndex
 90
      256
102
RTVSPost2010Prop51ColorRGB
 90
-16777216
102
RTVSPost2010PropOp51
 70
     0
102
RTVSPost2010Prop52
140
1.0
102
RTVSPost2010PropOp52
 70
     0
102
RTVSPost2010Prop53
 90
        2
102
RTVSPost2010PropOp53
 70
     1
102
RTVSPost2010Prop54
  1
strokes_ogs.tif
102
RTVSPost2010PropOp54
 70
     1
102
RTVSPost2010Prop55
280
     0
102
RTVSPost2010PropOp55
 70
     1
102
RTVSPost2010Prop56
140
1.0
102
RTVSPost2010PropOp56
 70
     1
102
RTVSPost2010Prop57
140
1.0
102
RTVSPost2010PropOp57
 70
     1
  0
XRECORD
  5
41C4
102
{ACAD_REACTORS
330
41C3
102
}
330
41C3
100
AcDbXrecord
280
     1
102
RTVSPost2010Prop28
280
     0
102
RTVSPost2010PropOp28
 70
     1
102
RTVSPost2010Prop29
280
     1
102
RTVSPost2010PropOp29
 70
     1
102
RTVSPost2010Prop30
280
     1
102
RTVSPost2010PropOp30
 70
     1
102
RTVSPost2010Prop31
280
     0
102
RTVSPost2010PropOp31
 70
     1
102
RTVSPost2010Prop32
280
     0
102
RTVSPost2010PropOp32
 70
     1
102
RTVSPost2010Prop33
280
     0
102
RTVSPost2010PropOp33
 70
     1
102
RTVSPost2010Prop34
280
     0
102
RTVSPost2010PropOp34
 70
     1
102
RTVSPost2010Prop35
280
     0
102
RTVSPost2010PropOp35
 70
     1
102
RTVSPost2010Prop36
280
     0
102
RTVSPost2010PropOp36
 70
     1
102
RTVSPost2010Prop37
 90
       50
102
RTVSPost2010PropOp37
 70
     1
102
RTVSPost2010Prop38
140
0.0
102
RTVSPost2010PropOp38
 70
     1
102
RTVSPost2010Prop39
140
1.0
102
RTVSPost2010PropOp39
 70
     1
102
RTVSPost2010Prop40
 90
        0
102
RTVSPost2010PropOp40
 70
     1
102
RTVSPost2010Prop41ColorIndex
 90
       18
102
RTVSPost2010Prop41ColorRGB
 90
        0
102
RTVSPost2010PropOp41
 70
     1
102
RTVSPost2010Prop42
 90
       50
102
RTVSPost2010PropOp42
 70
     1
102
RTVSPost2010Prop43
 90
        3
102
RTVSPost2010PropOp43
 70
     1
102
RTVSPost2010Prop44ColorIndex
 90
        5
102
RTVSPost2010Prop44ColorRGB
 90
      255
102
RTVSPost2010PropOp44
 70
     1
102
RTVSPost2010Prop45
280
     0
102
RTVSPost2010PropOp45
 70
     1
102
RTVSPost2010Prop46
 90
       50
102
RTVSPost2010PropOp46
 70
     1
102
RTVSPost2010Prop47
 90
       50
102
RTVSPost2010PropOp47
 70
     1
102
RTVSPost2010Prop48
 90
       50
102
RTVSPost2010PropOp48
 70
     1
102
RTVSPost2010Prop49
280
     0
102
RTVSPost2010PropOp49
 70
     1
102
RTVSPost2010Prop50
 90
       50
102
RTVSPost2010PropOp50
 70
     1
102
RTVSPost2010Prop51ColorIndex
 90
      256
102
RTVSPost2010Prop51ColorRGB
 90
-16777216
102
RTVSPost2010PropOp51
 70
     0
102
RTVSPost2010Prop52
140
1.0
102
RTVSPost2010PropOp52
 70
     0
102
RTVSPost2010Prop53
 90
        2
102
RTVSPost2010PropOp53
 70
     1
102
RTVSPost2010Prop54
  1
strokes_ogs.tif
102
RTVSPost2010PropOp54
 70
     1
102
RTVSPost2010Prop55
280
     0
102
RTVSPost2010PropOp55
 70
     1
102
RTVSPost2010Prop56
140
1.0
102
RTVSPost2010PropOp56
 70
     1
102
RTVSPost2010Prop57
140
1.0
102
RTVSPost2010PropOp57
 70
     1
  0
XRECORD
  5
41D2
102
{ACAD_REACTORS
330
41D1
102
}
330
41D1
100
AcDbXrecord
280
     1
102
RTVSPost2010Prop28
280
     0
102
RTVSPost2010PropOp28
 70
     1
102
RTVSPost2010Prop29
280
     1
102
RTVSPost2010PropOp29
 70
     1
102
RTVSPost2010Prop30
280
     1
102
RTVSPost2010PropOp30
 70
     1
102
RTVSPost2010Prop31
280
     0
102
RTVSPost2010PropOp31
 70
     1
102
RTVSPost2010Prop32
280
     0
102
RTVSPost2010PropOp32
 70
     1
102
RTVSPost2010Prop33
280
     0
102
RTVSPost2010PropOp33
 70
     1
102
RTVSPost2010Prop34
280
     0
102
RTVSPost2010PropOp34
 70
     1
102
RTVSPost2010Prop35
280
     0
102
RTVSPost2010PropOp35
 70
     1
102
RTVSPost2010Prop36
280
     0
102
RTVSPost2010PropOp36
 70
     1
102
RTVSPost2010Prop37
 90
       50
102
RTVSPost2010PropOp37
 70
     1
102
RTVSPost2010Prop38
140
0.0
102
RTVSPost2010PropOp38
 70
     1
102
RTVSPost2010Prop39
140
1.0
102
RTVSPost2010PropOp39
 70
     1
102
RTVSPost2010Prop40
 90
        0
102
RTVSPost2010PropOp40
 70
     1
102
RTVSPost2010Prop41ColorIndex
 90
       18
102
RTVSPost2010Prop41ColorRGB
 90
        0
102
RTVSPost2010PropOp41
 70
     1
102
RTVSPost2010Prop42
 90
       50
102
RTVSPost2010PropOp42
 70
     1
102
RTVSPost2010Prop43
 90
        3
102
RTVSPost2010PropOp43
 70
     1
102
RTVSPost2010Prop44ColorIndex
 90
        5
102
RTVSPost2010Prop44ColorRGB
 90
      255
102
RTVSPost2010PropOp44
 70
     1
102
RTVSPost2010Prop45
280
     0
102
RTVSPost2010PropOp45
 70
     1
102
RTVSPost2010Prop46
 90
       50
102
RTVSPost2010PropOp46
 70
     1
102
RTVSPost2010Prop47
 90
       50
102
RTVSPost2010PropOp47
 70
     1
102
RTVSPost2010Prop48
 90
       50
102
RTVSPost2010PropOp48
 70
     1
102
RTVSPost2010Prop49
280
     0
102
RTVSPost2010PropOp49
 70
     1
102
RTVSPost2010Prop50
 90
       50
102
RTVSPost2010PropOp50
 70
     1
102
RTVSPost2010Prop51ColorIndex
 90
      256
102
RTVSPost2010Prop51ColorRGB
 90
-16777216
102
RTVSPost2010PropOp51
 70
     0
102
RTVSPost2010Prop52
140
1.0
102
RTVSPost2010PropOp52
 70
     0
102
RTVSPost2010Prop53
 90
        2
102
RTVSPost2010PropOp53
 70
     1
102
RTVSPost2010Prop54
  1
strokes_ogs.tif
102
RTVSPost2010PropOp54
 70
     1
102
RTVSPost2010Prop55
280
     0
102
RTVSPost2010PropOp55
 70
     1
102
RTVSPost2010Prop56
140
1.0
102
RTVSPost2010PropOp56
 70
     1
102
RTVSPost2010Prop57
140
1.0
102
RTVSPost2010PropOp57
 70
     1
  0
XRECORD
  5
41DA
102
{ACAD_REACTORS
330
41D9
102
}
330
41D9
100
AcDbXrecord
280
     1
102
RTVSPost2010Prop28
280
     0
102
RTVSPost2010PropOp28
 70
     1
102
RTVSPost2010Prop29
280
     1
102
RTVSPost2010PropOp29
 70
     1
102
RTVSPost2010Prop30
280
     1
102
RTVSPost2010PropOp30
 70
     1
102
RTVSPost2010Prop31
280
     0
102
RTVSPost2010PropOp31
 70
     1
102
RTVSPost2010Prop32
280
     0
102
RTVSPost2010PropOp32
 70
     1
102
RTVSPost2010Prop33
280
     0
102
RTVSPost2010PropOp33
 70
     1
102
RTVSPost2010Prop34
280
     0
102
RTVSPost2010PropOp34
 70
     1
102
RTVSPost2010Prop35
280
     0
102
RTVSPost2010PropOp35
 70
     1
102
RTVSPost2010Prop36
280
     0
102
RTVSPost2010PropOp36
 70
     1
102
RTVSPost2010Prop37
 90
       50
102
RTVSPost2010PropOp37
 70
     1
102
RTVSPost2010Prop38
140
0.0
102
RTVSPost2010PropOp38
 70
     1
102
RTVSPost2010Prop39
140
1.0
102
RTVSPost2010PropOp39
 70
     1
102
RTVSPost2010Prop40
 90
        0
102
RTVSPost2010PropOp40
 70
     1
102
RTVSPost2010Prop41ColorIndex
 90
       18
102
RTVSPost2010Prop41ColorRGB
 90
        0
102
RTVSPost2010PropOp41
 70
     1
102
RTVSPost2010Prop42
 90
       50
102
RTVSPost2010PropOp42
 70
     1
102
RTVSPost2010Prop43
 90
        3
102
RTVSPost2010PropOp43
 70
     1
102
RTVSPost2010Prop44ColorIndex
 90
        5
102
RTVSPost2010Prop44ColorRGB
 90
      255
102
RTVSPost2010PropOp44
 70
     1
102
RTVSPost2010Prop45
280
     0
102
RTVSPost2010PropOp45
 70
     1
102
RTVSPost2010Prop46
 90
       50
102
RTVSPost2010PropOp46
 70
     1
102
RTVSPost2010Prop47
 90
       50
102
RTVSPost2010PropOp47
 70
     1
102
RTVSPost2010Prop48
 90
       50
102
RTVSPost2010PropOp48
 70
     1
102
RTVSPost2010Prop49
280
     0
102
RTVSPost2010PropOp49
 70
     1
102
RTVSPost2010Prop50
 90
       50
102
RTVSPost2010PropOp50
 70
     1
102
RTVSPost2010Prop51ColorIndex
 90
      256
102
RTVSPost2010Prop51ColorRGB
 90
-16777216
102
RTVSPost2010PropOp51
 70
     0
102
RTVSPost2010Prop52
140
1.0
102
RTVSPost2010PropOp52
 70
     0
102
RTVSPost2010Prop53
 90
        2
102
RTVSPost2010PropOp53
 70
     1
102
RTVSPost2010Prop54
  1
strokes_ogs.tif
102
RTVSPost2010PropOp54
 70
     1
102
RTVSPost2010Prop55
280
     0
102
RTVSPost2010PropOp55
 70
     1
102
RTVSPost2010Prop56
140
1.0
102
RTVSPost2010PropOp56
 70
     1
102
RTVSPost2010Prop57
140
1.0
102
RTVSPost2010PropOp57
 70
     1
  0
XRECORD
  5
41CC
102
{ACAD_REACTORS
330
41CB
102
}
330
41CB
100
AcDbXrecord
280
     1
102
RTVSPost2010Prop28
280
     0
102
RTVSPost2010PropOp28
 70
     1
102
RTVSPost2010Prop29
280
     1
102
RTVSPost2010PropOp29
 70
     1
102
RTVSPost2010Prop30
280
     1
102
RTVSPost2010PropOp30
 70
     1
102
RTVSPost2010Prop31
280
     0
102
RTVSPost2010PropOp31
 70
     1
102
RTVSPost2010Prop32
280
     0
102
RTVSPost2010PropOp32
 70
     1
102
RTVSPost2010Prop33
280
     0
102
RTVSPost2010PropOp33
 70
     1
102
RTVSPost2010Prop34
280
     0
102
RTVSPost2010PropOp34
 70
     1
102
RTVSPost2010Prop35
280
     0
102
RTVSPost2010PropOp35
 70
     1
102
RTVSPost2010Prop36
280
     0
102
RTVSPost2010PropOp36
 70
     1
102
RTVSPost2010Prop37
 90
       50
102
RTVSPost2010PropOp37
 70
     1
102
RTVSPost2010Prop38
140
0.0
102
RTVSPost2010PropOp38
 70
     1
102
RTVSPost2010Prop39
140
1.0
102
RTVSPost2010PropOp39
 70
     1
102
RTVSPost2010Prop40
 90
        0
102
RTVSPost2010PropOp40
 70
     1
102
RTVSPost2010Prop41ColorIndex
 90
       18
102
RTVSPost2010Prop41ColorRGB
 90
        0
102
RTVSPost2010PropOp41
 70
     1
102
RTVSPost2010Prop42
 90
       50
102
RTVSPost2010PropOp42
 70
     1
102
RTVSPost2010Prop43
 90
        3
102
RTVSPost2010PropOp43
 70
     1
102
RTVSPost2010Prop44ColorIndex
 90
        5
102
RTVSPost2010Prop44ColorRGB
 90
      255
102
RTVSPost2010PropOp44
 70
     1
102
RTVSPost2010Prop45
280
     0
102
RTVSPost2010PropOp45
 70
     1
102
RTVSPost2010Prop46
 90
       50
102
RTVSPost2010PropOp46
 70
     1
102
RTVSPost2010Prop47
 90
       50
102
RTVSPost2010PropOp47
 70
     1
102
RTVSPost2010Prop48
 90
       50
102
RTVSPost2010PropOp48
 70
     1
102
RTVSPost2010Prop49
280
     0
102
RTVSPost2010PropOp49
 70
     1
102
RTVSPost2010Prop50
 90
       50
102
RTVSPost2010PropOp50
 70
     1
102
RTVSPost2010Prop51ColorIndex
 90
      256
102
RTVSPost2010Prop51ColorRGB
 90
-16777216
102
RTVSPost2010PropOp51
 70
     0
102
RTVSPost2010Prop52
140
1.0
102
RTVSPost2010PropOp52
 70
     0
102
RTVSPost2010Prop53
 90
        2
102
RTVSPost2010PropOp53
 70
     1
102
RTVSPost2010Prop54
  1
strokes_ogs.tif
102
RTVSPost2010PropOp54
 70
     1
102
RTVSPost2010Prop55
280
     0
102
RTVSPost2010PropOp55
 70
     1
102
RTVSPost2010Prop56
140
1.0
102
RTVSPost2010PropOp56
 70
     1
102
RTVSPost2010Prop57
140
1.0
102
RTVSPost2010PropOp57
 70
     1
  0
XRECORD
  5
41D0
102
{ACAD_REACTORS
330
41CF
102
}
330
41CF
100
AcDbXrecord
280
     1
102
RTVSPost2010Prop28
280
     0
102
RTVSPost2010PropOp28
 70
     1
102
RTVSPost2010Prop29
280
     1
102
RTVSPost2010PropOp29
 70
     1
102
RTVSPost2010Prop30
280
     1
102
RTVSPost2010PropOp30
 70
     1
102
RTVSPost2010Prop31
280
     0
102
RTVSPost2010PropOp31
 70
     1
102
RTVSPost2010Prop32
280
     0
102
RTVSPost2010PropOp32
 70
     1
102
RTVSPost2010Prop33
280
     0
102
RTVSPost2010PropOp33
 70
     1
102
RTVSPost2010Prop34
280
     0
102
RTVSPost2010PropOp34
 70
     1
102
RTVSPost2010Prop35
280
     0
102
RTVSPost2010PropOp35
 70
     1
102
RTVSPost2010Prop36
280
     0
102
RTVSPost2010PropOp36
 70
     1
102
RTVSPost2010Prop37
 90
       50
102
RTVSPost2010PropOp37
 70
     1
102
RTVSPost2010Prop38
140
0.0
102
RTVSPost2010PropOp38
 70
     1
102
RTVSPost2010Prop39
140
1.0
102
RTVSPost2010PropOp39
 70
     1
102
RTVSPost2010Prop40
 90
        0
102
RTVSPost2010PropOp40
 70
     1
102
RTVSPost2010Prop41ColorIndex
 90
       18
102
RTVSPost2010Prop41ColorRGB
 90
        0
102
RTVSPost2010PropOp41
 70
     1
102
RTVSPost2010Prop42
 90
       50
102
RTVSPost2010PropOp42
 70
     1
102
RTVSPost2010Prop43
 90
        3
102
RTVSPost2010PropOp43
 70
     1
102
RTVSPost2010Prop44ColorIndex
 90
        5
102
RTVSPost2010Prop44ColorRGB
 90
      255
102
RTVSPost2010PropOp44
 70
     1
102
RTVSPost2010Prop45
280
     0
102
RTVSPost2010PropOp45
 70
     1
102
RTVSPost2010Prop46
 90
       50
102
RTVSPost2010PropOp46
 70
     1
102
RTVSPost2010Prop47
 90
       50
102
RTVSPost2010PropOp47
 70
     1
102
RTVSPost2010Prop48
 90
       50
102
RTVSPost2010PropOp48
 70
     1
102
RTVSPost2010Prop49
280
     0
102
RTVSPost2010PropOp49
 70
     1
102
RTVSPost2010Prop50
 90
       50
102
RTVSPost2010PropOp50
 70
     1
102
RTVSPost2010Prop51ColorIndex
 90
      256
102
RTVSPost2010Prop51ColorRGB
 90
-16777216
102
RTVSPost2010PropOp51
 70
     0
102
RTVSPost2010Prop52
140
1.0
102
RTVSPost2010PropOp52
 70
     0
102
RTVSPost2010Prop53
 90
        2
102
RTVSPost2010PropOp53
 70
     1
102
RTVSPost2010Prop54
  1
strokes_ogs.tif
102
RTVSPost2010PropOp54
 70
     1
102
RTVSPost2010Prop55
280
     0
102
RTVSPost2010PropOp55
 70
     1
102
RTVSPost2010Prop56
140
1.0
102
RTVSPost2010PropOp56
 70
     1
102
RTVSPost2010Prop57
140
1.0
102
RTVSPost2010PropOp57
 70
     1
  0
XRECORD
  5
41EE
102
{ACAD_REACTORS
330
41ED
102
}
330
41ED
100
AcDbXrecord
280
     1
102
RTVSPost2010Prop28
280
     0
102
RTVSPost2010PropOp28
 70
     1
102
RTVSPost2010Prop29
280
     1
102
RTVSPost2010PropOp29
 70
     1
102
RTVSPost2010Prop30
280
     1
102
RTVSPost2010PropOp30
 70
     1
102
RTVSPost2010Prop31
280
     0
102
RTVSPost2010PropOp31
 70
     1
102
RTVSPost2010Prop32
280
     0
102
RTVSPost2010PropOp32
 70
     1
102
RTVSPost2010Prop33
280
     0
102
RTVSPost2010PropOp33
 70
     1
102
RTVSPost2010Prop34
280
     0
102
RTVSPost2010PropOp34
 70
     1
102
RTVSPost2010Prop35
280
     0
102
RTVSPost2010PropOp35
 70
     1
102
RTVSPost2010Prop36
280
     0
102
RTVSPost2010PropOp36
 70
     1
102
RTVSPost2010Prop37
 90
       50
102
RTVSPost2010PropOp37
 70
     0
102
RTVSPost2010Prop38
140
0.0
102
RTVSPost2010PropOp38
 70
     0
102
RTVSPost2010Prop39
140
1.0
102
RTVSPost2010PropOp39
 70
     0
102
RTVSPost2010Prop40
 90
        0
102
RTVSPost2010PropOp40
 70
     0
102
RTVSPost2010Prop41ColorIndex
 90
       18
102
RTVSPost2010Prop41ColorRGB
 90
        0
102
RTVSPost2010PropOp41
 70
     0
102
RTVSPost2010Prop42
 90
       50
102
RTVSPost2010PropOp42
 70
     0
102
RTVSPost2010Prop43
 90
        3
102
RTVSPost2010PropOp43
 70
     0
102
RTVSPost2010Prop44ColorIndex
 90
        5
102
RTVSPost2010Prop44ColorRGB
 90
      255
102
RTVSPost2010PropOp44
 70
     0
102
RTVSPost2010Prop45
280
     0
102
RTVSPost2010PropOp45
 70
     1
102
RTVSPost2010Prop46
 90
       50
102
RTVSPost2010PropOp46
 70
     0
102
RTVSPost2010Prop47
 90
       50
102
RTVSPost2010PropOp47
 70
     0
102
RTVSPost2010Prop48
 90
       50
102
RTVSPost2010PropOp48
 70
     0
102
RTVSPost2010Prop49
280
     0
102
RTVSPost2010PropOp49
 70
     1
102
RTVSPost2010Prop50
 90
       50
102
RTVSPost2010PropOp50
 70
     0
102
RTVSPost2010Prop51ColorIndex
 90
      256
102
RTVSPost2010Prop51ColorRGB
 90
-16777216
102
RTVSPost2010PropOp51
 70
     0
102
RTVSPost2010Prop52
140
1.0
102
RTVSPost2010PropOp52
 70
     0
102
RTVSPost2010Prop53
 90
        2
102
RTVSPost2010PropOp53
 70
     0
102
RTVSPost2010Prop54
  1
strokes_ogs.tif
102
RTVSPost2010PropOp54
 70
     0
102
RTVSPost2010Prop55
280
     0
102
RTVSPost2010PropOp55
 70
     1
102
RTVSPost2010Prop56
140
1.0
102
RTVSPost2010PropOp56
 70
     0
102
RTVSPost2010Prop57
140
1.0
102
RTVSPost2010PropOp57
 70
     0
  0
XRECORD
  5
41D8
102
{ACAD_REACTORS
330
41D7
102
}
330
41D7
100
AcDbXrecord
280
     1
102
RTVSPost2010Prop28
280
     0
102
RTVSPost2010PropOp28
 70
     1
102
RTVSPost2010Prop29
280
     1
102
RTVSPost2010PropOp29
 70
     1
102
RTVSPost2010Prop30
280
     1
102
RTVSPost2010PropOp30
 70
     1
102
RTVSPost2010Prop31
280
     0
102
RTVSPost2010PropOp31
 70
     1
102
RTVSPost2010Prop32
280
     0
102
RTVSPost2010PropOp32
 70
     1
102
RTVSPost2010Prop33
280
     0
102
RTVSPost2010PropOp33
 70
     1
102
RTVSPost2010Prop34
280
     0
102
RTVSPost2010PropOp34
 70
     1
102
RTVSPost2010Prop35
280
     0
102
RTVSPost2010PropOp35
 70
     1
102
RTVSPost2010Prop36
280
     0
102
RTVSPost2010PropOp36
 70
     1
102
RTVSPost2010Prop37
 90
       50
102
RTVSPost2010PropOp37
 70
     1
102
RTVSPost2010Prop38
140
0.0
102
RTVSPost2010PropOp38
 70
     1
102
RTVSPost2010Prop39
140
1.0
102
RTVSPost2010PropOp39
 70
     1
102
RTVSPost2010Prop40
 90
        0
102
RTVSPost2010PropOp40
 70
     1
102
RTVSPost2010Prop41ColorIndex
 90
       18
102
RTVSPost2010Prop41ColorRGB
 90
        0
102
RTVSPost2010PropOp41
 70
     1
102
RTVSPost2010Prop42
 90
       50
102
RTVSPost2010PropOp42
 70
     1
102
RTVSPost2010Prop43
 90
        3
102
RTVSPost2010PropOp43
 70
     1
102
RTVSPost2010Prop44ColorIndex
 90
        5
102
RTVSPost2010Prop44ColorRGB
 90
      255
102
RTVSPost2010PropOp44
 70
     1
102
RTVSPost2010Prop45
280
     0
102
RTVSPost2010PropOp45
 70
     1
102
RTVSPost2010Prop46
 90
       50
102
RTVSPost2010PropOp46
 70
     1
102
RTVSPost2010Prop47
 90
       50
102
RTVSPost2010PropOp47
 70
     1
102
RTVSPost2010Prop48
 90
       50
102
RTVSPost2010PropOp48
 70
     1
102
RTVSPost2010Prop49
280
     0
102
RTVSPost2010PropOp49
 70
     1
102
RTVSPost2010Prop50
 90
       50
102
RTVSPost2010PropOp50
 70
     1
102
RTVSPost2010Prop51ColorIndex
 90
      256
102
RTVSPost2010Prop51ColorRGB
 90
-16777216
102
RTVSPost2010PropOp51
 70
     0
102
RTVSPost2010Prop52
140
1.0
102
RTVSPost2010PropOp52
 70
     0
102
RTVSPost2010Prop53
 90
        2
102
RTVSPost2010PropOp53
 70
     1
102
RTVSPost2010Prop54
  1
strokes_ogs.tif
102
RTVSPost2010PropOp54
 70
     1
102
RTVSPost2010Prop55
280
     0
102
RTVSPost2010PropOp55
 70
     1
102
RTVSPost2010Prop56
140
1.0
102
RTVSPost2010PropOp56
 70
     1
102
RTVSPost2010Prop57
140
1.0
102
RTVSPost2010PropOp57
 70
     1
  0
XRECORD
  5
41BC
102
{ACAD_REACTORS
330
41BB
102
}
330
41BB
100
AcDbXrecord
280
     1
102
RTVSPost2010Prop28
280
     0
102
RTVSPost2010PropOp28
 70
     1
102
RTVSPost2010Prop29
280
     1
102
RTVSPost2010PropOp29
 70
     1
102
RTVSPost2010Prop30
280
     1
102
RTVSPost2010PropOp30
 70
     1
102
RTVSPost2010Prop31
280
     0
102
RTVSPost2010PropOp31
 70
     1
102
RTVSPost2010Prop32
280
     0
102
RTVSPost2010PropOp32
 70
     1
102
RTVSPost2010Prop33
280
     0
102
RTVSPost2010PropOp33
 70
     1
102
RTVSPost2010Prop34
280
     0
102
RTVSPost2010PropOp34
 70
     1
102
RTVSPost2010Prop35
280
     0
102
RTVSPost2010PropOp35
 70
     1
102
RTVSPost2010Prop36
280
     0
102
RTVSPost2010PropOp36
 70
     1
102
RTVSPost2010Prop37
 90
       50
102
RTVSPost2010PropOp37
 70
     1
102
RTVSPost2010Prop38
140
0.0
102
RTVSPost2010PropOp38
 70
     1
102
RTVSPost2010Prop39
140
1.0
102
RTVSPost2010PropOp39
 70
     1
102
RTVSPost2010Prop40
 90
        0
102
RTVSPost2010PropOp40
 70
     1
102
RTVSPost2010Prop41ColorIndex
 90
       18
102
RTVSPost2010Prop41ColorRGB
 90
        0
102
RTVSPost2010PropOp41
 70
     1
102
RTVSPost2010Prop42
 90
       50
102
RTVSPost2010PropOp42
 70
     1
102
RTVSPost2010Prop43
 90
        3
102
RTVSPost2010PropOp43
 70
     1
102
RTVSPost2010Prop44ColorIndex
 90
        5
102
RTVSPost2010Prop44ColorRGB
 90
      255
102
RTVSPost2010PropOp44
 70
     1
102
RTVSPost2010Prop45
280
     0
102
RTVSPost2010PropOp45
 70
     1
102
RTVSPost2010Prop46
 90
       50
102
RTVSPost2010PropOp46
 70
     1
102
RTVSPost2010Prop47
 90
       50
102
RTVSPost2010PropOp47
 70
     1
102
RTVSPost2010Prop48
 90
       50
102
RTVSPost2010PropOp48
 70
     1
102
RTVSPost2010Prop49
280
     0
102
RTVSPost2010PropOp49
 70
     1
102
RTVSPost2010Prop50
 90
       50
102
RTVSPost2010PropOp50
 70
     1
102
RTVSPost2010Prop51ColorIndex
 90
      256
102
RTVSPost2010Prop51ColorRGB
 90
-16777216
102
RTVSPost2010PropOp51
 70
     0
102
RTVSPost2010Prop52
140
1.0
102
RTVSPost2010PropOp52
 70
     0
102
RTVSPost2010Prop53
 90
        2
102
RTVSPost2010PropOp53
 70
     1
102
RTVSPost2010Prop54
  1
strokes_ogs.tif
102
RTVSPost2010PropOp54
 70
     1
102
RTVSPost2010Prop55
280
     0
102
RTVSPost2010PropOp55
 70
     1
102
RTVSPost2010Prop56
140
1.0
102
RTVSPost2010PropOp56
 70
     1
102
RTVSPost2010Prop57
140
1.0
102
RTVSPost2010PropOp57
 70
     1
  0
XRECORD
  5
41BE
102
{ACAD_REACTORS
330
41BD
102
}
330
41BD
100
AcDbXrecord
280
     1
102
RTVSPost2010Prop28
280
     0
102
RTVSPost2010PropOp28
 70
     1
102
RTVSPost2010Prop29
280
     1
102
RTVSPost2010PropOp29
 70
     1
102
RTVSPost2010Prop30
280
     1
102
RTVSPost2010PropOp30
 70
     1
102
RTVSPost2010Prop31
280
     0
102
RTVSPost2010PropOp31
 70
     1
102
RTVSPost2010Prop32
280
     0
102
RTVSPost2010PropOp32
 70
     1
102
RTVSPost2010Prop33
280
     0
102
RTVSPost2010PropOp33
 70
     1
102
RTVSPost2010Prop34
280
     0
102
RTVSPost2010PropOp34
 70
     1
102
RTVSPost2010Prop35
280
     0
102
RTVSPost2010PropOp35
 70
     1
102
RTVSPost2010Prop36
280
     0
102
RTVSPost2010PropOp36
 70
     1
102
RTVSPost2010Prop37
 90
       50
102
RTVSPost2010PropOp37
 70
     1
102
RTVSPost2010Prop38
140
0.0
102
RTVSPost2010PropOp38
 70
     1
102
RTVSPost2010Prop39
140
1.0
102
RTVSPost2010PropOp39
 70
     1
102
RTVSPost2010Prop40
 90
        0
102
RTVSPost2010PropOp40
 70
     1
102
RTVSPost2010Prop41ColorIndex
 90
       18
102
RTVSPost2010Prop41ColorRGB
 90
        0
102
RTVSPost2010PropOp41
 70
     1
102
RTVSPost2010Prop42
 90
       50
102
RTVSPost2010PropOp42
 70
     1
102
RTVSPost2010Prop43
 90
        3
102
RTVSPost2010PropOp43
 70
     1
102
RTVSPost2010Prop44ColorIndex
 90
        5
102
RTVSPost2010Prop44ColorRGB
 90
      255
102
RTVSPost2010PropOp44
 70
     1
102
RTVSPost2010Prop45
280
     0
102
RTVSPost2010PropOp45
 70
     1
102
RTVSPost2010Prop46
 90
       50
102
RTVSPost2010PropOp46
 70
     1
102
RTVSPost2010Prop47
 90
       50
102
RTVSPost2010PropOp47
 70
     1
102
RTVSPost2010Prop48
 90
       50
102
RTVSPost2010PropOp48
 70
     1
102
RTVSPost2010Prop49
280
     0
102
RTVSPost2010PropOp49
 70
     1
102
RTVSPost2010Prop50
 90
       50
102
RTVSPost2010PropOp50
 70
     1
102
RTVSPost2010Prop51ColorIndex
 90
      256
102
RTVSPost2010Prop51ColorRGB
 90
-16777216
102
RTVSPost2010PropOp51
 70
     0
102
RTVSPost2010Prop52
140
1.0
102
RTVSPost2010PropOp52
 70
     0
102
RTVSPost2010Prop53
 90
        2
102
RTVSPost2010PropOp53
 70
     1
102
RTVSPost2010Prop54
  1
strokes_ogs.tif
102
RTVSPost2010PropOp54
 70
     1
102
RTVSPost2010Prop55
280
     0
102
RTVSPost2010PropOp55
 70
     1
102
RTVSPost2010Prop56
140
1.0
102
RTVSPost2010PropOp56
 70
     1
102
RTVSPost2010Prop57
140
1.0
102
RTVSPost2010PropOp57
 70
     1
  0
XRECORD
  5
41C0
102
{ACAD_REACTORS
330
41BF
102
}
330
41BF
100
AcDbXrecord
280
     1
102
RTVSPost2010Prop28
280
     0
102
RTVSPost2010PropOp28
 70
     1
102
RTVSPost2010Prop29
280
     1
102
RTVSPost2010PropOp29
 70
     1
102
RTVSPost2010Prop30
280
     1
102
RTVSPost2010PropOp30
 70
     1
102
RTVSPost2010Prop31
280
     0
102
RTVSPost2010PropOp31
 70
     1
102
RTVSPost2010Prop32
280
     0
102
RTVSPost2010PropOp32
 70
     1
102
RTVSPost2010Prop33
280
     0
102
RTVSPost2010PropOp33
 70
     1
102
RTVSPost2010Prop34
280
     0
102
RTVSPost2010PropOp34
 70
     1
102
RTVSPost2010Prop35
280
     0
102
RTVSPost2010PropOp35
 70
     1
102
RTVSPost2010Prop36
280
     0
102
RTVSPost2010PropOp36
 70
     1
102
RTVSPost2010Prop37
 90
       50
102
RTVSPost2010PropOp37
 70
     1
102
RTVSPost2010Prop38
140
0.0
102
RTVSPost2010PropOp38
 70
     1
102
RTVSPost2010Prop39
140
1.0
102
RTVSPost2010PropOp39
 70
     1
102
RTVSPost2010Prop40
 90
        0
102
RTVSPost2010PropOp40
 70
     1
102
RTVSPost2010Prop41ColorIndex
 90
       18
102
RTVSPost2010Prop41ColorRGB
 90
        0
102
RTVSPost2010PropOp41
 70
     1
102
RTVSPost2010Prop42
 90
       50
102
RTVSPost2010PropOp42
 70
     1
102
RTVSPost2010Prop43
 90
        3
102
RTVSPost2010PropOp43
 70
     1
102
RTVSPost2010Prop44ColorIndex
 90
        5
102
RTVSPost2010Prop44ColorRGB
 90
      255
102
RTVSPost2010PropOp44
 70
     1
102
RTVSPost2010Prop45
280
     0
102
RTVSPost2010PropOp45
 70
     1
102
RTVSPost2010Prop46
 90
       50
102
RTVSPost2010PropOp46
 70
     1
102
RTVSPost2010Prop47
 90
       50
102
RTVSPost2010PropOp47
 70
     1
102
RTVSPost2010Prop48
 90
       50
102
RTVSPost2010PropOp48
 70
     1
102
RTVSPost2010Prop49
280
     0
102
RTVSPost2010PropOp49
 70
     1
102
RTVSPost2010Prop50
 90
       50
102
RTVSPost2010PropOp50
 70
     1
102
RTVSPost2010Prop51ColorIndex
 90
      256
102
RTVSPost2010Prop51ColorRGB
 90
-16777216
102
RTVSPost2010PropOp51
 70
     0
102
RTVSPost2010Prop52
140
1.0
102
RTVSPost2010PropOp52
 70
     0
102
RTVSPost2010Prop53
 90
        2
102
RTVSPost2010PropOp53
 70
     1
102
RTVSPost2010Prop54
  1
strokes_ogs.tif
102
RTVSPost2010PropOp54
 70
     1
102
RTVSPost2010Prop55
280
     0
102
RTVSPost2010PropOp55
 70
     1
102
RTVSPost2010Prop56
140
1.0
102
RTVSPost2010PropOp56
 70
     1
102
RTVSPost2010Prop57
140
1.0
102
RTVSPost2010PropOp57
 70
     1
  0
XRECORD
  5
41C2
102
{ACAD_REACTORS
330
41C1
102
}
330
41C1
100
AcDbXrecord
280
     1
102
RTVSPost2010Prop28
280
     0
102
RTVSPost2010PropOp28
 70
     1
102
RTVSPost2010Prop29
280
     1
102
RTVSPost2010PropOp29
 70
     1
102
RTVSPost2010Prop30
280
     1
102
RTVSPost2010PropOp30
 70
     1
102
RTVSPost2010Prop31
280
     0
102
RTVSPost2010PropOp31
 70
     1
102
RTVSPost2010Prop32
280
     0
102
RTVSPost2010PropOp32
 70
     1
102
RTVSPost2010Prop33
280
     0
102
RTVSPost2010PropOp33
 70
     1
102
RTVSPost2010Prop34
280
     0
102
RTVSPost2010PropOp34
 70
     1
102
RTVSPost2010Prop35
280
     0
102
RTVSPost2010PropOp35
 70
     1
102
RTVSPost2010Prop36
280
     0
102
RTVSPost2010PropOp36
 70
     1
102
RTVSPost2010Prop37
 90
       50
102
RTVSPost2010PropOp37
 70
     1
102
RTVSPost2010Prop38
140
0.0
102
RTVSPost2010PropOp38
 70
     1
102
RTVSPost2010Prop39
140
1.0
102
RTVSPost2010PropOp39
 70
     1
102
RTVSPost2010Prop40
 90
        0
102
RTVSPost2010PropOp40
 70
     1
102
RTVSPost2010Prop41ColorIndex
 90
       18
102
RTVSPost2010Prop41ColorRGB
 90
        0
102
RTVSPost2010PropOp41
 70
     1
102
RTVSPost2010Prop42
 90
       50
102
RTVSPost2010PropOp42
 70
     1
102
RTVSPost2010Prop43
 90
        3
102
RTVSPost2010PropOp43
 70
     1
102
RTVSPost2010Prop44ColorIndex
 90
        5
102
RTVSPost2010Prop44ColorRGB
 90
      255
102
RTVSPost2010PropOp44
 70
     1
102
RTVSPost2010Prop45
280
     0
102
RTVSPost2010PropOp45
 70
     1
102
RTVSPost2010Prop46
 90
       50
102
RTVSPost2010PropOp46
 70
     1
102
RTVSPost2010Prop47
 90
       50
102
RTVSPost2010PropOp47
 70
     1
102
RTVSPost2010Prop48
 90
       50
102
RTVSPost2010PropOp48
 70
     1
102
RTVSPost2010Prop49
280
     0
102
RTVSPost2010PropOp49
 70
     1
102
RTVSPost2010Prop50
 90
       50
102
RTVSPost2010PropOp50
 70
     1
102
RTVSPost2010Prop51ColorIndex
 90
      256
102
RTVSPost2010Prop51ColorRGB
 90
-16777216
102
RTVSPost2010PropOp51
 70
     0
102
RTVSPost2010Prop52
140
1.0
102
RTVSPost2010PropOp52
 70
     0
102
RTVSPost2010Prop53
 90
        2
102
RTVSPost2010PropOp53
 70
     1
102
RTVSPost2010Prop54
  1
strokes_ogs.tif
102
RTVSPost2010PropOp54
 70
     1
102
RTVSPost2010Prop55
280
     0
102
RTVSPost2010PropOp55
 70
     1
102
RTVSPost2010Prop56
140
1.0
102
RTVSPost2010PropOp56
 70
     1
102
RTVSPost2010Prop57
140
1.0
102
RTVSPost2010PropOp57
 70
     1
  0
XRECORD
  5
41DE
102
{ACAD_REACTORS
330
41DD
102
}
330
41DD
100
AcDbXrecord
280
     1
102
RTVSPost2010Prop28
280
     0
102
RTVSPost2010PropOp28
 70
     1
102
RTVSPost2010Prop29
280
     1
102
RTVSPost2010PropOp29
 70
     1
102
RTVSPost2010Prop30
280
     1
102
RTVSPost2010PropOp30
 70
     1
102
RTVSPost2010Prop31
280
     0
102
RTVSPost2010PropOp31
 70
     1
102
RTVSPost2010Prop32
280
     0
102
RTVSPost2010PropOp32
 70
     1
102
RTVSPost2010Prop33
280
     0
102
RTVSPost2010PropOp33
 70
     1
102
RTVSPost2010Prop34
280
     0
102
RTVSPost2010PropOp34
 70
     1
102
RTVSPost2010Prop35
280
     0
102
RTVSPost2010PropOp35
 70
     1
102
RTVSPost2010Prop36
280
     0
102
RTVSPost2010PropOp36
 70
     1
102
RTVSPost2010Prop37
 90
       50
102
RTVSPost2010PropOp37
 70
     1
102
RTVSPost2010Prop38
140
0.0
102
RTVSPost2010PropOp38
 70
     1
102
RTVSPost2010Prop39
140
1.0
102
RTVSPost2010PropOp39
 70
     1
102
RTVSPost2010Prop40
 90
        0
102
RTVSPost2010PropOp40
 70
     1
102
RTVSPost2010Prop41ColorIndex
 90
       18
102
RTVSPost2010Prop41ColorRGB
 90
        0
102
RTVSPost2010PropOp41
 70
     1
102
RTVSPost2010Prop42
 90
       50
102
RTVSPost2010PropOp42
 70
     1
102
RTVSPost2010Prop43
 90
        3
102
RTVSPost2010PropOp43
 70
     1
102
RTVSPost2010Prop44ColorIndex
 90
        5
102
RTVSPost2010Prop44ColorRGB
 90
      255
102
RTVSPost2010PropOp44
 70
     1
102
RTVSPost2010Prop45
280
     0
102
RTVSPost2010PropOp45
 70
     1
102
RTVSPost2010Prop46
 90
       50
102
RTVSPost2010PropOp46
 70
     1
102
RTVSPost2010Prop47
 90
       50
102
RTVSPost2010PropOp47
 70
     1
102
RTVSPost2010Prop48
 90
       50
102
RTVSPost2010PropOp48
 70
     1
102
RTVSPost2010Prop49
280
     0
102
RTVSPost2010PropOp49
 70
     1
102
RTVSPost2010Prop50
 90
       50
102
RTVSPost2010PropOp50
 70
     1
102
RTVSPost2010Prop51ColorIndex
 90
      256
102
RTVSPost2010Prop51ColorRGB
 90
-16777216
102
RTVSPost2010PropOp51
 70
     0
102
RTVSPost2010Prop52
140
1.0
102
RTVSPost2010PropOp52
 70
     0
102
RTVSPost2010Prop53
 90
        2
102
RTVSPost2010PropOp53
 70
     1
102
RTVSPost2010Prop54
  1
strokes_ogs.tif
102
RTVSPost2010PropOp54
 70
     1
102
RTVSPost2010Prop55
280
     0
102
RTVSPost2010PropOp55
 70
     1
102
RTVSPost2010Prop56
140
1.0
102
RTVSPost2010PropOp56
 70
     1
102
RTVSPost2010Prop57
140
1.0
102
RTVSPost2010PropOp57
 70
     1
  0
XRECORD
  5
41EA
102
{ACAD_REACTORS
330
41E9
102
}
330
41E9
100
AcDbXrecord
280
     1
102
RTVSPost2010Prop28
280
     0
102
RTVSPost2010PropOp28
 70
     1
102
RTVSPost2010Prop29
280
     1
102
RTVSPost2010PropOp29
 70
     1
102
RTVSPost2010Prop30
280
     1
102
RTVSPost2010PropOp30
 70
     1
102
RTVSPost2010Prop31
280
     0
102
RTVSPost2010PropOp31
 70
     1
102
RTVSPost2010Prop32
280
     0
102
RTVSPost2010PropOp32
 70
     1
102
RTVSPost2010Prop33
280
     0
102
RTVSPost2010PropOp33
 70
     1
102
RTVSPost2010Prop34
280
     0
102
RTVSPost2010PropOp34
 70
     1
102
RTVSPost2010Prop35
280
     0
102
RTVSPost2010PropOp35
 70
     1
102
RTVSPost2010Prop36
280
     0
102
RTVSPost2010PropOp36
 70
     1
102
RTVSPost2010Prop37
 90
       50
102
RTVSPost2010PropOp37
 70
     0
102
RTVSPost2010Prop38
140
0.0
102
RTVSPost2010PropOp38
 70
     0
102
RTVSPost2010Prop39
140
1.0
102
RTVSPost2010PropOp39
 70
     0
102
RTVSPost2010Prop40
 90
        0
102
RTVSPost2010PropOp40
 70
     0
102
RTVSPost2010Prop41ColorIndex
 90
       18
102
RTVSPost2010Prop41ColorRGB
 90
        0
102
RTVSPost2010PropOp41
 70
     0
102
RTVSPost2010Prop42
 90
       50
102
RTVSPost2010PropOp42
 70
     0
102
RTVSPost2010Prop43
 90
        3
102
RTVSPost2010PropOp43
 70
     0
102
RTVSPost2010Prop44ColorIndex
 90
        5
102
RTVSPost2010Prop44ColorRGB
 90
      255
102
RTVSPost2010PropOp44
 70
     0
102
RTVSPost2010Prop45
280
     0
102
RTVSPost2010PropOp45
 70
     1
102
RTVSPost2010Prop46
 90
       50
102
RTVSPost2010PropOp46
 70
     0
102
RTVSPost2010Prop47
 90
       50
102
RTVSPost2010PropOp47
 70
     0
102
RTVSPost2010Prop48
 90
       50
102
RTVSPost2010PropOp48
 70
     0
102
RTVSPost2010Prop49
280
     0
102
RTVSPost2010PropOp49
 70
     1
102
RTVSPost2010Prop50
 90
       50
102
RTVSPost2010PropOp50
 70
     0
102
RTVSPost2010Prop51ColorIndex
 90
      256
102
RTVSPost2010Prop51ColorRGB
 90
-16777216
102
RTVSPost2010PropOp51
 70
     0
102
RTVSPost2010Prop52
140
1.0
102
RTVSPost2010PropOp52
 70
     0
102
RTVSPost2010Prop53
 90
        2
102
RTVSPost2010PropOp53
 70
     0
102
RTVSPost2010Prop54
  1
strokes_ogs.tif
102
RTVSPost2010PropOp54
 70
     0
102
RTVSPost2010Prop55
280
     0
102
RTVSPost2010PropOp55
 70
     1
102
RTVSPost2010Prop56
140
1.0
102
RTVSPost2010PropOp56
 70
     0
102
RTVSPost2010Prop57
140
1.0
102
RTVSPost2010PropOp57
 70
     0
  0
XRECORD
  5
41D6
102
{ACAD_REACTORS
330
41D5
102
}
330
41D5
100
AcDbXrecord
280
     1
102
RTVSPost2010Prop28
280
     0
102
RTVSPost2010PropOp28
 70
     1
102
RTVSPost2010Prop29
280
     1
102
RTVSPost2010PropOp29
 70
     1
102
RTVSPost2010Prop30
280
     1
102
RTVSPost2010PropOp30
 70
     1
102
RTVSPost2010Prop31
280
     0
102
RTVSPost2010PropOp31
 70
     1
102
RTVSPost2010Prop32
280
     0
102
RTVSPost2010PropOp32
 70
     1
102
RTVSPost2010Prop33
280
     0
102
RTVSPost2010PropOp33
 70
     1
102
RTVSPost2010Prop34
280
     0
102
RTVSPost2010PropOp34
 70
     1
102
RTVSPost2010Prop35
280
     0
102
RTVSPost2010PropOp35
 70
     1
102
RTVSPost2010Prop36
280
     0
102
RTVSPost2010PropOp36
 70
     1
102
RTVSPost2010Prop37
 90
       50
102
RTVSPost2010PropOp37
 70
     1
102
RTVSPost2010Prop38
140
0.0
102
RTVSPost2010PropOp38
 70
     1
102
RTVSPost2010Prop39
140
1.0
102
RTVSPost2010PropOp39
 70
     1
102
RTVSPost2010Prop40
 90
        0
102
RTVSPost2010PropOp40
 70
     1
102
RTVSPost2010Prop41ColorIndex
 90
       18
102
RTVSPost2010Prop41ColorRGB
 90
        0
102
RTVSPost2010PropOp41
 70
     1
102
RTVSPost2010Prop42
 90
       50
102
RTVSPost2010PropOp42
 70
     1
102
RTVSPost2010Prop43
 90
        3
102
RTVSPost2010PropOp43
 70
     1
102
RTVSPost2010Prop44ColorIndex
 90
        5
102
RTVSPost2010Prop44ColorRGB
 90
      255
102
RTVSPost2010PropOp44
 70
     1
102
RTVSPost2010Prop45
280
     0
102
RTVSPost2010PropOp45
 70
     1
102
RTVSPost2010Prop46
 90
       50
102
RTVSPost2010PropOp46
 70
     1
102
RTVSPost2010Prop47
 90
       50
102
RTVSPost2010PropOp47
 70
     1
102
RTVSPost2010Prop48
 90
       50
102
RTVSPost2010PropOp48
 70
     1
102
RTVSPost2010Prop49
280
     0
102
RTVSPost2010PropOp49
 70
     1
102
RTVSPost2010Prop50
 90
       50
102
RTVSPost2010PropOp50
 70
     1
102
RTVSPost2010Prop51ColorIndex
 90
      256
102
RTVSPost2010Prop51ColorRGB
 90
-16777216
102
RTVSPost2010PropOp51
 70
     0
102
RTVSPost2010Prop52
140
1.0
102
RTVSPost2010PropOp52
 70
     0
102
RTVSPost2010Prop53
 90
        2
102
RTVSPost2010PropOp53
 70
     1
102
RTVSPost2010Prop54
  1
strokes_ogs.tif
102
RTVSPost2010PropOp54
 70
     1
102
RTVSPost2010Prop55
280
     0
102
RTVSPost2010PropOp55
 70
     1
102
RTVSPost2010Prop56
140
1.0
102
RTVSPost2010PropOp56
 70
     1
102
RTVSPost2010Prop57
140
1.0
102
RTVSPost2010PropOp57
 70
     1
  0
XRECORD
  5
41EC
102
{ACAD_REACTORS
330
41EB
102
}
330
41EB
100
AcDbXrecord
280
     1
102
RTVSPost2010Prop28
280
     0
102
RTVSPost2010PropOp28
 70
     1
102
RTVSPost2010Prop29
280
     1
102
RTVSPost2010PropOp29
 70
     1
102
RTVSPost2010Prop30
280
     1
102
RTVSPost2010PropOp30
 70
     1
102
RTVSPost2010Prop31
280
     0
102
RTVSPost2010PropOp31
 70
     1
102
RTVSPost2010Prop32
280
     0
102
RTVSPost2010PropOp32
 70
     1
102
RTVSPost2010Prop33
280
     0
102
RTVSPost2010PropOp33
 70
     1
102
RTVSPost2010Prop34
280
     0
102
RTVSPost2010PropOp34
 70
     1
102
RTVSPost2010Prop35
280
     0
102
RTVSPost2010PropOp35
 70
     1
102
RTVSPost2010Prop36
280
     0
102
RTVSPost2010PropOp36
 70
     1
102
RTVSPost2010Prop37
 90
       50
102
RTVSPost2010PropOp37
 70
     0
102
RTVSPost2010Prop38
140
0.0
102
RTVSPost2010PropOp38
 70
     0
102
RTVSPost2010Prop39
140
1.0
102
RTVSPost2010PropOp39
 70
     0
102
RTVSPost2010Prop40
 90
        0
102
RTVSPost2010PropOp40
 70
     0
102
RTVSPost2010Prop41ColorIndex
 90
       18
102
RTVSPost2010Prop41ColorRGB
 90
        0
102
RTVSPost2010PropOp41
 70
     0
102
RTVSPost2010Prop42
 90
       50
102
RTVSPost2010PropOp42
 70
     0
102
RTVSPost2010Prop43
 90
        3
102
RTVSPost2010PropOp43
 70
     0
102
RTVSPost2010Prop44ColorIndex
 90
        5
102
RTVSPost2010Prop44ColorRGB
 90
      255
102
RTVSPost2010PropOp44
 70
     0
102
RTVSPost2010Prop45
280
     0
102
RTVSPost2010PropOp45
 70
     1
102
RTVSPost2010Prop46
 90
       50
102
RTVSPost2010PropOp46
 70
     0
102
RTVSPost2010Prop47
 90
       50
102
RTVSPost2010PropOp47
 70
     0
102
RTVSPost2010Prop48
 90
       50
102
RTVSPost2010PropOp48
 70
     0
102
RTVSPost2010Prop49
280
     0
102
RTVSPost2010PropOp49
 70
     1
102
RTVSPost2010Prop50
 90
       50
102
RTVSPost2010PropOp50
 70
     0
102
RTVSPost2010Prop51ColorIndex
 90
      256
102
RTVSPost2010Prop51ColorRGB
 90
-16777216
102
RTVSPost2010PropOp51
 70
     0
102
RTVSPost2010Prop52
140
1.0
102
RTVSPost2010PropOp52
 70
     0
102
RTVSPost2010Prop53
 90
        2
102
RTVSPost2010PropOp53
 70
     0
102
RTVSPost2010Prop54
  1
strokes_ogs.tif
102
RTVSPost2010PropOp54
 70
     0
102
RTVSPost2010Prop55
280
     0
102
RTVSPost2010PropOp55
 70
     1
102
RTVSPost2010Prop56
140
1.0
102
RTVSPost2010PropOp56
 70
     0
102
RTVSPost2010Prop57
140
1.0
102
RTVSPost2010PropOp57
 70
     0
  0
XRECORD
  5
41CE
102
{ACAD_REACTORS
330
41CD
102
}
330
41CD
100
AcDbXrecord
280
     1
102
RTVSPost2010Prop28
280
     0
102
RTVSPost2010PropOp28
 70
     1
102
RTVSPost2010Prop29
280
     1
102
RTVSPost2010PropOp29
 70
     1
102
RTVSPost2010Prop30
280
     1
102
RTVSPost2010PropOp30
 70
     1
102
RTVSPost2010Prop31
280
     0
102
RTVSPost2010PropOp31
 70
     1
102
RTVSPost2010Prop32
280
     0
102
RTVSPost2010PropOp32
 70
     1
102
RTVSPost2010Prop33
280
     0
102
RTVSPost2010PropOp33
 70
     1
102
RTVSPost2010Prop34
280
     0
102
RTVSPost2010PropOp34
 70
     1
102
RTVSPost2010Prop35
280
     0
102
RTVSPost2010PropOp35
 70
     1
102
RTVSPost2010Prop36
280
     0
102
RTVSPost2010PropOp36
 70
     1
102
RTVSPost2010Prop37
 90
       50
102
RTVSPost2010PropOp37
 70
     1
102
RTVSPost2010Prop38
140
0.0
102
RTVSPost2010PropOp38
 70
     1
102
RTVSPost2010Prop39
140
1.0
102
RTVSPost2010PropOp39
 70
     1
102
RTVSPost2010Prop40
 90
        0
102
RTVSPost2010PropOp40
 70
     1
102
RTVSPost2010Prop41ColorIndex
 90
       18
102
RTVSPost2010Prop41ColorRGB
 90
        0
102
RTVSPost2010PropOp41
 70
     1
102
RTVSPost2010Prop42
 90
       50
102
RTVSPost2010PropOp42
 70
     1
102
RTVSPost2010Prop43
 90
        3
102
RTVSPost2010PropOp43
 70
     1
102
RTVSPost2010Prop44ColorIndex
 90
        5
102
RTVSPost2010Prop44ColorRGB
 90
      255
102
RTVSPost2010PropOp44
 70
     1
102
RTVSPost2010Prop45
280
     0
102
RTVSPost2010PropOp45
 70
     1
102
RTVSPost2010Prop46
 90
       50
102
RTVSPost2010PropOp46
 70
     1
102
RTVSPost2010Prop47
 90
       50
102
RTVSPost2010PropOp47
 70
     1
102
RTVSPost2010Prop48
 90
       50
102
RTVSPost2010PropOp48
 70
     1
102
RTVSPost2010Prop49
280
     0
102
RTVSPost2010PropOp49
 70
     1
102
RTVSPost2010Prop50
 90
       50
102
RTVSPost2010PropOp50
 70
     1
102
RTVSPost2010Prop51ColorIndex
 90
      256
102
RTVSPost2010Prop51ColorRGB
 90
-16777216
102
RTVSPost2010PropOp51
 70
     0
102
RTVSPost2010Prop52
140
1.0
102
RTVSPost2010PropOp52
 70
     0
102
RTVSPost2010Prop53
 90
        2
102
RTVSPost2010PropOp53
 70
     1
102
RTVSPost2010Prop54
  1
strokes_ogs.tif
102
RTVSPost2010PropOp54
 70
     1
102
RTVSPost2010Prop55
280
     0
102
RTVSPost2010PropOp55
 70
     1
102
RTVSPost2010Prop56
140
1.0
102
RTVSPost2010PropOp56
 70
     1
102
RTVSPost2010Prop57
140
1.0
102
RTVSPost2010PropOp57
 70
     1
  0
XRECORD
  5
41E8
102
{ACAD_REACTORS
330
41E7
102
}
330
41E7
100
AcDbXrecord
280
     1
102
RTVSPost2010Prop28
280
     0
102
RTVSPost2010PropOp28
 70
     1
102
RTVSPost2010Prop29
280
     1
102
RTVSPost2010PropOp29
 70
     1
102
RTVSPost2010Prop30
280
     1
102
RTVSPost2010PropOp30
 70
     1
102
RTVSPost2010Prop31
280
     0
102
RTVSPost2010PropOp31
 70
     1
102
RTVSPost2010Prop32
280
     0
102
RTVSPost2010PropOp32
 70
     1
102
RTVSPost2010Prop33
280
     0
102
RTVSPost2010PropOp33
 70
     1
102
RTVSPost2010Prop34
280
     0
102
RTVSPost2010PropOp34
 70
     1
102
RTVSPost2010Prop35
280
     0
102
RTVSPost2010PropOp35
 70
     1
102
RTVSPost2010Prop36
280
     0
102
RTVSPost2010PropOp36
 70
     1
102
RTVSPost2010Prop37
 90
       50
102
RTVSPost2010PropOp37
 70
     1
102
RTVSPost2010Prop38
140
0.0
102
RTVSPost2010PropOp38
 70
     1
102
RTVSPost2010Prop39
140
1.0
102
RTVSPost2010PropOp39
 70
     1
102
RTVSPost2010Prop40
 90
        0
102
RTVSPost2010PropOp40
 70
     1
102
RTVSPost2010Prop41ColorIndex
 90
       18
102
RTVSPost2010Prop41ColorRGB
 90
        0
102
RTVSPost2010PropOp41
 70
     1
102
RTVSPost2010Prop42
 90
       50
102
RTVSPost2010PropOp42
 70
     1
102
RTVSPost2010Prop43
 90
        3
102
RTVSPost2010PropOp43
 70
     1
102
RTVSPost2010Prop44ColorIndex
 90
        5
102
RTVSPost2010Prop44ColorRGB
 90
      255
102
RTVSPost2010PropOp44
 70
     1
102
RTVSPost2010Prop45
280
     0
102
RTVSPost2010PropOp45
 70
     1
102
RTVSPost2010Prop46
 90
       50
102
RTVSPost2010PropOp46
 70
     1
102
RTVSPost2010Prop47
 90
       50
102
RTVSPost2010PropOp47
 70
     1
102
RTVSPost2010Prop48
 90
       50
102
RTVSPost2010PropOp48
 70
     1
102
RTVSPost2010Prop49
280
     0
102
RTVSPost2010PropOp49
 70
     1
102
RTVSPost2010Prop50
 90
       50
102
RTVSPost2010PropOp50
 70
     1
102
RTVSPost2010Prop51ColorIndex
 90
      256
102
RTVSPost2010Prop51ColorRGB
 90
-16777216
102
RTVSPost2010PropOp51
 70
     0
102
RTVSPost2010Prop52
140
1.0
102
RTVSPost2010PropOp52
 70
     0
102
RTVSPost2010Prop53
 90
        2
102
RTVSPost2010PropOp53
 70
     1
102
RTVSPost2010Prop54
  1
strokes_ogs.tif
102
RTVSPost2010PropOp54
 70
     1
102
RTVSPost2010Prop55
280
     0
102
RTVSPost2010PropOp55
 70
     1
102
RTVSPost2010Prop56
140
1.0
102
RTVSPost2010PropOp56
 70
     1
102
RTVSPost2010Prop57
140
1.0
102
RTVSPost2010PropOp57
 70
     1
  0
XRECORD
  5
41E6
102
{ACAD_REACTORS
330
41E5
102
}
330
41E5
100
AcDbXrecord
280
     1
102
RTVSPost2010Prop28
280
     0
102
RTVSPost2010PropOp28
 70
     1
102
RTVSPost2010Prop29
280
     1
102
RTVSPost2010PropOp29
 70
     1
102
RTVSPost2010Prop30
280
     1
102
RTVSPost2010PropOp30
 70
     1
102
RTVSPost2010Prop31
280
     0
102
RTVSPost2010PropOp31
 70
     1
102
RTVSPost2010Prop32
280
     0
102
RTVSPost2010PropOp32
 70
     1
102
RTVSPost2010Prop33
280
     0
102
RTVSPost2010PropOp33
 70
     1
102
RTVSPost2010Prop34
280
     0
102
RTVSPost2010PropOp34
 70
     1
102
RTVSPost2010Prop35
280
     0
102
RTVSPost2010PropOp35
 70
     1
102
RTVSPost2010Prop36
280
     0
102
RTVSPost2010PropOp36
 70
     1
102
RTVSPost2010Prop37
 90
       50
102
RTVSPost2010PropOp37
 70
     1
102
RTVSPost2010Prop38
140
0.0
102
RTVSPost2010PropOp38
 70
     1
102
RTVSPost2010Prop39
140
1.0
102
RTVSPost2010PropOp39
 70
     1
102
RTVSPost2010Prop40
 90
        0
102
RTVSPost2010PropOp40
 70
     1
102
RTVSPost2010Prop41ColorIndex
 90
       18
102
RTVSPost2010Prop41ColorRGB
 90
        0
102
RTVSPost2010PropOp41
 70
     1
102
RTVSPost2010Prop42
 90
       50
102
RTVSPost2010PropOp42
 70
     1
102
RTVSPost2010Prop43
 90
        3
102
RTVSPost2010PropOp43
 70
     1
102
RTVSPost2010Prop44ColorIndex
 90
        5
102
RTVSPost2010Prop44ColorRGB
 90
      255
102
RTVSPost2010PropOp44
 70
     1
102
RTVSPost2010Prop45
280
     0
102
RTVSPost2010PropOp45
 70
     1
102
RTVSPost2010Prop46
 90
       50
102
RTVSPost2010PropOp46
 70
     1
102
RTVSPost2010Prop47
 90
       50
102
RTVSPost2010PropOp47
 70
     1
102
RTVSPost2010Prop48
 90
       50
102
RTVSPost2010PropOp48
 70
     1
102
RTVSPost2010Prop49
280
     0
102
RTVSPost2010PropOp49
 70
     1
102
RTVSPost2010Prop50
 90
       50
102
RTVSPost2010PropOp50
 70
     1
102
RTVSPost2010Prop51ColorIndex
 90
      256
102
RTVSPost2010Prop51ColorRGB
 90
-16777216
102
RTVSPost2010PropOp51
 70
     0
102
RTVSPost2010Prop52
140
1.0
102
RTVSPost2010PropOp52
 70
     0
102
RTVSPost2010Prop53
 90
        2
102
RTVSPost2010PropOp53
 70
     1
102
RTVSPost2010Prop54
  1
strokes_ogs.tif
102
RTVSPost2010PropOp54
 70
     1
102
RTVSPost2010Prop55
280
     0
102
RTVSPost2010PropOp55
 70
     1
102
RTVSPost2010Prop56
140
1.0
102
RTVSPost2010PropOp56
 70
     1
102
RTVSPost2010Prop57
140
1.0
102
RTVSPost2010PropOp57
 70
     1
  0
XRECORD
  5
41E0
102
{ACAD_REACTORS
330
41DF
102
}
330
41DF
100
AcDbXrecord
280
     1
102
RTVSPost2010Prop28
280
     0
102
RTVSPost2010PropOp28
 70
     1
102
RTVSPost2010Prop29
280
     1
102
RTVSPost2010PropOp29
 70
     1
102
RTVSPost2010Prop30
280
     1
102
RTVSPost2010PropOp30
 70
     1
102
RTVSPost2010Prop31
280
     0
102
RTVSPost2010PropOp31
 70
     1
102
RTVSPost2010Prop32
280
     0
102
RTVSPost2010PropOp32
 70
     1
102
RTVSPost2010Prop33
280
     0
102
RTVSPost2010PropOp33
 70
     1
102
RTVSPost2010Prop34
280
     0
102
RTVSPost2010PropOp34
 70
     1
102
RTVSPost2010Prop35
280
     0
102
RTVSPost2010PropOp35
 70
     1
102
RTVSPost2010Prop36
280
     0
102
RTVSPost2010PropOp36
 70
     1
102
RTVSPost2010Prop37
 90
       50
102
RTVSPost2010PropOp37
 70
     1
102
RTVSPost2010Prop38
140
0.0
102
RTVSPost2010PropOp38
 70
     1
102
RTVSPost2010Prop39
140
1.0
102
RTVSPost2010PropOp39
 70
     1
102
RTVSPost2010Prop40
 90
        0
102
RTVSPost2010PropOp40
 70
     1
102
RTVSPost2010Prop41ColorIndex
 90
       18
102
RTVSPost2010Prop41ColorRGB
 90
        0
102
RTVSPost2010PropOp41
 70
     1
102
RTVSPost2010Prop42
 90
       50
102
RTVSPost2010PropOp42
 70
     1
102
RTVSPost2010Prop43
 90
        3
102
RTVSPost2010PropOp43
 70
     1
102
RTVSPost2010Prop44ColorIndex
 90
        5
102
RTVSPost2010Prop44ColorRGB
 90
      255
102
RTVSPost2010PropOp44
 70
     1
102
RTVSPost2010Prop45
280
     0
102
RTVSPost2010PropOp45
 70
     1
102
RTVSPost2010Prop46
 90
       50
102
RTVSPost2010PropOp46
 70
     1
102
RTVSPost2010Prop47
 90
       50
102
RTVSPost2010PropOp47
 70
     1
102
RTVSPost2010Prop48
 90
       50
102
RTVSPost2010PropOp48
 70
     1
102
RTVSPost2010Prop49
280
     0
102
RTVSPost2010PropOp49
 70
     1
102
RTVSPost2010Prop50
 90
       50
102
RTVSPost2010PropOp50
 70
     1
102
RTVSPost2010Prop51ColorIndex
 90
      256
102
RTVSPost2010Prop51ColorRGB
 90
-16777216
102
RTVSPost2010PropOp51
 70
     0
102
RTVSPost2010Prop52
140
1.0
102
RTVSPost2010PropOp52
 70
     0
102
RTVSPost2010Prop53
 90
        2
102
RTVSPost2010PropOp53
 70
     1
102
RTVSPost2010Prop54
  1
strokes_ogs.tif
102
RTVSPost2010PropOp54
 70
     1
102
RTVSPost2010Prop55
280
     0
102
RTVSPost2010PropOp55
 70
     1
102
RTVSPost2010Prop56
140
1.0
102
RTVSPost2010PropOp56
 70
     1
102
RTVSPost2010Prop57
140
1.0
102
RTVSPost2010PropOp57
 70
     1
  0
XRECORD
  5
41E2
102
{ACAD_REACTORS
330
41E1
102
}
330
41E1
100
AcDbXrecord
280
     1
102
RTVSPost2010Prop28
280
     0
102
RTVSPost2010PropOp28
 70
     1
102
RTVSPost2010Prop29
280
     1
102
RTVSPost2010PropOp29
 70
     1
102
RTVSPost2010Prop30
280
     1
102
RTVSPost2010PropOp30
 70
     1
102
RTVSPost2010Prop31
280
     0
102
RTVSPost2010PropOp31
 70
     1
102
RTVSPost2010Prop32
280
     0
102
RTVSPost2010PropOp32
 70
     1
102
RTVSPost2010Prop33
280
     0
102
RTVSPost2010PropOp33
 70
     1
102
RTVSPost2010Prop34
280
     0
102
RTVSPost2010PropOp34
 70
     1
102
RTVSPost2010Prop35
280
     0
102
RTVSPost2010PropOp35
 70
     1
102
RTVSPost2010Prop36
280
     0
102
RTVSPost2010PropOp36
 70
     1
102
RTVSPost2010Prop37
 90
       50
102
RTVSPost2010PropOp37
 70
     1
102
RTVSPost2010Prop38
140
0.0
102
RTVSPost2010PropOp38
 70
     1
102
RTVSPost2010Prop39
140
1.0
102
RTVSPost2010PropOp39
 70
     1
102
RTVSPost2010Prop40
 90
        0
102
RTVSPost2010PropOp40
 70
     1
102
RTVSPost2010Prop41ColorIndex
 90
       18
102
RTVSPost2010Prop41ColorRGB
 90
        0
102
RTVSPost2010PropOp41
 70
     1
102
RTVSPost2010Prop42
 90
       50
102
RTVSPost2010PropOp42
 70
     1
102
RTVSPost2010Prop43
 90
        3
102
RTVSPost2010PropOp43
 70
     1
102
RTVSPost2010Prop44ColorIndex
 90
        5
102
RTVSPost2010Prop44ColorRGB
 90
      255
102
RTVSPost2010PropOp44
 70
     1
102
RTVSPost2010Prop45
280
     0
102
RTVSPost2010PropOp45
 70
     1
102
RTVSPost2010Prop46
 90
       50
102
RTVSPost2010PropOp46
 70
     1
102
RTVSPost2010Prop47
 90
       50
102
RTVSPost2010PropOp47
 70
     1
102
RTVSPost2010Prop48
 90
       50
102
RTVSPost2010PropOp48
 70
     1
102
RTVSPost2010Prop49
280
     0
102
RTVSPost2010PropOp49
 70
     1
102
RTVSPost2010Prop50
 90
       50
102
RTVSPost2010PropOp50
 70
     1
102
RTVSPost2010Prop51ColorIndex
 90
      256
102
RTVSPost2010Prop51ColorRGB
 90
-16777216
102
RTVSPost2010PropOp51
 70
     0
102
RTVSPost2010Prop52
140
1.0
102
RTVSPost2010PropOp52
 70
     0
102
RTVSPost2010Prop53
 90
        2
102
RTVSPost2010PropOp53
 70
     1
102
RTVSPost2010Prop54
  1
strokes_ogs.tif
102
RTVSPost2010PropOp54
 70
     1
102
RTVSPost2010Prop55
280
     0
102
RTVSPost2010PropOp55
 70
     1
102
RTVSPost2010Prop56
140
1.0
102
RTVSPost2010PropOp56
 70
     1
102
RTVSPost2010Prop57
140
1.0
102
RTVSPost2010PropOp57
 70
     1
  0
XRECORD
  5
41D4
102
{ACAD_REACTORS
330
41D3
102
}
330
41D3
100
AcDbXrecord
280
     1
102
RTVSPost2010Prop28
280
     0
102
RTVSPost2010PropOp28
 70
     1
102
RTVSPost2010Prop29
280
     1
102
RTVSPost2010PropOp29
 70
     1
102
RTVSPost2010Prop30
280
     1
102
RTVSPost2010PropOp30
 70
     1
102
RTVSPost2010Prop31
280
     0
102
RTVSPost2010PropOp31
 70
     1
102
RTVSPost2010Prop32
280
     0
102
RTVSPost2010PropOp32
 70
     1
102
RTVSPost2010Prop33
280
     0
102
RTVSPost2010PropOp33
 70
     1
102
RTVSPost2010Prop34
280
     0
102
RTVSPost2010PropOp34
 70
     1
102
RTVSPost2010Prop35
280
     0
102
RTVSPost2010PropOp35
 70
     1
102
RTVSPost2010Prop36
280
     0
102
RTVSPost2010PropOp36
 70
     1
102
RTVSPost2010Prop37
 90
       50
102
RTVSPost2010PropOp37
 70
     1
102
RTVSPost2010Prop38
140
0.0
102
RTVSPost2010PropOp38
 70
     1
102
RTVSPost2010Prop39
140
1.0
102
RTVSPost2010PropOp39
 70
     1
102
RTVSPost2010Prop40
 90
        0
102
RTVSPost2010PropOp40
 70
     1
102
RTVSPost2010Prop41ColorIndex
 90
       18
102
RTVSPost2010Prop41ColorRGB
 90
        0
102
RTVSPost2010PropOp41
 70
     1
102
RTVSPost2010Prop42
 90
       50
102
RTVSPost2010PropOp42
 70
     1
102
RTVSPost2010Prop43
 90
        3
102
RTVSPost2010PropOp43
 70
     1
102
RTVSPost2010Prop44ColorIndex
 90
        5
102
RTVSPost2010Prop44ColorRGB
 90
      255
102
RTVSPost2010PropOp44
 70
     1
102
RTVSPost2010Prop45
280
     0
102
RTVSPost2010PropOp45
 70
     1
102
RTVSPost2010Prop46
 90
       50
102
RTVSPost2010PropOp46
 70
     1
102
RTVSPost2010Prop47
 90
       50
102
RTVSPost2010PropOp47
 70
     1
102
RTVSPost2010Prop48
 90
       50
102
RTVSPost2010PropOp48
 70
     1
102
RTVSPost2010Prop49
280
     0
102
RTVSPost2010PropOp49
 70
     1
102
RTVSPost2010Prop50
 90
       50
102
RTVSPost2010PropOp50
 70
     1
102
RTVSPost2010Prop51ColorIndex
 90
      256
102
RTVSPost2010Prop51ColorRGB
 90
-16777216
102
RTVSPost2010PropOp51
 70
     0
102
RTVSPost2010Prop52
140
1.0
102
RTVSPost2010PropOp52
 70
     0
102
RTVSPost2010Prop53
 90
        2
102
RTVSPost2010PropOp53
 70
     1
102
RTVSPost2010Prop54
  1
strokes_ogs.tif
102
RTVSPost2010PropOp54
 70
     1
102
RTVSPost2010Prop55
280
     0
102
RTVSPost2010PropOp55
 70
     1
102
RTVSPost2010Prop56
140
1.0
102
RTVSPost2010PropOp56
 70
     1
102
RTVSPost2010Prop57
140
1.0
102
RTVSPost2010PropOp57
 70
     1
  0
XRECORD
  5
41DC
102
{ACAD_REACTORS
330
41DB
102
}
330
41DB
100
AcDbXrecord
280
     1
102
RTVSPost2010Prop28
280
     0
102
RTVSPost2010PropOp28
 70
     1
102
RTVSPost2010Prop29
280
     1
102
RTVSPost2010PropOp29
 70
     1
102
RTVSPost2010Prop30
280
     1
102
RTVSPost2010PropOp30
 70
     1
102
RTVSPost2010Prop31
280
     0
102
RTVSPost2010PropOp31
 70
     1
102
RTVSPost2010Prop32
280
     0
102
RTVSPost2010PropOp32
 70
     1
102
RTVSPost2010Prop33
280
     0
102
RTVSPost2010PropOp33
 70
     1
102
RTVSPost2010Prop34
280
     0
102
RTVSPost2010PropOp34
 70
     1
102
RTVSPost2010Prop35
280
     0
102
RTVSPost2010PropOp35
 70
     1
102
RTVSPost2010Prop36
280
     0
102
RTVSPost2010PropOp36
 70
     1
102
RTVSPost2010Prop37
 90
       50
102
RTVSPost2010PropOp37
 70
     1
102
RTVSPost2010Prop38
140
0.0
102
RTVSPost2010PropOp38
 70
     1
102
RTVSPost2010Prop39
140
1.0
102
RTVSPost2010PropOp39
 70
     1
102
RTVSPost2010Prop40
 90
        0
102
RTVSPost2010PropOp40
 70
     1
102
RTVSPost2010Prop41ColorIndex
 90
       18
102
RTVSPost2010Prop41ColorRGB
 90
        0
102
RTVSPost2010PropOp41
 70
     1
102
RTVSPost2010Prop42
 90
       50
102
RTVSPost2010PropOp42
 70
     1
102
RTVSPost2010Prop43
 90
        3
102
RTVSPost2010PropOp43
 70
     1
102
RTVSPost2010Prop44ColorIndex
 90
        5
102
RTVSPost2010Prop44ColorRGB
 90
      255
102
RTVSPost2010PropOp44
 70
     1
102
RTVSPost2010Prop45
280
     0
102
RTVSPost2010PropOp45
 70
     1
102
RTVSPost2010Prop46
 90
       50
102
RTVSPost2010PropOp46
 70
     1
102
RTVSPost2010Prop47
 90
       50
102
RTVSPost2010PropOp47
 70
     1
102
RTVSPost2010Prop48
 90
       50
102
RTVSPost2010PropOp48
 70
     1
102
RTVSPost2010Prop49
280
     0
102
RTVSPost2010PropOp49
 70
     1
102
RTVSPost2010Prop50
 90
       50
102
RTVSPost2010PropOp50
 70
     1
102
RTVSPost2010Prop51ColorIndex
 90
      256
102
RTVSPost2010Prop51ColorRGB
 90
-16777216
102
RTVSPost2010PropOp51
 70
     0
102
RTVSPost2010Prop52
140
1.0
102
RTVSPost2010PropOp52
 70
     0
102
RTVSPost2010Prop53
 90
        2
102
RTVSPost2010PropOp53
 70
     1
102
RTVSPost2010Prop54
  1
strokes_ogs.tif
102
RTVSPost2010PropOp54
 70
     1
102
RTVSPost2010Prop55
280
     0
102
RTVSPost2010PropOp55
 70
     1
102
RTVSPost2010Prop56
140
1.0
102
RTVSPost2010PropOp56
 70
     1
102
RTVSPost2010Prop57
140
1.0
102
RTVSPost2010PropOp57
 70
     1
  0
XRECORD
  5
41E4
102
{ACAD_REACTORS
330
41E3
102
}
330
41E3
100
AcDbXrecord
280
     1
102
RTVSPost2010Prop28
280
     0
102
RTVSPost2010PropOp28
 70
     1
102
RTVSPost2010Prop29
280
     1
102
RTVSPost2010PropOp29
 70
     1
102
RTVSPost2010Prop30
280
     1
102
RTVSPost2010PropOp30
 70
     1
102
RTVSPost2010Prop31
280
     0
102
RTVSPost2010PropOp31
 70
     1
102
RTVSPost2010Prop32
280
     0
102
RTVSPost2010PropOp32
 70
     1
102
RTVSPost2010Prop33
280
     0
102
RTVSPost2010PropOp33
 70
     1
102
RTVSPost2010Prop34
280
     0
102
RTVSPost2010PropOp34
 70
     1
102
RTVSPost2010Prop35
280
     0
102
RTVSPost2010PropOp35
 70
     1
102
RTVSPost2010Prop36
280
     0
102
RTVSPost2010PropOp36
 70
     1
102
RTVSPost2010Prop37
 90
       50
102
RTVSPost2010PropOp37
 70
     1
102
RTVSPost2010Prop38
140
0.0
102
RTVSPost2010PropOp38
 70
     1
102
RTVSPost2010Prop39
140
1.0
102
RTVSPost2010PropOp39
 70
     1
102
RTVSPost2010Prop40
 90
        0
102
RTVSPost2010PropOp40
 70
     1
102
RTVSPost2010Prop41ColorIndex
 90
       18
102
RTVSPost2010Prop41ColorRGB
 90
        0
102
RTVSPost2010PropOp41
 70
     1
102
RTVSPost2010Prop42
 90
       50
102
RTVSPost2010PropOp42
 70
     1
102
RTVSPost2010Prop43
 90
        3
102
RTVSPost2010PropOp43
 70
     1
102
RTVSPost2010Prop44ColorIndex
 90
        5
102
RTVSPost2010Prop44ColorRGB
 90
      255
102
RTVSPost2010PropOp44
 70
     1
102
RTVSPost2010Prop45
280
     0
102
RTVSPost2010PropOp45
 70
     1
102
RTVSPost2010Prop46
 90
       50
102
RTVSPost2010PropOp46
 70
     1
102
RTVSPost2010Prop47
 90
       50
102
RTVSPost2010PropOp47
 70
     1
102
RTVSPost2010Prop48
 90
       50
102
RTVSPost2010PropOp48
 70
     1
102
RTVSPost2010Prop49
280
     0
102
RTVSPost2010PropOp49
 70
     1
102
RTVSPost2010Prop50
 90
       50
102
RTVSPost2010PropOp50
 70
     1
102
RTVSPost2010Prop51ColorIndex
 90
      256
102
RTVSPost2010Prop51ColorRGB
 90
-16777216
102
RTVSPost2010PropOp51
 70
     0
102
RTVSPost2010Prop52
140
1.0
102
RTVSPost2010PropOp52
 70
     0
102
RTVSPost2010Prop53
 90
        2
102
RTVSPost2010PropOp53
 70
     1
102
RTVSPost2010Prop54
  1
strokes_ogs.tif
102
RTVSPost2010PropOp54
 70
     1
102
RTVSPost2010Prop55
280
     0
102
RTVSPost2010PropOp55
 70
     1
102
RTVSPost2010Prop56
140
1.0
102
RTVSPost2010PropOp56
 70
     1
102
RTVSPost2010Prop57
140
1.0
102
RTVSPost2010PropOp57
 70
     1
  0
ENDSEC
  0
EOF
