  0
SECTION
  2
HEADER
  9
$ACADVER
  1
AC1015
  9
$ACADMAINTVER
 70
    20
  9
$DWGCODEPAGE
  3
ANSI_1252
  9
$INSBASE
 10
0.0
 20
0.0
 30
0.0
  9
$EXTMIN
 10
215.6242260574397
 20
339.9473641009714
 30
0.0
  9
$EXTMAX
 10
1587.094063630115
 20
1264.622671754352
 30
0.0
  9
$LIMMIN
 10
0.0
 20
0.0
  9
$LIMMAX
 10
420.0
 20
297.0
  9
$ORTHOMODE
 70
     0
  9
$REGENMODE
 70
     1
  9
$FILLMODE
 70
     1
  9
$QTEXTMODE
 70
     0
  9
$MIRRTEXT
 70
     0
  9
$LTSCALE
 40
1.0
  9
$ATTMODE
 70
     1
  9
$TEXTSIZE
 40
2.5
  9
$TRACEWID
 40
1.0
  9
$TEXTSTYLE
  7
Standard
  9
$CLAYER
  8
0
  9
$CELTYPE
  6
ByLayer
  9
$CECOLOR
 62
   256
  9
$CELTSCALE
 40
1.0
  9
$DISPSILH
 70
     0
  9
$DIMSCALE
 40
1.0
  9
$DIMASZ
 40
2.5
  9
$DIMEXO
 40
0.625
  9
$DIMDLI
 40
3.75
  9
$DIMRND
 40
0.0
  9
$DIMDLE
 40
0.0
  9
$DIMEXE
 40
1.25
  9
$DIMTP
 40
0.0
  9
$DIMTM
 40
0.0
  9
$DIMTXT
 40
2.5
  9
$DIMCEN
 40
2.5
  9
$DIMTSZ
 40
0.0
  9
$DIMTOL
 70
     0
  9
$DIMLIM
 70
     0
  9
$DIMTIH
 70
     0
  9
$DIMTOH
 70
     0
  9
$DIMSE1
 70
     0
  9
$DIMSE2
 70
     0
  9
$DIMTAD
 70
     1
  9
$DIMZIN
 70
     8
  9
$DIMBLK
  1

  9
$DIMASO
 70
     1
  9
$DIMSHO
 70
     1
  9
$DIMPOST
  1

  9
$DIMAPOST
  1

  9
$DIMALT
 70
     0
  9
$DIMALTD
 70
     3
  9
$DIMALTF
 40
0.03937007874016
  9
$DIMLFAC
 40
1.0
  9
$DIMTOFL
 70
     1
  9
$DIMTVP
 40
0.0
  9
$DIMTIX
 70
     0
  9
$DIMSOXD
 70
     0
  9
$DIMSAH
 70
     0
  9
$DIMBLK1
  1

  9
$DIMBLK2
  1

  9
$DIMSTYLE
  2
ISO-25
  9
$DIMCLRD
 70
     0
  9
$DIMCLRE
 70
     0
  9
$DIMCLRT
 70
     0
  9
$DIMTFAC
 40
1.0
  9
$DIMGAP
 40
0.625
  9
$DIMJUST
 70
     0
  9
$DIMSD1
 70
     0
  9
$DIMSD2
 70
     0
  9
$DIMTOLJ
 70
     0
  9
$DIMTZIN
 70
     8
  9
$DIMALTZ
 70
     0
  9
$DIMALTTZ
 70
     0
  9
$DIMUPT
 70
     0
  9
$DIMDEC
 70
     2
  9
$DIMTDEC
 70
     2
  9
$DIMALTU
 70
     2
  9
$DIMALTTD
 70
     3
  9
$DIMTXSTY
  7
Standard
  9
$DIMAUNIT
 70
     0
  9
$DIMADEC
 70
     0
  9
$DIMALTRND
 40
0.0
  9
$DIMAZIN
 70
     0
  9
$DIMDSEP
 70
    44
  9
$DIMATFIT
 70
     3
  9
$DIMFRAC
 70
     0
  9
$DIMLDRBLK
  1

  9
$DIMLUNIT
 70
     2
  9
$DIMLWD
 70
    -2
  9
$DIMLWE
 70
    -2
  9
$DIMTMOVE
 70
     0
  9
$LUNITS
 70
     2
  9
$LUPREC
 70
     4
  9
$SKETCHINC
 40
1.0
  9
$FILLETRAD
 40
0.0
  9
$AUNITS
 70
     0
  9
$AUPREC
 70
     0
  9
$MENU
  1
.
  9
$ELEVATION
 40
0.0
  9
$PELEVATION
 40
0.0
  9
$THICKNESS
 40
0.0
  9
$LIMCHECK
 70
     0
  9
$CHAMFERA
 40
0.0
  9
$CHAMFERB
 40
0.0
  9
$CHAMFERC
 40
0.0
  9
$CHAMFERD
 40
0.0
  9
$SKPOLY
 70
     0
  9
$TDCREATE
 40
2454768.552548658
  9
$TDUCREATE
 40
2454768.469215324
  9
$TDUPDATE
 40
2455740.391284282
  9
$TDUUPDATE
 40
2455740.307950949
  9
$TDINDWG
 40
0.0378979167
  9
$TDUSRTIMER
 40
0.0378959375
  9
$USRTIMER
 70
     1
  9
$ANGBASE
 50
0.0
  9
$ANGDIR
 70
     0
  9
$PDMODE
 70
     0
  9
$PDSIZE
 40
0.0
  9
$PLINEWID
 40
0.0
  9
$SPLFRAME
 70
     0
  9
$SPLINETYPE
 70
     6
  9
$SPLINESEGS
 70
     8
  9
$HANDSEED
  5
E24
  9
$SURFTAB1
 70
     6
  9
$SURFTAB2
 70
     6
  9
$SURFTYPE
 70
     6
  9
$SURFU
 70
     6
  9
$SURFV
 70
     6
  9
$UCSBASE
  2

  9
$UCSNAME
  2

  9
$UCSORG
 10
0.0
 20
0.0
 30
0.0
  9
$UCSXDIR
 10
1.0
 20
0.0
 30
0.0
  9
$UCSYDIR
 10
0.0
 20
1.0
 30
0.0
  9
$UCSORTHOREF
  2

  9
$UCSORTHOVIEW
 70
     0
  9
$UCSORGTOP
 10
0.0
 20
0.0
 30
0.0
  9
$UCSORGBOTTOM
 10
0.0
 20
0.0
 30
0.0
  9
$UCSORGLEFT
 10
0.0
 20
0.0
 30
0.0
  9
$UCSORGRIGHT
 10
0.0
 20
0.0
 30
0.0
  9
$UCSORGFRONT
 10
0.0
 20
0.0
 30
0.0
  9
$UCSORGBACK
 10
0.0
 20
0.0
 30
0.0
  9
$PUCSBASE
  2

  9
$PUCSNAME
  2

  9
$PUCSORG
 10
0.0
 20
0.0
 30
0.0
  9
$PUCSXDIR
 10
1.0
 20
0.0
 30
0.0
  9
$PUCSYDIR
 10
0.0
 20
1.0
 30
0.0
  9
$PUCSORTHOREF
  2

  9
$PUCSORTHOVIEW
 70
     0
  9
$PUCSORGTOP
 10
0.0
 20
0.0
 30
0.0
  9
$PUCSORGBOTTOM
 10
0.0
 20
0.0
 30
0.0
  9
$PUCSORGLEFT
 10
0.0
 20
0.0
 30
0.0
  9
$PUCSORGRIGHT
 10
0.0
 20
0.0
 30
0.0
  9
$PUCSORGFRONT
 10
0.0
 20
0.0
 30
0.0
  9
$PUCSORGBACK
 10
0.0
 20
0.0
 30
0.0
  9
$USERI1
 70
     0
  9
$USERI2
 70
     0
  9
$USERI3
 70
     0
  9
$USERI4
 70
     0
  9
$USERI5
 70
     0
  9
$USERR1
 40
0.0
  9
$USERR2
 40
0.0
  9
$USERR3
 40
0.0
  9
$USERR4
 40
0.0
  9
$USERR5
 40
0.0
  9
$WORLDVIEW
 70
     1
  9
$SHADEDGE
 70
     3
  9
$SHADEDIF
 70
    70
  9
$TILEMODE
 70
     1
  9
$MAXACTVP
 70
    64
  9
$PINSBASE
 10
0.0
 20
0.0
 30
0.0
  9
$PLIMCHECK
 70
     0
  9
$PEXTMIN
 10
0.0
 20
0.0
 30
0.0
  9
$PEXTMAX
 10
0.0
 20
0.0
 30
0.0
  9
$PLIMMIN
 10
0.0
 20
0.0
  9
$PLIMMAX
 10
12.0
 20
9.0
  9
$UNITMODE
 70
     0
  9
$VISRETAIN
 70
     1
  9
$PLINEGEN
 70
     0
  9
$PSLTSCALE
 70
     1
  9
$TREEDEPTH
 70
  3020
  9
$CMLSTYLE
  2
Standard
  9
$CMLJUST
 70
     0
  9
$CMLSCALE
 40
20.0
  9
$PROXYGRAPHICS
 70
     1
  9
$MEASUREMENT
 70
     1
  9
$CELWEIGHT
370
    -1
  9
$ENDCAPS
280
     0
  9
$JOINSTYLE
280
     0
  9
$LWDISPLAY
290
     0
  9
$INSUNITS
 70
     4
  9
$HYPERLINKBASE
  1

  9
$STYLESHEET
  1

  9
$XEDIT
290
     1
  9
$CEPSNTYPE
380
     0
  9
$PSTYLEMODE
290
     1
  9
$FINGERPRINTGUID
  2
{A9F5D530-972F-4813-857A-78B9B08CAD27}
  9
$VERSIONGUID
  2
{87A0BB7E-1214-4273-A820-A17A0670F4CD}
  9
$EXTNAMES
290
     1
  9
$PSVPSCALE
 40
0.0
  9
$OLESTARTUP
290
     0
  0
ENDSEC
  0
SECTION
  2
CLASSES
  0
CLASS
  1
ACDBDICTIONARYWDFLT
  2
AcDbDictionaryWithDefault
  3
ObjectDBX Classes
 90
        0
280
     0
281
     0
  0
CLASS
  1
DICTIONARYVAR
  2
AcDbDictionaryVar
  3
ObjectDBX Classes
 90
        0
280
     0
281
     0
  0
CLASS
  1
TABLESTYLE
  2
AcDbTableStyle
  3
ObjectDBX Classes
 90
     4095
280
     0
281
     0
  0
CLASS
  1
MATERIAL
  2
AcDbMaterial
  3
ObjectDBX Classes
 90
     1024
280
     0
281
     0
  0
CLASS
  1
VISUALSTYLE
  2
AcDbVisualStyle
  3
ObjectDBX Classes
 90
     4095
280
     0
281
     0
  0
CLASS
  1
SORTENTSTABLE
  2
AcDbSortentsTable
  3
ObjectDBX Classes
 90
        0
280
     0
281
     0
  0
CLASS
  1
DIMASSOC
  2
AcDbDimAssoc
  3
"AcDbDimAssoc|Product Desc:     AcDim ARX App For Dimension|Company:          Autodesk, Inc.|WEB Address:      www.autodesk.com"
 90
        0
280
     0
281
     0
  0
CLASS
  1
ACDBPLACEHOLDER
  2
AcDbPlaceHolder
  3
ObjectDBX Classes
 90
        0
280
     0
281
     0
  0
CLASS
  1
LAYOUT
  2
AcDbLayout
  3
ObjectDBX Classes
 90
        0
280
     0
281
     0
  0
ENDSEC
  0
SECTION
  2
TABLES
  0
TABLE
  2
VPORT
  5
8
330
0
100
AcDbSymbolTable
 70
     1
  0
VPORT
  5
EA
330
8
100
AcDbSymbolTableRecord
100
AcDbViewportTableRecord
  2
*Active
 70
     0
 10
0.0
 20
0.0
 11
1.0
 21
1.0
 12
1168.819304295014
 22
746.7284777570528
 13
0.0
 23
0.0
 14
10.0
 24
10.0
 15
10.0
 25
10.0
 16
0.0
 26
0.0
 36
1.0
 17
0.0
 27
0.0
 37
0.0
 40
1783.506715439228
 41
1.881538461538461
 42
50.0
 43
0.0
 44
0.0
 50
0.0
 51
0.0
 71
     0
 72
  1000
 73
     1
 74
     3
 75
     0
 76
     0
 77
     0
 78
     0
281
     0
 65
     1
110
0.0
120
0.0
130
0.0
111
1.0
121
0.0
131
0.0
112
0.0
122
1.0
132
0.0
 79
     0
146
0.0
  0
ENDTAB
  0
TABLE
  2
LTYPE
  5
5
330
0
100
AcDbSymbolTable
 70
     2
  0
LTYPE
  5
14
330
5
100
AcDbSymbolTableRecord
100
AcDbLinetypeTableRecord
  2
ByBlock
 70
     0
  3

 72
    65
 73
     0
 40
0.0
  0
LTYPE
  5
15
330
5
100
AcDbSymbolTableRecord
100
AcDbLinetypeTableRecord
  2
ByLayer
 70
     0
  3

 72
    65
 73
     0
 40
0.0
  0
LTYPE
  5
16
330
5
100
AcDbSymbolTableRecord
100
AcDbLinetypeTableRecord
  2
Continuous
 70
     0
  3
Solid line
 72
    65
 73
     0
 40
0.0
  0
ENDTAB
  0
TABLE
  2
LAYER
  5
2
102
{ACAD_XDICTIONARY
360
141
102
}
330
0
100
AcDbSymbolTable
 70
     4
  0
LAYER
  5
10
330
2
100
AcDbSymbolTableRecord
100
AcDbLayerTableRecord
  2
0
 70
     0
 62
     7
  6
Continuous
370
    -3
390
F
  0
LAYER
  5
124
330
2
100
AcDbSymbolTableRecord
100
AcDbLayerTableRecord
  2
Defpoints
 70
     0
 62
     7
  6
Continuous
290
     0
370
    -3
390
F
  0
LAYER
  5
13E
330
2
100
AcDbSymbolTableRecord
100
AcDbLayerTableRecord
  2
Hewi
 70
     0
 62
     7
  6
Continuous
370
    -3
390
F
  0
LAYER
  5
736
330
2
100
AcDbSymbolTableRecord
100
AcDbLayerTableRecord
  2
1
 70
     0
 62
     7
  6
Continuous
370
    -3
390
F
  0
ENDTAB
  0
TABLE
  2
STYLE
  5
3
330
0
100
AcDbSymbolTable
 70
     3
  0
STYLE
  5
11
330
3
100
AcDbSymbolTableRecord
100
AcDbTextStyleTableRecord
  2
Standard
 70
     0
 40
0.0
 41
1.0
 50
0.0
 71
     0
 42
2.5
  3
txt
  4

  0
STYLE
  5
3DD
330
3
100
AcDbSymbolTableRecord
100
AcDbTextStyleTableRecord
  2
HEWI
 70
     0
 40
0.0
 41
1.0
 50
0.0
 71
     0
 42
40.0
  3
ARIAL.TTF
  4

1001
ACAD
1000
Arial
1071
       34
  0
STYLE
  5
3DE
330
3
100
AcDbSymbolTableRecord
100
AcDbTextStyleTableRecord
  2
ARIAL
 70
     0
 40
0.0
 41
1.0
 50
0.0
 71
     0
 42
0.0
  3
Arial
  4

  0
ENDTAB
  0
TABLE
  2
VIEW
  5
6
330
0
100
AcDbSymbolTable
 70
     0
  0
ENDTAB
  0
TABLE
  2
UCS
  5
7
330
0
100
AcDbSymbolTable
 70
     0
  0
ENDTAB
  0
TABLE
  2
APPID
  5
9
330
0
100
AcDbSymbolTable
 70
     4
  0
APPID
  5
12
330
9
100
AcDbSymbolTableRecord
100
AcDbRegAppTableRecord
  2
ACAD
 70
     0
  0
APPID
  5
9E
330
9
100
AcDbSymbolTableRecord
100
AcDbRegAppTableRecord
  2
ACAD_PSEXT
 70
     0
  0
APPID
  5
212
330
9
100
AcDbSymbolTableRecord
100
AcDbRegAppTableRecord
  2
ACAD_EXEMPT_FROM_CAD_STANDARDS
 70
     0
  0
APPID
  5
C5C
330
9
100
AcDbSymbolTableRecord
100
AcDbRegAppTableRecord
  2
AcAecLayerStandard
 70
     0
  0
ENDTAB
  0
TABLE
  2
DIMSTYLE
  5
A
330
0
100
AcDbSymbolTable
 70
     3
100
AcDbDimStyleTable
 71
     1
340
27
  0
DIMSTYLE
105
27
330
A
100
AcDbSymbolTableRecord
100
AcDbDimStyleTableRecord
  2
ISO-25
 70
     0
 41
2.5
 42
0.625
 43
3.75
 44
1.25
 73
     0
 74
     0
 77
     1
 78
     8
140
2.5
141
2.5
143
0.03937007874016
147
0.625
171
     3
172
     1
271
     2
272
     2
274
     3
278
    44
283
     0
284
     8
340
11
  0
DIMSTYLE
105
254
330
A
100
AcDbSymbolTableRecord
100
AcDbDimStyleTableRecord
  2
Standard
 70
     0
340
11
  0
ENDTAB
  0
TABLE
  2
BLOCK_RECORD
  5
1
330
0
100
AcDbSymbolTable
 70
    77
  0
BLOCK_RECORD
  5
1F
102
{ACAD_XDICTIONARY
360
116
102
}
330
1
100
AcDbSymbolTableRecord
100
AcDbBlockTableRecord
  2
*Model_Space
340
22
  0
BLOCK_RECORD
  5
D2
330
1
100
AcDbSymbolTableRecord
100
AcDbBlockTableRecord
  2
*Paper_Space
340
D3
  0
BLOCK_RECORD
  5
D6
330
1
100
AcDbSymbolTableRecord
100
AcDbBlockTableRecord
  2
*Paper_Space0
340
D7
  0
BLOCK_RECORD
  5
345
330
1
100
AcDbSymbolTableRecord
100
AcDbBlockTableRecord
  2
*D1
340
0
  0
BLOCK_RECORD
  5
34F
330
1
100
AcDbSymbolTableRecord
100
AcDbBlockTableRecord
  2
*D2
340
0
  0
BLOCK_RECORD
  5
359
330
1
100
AcDbSymbolTableRecord
100
AcDbBlockTableRecord
  2
*D3
340
0
  0
BLOCK_RECORD
  5
366
330
1
100
AcDbSymbolTableRecord
100
AcDbBlockTableRecord
  2
*D4
340
0
  0
BLOCK_RECORD
  5
373
330
1
100
AcDbSymbolTableRecord
100
AcDbBlockTableRecord
  2
*D5
340
0
  0
BLOCK_RECORD
  5
37B
330
1
100
AcDbSymbolTableRecord
100
AcDbBlockTableRecord
  2
*D6
340
0
  0
BLOCK_RECORD
  5
388
330
1
100
AcDbSymbolTableRecord
100
AcDbBlockTableRecord
  2
*D7
340
0
  0
BLOCK_RECORD
  5
395
330
1
100
AcDbSymbolTableRecord
100
AcDbBlockTableRecord
  2
*D8
340
0
  0
BLOCK_RECORD
  5
39F
330
1
100
AcDbSymbolTableRecord
100
AcDbBlockTableRecord
  2
*D9
340
0
  0
BLOCK_RECORD
  5
3A9
330
1
100
AcDbSymbolTableRecord
100
AcDbBlockTableRecord
  2
*D10
340
0
  0
BLOCK_RECORD
  5
3B6
330
1
100
AcDbSymbolTableRecord
100
AcDbBlockTableRecord
  2
*D11
340
0
  0
BLOCK_RECORD
  5
3C3
330
1
100
AcDbSymbolTableRecord
100
AcDbBlockTableRecord
  2
*D12
340
0
  0
BLOCK_RECORD
  5
3D0
330
1
100
AcDbSymbolTableRecord
100
AcDbBlockTableRecord
  2
*D13
340
0
  0
BLOCK_RECORD
  5
422
330
1
100
AcDbSymbolTableRecord
100
AcDbBlockTableRecord
  2
*D14
340
0
  0
BLOCK_RECORD
  5
42C
330
1
100
AcDbSymbolTableRecord
100
AcDbBlockTableRecord
  2
*D15
340
0
  0
BLOCK_RECORD
  5
436
330
1
100
AcDbSymbolTableRecord
100
AcDbBlockTableRecord
  2
*D16
340
0
  0
BLOCK_RECORD
  5
443
330
1
100
AcDbSymbolTableRecord
100
AcDbBlockTableRecord
  2
*D17
340
0
  0
BLOCK_RECORD
  5
450
330
1
100
AcDbSymbolTableRecord
100
AcDbBlockTableRecord
  2
*D18
340
0
  0
BLOCK_RECORD
  5
458
330
1
100
AcDbSymbolTableRecord
100
AcDbBlockTableRecord
  2
*D19
340
0
  0
BLOCK_RECORD
  5
465
330
1
100
AcDbSymbolTableRecord
100
AcDbBlockTableRecord
  2
*D20
340
0
  0
BLOCK_RECORD
  5
472
330
1
100
AcDbSymbolTableRecord
100
AcDbBlockTableRecord
  2
*D21
340
0
  0
BLOCK_RECORD
  5
47C
330
1
100
AcDbSymbolTableRecord
100
AcDbBlockTableRecord
  2
*D22
340
0
  0
BLOCK_RECORD
  5
486
330
1
100
AcDbSymbolTableRecord
100
AcDbBlockTableRecord
  2
*D23
340
0
  0
BLOCK_RECORD
  5
493
330
1
100
AcDbSymbolTableRecord
100
AcDbBlockTableRecord
  2
*D24
340
0
  0
BLOCK_RECORD
  5
4A0
330
1
100
AcDbSymbolTableRecord
100
AcDbBlockTableRecord
  2
*D25
340
0
  0
BLOCK_RECORD
  5
4AD
330
1
100
AcDbSymbolTableRecord
100
AcDbBlockTableRecord
  2
*D26
340
0
  0
BLOCK_RECORD
  5
543
330
1
100
AcDbSymbolTableRecord
100
AcDbBlockTableRecord
  2
*D27
340
0
  0
BLOCK_RECORD
  5
54D
330
1
100
AcDbSymbolTableRecord
100
AcDbBlockTableRecord
  2
*D28
340
0
  0
BLOCK_RECORD
  5
557
330
1
100
AcDbSymbolTableRecord
100
AcDbBlockTableRecord
  2
*D29
340
0
  0
BLOCK_RECORD
  5
564
330
1
100
AcDbSymbolTableRecord
100
AcDbBlockTableRecord
  2
*D30
340
0
  0
BLOCK_RECORD
  5
571
330
1
100
AcDbSymbolTableRecord
100
AcDbBlockTableRecord
  2
*D31
340
0
  0
BLOCK_RECORD
  5
579
330
1
100
AcDbSymbolTableRecord
100
AcDbBlockTableRecord
  2
*D32
340
0
  0
BLOCK_RECORD
  5
586
330
1
100
AcDbSymbolTableRecord
100
AcDbBlockTableRecord
  2
*D33
340
0
  0
BLOCK_RECORD
  5
593
330
1
100
AcDbSymbolTableRecord
100
AcDbBlockTableRecord
  2
*D34
340
0
  0
BLOCK_RECORD
  5
59D
330
1
100
AcDbSymbolTableRecord
100
AcDbBlockTableRecord
  2
*D35
340
0
  0
BLOCK_RECORD
  5
5A7
330
1
100
AcDbSymbolTableRecord
100
AcDbBlockTableRecord
  2
*D36
340
0
  0
BLOCK_RECORD
  5
5B4
330
1
100
AcDbSymbolTableRecord
100
AcDbBlockTableRecord
  2
*D37
340
0
  0
BLOCK_RECORD
  5
5C1
330
1
100
AcDbSymbolTableRecord
100
AcDbBlockTableRecord
  2
*D38
340
0
  0
BLOCK_RECORD
  5
5CE
330
1
100
AcDbSymbolTableRecord
100
AcDbBlockTableRecord
  2
*D39
340
0
  0
BLOCK_RECORD
  5
61B
330
1
100
AcDbSymbolTableRecord
100
AcDbBlockTableRecord
  2
*D40
340
0
  0
BLOCK_RECORD
  5
625
330
1
100
AcDbSymbolTableRecord
100
AcDbBlockTableRecord
  2
*D41
340
0
  0
BLOCK_RECORD
  5
62F
330
1
100
AcDbSymbolTableRecord
100
AcDbBlockTableRecord
  2
*D42
340
0
  0
BLOCK_RECORD
  5
63C
330
1
100
AcDbSymbolTableRecord
100
AcDbBlockTableRecord
  2
*D43
340
0
  0
BLOCK_RECORD
  5
649
330
1
100
AcDbSymbolTableRecord
100
AcDbBlockTableRecord
  2
*D44
340
0
  0
BLOCK_RECORD
  5
651
330
1
100
AcDbSymbolTableRecord
100
AcDbBlockTableRecord
  2
*D45
340
0
  0
BLOCK_RECORD
  5
65E
330
1
100
AcDbSymbolTableRecord
100
AcDbBlockTableRecord
  2
*D46
340
0
  0
BLOCK_RECORD
  5
66B
330
1
100
AcDbSymbolTableRecord
100
AcDbBlockTableRecord
  2
*D47
340
0
  0
BLOCK_RECORD
  5
675
330
1
100
AcDbSymbolTableRecord
100
AcDbBlockTableRecord
  2
*D48
340
0
  0
BLOCK_RECORD
  5
67F
330
1
100
AcDbSymbolTableRecord
100
AcDbBlockTableRecord
  2
*D49
340
0
  0
BLOCK_RECORD
  5
68C
330
1
100
AcDbSymbolTableRecord
100
AcDbBlockTableRecord
  2
*D50
340
0
  0
BLOCK_RECORD
  5
699
330
1
100
AcDbSymbolTableRecord
100
AcDbBlockTableRecord
  2
*D51
340
0
  0
BLOCK_RECORD
  5
6A6
330
1
100
AcDbSymbolTableRecord
100
AcDbBlockTableRecord
  2
*D52
340
0
  0
BLOCK_RECORD
  5
B42
330
1
100
AcDbSymbolTableRecord
100
AcDbBlockTableRecord
  2
*D53
340
0
  0
BLOCK_RECORD
  5
B5A
330
1
100
AcDbSymbolTableRecord
100
AcDbBlockTableRecord
  2
*D54
340
0
  0
BLOCK_RECORD
  5
B72
330
1
100
AcDbSymbolTableRecord
100
AcDbBlockTableRecord
  2
*D55
340
0
  0
BLOCK_RECORD
  5
B8A
330
1
100
AcDbSymbolTableRecord
100
AcDbBlockTableRecord
  2
*D56
340
0
  0
BLOCK_RECORD
  5
BA2
330
1
100
AcDbSymbolTableRecord
100
AcDbBlockTableRecord
  2
*D57
340
0
  0
BLOCK_RECORD
  5
BBA
330
1
100
AcDbSymbolTableRecord
100
AcDbBlockTableRecord
  2
*D58
340
0
  0
BLOCK_RECORD
  5
BD2
330
1
100
AcDbSymbolTableRecord
100
AcDbBlockTableRecord
  2
*D59
340
0
  0
BLOCK_RECORD
  5
BF2
330
1
100
AcDbSymbolTableRecord
100
AcDbBlockTableRecord
  2
*D60
340
0
  0
BLOCK_RECORD
  5
C77
330
1
100
AcDbSymbolTableRecord
100
AcDbBlockTableRecord
  2
*D61
340
0
  0
BLOCK_RECORD
  5
C8F
330
1
100
AcDbSymbolTableRecord
100
AcDbBlockTableRecord
  2
*D62
340
0
  0
BLOCK_RECORD
  5
CA8
330
1
100
AcDbSymbolTableRecord
100
AcDbBlockTableRecord
  2
*D63
340
0
  0
BLOCK_RECORD
  5
CCF
330
1
100
AcDbSymbolTableRecord
100
AcDbBlockTableRecord
  2
*D64
340
0
  0
BLOCK_RECORD
  5
CE7
330
1
100
AcDbSymbolTableRecord
100
AcDbBlockTableRecord
  2
*D65
340
0
  0
BLOCK_RECORD
  5
CFF
330
1
100
AcDbSymbolTableRecord
100
AcDbBlockTableRecord
  2
*D66
340
0
  0
BLOCK_RECORD
  5
D26
330
1
100
AcDbSymbolTableRecord
100
AcDbBlockTableRecord
  2
*D67
340
0
  0
BLOCK_RECORD
  5
D3E
330
1
100
AcDbSymbolTableRecord
100
AcDbBlockTableRecord
  2
*D68
340
0
  0
BLOCK_RECORD
  5
D56
330
1
100
AcDbSymbolTableRecord
100
AcDbBlockTableRecord
  2
*D69
340
0
  0
BLOCK_RECORD
  5
D6E
330
1
100
AcDbSymbolTableRecord
100
AcDbBlockTableRecord
  2
*D70
340
0
  0
BLOCK_RECORD
  5
D97
330
1
100
AcDbSymbolTableRecord
100
AcDbBlockTableRecord
  2
*D71
340
0
  0
BLOCK_RECORD
  5
DAF
330
1
100
AcDbSymbolTableRecord
100
AcDbBlockTableRecord
  2
*D72
340
0
  0
BLOCK_RECORD
  5
DC7
330
1
100
AcDbSymbolTableRecord
100
AcDbBlockTableRecord
  2
*D73
340
0
  0
BLOCK_RECORD
  5
DDF
330
1
100
AcDbSymbolTableRecord
100
AcDbBlockTableRecord
  2
*D74
340
0
  0
BLOCK_RECORD
  5
DF7
330
1
100
AcDbSymbolTableRecord
100
AcDbBlockTableRecord
  2
*D75
340
0
  0
ENDTAB
  0
ENDSEC
  0
SECTION
  2
BLOCKS
  0
BLOCK
  5
20
330
1F
100
AcDbEntity
  8
0
100
AcDbBlockBegin
  2
*Model_Space
 70
     0
 10
0.0
 20
0.0
 30
0.0
  3
*Model_Space
  1

  0
ENDBLK
  5
21
330
1F
100
AcDbEntity
  8
0
100
AcDbBlockEnd
  0
BLOCK
  5
D4
330
D2
100
AcDbEntity
 67
     1
  8
0
100
AcDbBlockBegin
  2
*Paper_Space
 70
     0
 10
0.0
 20
0.0
 30
0.0
  3
*Paper_Space
  1

  0
ENDBLK
  5
D5
330
D2
100
AcDbEntity
 67
     1
  8
0
100
AcDbBlockEnd
  0
BLOCK
  5
D8
330
D6
100
AcDbEntity
 67
     1
  8
0
100
AcDbBlockBegin
  2
*Paper_Space0
 70
     0
 10
0.0
 20
0.0
 30
0.0
  3
*Paper_Space0
  1

  0
ENDBLK
  5
D9
330
D6
100
AcDbEntity
 67
     1
  8
0
100
AcDbBlockEnd
  0
BLOCK
  5
346
330
345
100
AcDbEntity
  8
0
100
AcDbBlockBegin
  2
*D1
 70
     1
 10
0.0
 20
0.0
 30
0.0
  3
*D1
  1

  0
LINE
  5
347
330
345
100
AcDbEntity
  8
0
 62
     7
370
    -2
100
AcDbLine
 10
-63257.44556587276
 20
117381.8306257326
 30
0.0
 11
-63293.90042585574
 21
117365.3672365426
 31
0.0
  0
MTEXT
  5
348
330
345
100
AcDbEntity
  8
0
 62
     7
100
AcDbMText
 10
-63188.29074621882
 20
117413.0616525657
 30
0.0
 40
40.0
 41
0.0
 71
     5
 72
     1
  1
\A1;\U+2205700
  7
ARIAL
 11
0.9113714995745722
 21
0.4115847297497756
 31
0.0
 73
     1
 44
1.0
1001
ACAD
1000
MTEXTBEGIN
1070
    73
1070
     1
1070
    44
1040
1.0
1070
    74
1070
     0
1000
MTEXTEND
  0
SOLID
  5
349
330
345
100
AcDbEntity
  8
0
 62
     7
100
AcDbTrace
 10
-63296.64432405406
 20
117371.4430465397
 30
0.0
 11
-63291.15652765741
 21
117359.2914265454
 31
0.0
 12
-63330.35528583872
 22
117348.9038473526
 32
0.0
 13
-63330.35528583872
 23
117348.9038473526
 33
0.0
  0
LINE
  5
34A
330
345
100
AcDbEntity
  8
0
 62
     7
370
    -2
100
AcDbLine
 10
-63651.8353106898
 20
117204.8491919402
 30
0.0
 11
-63646.83531068981
 21
117204.8491919402
 31
0.0
  0
LINE
  5
34B
330
345
100
AcDbEntity
  8
0
 62
     7
370
    -2
100
AcDbLine
 10
-63649.33531068981
 20
117202.3491919402
 30
0.0
 11
-63649.33531068981
 21
117207.3491919402
 31
0.0
  0
POINT
  5
34C
330
345
100
AcDbEntity
  8
Defpoints
 62
     0
100
AcDbPoint
 10
-63330.35528583872
 20
117348.9038473526
 30
0.0
  0
POINT
  5
34D
330
345
100
AcDbEntity
  8
Defpoints
 62
     0
100
AcDbPoint
 10
-63968.3153355409
 20
117060.7945365278
 30
0.0
  0
ENDBLK
  5
34E
330
345
100
AcDbEntity
  8
0
100
AcDbBlockEnd
  0
BLOCK
  5
350
330
34F
100
AcDbEntity
  8
0
100
AcDbBlockBegin
  2
*D2
 70
     1
 10
0.0
 20
0.0
 30
0.0
  3
*D2
  1

  0
LINE
  5
351
330
34F
100
AcDbEntity
  8
0
 62
     7
370
    -2
100
AcDbLine
 10
-63264.33531068982
 20
117204.8491919402
 30
0.0
 11
-63304.33531068982
 21
117204.8491919402
 31
0.0
  0
MTEXT
  5
352
330
34F
100
AcDbEntity
  8
0
 62
     7
100
AcDbMText
 10
-63188.45536526008
 20
117204.8491919402
 30
0.0
 40
40.0
 41
0.0
 71
     5
 72
     1
  1
\A1;\U+2205610
  7
ARIAL
 73
     1
 44
1.0
1001
ACAD
1000
MTEXTBEGIN
1070
    73
1070
     1
1070
    44
1040
1.0
1070
    74
1070
     0
1000
MTEXTEND
  0
SOLID
  5
353
330
34F
100
AcDbEntity
  8
0
 62
     7
100
AcDbTrace
 10
-63304.33531068982
 20
117211.5158586068
 30
0.0
 11
-63304.33531068982
 21
117198.1825252735
 31
0.0
 12
-63344.33531068982
 22
117204.8491919402
 32
0.0
 13
-63344.33531068982
 23
117204.8491919402
 33
0.0
  0
LINE
  5
354
330
34F
100
AcDbEntity
  8
0
 62
     7
370
    -2
100
AcDbLine
 10
-63651.83531068981
 20
117204.8491919402
 30
0.0
 11
-63646.83531068981
 21
117204.8491919402
 31
0.0
  0
LINE
  5
355
330
34F
100
AcDbEntity
  8
0
 62
     7
370
    -2
100
AcDbLine
 10
-63649.33531068981
 20
117202.3491919402
 30
0.0
 11
-63649.33531068981
 21
117207.3491919402
 31
0.0
  0
POINT
  5
356
330
34F
100
AcDbEntity
  8
Defpoints
 62
     0
100
AcDbPoint
 10
-63344.33531068982
 20
117204.8491919402
 30
0.0
  0
POINT
  5
357
330
34F
100
AcDbEntity
  8
Defpoints
 62
     0
100
AcDbPoint
 10
-63954.33531068981
 20
117204.8491919402
 30
0.0
  0
ENDBLK
  5
358
330
34F
100
AcDbEntity
  8
0
100
AcDbBlockEnd
  0
BLOCK
  5
35A
330
359
100
AcDbEntity
  8
0
100
AcDbBlockBegin
  2
*D3
 70
     1
 10
0.0
 20
0.0
 30
0.0
  3
*D3
  1

  0
LINE
  5
35B
330
359
100
AcDbEntity
  8
0
 62
     7
370
    -2
100
AcDbLine
 10
-64929.19808058893
 20
116916.2075475753
 30
0.0
 11
-64929.19808058893
 21
116793.3021961677
 31
0.0
  0
LINE
  5
35C
330
359
100
AcDbEntity
  8
0
 62
     7
370
    -2
100
AcDbLine
 10
-64329.19808058891
 20
116916.2075475753
 30
0.0
 11
-64329.19808058891
 21
116793.3021961677
 31
0.0
  0
LINE
  5
35D
330
359
100
AcDbEntity
  8
0
 62
     7
370
    -2
100
AcDbLine
 10
-64889.19808058891
 20
116813.3021961677
 30
0.0
 11
-64683.42727567759
 21
116813.3021961677
 31
0.0
  0
LINE
  5
35E
330
359
100
AcDbEntity
  8
0
 62
     7
370
    -2
100
AcDbLine
 10
-64369.19808058893
 20
116813.3021961677
 30
0.0
 11
-64574.96888550022
 21
116813.3021961677
 31
0.0
  0
SOLID
  5
35F
330
359
100
AcDbEntity
  8
0
 62
     7
100
AcDbTrace
 10
-64889.19808058891
 20
116819.9688628343
 30
0.0
 11
-64889.19808058891
 21
116806.635529501
 31
0.0
 12
-64929.19808058893
 22
116813.3021961677
 32
0.0
 13
-64929.19808058893
 23
116813.3021961677
 33
0.0
  0
SOLID
  5
360
330
359
100
AcDbEntity
  8
0
 62
     7
100
AcDbTrace
 10
-64369.19808058893
 20
116819.9688628343
 30
0.0
 11
-64369.19808058893
 21
116806.635529501
 31
0.0
 12
-64329.19808058891
 22
116813.3021961677
 32
0.0
 13
-64329.19808058891
 23
116813.3021961677
 33
0.0
  0
MTEXT
  5
361
330
359
100
AcDbEntity
  8
0
 62
     7
100
AcDbMText
 10
-64629.19808058892
 20
116813.3021961677
 30
0.0
 40
40.0
 41
0.0
 71
     5
 72
     1
  1
\A1;600
  7
ARIAL
 73
     1
 44
1.0
1001
ACAD
1000
MTEXTBEGIN
1070
    73
1070
     1
1070
    44
1040
1.0
1070
    74
1070
     0
1000
MTEXTEND
  0
POINT
  5
362
330
359
100
AcDbEntity
  8
Defpoints
 62
     0
100
AcDbPoint
 10
-64929.19808058893
 20
116936.2075475753
 30
0.0
  0
POINT
  5
363
330
359
100
AcDbEntity
  8
Defpoints
 62
     0
100
AcDbPoint
 10
-64329.19808058891
 20
116936.2075475753
 30
0.0
  0
POINT
  5
364
330
359
100
AcDbEntity
  8
Defpoints
 62
     0
100
AcDbPoint
 10
-64329.19808058891
 20
116813.3021961677
 30
0.0
  0
ENDBLK
  5
365
330
359
100
AcDbEntity
  8
0
100
AcDbBlockEnd
  0
BLOCK
  5
367
330
366
100
AcDbEntity
  8
0
100
AcDbBlockBegin
  2
*D4
 70
     1
 10
0.0
 20
0.0
 30
0.0
  3
*D4
  1

  0
LINE
  5
368
330
366
100
AcDbEntity
  8
0
 62
     7
370
    -2
100
AcDbLine
 10
-64293.70006519806
 20
116954.8491919401
 30
0.0
 11
-64185.71035635181
 21
116954.8491919401
 31
0.0
  0
LINE
  5
369
330
366
100
AcDbEntity
  8
0
 62
     7
370
    -2
100
AcDbLine
 10
-64293.70006519806
 20
117554.8491919402
 30
0.0
 11
-64185.71035635181
 21
117554.8491919402
 31
0.0
  0
LINE
  5
36A
330
366
100
AcDbEntity
  8
0
 62
     7
370
    -2
100
AcDbLine
 10
-64205.71035635179
 20
116994.8491919401
 30
0.0
 11
-64205.71035635179
 21
117200.6199968515
 31
0.0
  0
LINE
  5
36B
330
366
100
AcDbEntity
  8
0
 62
     7
370
    -2
100
AcDbLine
 10
-64205.71035635179
 20
117514.8491919402
 30
0.0
 11
-64205.71035635179
 21
117309.0783870288
 31
0.0
  0
SOLID
  5
36C
330
366
100
AcDbEntity
  8
0
 62
     7
100
AcDbTrace
 10
-64212.37702301847
 20
116994.8491919401
 30
0.0
 11
-64199.04368968514
 21
116994.8491919401
 31
0.0
 12
-64205.71035635179
 22
116954.8491919401
 32
0.0
 13
-64205.71035635179
 23
116954.8491919401
 33
0.0
  0
SOLID
  5
36D
330
366
100
AcDbEntity
  8
0
 62
     7
100
AcDbTrace
 10
-64212.37702301847
 20
117514.8491919402
 30
0.0
 11
-64199.04368968514
 21
117514.8491919402
 31
0.0
 12
-64205.71035635179
 22
117554.8491919402
 32
0.0
 13
-64205.71035635179
 23
117554.8491919402
 33
0.0
  0
MTEXT
  5
36E
330
366
100
AcDbEntity
  8
0
 62
     7
100
AcDbMText
 10
-64205.71035635182
 20
117254.8491919402
 30
0.0
 40
40.0
 41
0.0
 71
     5
 72
     1
  1
\A1;600
  7
ARIAL
 11
0.0000000000000001
 21
1.0
 31
0.0
 73
     1
 44
1.0
1001
ACAD
1000
MTEXTBEGIN
1070
    73
1070
     1
1070
    44
1040
1.0
1070
    74
1070
     0
1000
MTEXTEND
  0
POINT
  5
36F
330
366
100
AcDbEntity
  8
Defpoints
 62
     0
100
AcDbPoint
 10
-64313.70006519806
 20
116954.8491919401
 30
0.0
  0
POINT
  5
370
330
366
100
AcDbEntity
  8
Defpoints
 62
     0
100
AcDbPoint
 10
-64313.70006519806
 20
117554.8491919402
 30
0.0
  0
POINT
  5
371
330
366
100
AcDbEntity
  8
Defpoints
 62
     0
100
AcDbPoint
 10
-64205.71035635179
 20
117554.8491919402
 30
0.0
  0
ENDBLK
  5
372
330
366
100
AcDbEntity
  8
0
100
AcDbBlockEnd
  0
BLOCK
  5
374
330
373
100
AcDbEntity
  8
0
100
AcDbBlockBegin
  2
*D5
 70
     1
 10
0.0
 20
0.0
 30
0.0
  3
*D5
  1

  0
LINE
  5
375
330
373
100
AcDbEntity
  8
0
 62
     7
370
    -2
100
AcDbLine
 10
-64575.60548499941
 20
117304.9735382127
 30
0.0
 11
-64453.91554438412
 21
117418.7883041179
 31
0.0
  0
MTEXT
  5
376
330
373
100
AcDbEntity
  8
0
 62
     7
100
AcDbMText
 10
-64631.02394034113
 20
117253.141492855
 30
0.0
 40
40.0
 41
0.0
 71
     5
 72
     1
  1
\A1;\U+2205560
  7
ARIAL
 11
0.7303439008534735
 21
0.6830796340736062
 31
0.0
 73
     1
 44
1.0
1001
ACAD
1000
MTEXTBEGIN
1070
    73
1070
     1
1070
    44
1040
1.0
1070
    74
1070
     0
1000
MTEXTEND
  0
SOLID
  5
377
330
373
100
AcDbEntity
  8
0
 62
     7
100
AcDbTrace
 10
-64458.4694086113
 20
117423.6572634569
 30
0.0
 11
-64449.36168015697
 21
117413.9193447789
 31
0.0
 12
-64424.70178834999
 22
117446.1114894808
 32
0.0
 13
-64424.70178834999
 23
117446.1114894808
 33
0.0
  0
POINT
  5
378
330
373
100
AcDbEntity
  8
Defpoints
 62
     0
100
AcDbPoint
 10
-64424.70178834999
 20
117446.1114894808
 30
0.0
  0
POINT
  5
379
330
373
100
AcDbEntity
  8
Defpoints
 62
     0
100
AcDbPoint
 10
-64833.69437282792
 20
117063.5868943996
 30
0.0
  0
ENDBLK
  5
37A
330
373
100
AcDbEntity
  8
0
100
AcDbBlockEnd
  0
BLOCK
  5
37C
330
37B
100
AcDbEntity
  8
0
100
AcDbBlockBegin
  2
*D6
 70
     1
 10
0.0
 20
0.0
 30
0.0
  3
*D6
  1

  0
LINE
  5
37D
330
37B
100
AcDbEntity
  8
0
 62
     7
370
    -2
100
AcDbLine
 10
-66005.43806262432
 20
116322.2684404283
 30
0.0
 11
-66005.43806262432
 21
116176.4478641109
 31
0.0
  0
LINE
  5
37E
330
37B
100
AcDbEntity
  8
0
 62
     7
370
    -2
100
AcDbLine
 10
-65405.43806262431
 20
116322.2684404283
 30
0.0
 11
-65405.43806262431
 21
116176.4478641109
 31
0.0
  0
LINE
  5
37F
330
37B
100
AcDbEntity
  8
0
 62
     7
370
    -2
100
AcDbLine
 10
-65965.43806262429
 20
116196.4478641109
 30
0.0
 11
-65759.66725771298
 21
116196.4478641109
 31
0.0
  0
LINE
  5
380
330
37B
100
AcDbEntity
  8
0
 62
     7
370
    -2
100
AcDbLine
 10
-65445.43806262431
 20
116196.4478641109
 30
0.0
 11
-65651.20886753564
 21
116196.4478641109
 31
0.0
  0
SOLID
  5
381
330
37B
100
AcDbEntity
  8
0
 62
     7
100
AcDbTrace
 10
-65965.43806262429
 20
116203.1145307776
 30
0.0
 11
-65965.43806262429
 21
116189.7811974442
 31
0.0
 12
-66005.43806262432
 22
116196.4478641109
 32
0.0
 13
-66005.43806262432
 23
116196.4478641109
 33
0.0
  0
SOLID
  5
382
330
37B
100
AcDbEntity
  8
0
 62
     7
100
AcDbTrace
 10
-65445.43806262431
 20
116203.1145307776
 30
0.0
 11
-65445.43806262431
 21
116189.7811974442
 31
0.0
 12
-65405.43806262431
 22
116196.4478641109
 32
0.0
 13
-65405.43806262431
 23
116196.4478641109
 33
0.0
  0
MTEXT
  5
383
330
37B
100
AcDbEntity
  8
0
 62
     7
100
AcDbMText
 10
-65705.43806262429
 20
116196.4478641109
 30
0.0
 40
40.0
 41
0.0
 71
     5
 72
     1
  1
\A1;600
  7
ARIAL
 73
     1
 44
1.0
1001
ACAD
1000
MTEXTBEGIN
1070
    73
1070
     1
1070
    44
1040
1.0
1070
    74
1070
     0
1000
MTEXTEND
  0
POINT
  5
384
330
37B
100
AcDbEntity
  8
Defpoints
 62
     0
100
AcDbPoint
 10
-66005.43806262432
 20
116342.2684404284
 30
0.0
  0
POINT
  5
385
330
37B
100
AcDbEntity
  8
Defpoints
 62
     0
100
AcDbPoint
 10
-65405.43806262431
 20
116342.2684404284
 30
0.0
  0
POINT
  5
386
330
37B
100
AcDbEntity
  8
Defpoints
 62
     0
100
AcDbPoint
 10
-65405.43806262431
 20
116196.4478641109
 30
0.0
  0
ENDBLK
  5
387
330
37B
100
AcDbEntity
  8
0
100
AcDbBlockEnd
  0
BLOCK
  5
389
330
388
100
AcDbEntity
  8
0
100
AcDbBlockBegin
  2
*D7
 70
     1
 10
0.0
 20
0.0
 30
0.0
  3
*D7
  1

  0
LINE
  5
38A
330
388
100
AcDbEntity
  8
0
 62
     7
370
    -2
100
AcDbLine
 10
-65358.41366024138
 20
117554.8491919402
 30
0.0
 11
-65204.52345025766
 21
117554.8491919402
 31
0.0
  0
LINE
  5
38B
330
388
100
AcDbEntity
  8
0
 62
     7
370
    -2
100
AcDbLine
 10
-65358.41366024138
 20
116354.8491919401
 30
0.0
 11
-65204.52345025766
 21
116354.8491919401
 31
0.0
  0
LINE
  5
38C
330
388
100
AcDbEntity
  8
0
 62
     7
370
    -2
100
AcDbLine
 10
-65224.52345025766
 20
117514.8491919402
 30
0.0
 11
-65224.52345025766
 21
117022.6254538774
 31
0.0
  0
LINE
  5
38D
330
388
100
AcDbEntity
  8
0
 62
     7
370
    -2
100
AcDbLine
 10
-65224.52345025766
 20
116394.8491919402
 30
0.0
 11
-65224.52345025766
 21
116887.0729300029
 31
0.0
  0
SOLID
  5
38E
330
388
100
AcDbEntity
  8
0
 62
     7
100
AcDbTrace
 10
-65231.19011692433
 20
117514.8491919402
 30
0.0
 11
-65217.85678359099
 21
117514.8491919402
 31
0.0
 12
-65224.52345025766
 22
117554.8491919402
 32
0.0
 13
-65224.52345025766
 23
117554.8491919402
 33
0.0
  0
SOLID
  5
38F
330
388
100
AcDbEntity
  8
0
 62
     7
100
AcDbTrace
 10
-65231.19011692433
 20
116394.8491919402
 30
0.0
 11
-65217.85678359099
 21
116394.8491919402
 31
0.0
 12
-65224.52345025766
 22
116354.8491919401
 32
0.0
 13
-65224.52345025766
 23
116354.8491919401
 33
0.0
  0
MTEXT
  5
390
330
388
100
AcDbEntity
  8
0
 62
     7
100
AcDbMText
 10
-65224.52345025769
 20
116954.8491919401
 30
0.0
 40
40.0
 41
0.0
 71
     5
 72
     1
  1
\A1;1200
  7
ARIAL
 11
0.0000000000000001
 21
1.0
 31
0.0
 73
     1
 44
1.0
1001
ACAD
1000
MTEXTBEGIN
1070
    73
1070
     1
1070
    44
1040
1.0
1070
    74
1070
     0
1000
MTEXTEND
  0
POINT
  5
391
330
388
100
AcDbEntity
  8
Defpoints
 62
     0
100
AcDbPoint
 10
-65378.41366024138
 20
117554.8491919402
 30
0.0
  0
POINT
  5
392
330
388
100
AcDbEntity
  8
Defpoints
 62
     0
100
AcDbPoint
 10
-65378.41366024138
 20
116354.8491919401
 30
0.0
  0
POINT
  5
393
330
388
100
AcDbEntity
  8
Defpoints
 62
     0
100
AcDbPoint
 10
-65224.52345025766
 20
116354.8491919401
 30
0.0
  0
ENDBLK
  5
394
330
388
100
AcDbEntity
  8
0
100
AcDbBlockEnd
  0
BLOCK
  5
396
330
395
100
AcDbEntity
  8
0
100
AcDbBlockBegin
  2
*D8
 70
     1
 10
0.0
 20
0.0
 30
0.0
  3
*D8
  1

  0
LINE
  5
397
330
395
100
AcDbEntity
  8
0
 62
     7
370
    -2
100
AcDbLine
 10
-65362.15359040022
 20
117598.3412930798
 30
0.0
 11
-65390.40462151192
 21
117570.0238207151
 31
0.0
  0
MTEXT
  5
398
330
395
100
AcDbEntity
  8
0
 62
     7
100
AcDbMText
 10
-65321.23199110574
 20
117639.3591324839
 30
0.0
 40
40.0
 41
0.0
 71
     5
 72
     1
  1
\A1;R45
  7
ARIAL
 11
0.7062757777926803
 21
0.7079368091174131
 31
0.0
 73
     1
 44
1.0
1001
ACAD
1000
MTEXTBEGIN
1070
    73
1070
     1
1070
    44
1040
1.0
1070
    74
1070
     0
1000
MTEXTEND
  0
SOLID
  5
399
330
395
100
AcDbEntity
  8
0
 62
     7
100
AcDbTrace
 10
-65395.12420023937
 20
117574.7323259004
 30
0.0
 11
-65385.68504278447
 21
117565.3153155298
 31
0.0
 12
-65418.65565262362
 22
117541.7063483504
 32
0.0
 13
-65418.65565262362
 23
117541.7063483504
 33
0.0
  0
LINE
  5
39A
330
395
100
AcDbEntity
  8
0
 62
     7
370
    -2
100
AcDbLine
 10
-65452.93806262432
 20
117509.8491919401
 30
0.0
 11
-65447.93806262433
 21
117509.8491919401
 31
0.0
  0
LINE
  5
39B
330
395
100
AcDbEntity
  8
0
 62
     7
370
    -2
100
AcDbLine
 10
-65450.43806262433
 20
117507.3491919401
 30
0.0
 11
-65450.43806262433
 21
117512.3491919401
 31
0.0
  0
POINT
  5
39C
330
395
100
AcDbEntity
  8
Defpoints
 62
     0
100
AcDbPoint
 10
-65418.65565262362
 20
117541.7063483504
 30
0.0
  0
POINT
  5
39D
330
395
100
AcDbEntity
  8
Defpoints
 62
     0
100
AcDbPoint
 10
-65450.43806262433
 20
117509.8491919401
 30
0.0
  0
ENDBLK
  5
39E
330
395
100
AcDbEntity
  8
0
100
AcDbBlockEnd
  0
BLOCK
  5
3A0
330
39F
100
AcDbEntity
  8
0
100
AcDbBlockBegin
  2
*D9
 70
     1
 10
0.0
 20
0.0
 30
0.0
  3
*D9
  1

  0
LINE
  5
3A1
330
39F
100
AcDbEntity
  8
0
 62
     7
370
    -2
100
AcDbLine
 10
-65887.28214540476
 20
117465.367973061
 30
0.0
 11
-65913.76205826744
 21
117495.3482034601
 31
0.0
  0
MTEXT
  5
3A2
330
39F
100
AcDbEntity
  8
0
 62
     7
100
AcDbMText
 10
-65849.16082473855
 20
117422.2074844816
 30
0.0
 40
40.0
 41
0.0
 71
     5
 72
     1
  1
\A1;R42
  7
ARIAL
 11
0.6619978215669464
 21
-0.749505759978279
 31
0.0
 73
     1
 44
1.0
1001
ACAD
1000
MTEXTBEGIN
1070
    73
1070
     1
1070
    44
1040
1.0
1070
    74
1070
     0
1000
MTEXTEND
  0
SOLID
  5
3A3
330
39F
100
AcDbEntity
  8
0
 62
     7
100
AcDbTrace
 10
-65908.76535320091
 20
117499.7615222705
 30
0.0
 11
-65918.75876333397
 21
117490.9348846497
 31
0.0
 12
-65940.24197113014
 22
117525.3284338592
 32
0.0
 13
-65940.24197113014
 23
117525.3284338592
 33
0.0
  0
LINE
  5
3A4
330
39F
100
AcDbEntity
  8
0
 62
     7
370
    -2
100
AcDbLine
 10
-65970.54587963588
 20
117556.8076757782
 30
0.0
 11
-65965.54587963587
 21
117556.8076757782
 31
0.0
  0
LINE
  5
3A5
330
39F
100
AcDbEntity
  8
0
 62
     7
370
    -2
100
AcDbLine
 10
-65968.04587963585
 20
117554.3076757782
 30
0.0
 11
-65968.04587963585
 21
117559.3076757782
 31
0.0
  0
POINT
  5
3A6
330
39F
100
AcDbEntity
  8
Defpoints
 62
     0
100
AcDbPoint
 10
-65940.24197113014
 20
117525.3284338592
 30
0.0
  0
POINT
  5
3A7
330
39F
100
AcDbEntity
  8
Defpoints
 62
     0
100
AcDbPoint
 10
-65968.04587963585
 20
117556.8076757782
 30
0.0
  0
ENDBLK
  5
3A8
330
39F
100
AcDbEntity
  8
0
100
AcDbBlockEnd
  0
BLOCK
  5
3AA
330
3A9
100
AcDbEntity
  8
0
100
AcDbBlockBegin
  2
*D10
 70
     1
 10
0.0
 20
0.0
 30
0.0
  3
*D10
  1

  0
LINE
  5
3AB
330
3A9
100
AcDbEntity
  8
0
 62
     7
370
    -2
100
AcDbLine
 10
-65954.43806262432
 20
117098.7724345712
 30
0.0
 11
-65954.43806262432
 21
117153.6693255765
 31
0.0
  0
LINE
  5
3AC
330
3A9
100
AcDbEntity
  8
0
 62
     7
370
    -2
100
AcDbLine
 10
-65424.4380626243
 20
117098.7724345712
 30
0.0
 11
-65424.4380626243
 21
117153.6693255765
 31
0.0
  0
LINE
  5
3AD
330
3A9
100
AcDbEntity
  8
0
 62
     7
370
    -2
100
AcDbLine
 10
-65914.43806262429
 20
117133.6693255764
 30
0.0
 11
-65743.55811719456
 21
117133.6693255764
 31
0.0
  0
LINE
  5
3AE
330
3A9
100
AcDbEntity
  8
0
 62
     7
370
    -2
100
AcDbLine
 10
-65464.43806262431
 20
117133.6693255764
 30
0.0
 11
-65635.31800805405
 21
117133.6693255764
 31
0.0
  0
SOLID
  5
3AF
330
3A9
100
AcDbEntity
  8
0
 62
     7
100
AcDbTrace
 10
-65914.43806262429
 20
117140.3359922431
 30
0.0
 11
-65914.43806262429
 21
117127.0026589098
 31
0.0
 12
-65954.43806262432
 22
117133.6693255764
 32
0.0
 13
-65954.43806262432
 23
117133.6693255764
 33
0.0
  0
SOLID
  5
3B0
330
3A9
100
AcDbEntity
  8
0
 62
     7
100
AcDbTrace
 10
-65464.43806262431
 20
117140.3359922431
 30
0.0
 11
-65464.43806262431
 21
117127.0026589098
 31
0.0
 12
-65424.4380626243
 22
117133.6693255764
 32
0.0
 13
-65424.4380626243
 23
117133.6693255764
 33
0.0
  0
MTEXT
  5
3B1
330
3A9
100
AcDbEntity
  8
0
 62
     7
100
AcDbMText
 10
-65689.43806262432
 20
117133.6693255764
 30
0.0
 40
40.0
 41
0.0
 71
     5
 72
     1
  1
\A1;530
  7
ARIAL
 73
     1
 44
1.0
1001
ACAD
1000
MTEXTBEGIN
1070
    73
1070
     1
1070
    44
1040
1.0
1070
    74
1070
     0
1000
MTEXTEND
  0
POINT
  5
3B2
330
3A9
100
AcDbEntity
  8
Defpoints
 62
     0
100
AcDbPoint
 10
-65954.43806262432
 20
117078.7724345712
 30
0.0
  0
POINT
  5
3B3
330
3A9
100
AcDbEntity
  8
Defpoints
 62
     0
100
AcDbPoint
 10
-65424.4380626243
 20
117078.7724345712
 30
0.0
  0
POINT
  5
3B4
330
3A9
100
AcDbEntity
  8
Defpoints
 62
     0
100
AcDbPoint
 10
-65424.4380626243
 20
117133.6693255764
 30
0.0
  0
ENDBLK
  5
3B5
330
3A9
100
AcDbEntity
  8
0
100
AcDbBlockEnd
  0
BLOCK
  5
3B7
330
3B6
100
AcDbEntity
  8
0
100
AcDbBlockBegin
  2
*D11
 70
     1
 10
0.0
 20
0.0
 30
0.0
  3
*D11
  1

  0
LINE
  5
3B8
330
3B6
100
AcDbEntity
  8
0
 62
     7
370
    -2
100
AcDbLine
 10
-65540.10346460616
 20
117535.8491919402
 30
0.0
 11
-65568.87831390924
 21
117535.8491919402
 31
0.0
  0
LINE
  5
3B9
330
3B6
100
AcDbEntity
  8
0
 62
     7
370
    -2
100
AcDbLine
 10
-65540.10346460616
 20
116405.8491919401
 30
0.0
 11
-65568.87831390924
 21
116405.8491919401
 31
0.0
  0
LINE
  5
3BA
330
3B6
100
AcDbEntity
  8
0
 62
     7
370
    -2
100
AcDbLine
 10
-65548.87831390924
 20
117495.8491919402
 30
0.0
 11
-65548.87831390924
 21
117038.6254538774
 31
0.0
  0
LINE
  5
3BB
330
3B6
100
AcDbEntity
  8
0
 62
     7
370
    -2
100
AcDbLine
 10
-65548.87831390924
 20
116445.8491919401
 30
0.0
 11
-65548.87831390924
 21
116903.0729300029
 31
0.0
  0
SOLID
  5
3BC
330
3B6
100
AcDbEntity
  8
0
 62
     7
100
AcDbTrace
 10
-65555.54498057593
 20
117495.8491919402
 30
0.0
 11
-65542.21164724258
 21
117495.8491919402
 31
0.0
 12
-65548.87831390924
 22
117535.8491919402
 32
0.0
 13
-65548.87831390924
 23
117535.8491919402
 33
0.0
  0
SOLID
  5
3BD
330
3B6
100
AcDbEntity
  8
0
 62
     7
100
AcDbTrace
 10
-65555.54498057593
 20
116445.8491919401
 30
0.0
 11
-65542.21164724258
 21
116445.8491919401
 31
0.0
 12
-65548.87831390924
 22
116405.8491919401
 32
0.0
 13
-65548.87831390924
 23
116405.8491919401
 33
0.0
  0
MTEXT
  5
3BE
330
3B6
100
AcDbEntity
  8
0
 62
     7
100
AcDbMText
 10
-65548.87831390927
 20
116970.8491919401
 30
0.0
 40
40.0
 41
0.0
 71
     5
 72
     1
  1
\A1;1130
  7
ARIAL
 11
0.0000000000000001
 21
1.0
 31
0.0
 73
     1
 44
1.0
1001
ACAD
1000
MTEXTBEGIN
1070
    73
1070
     1
1070
    44
1040
1.0
1070
    74
1070
     0
1000
MTEXTEND
  0
POINT
  5
3BF
330
3B6
100
AcDbEntity
  8
Defpoints
 62
     0
100
AcDbPoint
 10
-65520.10346460615
 20
117535.8491919402
 30
0.0
  0
POINT
  5
3C0
330
3B6
100
AcDbEntity
  8
Defpoints
 62
     0
100
AcDbPoint
 10
-65520.10346460615
 20
116405.8491919401
 30
0.0
  0
POINT
  5
3C1
330
3B6
100
AcDbEntity
  8
Defpoints
 62
     0
100
AcDbPoint
 10
-65548.87831390924
 20
116405.8491919401
 30
0.0
  0
ENDBLK
  5
3C2
330
3B6
100
AcDbEntity
  8
0
100
AcDbBlockEnd
  0
BLOCK
  5
3C4
330
3C3
100
AcDbEntity
  8
0
100
AcDbBlockBegin
  2
*D12
 70
     1
 10
0.0
 20
0.0
 30
0.0
  3
*D12
  1

  0
LINE
  5
3C5
330
3C3
100
AcDbEntity
  8
0
 62
     7
370
    -2
100
AcDbLine
 10
-65300.68470143771
 20
117554.8491919402
 30
0.0
 11
-65274.90691271005
 21
117554.8491919402
 31
0.0
  0
LINE
  5
3C6
330
3C3
100
AcDbEntity
  8
0
 62
     7
370
    -2
100
AcDbLine
 10
-65300.68470143771
 20
117535.8491919402
 30
0.0
 11
-65274.90691271005
 21
117535.8491919402
 31
0.0
  0
LINE
  5
3C7
330
3C3
100
AcDbEntity
  8
0
 62
     7
370
    -2
100
AcDbLine
 10
-65294.90691271005
 20
117594.8491919402
 30
0.0
 11
-65294.90691271005
 21
117634.8491919402
 31
0.0
  0
LINE
  5
3C8
330
3C3
100
AcDbEntity
  8
0
 62
     7
370
    -2
100
AcDbLine
 10
-65294.90691271005
 20
117495.8491919402
 30
0.0
 11
-65294.90691271005
 21
117455.8491919402
 31
0.0
  0
SOLID
  5
3C9
330
3C3
100
AcDbEntity
  8
0
 62
     7
100
AcDbTrace
 10
-65301.57357937671
 20
117594.8491919402
 30
0.0
 11
-65288.24024604339
 21
117594.8491919402
 31
0.0
 12
-65294.90691271005
 22
117554.8491919402
 32
0.0
 13
-65294.90691271005
 23
117554.8491919402
 33
0.0
  0
SOLID
  5
3CA
330
3C3
100
AcDbEntity
  8
0
 62
     7
100
AcDbTrace
 10
-65301.57357937671
 20
117495.8491919402
 30
0.0
 11
-65288.24024604339
 21
117495.8491919402
 31
0.0
 12
-65294.90691271005
 22
117535.8491919402
 32
0.0
 13
-65294.90691271005
 23
117535.8491919402
 33
0.0
  0
MTEXT
  5
3CB
330
3C3
100
AcDbEntity
  8
0
 62
     7
100
AcDbMText
 10
-65294.90691271008
 20
117419.0415521038
 30
0.0
 40
40.0
 41
0.0
 71
     5
 72
     1
  1
\A1;19
  7
ARIAL
 11
0.0000000000000001
 21
1.0
 31
0.0
 73
     1
 44
1.0
1001
ACAD
1000
MTEXTBEGIN
1070
    73
1070
     1
1070
    44
1040
1.0
1070
    74
1070
     0
1000
MTEXTEND
  0
POINT
  5
3CC
330
3C3
100
AcDbEntity
  8
Defpoints
 62
     0
100
AcDbPoint
 10
-65320.68470143771
 20
117554.8491919402
 30
0.0
  0
POINT
  5
3CD
330
3C3
100
AcDbEntity
  8
Defpoints
 62
     0
100
AcDbPoint
 10
-65320.68470143771
 20
117535.8491919402
 30
0.0
  0
POINT
  5
3CE
330
3C3
100
AcDbEntity
  8
Defpoints
 62
     0
100
AcDbPoint
 10
-65294.90691271005
 20
117535.8491919402
 30
0.0
  0
ENDBLK
  5
3CF
330
3C3
100
AcDbEntity
  8
0
100
AcDbBlockEnd
  0
BLOCK
  5
3D1
330
3D0
100
AcDbEntity
  8
0
100
AcDbBlockBegin
  2
*D13
 70
     1
 10
0.0
 20
0.0
 30
0.0
  3
*D13
  1

  0
LINE
  5
3D2
330
3D0
100
AcDbEntity
  8
0
 62
     7
370
    -2
100
AcDbLine
 10
-65405.43806262431
 20
116322.2684404283
 30
0.0
 11
-65405.43806262431
 21
116274.1626065117
 31
0.0
  0
LINE
  5
3D3
330
3D0
100
AcDbEntity
  8
0
 62
     7
370
    -2
100
AcDbLine
 10
-65424.4380626243
 20
116322.2684404283
 30
0.0
 11
-65424.4380626243
 21
116274.1626065117
 31
0.0
  0
LINE
  5
3D4
330
3D0
100
AcDbEntity
  8
0
 62
     7
370
    -2
100
AcDbLine
 10
-65365.43806262431
 20
116294.1626065117
 30
0.0
 11
-65325.43806262431
 21
116294.1626065117
 31
0.0
  0
LINE
  5
3D5
330
3D0
100
AcDbEntity
  8
0
 62
     7
370
    -2
100
AcDbLine
 10
-65464.43806262431
 20
116294.1626065117
 30
0.0
 11
-65504.4380626243
 21
116294.1626065117
 31
0.0
  0
SOLID
  5
3D6
330
3D0
100
AcDbEntity
  8
0
 62
     7
100
AcDbTrace
 10
-65365.43806262431
 20
116300.8292731783
 30
0.0
 11
-65365.43806262431
 21
116287.495939845
 31
0.0
 12
-65405.43806262431
 22
116294.1626065117
 32
0.0
 13
-65405.43806262431
 23
116294.1626065117
 33
0.0
  0
SOLID
  5
3D7
330
3D0
100
AcDbEntity
  8
0
 62
     7
100
AcDbTrace
 10
-65464.43806262431
 20
116300.8292731783
 30
0.0
 11
-65464.43806262431
 21
116287.495939845
 31
0.0
 12
-65424.4380626243
 22
116294.1626065117
 32
0.0
 13
-65424.4380626243
 23
116294.1626065117
 33
0.0
  0
MTEXT
  5
3D8
330
3D0
100
AcDbEntity
  8
0
 62
     7
100
AcDbMText
 10
-65541.24570246058
 20
116294.1626065117
 30
0.0
 40
40.0
 41
0.0
 71
     5
 72
     1
  1
\A1;19
  7
ARIAL
 73
     1
 44
1.0
1001
ACAD
1000
MTEXTBEGIN
1070
    73
1070
     1
1070
    44
1040
1.0
1070
    74
1070
     0
1000
MTEXTEND
  0
POINT
  5
3D9
330
3D0
100
AcDbEntity
  8
Defpoints
 62
     0
100
AcDbPoint
 10
-65405.43806262431
 20
116342.2684404284
 30
0.0
  0
POINT
  5
3DA
330
3D0
100
AcDbEntity
  8
Defpoints
 62
     0
100
AcDbPoint
 10
-65424.4380626243
 20
116342.2684404284
 30
0.0
  0
POINT
  5
3DB
330
3D0
100
AcDbEntity
  8
Defpoints
 62
     0
100
AcDbPoint
 10
-65424.4380626243
 20
116294.1626065117
 30
0.0
  0
ENDBLK
  5
3DC
330
3D0
100
AcDbEntity
  8
0
100
AcDbBlockEnd
  0
BLOCK
  5
42A
330
422
100
AcDbEntity
  8
0
100
AcDbBlockBegin
  2
*D14
 70
     1
 10
0.0
 20
0.0
 30
0.0
  3
*D14
  1

  0
LINE
  5
4BA
330
422
100
AcDbEntity
  8
0
 62
     7
370
    -2
100
AcDbLine
 10
2967.636105658634
 20
1185.699640485657
 30
0.0
 11
2931.181245675652
 21
1169.236251295666
 31
0.0
  0
MTEXT
  5
4BB
330
422
100
AcDbEntity
  8
0
 62
     7
100
AcDbMText
 10
3036.790925312574
 20
1216.930667318785
 30
0.0
 40
40.0
 41
0.0
 71
     5
 72
     1
  1
\A1;\U+2205700
  7
ARIAL
 11
0.9113714995745722
 21
0.4115847297497756
 31
0.0
 73
     1
 44
1.0
1001
ACAD
1000
MTEXTBEGIN
1070
    73
1070
     1
1070
    44
1040
1.0
1070
    74
1070
     0
1000
MTEXTEND
  0
SOLID
  5
4BC
330
422
100
AcDbEntity
  8
0
 62
     7
100
AcDbTrace
 10
2928.43734747732
 20
1175.31206129283
 30
0.0
 11
2933.925143873984
 21
1163.160441298502
 31
0.0
 12
2894.726385692669
 22
1152.772862105675
 32
0.0
 13
2894.726385692669
 23
1152.772862105675
 33
0.0
  0
LINE
  5
4BD
330
422
100
AcDbEntity
  8
0
 62
     7
370
    -2
100
AcDbLine
 10
2573.246360841582
 20
1008.71820669326
 30
0.0
 11
2578.246360841581
 21
1008.71820669326
 31
0.0
  0
LINE
  5
4BE
330
422
100
AcDbEntity
  8
0
 62
     7
370
    -2
100
AcDbLine
 10
2575.746360841581
 20
1006.21820669326
 30
0.0
 11
2575.746360841581
 21
1011.21820669326
 31
0.0
  0
POINT
  5
4BF
330
422
100
AcDbEntity
  8
Defpoints
 62
     0
100
AcDbPoint
 10
2894.726385692669
 20
1152.772862105675
 30
0.0
  0
POINT
  5
4C0
330
422
100
AcDbEntity
  8
Defpoints
 62
     0
100
AcDbPoint
 10
2256.766335990493
 20
864.6635512808437
 30
0.0
  0
ENDBLK
  5
42B
330
422
100
AcDbEntity
  8
0
100
AcDbBlockEnd
  0
BLOCK
  5
434
330
42C
100
AcDbEntity
  8
0
100
AcDbBlockBegin
  2
*D15
 70
     1
 10
0.0
 20
0.0
 30
0.0
  3
*D15
  1

  0
LINE
  5
4C1
330
42C
100
AcDbEntity
  8
0
 62
     7
370
    -2
100
AcDbLine
 10
2960.746360841567
 20
1008.71820669323
 30
0.0
 11
2920.746360841567
 21
1008.71820669323
 31
0.0
  0
MTEXT
  5
4C2
330
42C
100
AcDbEntity
  8
0
 62
     7
100
AcDbMText
 10
3036.626306271307
 20
1008.71820669323
 30
0.0
 40
40.0
 41
0.0
 71
     5
 72
     1
  1
\A1;\U+2205610
  7
ARIAL
 73
     1
 44
1.0
1001
ACAD
1000
MTEXTBEGIN
1070
    73
1070
     1
1070
    44
1040
1.0
1070
    74
1070
     0
1000
MTEXTEND
  0
SOLID
  5
4C3
330
42C
100
AcDbEntity
  8
0
 62
     7
100
AcDbTrace
 10
2920.746360841567
 20
1015.384873359897
 30
0.0
 11
2920.746360841567
 21
1002.051540026564
 31
0.0
 12
2880.746360841567
 22
1008.71820669323
 32
0.0
 13
2880.746360841567
 23
1008.71820669323
 33
0.0
  0
LINE
  5
4C4
330
42C
100
AcDbEntity
  8
0
 62
     7
370
    -2
100
AcDbLine
 10
2573.246360841581
 20
1008.71820669323
 30
0.0
 11
2578.246360841581
 21
1008.71820669323
 31
0.0
  0
LINE
  5
4C5
330
42C
100
AcDbEntity
  8
0
 62
     7
370
    -2
100
AcDbLine
 10
2575.746360841581
 20
1006.21820669323
 30
0.0
 11
2575.746360841581
 21
1011.21820669323
 31
0.0
  0
POINT
  5
4C6
330
42C
100
AcDbEntity
  8
Defpoints
 62
     0
100
AcDbPoint
 10
2880.746360841567
 20
1008.71820669323
 30
0.0
  0
POINT
  5
4C7
330
42C
100
AcDbEntity
  8
Defpoints
 62
     0
100
AcDbPoint
 10
2270.746360841596
 20
1008.71820669323
 30
0.0
  0
ENDBLK
  5
435
330
42C
100
AcDbEntity
  8
0
100
AcDbBlockEnd
  0
BLOCK
  5
441
330
436
100
AcDbEntity
  8
0
100
AcDbBlockBegin
  2
*D16
 70
     1
 10
0.0
 20
0.0
 30
0.0
  3
*D16
  1

  0
LINE
  5
4C8
330
436
100
AcDbEntity
  8
0
 62
     7
370
    -2
100
AcDbLine
 10
1295.883590942477
 20
720.0765623283528
 30
0.0
 11
1295.883590942477
 21
597.1712109207301
 31
0.0
  0
LINE
  5
4C9
330
436
100
AcDbEntity
  8
0
 62
     7
370
    -2
100
AcDbLine
 10
1895.883590942477
 20
720.0765623283528
 30
0.0
 11
1895.883590942477
 21
597.1712109207301
 31
0.0
  0
LINE
  5
4CA
330
436
100
AcDbEntity
  8
0
 62
     7
370
    -2
100
AcDbLine
 10
1335.883590942477
 20
617.1712109207302
 30
0.0
 11
1541.6543958538
 21
617.1712109207302
 31
0.0
  0
LINE
  5
4CB
330
436
100
AcDbEntity
  8
0
 62
     7
370
    -2
100
AcDbLine
 10
1855.883590942477
 20
617.1712109207302
 30
0.0
 11
1650.112786031154
 21
617.1712109207302
 31
0.0
  0
SOLID
  5
4CC
330
436
100
AcDbEntity
  8
0
 62
     7
100
AcDbTrace
 10
1335.883590942477
 20
623.8378775873972
 30
0.0
 11
1335.883590942477
 21
610.5045442540637
 31
0.0
 12
1295.883590942477
 22
617.1712109207302
 32
0.0
 13
1295.883590942477
 23
617.1712109207302
 33
0.0
  0
SOLID
  5
4CD
330
436
100
AcDbEntity
  8
0
 62
     7
100
AcDbTrace
 10
1855.883590942477
 20
623.8378775873972
 30
0.0
 11
1855.883590942477
 21
610.5045442540637
 31
0.0
 12
1895.883590942477
 22
617.1712109207302
 32
0.0
 13
1895.883590942477
 23
617.1712109207302
 33
0.0
  0
MTEXT
  5
4CE
330
436
100
AcDbEntity
  8
0
 62
     7
100
AcDbMText
 10
1595.883590942477
 20
617.1712109207302
 30
0.0
 40
40.0
 41
0.0
 71
     5
 72
     1
  1
\A1;600
  7
ARIAL
 73
     1
 44
1.0
1001
ACAD
1000
MTEXTBEGIN
1070
    73
1070
     1
1070
    44
1040
1.0
1070
    74
1070
     0
1000
MTEXTEND
  0
POINT
  5
4CF
330
436
100
AcDbEntity
  8
Defpoints
 62
     0
100
AcDbPoint
 10
1295.883590942477
 20
740.0765623283527
 30
0.0
  0
POINT
  5
4D0
330
436
100
AcDbEntity
  8
Defpoints
 62
     0
100
AcDbPoint
 10
1895.883590942477
 20
740.0765623283527
 30
0.0
  0
POINT
  5
4D1
330
436
100
AcDbEntity
  8
Defpoints
 62
     0
100
AcDbPoint
 10
1895.883590942477
 20
617.1712109207302
 30
0.0
  0
ENDBLK
  5
442
330
436
100
AcDbEntity
  8
0
100
AcDbBlockEnd
  0
BLOCK
  5
44E
330
443
100
AcDbEntity
  8
0
100
AcDbBlockBegin
  2
*D17
 70
     1
 10
0.0
 20
0.0
 30
0.0
  3
*D17
  1

  0
LINE
  5
4D2
330
443
100
AcDbEntity
  8
0
 62
     7
370
    -2
100
AcDbLine
 10
1931.381606333332
 20
758.7182066932304
 30
0.0
 11
2039.371315179592
 21
758.7182066932304
 31
0.0
  0
LINE
  5
4D3
330
443
100
AcDbEntity
  8
0
 62
     7
370
    -2
100
AcDbLine
 10
1931.381606333332
 20
1358.71820669323
 30
0.0
 11
2039.371315179592
 21
1358.71820669323
 31
0.0
  0
LINE
  5
4D4
330
443
100
AcDbEntity
  8
0
 62
     7
370
    -2
100
AcDbLine
 10
2019.371315179592
 20
798.7182066932303
 30
0.0
 11
2019.371315179592
 21
1004.489011604554
 31
0.0
  0
LINE
  5
4D5
330
443
100
AcDbEntity
  8
0
 62
     7
370
    -2
100
AcDbLine
 10
2019.371315179592
 20
1318.71820669323
 30
0.0
 11
2019.371315179592
 21
1112.947401781907
 31
0.0
  0
SOLID
  5
4D6
330
443
100
AcDbEntity
  8
0
 62
     7
100
AcDbTrace
 10
2012.704648512925
 20
798.7182066932303
 30
0.0
 11
2026.037981846259
 21
798.7182066932303
 31
0.0
 12
2019.371315179592
 22
758.7182066932304
 32
0.0
 13
2019.371315179592
 23
758.7182066932304
 33
0.0
  0
SOLID
  5
4D7
330
443
100
AcDbEntity
  8
0
 62
     7
100
AcDbTrace
 10
2012.704648512925
 20
1318.71820669323
 30
0.0
 11
2026.037981846259
 21
1318.71820669323
 31
0.0
 12
2019.371315179592
 22
1358.71820669323
 32
0.0
 13
2019.371315179592
 23
1358.71820669323
 33
0.0
  0
MTEXT
  5
4D8
330
443
100
AcDbEntity
  8
0
 62
     7
100
AcDbMText
 10
2019.371315179592
 20
1058.718206693231
 30
0.0
 40
40.0
 41
0.0
 71
     5
 72
     1
  1
\A1;600
  7
ARIAL
 11
0.0000000000000001
 21
1.0
 31
0.0
 73
     1
 44
1.0
1001
ACAD
1000
MTEXTBEGIN
1070
    73
1070
     1
1070
    44
1040
1.0
1070
    74
1070
     0
1000
MTEXTEND
  0
POINT
  5
4D9
330
443
100
AcDbEntity
  8
Defpoints
 62
     0
100
AcDbPoint
 10
1911.381606333332
 20
758.7182066932304
 30
0.0
  0
POINT
  5
4DA
330
443
100
AcDbEntity
  8
Defpoints
 62
     0
100
AcDbPoint
 10
1911.381606333332
 20
1358.71820669323
 30
0.0
  0
POINT
  5
4DB
330
443
100
AcDbEntity
  8
Defpoints
 62
     0
100
AcDbPoint
 10
2019.371315179592
 20
1358.71820669323
 30
0.0
  0
ENDBLK
  5
44F
330
443
100
AcDbEntity
  8
0
100
AcDbBlockEnd
  0
BLOCK
  5
456
330
450
100
AcDbEntity
  8
0
100
AcDbBlockBegin
  2
*D18
 70
     1
 10
0.0
 20
0.0
 30
0.0
  3
*D18
  1

  0
LINE
  5
4DC
330
450
100
AcDbEntity
  8
0
 62
     7
370
    -2
100
AcDbLine
 10
1649.476186531978
 20
1108.842552965758
 30
0.0
 11
1771.166127147263
 21
1222.657318870957
 31
0.0
  0
MTEXT
  5
4DD
330
450
100
AcDbEntity
  8
0
 62
     7
100
AcDbMText
 10
1594.057731190272
 20
1057.010507608086
 30
0.0
 40
40.0
 41
0.0
 71
     5
 72
     1
  1
\A1;\U+2205560
  7
ARIAL
 11
0.7303439008534735
 21
0.6830796340736062
 31
0.0
 73
     1
 44
1.0
1001
ACAD
1000
MTEXTBEGIN
1070
    73
1070
     1
1070
    44
1040
1.0
1070
    74
1070
     0
1000
MTEXTEND
  0
SOLID
  5
4DE
330
450
100
AcDbEntity
  8
0
 62
     7
100
AcDbTrace
 10
1766.612262920105
 20
1227.52627820998
 30
0.0
 11
1775.71999137442
 21
1217.788359531933
 31
0.0
 12
1800.379883181402
 22
1249.980504233901
 32
0.0
 13
1800.379883181402
 23
1249.980504233901
 33
0.0
  0
POINT
  5
4DF
330
450
100
AcDbEntity
  8
Defpoints
 62
     0
100
AcDbPoint
 10
1800.379883181402
 20
1249.980504233901
 30
0.0
  0
POINT
  5
4E0
330
450
100
AcDbEntity
  8
Defpoints
 62
     0
100
AcDbPoint
 10
1391.387298703451
 20
867.4559091526766
 30
0.0
  0
ENDBLK
  5
457
330
450
100
AcDbEntity
  8
0
100
AcDbBlockEnd
  0
BLOCK
  5
463
330
458
100
AcDbEntity
  8
0
100
AcDbBlockBegin
  2
*D19
 70
     1
 10
0.0
 20
0.0
 30
0.0
  3
*D19
  1

  0
LINE
  5
4E1
330
458
100
AcDbEntity
  8
0
 62
     7
370
    -2
100
AcDbLine
 10
219.6436089070877
 20
126.1374551814238
 30
0.0
 11
219.6436089070877
 21
-19.68312113602445
 31
0.0
  0
LINE
  5
4E2
330
458
100
AcDbEntity
  8
0
 62
     7
370
    -2
100
AcDbLine
 10
819.6436089070877
 20
126.1374551814238
 30
0.0
 11
819.6436089070877
 21
-19.68312113602445
 31
0.0
  0
LINE
  5
4E3
330
458
100
AcDbEntity
  8
0
 62
     7
370
    -2
100
AcDbLine
 10
259.6436089070877
 20
0.3168788639755462
 30
0.0
 11
465.414413818411
 21
0.3168788639755462
 31
0.0
  0
LINE
  5
4E4
330
458
100
AcDbEntity
  8
0
 62
     7
370
    -2
100
AcDbLine
 10
779.6436089070875
 20
0.3168788639755462
 30
0.0
 11
573.8728039957642
 21
0.3168788639755462
 31
0.0
  0
SOLID
  5
4E5
330
458
100
AcDbEntity
  8
0
 62
     7
100
AcDbTrace
 10
259.6436089070877
 20
6.983545530642212
 30
0.0
 11
259.6436089070877
 21
-6.349787802691117
 31
0.0
 12
219.6436089070877
 22
0.3168788639755462
 32
0.0
 13
219.6436089070877
 23
0.3168788639755462
 33
0.0
  0
SOLID
  5
4E6
330
458
100
AcDbEntity
  8
0
 62
     7
100
AcDbTrace
 10
779.6436089070875
 20
6.983545530642212
 30
0.0
 11
779.6436089070875
 21
-6.349787802691117
 31
0.0
 12
819.6436089070877
 22
0.3168788639755462
 32
0.0
 13
819.6436089070877
 23
0.3168788639755462
 33
0.0
  0
MTEXT
  5
4E7
330
458
100
AcDbEntity
  8
0
 62
     7
100
AcDbMText
 10
519.6436089070877
 20
0.3168788639755462
 30
0.0
 40
40.0
 41
0.0
 71
     5
 72
     1
  1
\A1;600
  7
ARIAL
 73
     1
 44
1.0
1001
ACAD
1000
MTEXTBEGIN
1070
    73
1070
     1
1070
    44
1040
1.0
1070
    74
1070
     0
1000
MTEXTEND
  0
POINT
  5
4E8
330
458
100
AcDbEntity
  8
Defpoints
 62
     0
100
AcDbPoint
 10
219.6436089070877
 20
146.1374551814238
 30
0.0
  0
POINT
  5
4E9
330
458
100
AcDbEntity
  8
Defpoints
 62
     0
100
AcDbPoint
 10
819.6436089070877
 20
146.1374551814238
 30
0.0
  0
POINT
  5
4EA
330
458
100
AcDbEntity
  8
Defpoints
 62
     0
100
AcDbPoint
 10
819.6436089070877
 20
0.3168788639755462
 30
0.0
  0
ENDBLK
  5
464
330
458
100
AcDbEntity
  8
0
100
AcDbBlockEnd
  0
BLOCK
  5
470
330
465
100
AcDbEntity
  8
0
100
AcDbBlockBegin
  2
*D20
 70
     1
 10
0.0
 20
0.0
 30
0.0
  3
*D20
  1

  0
LINE
  5
4EB
330
465
100
AcDbEntity
  8
0
 62
     7
370
    -2
100
AcDbLine
 10
866.6680112900168
 20
1358.71820669323
 30
0.0
 11
1020.558221273731
 21
1358.71820669323
 31
0.0
  0
LINE
  5
4EC
330
465
100
AcDbEntity
  8
0
 62
     7
370
    -2
100
AcDbLine
 10
866.6680112900168
 20
158.7182066932306
 30
0.0
 11
1020.558221273731
 21
158.7182066932305
 31
0.0
  0
LINE
  5
4ED
330
465
100
AcDbEntity
  8
0
 62
     7
370
    -2
100
AcDbLine
 10
1000.558221273731
 20
1318.71820669323
 30
0.0
 11
1000.558221273731
 21
826.4944686304746
 31
0.0
  0
LINE
  5
4EE
330
465
100
AcDbEntity
  8
0
 62
     7
370
    -2
100
AcDbLine
 10
1000.558221273731
 20
198.7182066932305
 30
0.0
 11
1000.558221273731
 21
690.9419447559861
 31
0.0
  0
SOLID
  5
4EF
330
465
100
AcDbEntity
  8
0
 62
     7
100
AcDbTrace
 10
993.8915546070646
 20
1318.71820669323
 30
0.0
 11
1007.224887940398
 21
1318.71820669323
 31
0.0
 12
1000.558221273731
 22
1358.71820669323
 32
0.0
 13
1000.558221273731
 23
1358.71820669323
 33
0.0
  0
SOLID
  5
4F0
330
465
100
AcDbEntity
  8
0
 62
     7
100
AcDbTrace
 10
993.8915546070644
 20
198.7182066932305
 30
0.0
 11
1007.224887940397
 21
198.7182066932305
 31
0.0
 12
1000.558221273731
 22
158.7182066932305
 32
0.0
 13
1000.558221273731
 23
158.7182066932305
 33
0.0
  0
MTEXT
  5
4F1
330
465
100
AcDbEntity
  8
0
 62
     7
100
AcDbMText
 10
1000.558221273731
 20
758.7182066932306
 30
0.0
 40
40.0
 41
0.0
 71
     5
 72
     1
  1
\A1;1200
  7
ARIAL
 11
0.0000000000000001
 21
1.0
 31
0.0
 73
     1
 44
1.0
1001
ACAD
1000
MTEXTBEGIN
1070
    73
1070
     1
1070
    44
1040
1.0
1070
    74
1070
     0
1000
MTEXTEND
  0
POINT
  5
4F2
330
465
100
AcDbEntity
  8
Defpoints
 62
     0
100
AcDbPoint
 10
846.6680112900167
 20
1358.71820669323
 30
0.0
  0
POINT
  5
4F3
330
465
100
AcDbEntity
  8
Defpoints
 62
     0
100
AcDbPoint
 10
846.6680112900167
 20
158.7182066932306
 30
0.0
  0
POINT
  5
4F4
330
465
100
AcDbEntity
  8
Defpoints
 62
     0
100
AcDbPoint
 10
1000.558221273731
 20
158.7182066932305
 30
0.0
  0
ENDBLK
  5
471
330
465
100
AcDbEntity
  8
0
100
AcDbBlockEnd
  0
BLOCK
  5
47A
330
472
100
AcDbEntity
  8
0
100
AcDbBlockBegin
  2
*D21
 70
     1
 10
0.0
 20
0.0
 30
0.0
  3
*D21
  1

  0
LINE
  5
4F5
330
472
100
AcDbEntity
  8
0
 62
     7
370
    -2
100
AcDbLine
 10
862.9280811311517
 20
1402.210307832918
 30
0.0
 11
834.6770500194542
 21
1373.892835468211
 31
0.0
  0
MTEXT
  5
4F6
330
472
100
AcDbEntity
  8
0
 62
     7
100
AcDbMText
 10
903.8496804256194
 20
1443.228147237048
 30
0.0
 40
40.0
 41
0.0
 71
     5
 72
     1
  1
\A1;R45
  7
ARIAL
 11
0.7062757777924354
 21
0.7079368091176575
 31
0.0
 73
     1
 44
1.0
1001
ACAD
1000
MTEXTBEGIN
1070
    73
1070
     1
1070
    44
1040
1.0
1070
    74
1070
     0
1000
MTEXTEND
  0
SOLID
  5
4F7
330
472
100
AcDbEntity
  8
0
 62
     7
100
AcDbTrace
 10
829.9574712920032
 20
1378.601340653494
 30
0.0
 11
839.3966287469055
 21
1369.184330282929
 31
0.0
 12
806.4260189077568
 22
1345.575363103505
 32
0.0
 13
806.4260189077568
 23
1345.575363103505
 33
0.0
  0
LINE
  5
4F8
330
472
100
AcDbEntity
  8
0
 62
     7
370
    -2
100
AcDbLine
 10
772.1436089070732
 20
1313.718206693187
 30
0.0
 11
777.1436089070732
 21
1313.718206693187
 31
0.0
  0
LINE
  5
4F9
330
472
100
AcDbEntity
  8
0
 62
     7
370
    -2
100
AcDbLine
 10
774.6436089070733
 20
1311.218206693187
 30
0.0
 11
774.6436089070733
 21
1316.218206693187
 31
0.0
  0
POINT
  5
4FA
330
472
100
AcDbEntity
  8
Defpoints
 62
     0
100
AcDbPoint
 10
806.4260189077568
 20
1345.575363103505
 30
0.0
  0
POINT
  5
4FB
330
472
100
AcDbEntity
  8
Defpoints
 62
     0
100
AcDbPoint
 10
774.6436089070733
 20
1313.718206693187
 30
0.0
  0
ENDBLK
  5
47B
330
472
100
AcDbEntity
  8
0
100
AcDbBlockEnd
  0
BLOCK
  5
484
330
47C
100
AcDbEntity
  8
0
100
AcDbBlockBegin
  2
*D22
 70
     1
 10
0.0
 20
0.0
 30
0.0
  3
*D22
  1

  0
LINE
  5
4FC
330
47C
100
AcDbEntity
  8
0
 62
     7
370
    -2
100
AcDbLine
 10
337.7995261266457
 20
1269.236987814073
 30
0.0
 11
311.3196132639608
 21
1299.217218213198
 31
0.0
  0
MTEXT
  5
4FD
330
47C
100
AcDbEntity
  8
0
 62
     7
100
AcDbMText
 10
375.9208467928777
 20
1226.076499234705
 30
0.0
 40
40.0
 41
0.0
 71
     5
 72
     1
  1
\A1;R42
  7
ARIAL
 11
0.6619978215671206
 21
-0.749505759978125
 31
0.0
 73
     1
 44
1.0
1001
ACAD
1000
MTEXTBEGIN
1070
    73
1070
     1
1070
    44
1040
1.0
1070
    74
1070
     0
1000
MTEXTEND
  0
SOLID
  5
4FE
330
47C
100
AcDbEntity
  8
0
 62
     7
100
AcDbTrace
 10
316.3163183304817
 20
1303.630537023646
 30
0.0
 11
306.3229081974399
 21
1294.80389940275
 31
0.0
 12
284.839700401276
 22
1329.197448612323
 32
0.0
 13
284.839700401276
 23
1329.197448612323
 33
0.0
  0
LINE
  5
4FF
330
47C
100
AcDbEntity
  8
0
 62
     7
370
    -2
100
AcDbLine
 10
254.5357918955371
 20
1360.676690531314
 30
0.0
 11
259.535791895537
 21
1360.676690531314
 31
0.0
  0
LINE
  5
500
330
47C
100
AcDbEntity
  8
0
 62
     7
370
    -2
100
AcDbLine
 10
257.0357918955372
 20
1358.176690531314
 30
0.0
 11
257.0357918955372
 21
1363.176690531314
 31
0.0
  0
POINT
  5
501
330
47C
100
AcDbEntity
  8
Defpoints
 62
     0
100
AcDbPoint
 10
284.839700401276
 20
1329.197448612323
 30
0.0
  0
POINT
  5
502
330
47C
100
AcDbEntity
  8
Defpoints
 62
     0
100
AcDbPoint
 10
257.035791895537
 20
1360.676690531314
 30
0.0
  0
ENDBLK
  5
485
330
47C
100
AcDbEntity
  8
0
100
AcDbBlockEnd
  0
BLOCK
  5
491
330
486
100
AcDbEntity
  8
0
100
AcDbBlockBegin
  2
*D23
 70
     1
 10
0.0
 20
0.0
 30
0.0
  3
*D23
  1

  0
LINE
  5
503
330
486
100
AcDbEntity
  8
0
 62
     7
370
    -2
100
AcDbLine
 10
270.6436089070877
 20
902.6414493242496
 30
0.0
 11
270.6436089070877
 21
957.5383403295289
 31
0.0
  0
LINE
  5
504
330
486
100
AcDbEntity
  8
0
 62
     7
370
    -2
100
AcDbLine
 10
800.6436089070877
 20
902.6414493242496
 30
0.0
 11
800.6436089070877
 21
957.5383403295289
 31
0.0
  0
LINE
  5
505
330
486
100
AcDbEntity
  8
0
 62
     7
370
    -2
100
AcDbLine
 10
310.6436089070877
 20
937.5383403295286
 30
0.0
 11
481.5235543368284
 21
937.5383403295286
 31
0.0
  0
LINE
  5
506
330
486
100
AcDbEntity
  8
0
 62
     7
370
    -2
100
AcDbLine
 10
760.6436089070877
 20
937.5383403295286
 30
0.0
 11
589.7636634773467
 21
937.5383403295286
 31
0.0
  0
SOLID
  5
507
330
486
100
AcDbEntity
  8
0
 62
     7
100
AcDbTrace
 10
310.6436089070877
 20
944.2050069961952
 30
0.0
 11
310.6436089070877
 21
930.8716736628619
 31
0.0
 12
270.6436089070877
 22
937.5383403295286
 32
0.0
 13
270.6436089070877
 23
937.5383403295286
 33
0.0
  0
SOLID
  5
508
330
486
100
AcDbEntity
  8
0
 62
     7
100
AcDbTrace
 10
760.6436089070877
 20
944.2050069961952
 30
0.0
 11
760.6436089070877
 21
930.8716736628619
 31
0.0
 12
800.6436089070877
 22
937.5383403295286
 32
0.0
 13
800.6436089070877
 23
937.5383403295286
 33
0.0
  0
MTEXT
  5
509
330
486
100
AcDbEntity
  8
0
 62
     7
100
AcDbMText
 10
535.6436089070877
 20
937.5383403295286
 30
0.0
 40
40.0
 41
0.0
 71
     5
 72
     1
  1
\A1;530
  7
ARIAL
 73
     1
 44
1.0
1001
ACAD
1000
MTEXTBEGIN
1070
    73
1070
     1
1070
    44
1040
1.0
1070
    74
1070
     0
1000
MTEXTEND
  0
POINT
  5
50A
330
486
100
AcDbEntity
  8
Defpoints
 62
     0
100
AcDbPoint
 10
270.6436089070877
 20
882.6414493242495
 30
0.0
  0
POINT
  5
50B
330
486
100
AcDbEntity
  8
Defpoints
 62
     0
100
AcDbPoint
 10
800.6436089070877
 20
882.6414493242495
 30
0.0
  0
POINT
  5
50C
330
486
100
AcDbEntity
  8
Defpoints
 62
     0
100
AcDbPoint
 10
800.6436089070877
 20
937.5383403295286
 30
0.0
  0
ENDBLK
  5
492
330
486
100
AcDbEntity
  8
0
100
AcDbBlockEnd
  0
BLOCK
  5
49E
330
493
100
AcDbEntity
  8
0
100
AcDbBlockBegin
  2
*D24
 70
     1
 10
0.0
 20
0.0
 30
0.0
  3
*D24
  1

  0
LINE
  5
50D
330
493
100
AcDbEntity
  8
0
 62
     7
370
    -2
100
AcDbLine
 10
684.9782069252352
 20
1339.71820669323
 30
0.0
 11
656.2033576221397
 21
1339.71820669323
 31
0.0
  0
LINE
  5
50E
330
493
100
AcDbEntity
  8
0
 62
     7
370
    -2
100
AcDbLine
 10
684.9782069252352
 20
209.7182066932306
 30
0.0
 11
656.2033576221392
 21
209.7182066932306
 31
0.0
  0
LINE
  5
50F
330
493
100
AcDbEntity
  8
0
 62
     7
370
    -2
100
AcDbLine
 10
676.2033576221397
 20
1299.71820669323
 30
0.0
 11
676.2033576221396
 21
842.4944686304749
 31
0.0
  0
LINE
  5
510
330
493
100
AcDbEntity
  8
0
 62
     7
370
    -2
100
AcDbLine
 10
676.2033576221393
 20
249.7182066932306
 30
0.0
 11
676.2033576221393
 21
706.9419447559861
 31
0.0
  0
SOLID
  5
511
330
493
100
AcDbEntity
  8
0
 62
     7
100
AcDbTrace
 10
669.5366909554731
 20
1299.71820669323
 30
0.0
 11
682.8700242888062
 21
1299.71820669323
 31
0.0
 12
676.2033576221397
 22
1339.71820669323
 32
0.0
 13
676.2033576221397
 23
1339.71820669323
 33
0.0
  0
SOLID
  5
512
330
493
100
AcDbEntity
  8
0
 62
     7
100
AcDbTrace
 10
669.5366909554727
 20
249.7182066932306
 30
0.0
 11
682.870024288806
 21
249.7182066932306
 31
0.0
 12
676.2033576221393
 22
209.7182066932306
 32
0.0
 13
676.2033576221393
 23
209.7182066932306
 33
0.0
  0
MTEXT
  5
513
330
493
100
AcDbEntity
  8
0
 62
     7
100
AcDbMText
 10
676.2033576221393
 20
774.7182066932307
 30
0.0
 40
40.0
 41
0.0
 71
     5
 72
     1
  1
\A1;1130
  7
ARIAL
 11
0.0000000000000001
 21
1.0
 31
0.0
 73
     1
 44
1.0
1001
ACAD
1000
MTEXTBEGIN
1070
    73
1070
     1
1070
    44
1040
1.0
1070
    74
1070
     0
1000
MTEXTEND
  0
POINT
  5
514
330
493
100
AcDbEntity
  8
Defpoints
 62
     0
100
AcDbPoint
 10
704.978206925235
 20
1339.71820669323
 30
0.0
  0
POINT
  5
515
330
493
100
AcDbEntity
  8
Defpoints
 62
     0
100
AcDbPoint
 10
704.978206925235
 20
209.7182066932306
 30
0.0
  0
POINT
  5
516
330
493
100
AcDbEntity
  8
Defpoints
 62
     0
100
AcDbPoint
 10
676.2033576221393
 20
209.7182066932306
 30
0.0
  0
ENDBLK
  5
49F
330
493
100
AcDbEntity
  8
0
100
AcDbBlockEnd
  0
BLOCK
  5
4AB
330
4A0
100
AcDbEntity
  8
0
100
AcDbBlockBegin
  2
*D25
 70
     1
 10
0.0
 20
0.0
 30
0.0
  3
*D25
  1

  0
LINE
  5
517
330
4A0
100
AcDbEntity
  8
0
 62
     7
370
    -2
100
AcDbLine
 10
924.3969700936824
 20
1358.71820669323
 30
0.0
 11
950.1747588213431
 21
1358.71820669323
 31
0.0
  0
LINE
  5
518
330
4A0
100
AcDbEntity
  8
0
 62
     7
370
    -2
100
AcDbLine
 10
924.3969700936824
 20
1339.71820669323
 30
0.0
 11
950.1747588213431
 21
1339.71820669323
 31
0.0
  0
LINE
  5
519
330
4A0
100
AcDbEntity
  8
0
 62
     7
370
    -2
100
AcDbLine
 10
930.1747588213427
 20
1398.71820669323
 30
0.0
 11
930.1747588213427
 21
1438.71820669323
 31
0.0
  0
LINE
  5
51A
330
4A0
100
AcDbEntity
  8
0
 62
     7
370
    -2
100
AcDbLine
 10
930.1747588213427
 20
1299.71820669323
 30
0.0
 11
930.1747588213427
 21
1259.71820669323
 31
0.0
  0
SOLID
  5
51B
330
4A0
100
AcDbEntity
  8
0
 62
     7
100
AcDbTrace
 10
923.5080921546764
 20
1398.71820669323
 30
0.0
 11
936.8414254880097
 21
1398.71820669323
 31
0.0
 12
930.1747588213427
 22
1358.71820669323
 32
0.0
 13
930.1747588213427
 23
1358.71820669323
 33
0.0
  0
SOLID
  5
51C
330
4A0
100
AcDbEntity
  8
0
 62
     7
100
AcDbTrace
 10
923.5080921546764
 20
1299.71820669323
 30
0.0
 11
936.8414254880097
 21
1299.71820669323
 31
0.0
 12
930.1747588213427
 22
1339.71820669323
 32
0.0
 13
930.1747588213427
 23
1339.71820669323
 33
0.0
  0
MTEXT
  5
51D
330
4A0
100
AcDbEntity
  8
0
 62
     7
100
AcDbMText
 10
930.1747588213427
 20
1222.910566856941
 30
0.0
 40
40.0
 41
0.0
 71
     5
 72
     1
  1
\A1;19
  7
ARIAL
 11
0.0000000000000001
 21
1.0
 31
0.0
 73
     1
 44
1.0
1001
ACAD
1000
MTEXTBEGIN
1070
    73
1070
     1
1070
    44
1040
1.0
1070
    74
1070
     0
1000
MTEXTEND
  0
POINT
  5
51E
330
4A0
100
AcDbEntity
  8
Defpoints
 62
     0
100
AcDbPoint
 10
904.3969700936823
 20
1358.71820669323
 30
0.0
  0
POINT
  5
51F
330
4A0
100
AcDbEntity
  8
Defpoints
 62
     0
100
AcDbPoint
 10
904.3969700936823
 20
1339.71820669323
 30
0.0
  0
POINT
  5
520
330
4A0
100
AcDbEntity
  8
Defpoints
 62
     0
100
AcDbPoint
 10
930.1747588213427
 20
1339.71820669323
 30
0.0
  0
ENDBLK
  5
4AC
330
4A0
100
AcDbEntity
  8
0
100
AcDbBlockEnd
  0
BLOCK
  5
4B8
330
4AD
100
AcDbEntity
  8
0
100
AcDbBlockBegin
  2
*D26
 70
     1
 10
0.0
 20
0.0
 30
0.0
  3
*D26
  1

  0
LINE
  5
521
330
4AD
100
AcDbEntity
  8
0
 62
     7
370
    -2
100
AcDbLine
 10
819.6436089070877
 20
126.1374551814238
 30
0.0
 11
819.6436089070877
 21
78.03162126473177
 31
0.0
  0
LINE
  5
522
330
4AD
100
AcDbEntity
  8
0
 62
     7
370
    -2
100
AcDbLine
 10
800.6436089070877
 20
126.1374551814238
 30
0.0
 11
800.6436089070877
 21
78.03162126473177
 31
0.0
  0
LINE
  5
523
330
4AD
100
AcDbEntity
  8
0
 62
     7
370
    -2
100
AcDbLine
 10
859.6436089070877
 20
98.03162126473177
 30
0.0
 11
899.6436089070877
 21
98.03162126473177
 31
0.0
  0
LINE
  5
524
330
4AD
100
AcDbEntity
  8
0
 62
     7
370
    -2
100
AcDbLine
 10
760.6436089070877
 20
98.03162126473177
 30
0.0
 11
720.6436089070876
 21
98.03162126473177
 31
0.0
  0
SOLID
  5
525
330
4AD
100
AcDbEntity
  8
0
 62
     7
100
AcDbTrace
 10
859.6436089070877
 20
104.6982879313984
 30
0.0
 11
859.6436089070877
 21
91.36495459806507
 31
0.0
 12
819.6436089070877
 22
98.03162126473177
 32
0.0
 13
819.6436089070877
 23
98.03162126473177
 33
0.0
  0
SOLID
  5
526
330
4AD
100
AcDbEntity
  8
0
 62
     7
100
AcDbTrace
 10
760.6436089070877
 20
104.6982879313984
 30
0.0
 11
760.6436089070877
 21
91.36495459806507
 31
0.0
 12
800.6436089070877
 22
98.03162126473177
 32
0.0
 13
800.6436089070877
 23
98.03162126473177
 33
0.0
  0
MTEXT
  5
527
330
4AD
100
AcDbEntity
  8
0
 62
     7
100
AcDbMText
 10
683.8359690707981
 20
98.03162126473177
 30
0.0
 40
40.0
 41
0.0
 71
     5
 72
     1
  1
\A1;19
  7
ARIAL
 73
     1
 44
1.0
1001
ACAD
1000
MTEXTBEGIN
1070
    73
1070
     1
1070
    44
1040
1.0
1070
    74
1070
     0
1000
MTEXTEND
  0
POINT
  5
528
330
4AD
100
AcDbEntity
  8
Defpoints
 62
     0
100
AcDbPoint
 10
819.6436089070877
 20
146.1374551814238
 30
0.0
  0
POINT
  5
529
330
4AD
100
AcDbEntity
  8
Defpoints
 62
     0
100
AcDbPoint
 10
800.6436089070877
 20
146.1374551814238
 30
0.0
  0
POINT
  5
52A
330
4AD
100
AcDbEntity
  8
Defpoints
 62
     0
100
AcDbPoint
 10
800.6436089070877
 20
98.03162126473177
 30
0.0
  0
ENDBLK
  5
4B9
330
4AD
100
AcDbEntity
  8
0
100
AcDbBlockEnd
  0
BLOCK
  5
544
330
543
100
AcDbEntity
  8
0
100
AcDbBlockBegin
  2
*D27
 70
     1
 10
0.0
 20
0.0
 30
0.0
  3
*D27
  1

  0
LINE
  5
545
330
543
100
AcDbEntity
  8
0
 62
     7
370
    -2
100
AcDbLine
 10
-63257.44556587276
 20
117381.8306257326
 30
0.0
 11
-63293.90042585574
 21
117365.3672365426
 31
0.0
  0
MTEXT
  5
546
330
543
100
AcDbEntity
  8
0
 62
     7
100
AcDbMText
 10
-63188.29074621882
 20
117413.0616525657
 30
0.0
 40
40.0
 41
0.0
 71
     5
 72
     1
  1
\A1;\U+2205700
  7
ARIAL
 11
0.9113714995745722
 21
0.4115847297497756
 31
0.0
 73
     1
 44
1.0
1001
ACAD
1000
MTEXTBEGIN
1070
    73
1070
     1
1070
    44
1040
1.0
1070
    74
1070
     0
1000
MTEXTEND
  0
SOLID
  5
547
330
543
100
AcDbEntity
  8
0
 62
     7
100
AcDbTrace
 10
-63296.64432405406
 20
117371.4430465397
 30
0.0
 11
-63291.15652765741
 21
117359.2914265454
 31
0.0
 12
-63330.35528583872
 22
117348.9038473526
 32
0.0
 13
-63330.35528583872
 23
117348.9038473526
 33
0.0
  0
LINE
  5
548
330
543
100
AcDbEntity
  8
0
 62
     7
370
    -2
100
AcDbLine
 10
-63651.8353106898
 20
117204.8491919402
 30
0.0
 11
-63646.83531068981
 21
117204.8491919402
 31
0.0
  0
LINE
  5
549
330
543
100
AcDbEntity
  8
0
 62
     7
370
    -2
100
AcDbLine
 10
-63649.33531068981
 20
117202.3491919402
 30
0.0
 11
-63649.33531068981
 21
117207.3491919402
 31
0.0
  0
POINT
  5
54A
330
543
100
AcDbEntity
  8
Defpoints
 62
     0
100
AcDbPoint
 10
-63330.35528583872
 20
117348.9038473526
 30
0.0
  0
POINT
  5
54B
330
543
100
AcDbEntity
  8
Defpoints
 62
     0
100
AcDbPoint
 10
-63968.3153355409
 20
117060.7945365278
 30
0.0
  0
ENDBLK
  5
54C
330
543
100
AcDbEntity
  8
0
100
AcDbBlockEnd
  0
BLOCK
  5
54E
330
54D
100
AcDbEntity
  8
0
100
AcDbBlockBegin
  2
*D28
 70
     1
 10
0.0
 20
0.0
 30
0.0
  3
*D28
  1

  0
LINE
  5
54F
330
54D
100
AcDbEntity
  8
0
 62
     7
370
    -2
100
AcDbLine
 10
-63264.33531068982
 20
117204.8491919402
 30
0.0
 11
-63304.33531068982
 21
117204.8491919402
 31
0.0
  0
MTEXT
  5
550
330
54D
100
AcDbEntity
  8
0
 62
     7
100
AcDbMText
 10
-63188.45536526008
 20
117204.8491919402
 30
0.0
 40
40.0
 41
0.0
 71
     5
 72
     1
  1
\A1;\U+2205610
  7
ARIAL
 73
     1
 44
1.0
1001
ACAD
1000
MTEXTBEGIN
1070
    73
1070
     1
1070
    44
1040
1.0
1070
    74
1070
     0
1000
MTEXTEND
  0
SOLID
  5
551
330
54D
100
AcDbEntity
  8
0
 62
     7
100
AcDbTrace
 10
-63304.33531068982
 20
117211.5158586068
 30
0.0
 11
-63304.33531068982
 21
117198.1825252735
 31
0.0
 12
-63344.33531068982
 22
117204.8491919402
 32
0.0
 13
-63344.33531068982
 23
117204.8491919402
 33
0.0
  0
LINE
  5
552
330
54D
100
AcDbEntity
  8
0
 62
     7
370
    -2
100
AcDbLine
 10
-63651.83531068981
 20
117204.8491919402
 30
0.0
 11
-63646.83531068981
 21
117204.8491919402
 31
0.0
  0
LINE
  5
553
330
54D
100
AcDbEntity
  8
0
 62
     7
370
    -2
100
AcDbLine
 10
-63649.33531068981
 20
117202.3491919402
 30
0.0
 11
-63649.33531068981
 21
117207.3491919402
 31
0.0
  0
POINT
  5
554
330
54D
100
AcDbEntity
  8
Defpoints
 62
     0
100
AcDbPoint
 10
-63344.33531068982
 20
117204.8491919402
 30
0.0
  0
POINT
  5
555
330
54D
100
AcDbEntity
  8
Defpoints
 62
     0
100
AcDbPoint
 10
-63954.33531068981
 20
117204.8491919402
 30
0.0
  0
ENDBLK
  5
556
330
54D
100
AcDbEntity
  8
0
100
AcDbBlockEnd
  0
BLOCK
  5
558
330
557
100
AcDbEntity
  8
0
100
AcDbBlockBegin
  2
*D29
 70
     1
 10
0.0
 20
0.0
 30
0.0
  3
*D29
  1

  0
LINE
  5
559
330
557
100
AcDbEntity
  8
0
 62
     7
370
    -2
100
AcDbLine
 10
-64929.19808058893
 20
116916.2075475753
 30
0.0
 11
-64929.19808058893
 21
116793.3021961677
 31
0.0
  0
LINE
  5
55A
330
557
100
AcDbEntity
  8
0
 62
     7
370
    -2
100
AcDbLine
 10
-64329.19808058891
 20
116916.2075475753
 30
0.0
 11
-64329.19808058891
 21
116793.3021961677
 31
0.0
  0
LINE
  5
55B
330
557
100
AcDbEntity
  8
0
 62
     7
370
    -2
100
AcDbLine
 10
-64889.19808058891
 20
116813.3021961677
 30
0.0
 11
-64683.42727567759
 21
116813.3021961677
 31
0.0
  0
LINE
  5
55C
330
557
100
AcDbEntity
  8
0
 62
     7
370
    -2
100
AcDbLine
 10
-64369.19808058893
 20
116813.3021961677
 30
0.0
 11
-64574.96888550022
 21
116813.3021961677
 31
0.0
  0
SOLID
  5
55D
330
557
100
AcDbEntity
  8
0
 62
     7
100
AcDbTrace
 10
-64889.19808058891
 20
116819.9688628343
 30
0.0
 11
-64889.19808058891
 21
116806.635529501
 31
0.0
 12
-64929.19808058893
 22
116813.3021961677
 32
0.0
 13
-64929.19808058893
 23
116813.3021961677
 33
0.0
  0
SOLID
  5
55E
330
557
100
AcDbEntity
  8
0
 62
     7
100
AcDbTrace
 10
-64369.19808058893
 20
116819.9688628343
 30
0.0
 11
-64369.19808058893
 21
116806.635529501
 31
0.0
 12
-64329.19808058891
 22
116813.3021961677
 32
0.0
 13
-64329.19808058891
 23
116813.3021961677
 33
0.0
  0
MTEXT
  5
55F
330
557
100
AcDbEntity
  8
0
 62
     7
100
AcDbMText
 10
-64629.19808058892
 20
116813.3021961677
 30
0.0
 40
40.0
 41
0.0
 71
     5
 72
     1
  1
\A1;600
  7
ARIAL
 73
     1
 44
1.0
1001
ACAD
1000
MTEXTBEGIN
1070
    73
1070
     1
1070
    44
1040
1.0
1070
    74
1070
     0
1000
MTEXTEND
  0
POINT
  5
560
330
557
100
AcDbEntity
  8
Defpoints
 62
     0
100
AcDbPoint
 10
-64929.19808058893
 20
116936.2075475753
 30
0.0
  0
POINT
  5
561
330
557
100
AcDbEntity
  8
Defpoints
 62
     0
100
AcDbPoint
 10
-64329.19808058891
 20
116936.2075475753
 30
0.0
  0
POINT
  5
562
330
557
100
AcDbEntity
  8
Defpoints
 62
     0
100
AcDbPoint
 10
-64329.19808058891
 20
116813.3021961677
 30
0.0
  0
ENDBLK
  5
563
330
557
100
AcDbEntity
  8
0
100
AcDbBlockEnd
  0
BLOCK
  5
565
330
564
100
AcDbEntity
  8
0
100
AcDbBlockBegin
  2
*D30
 70
     1
 10
0.0
 20
0.0
 30
0.0
  3
*D30
  1

  0
LINE
  5
566
330
564
100
AcDbEntity
  8
0
 62
     7
370
    -2
100
AcDbLine
 10
-64293.70006519806
 20
116954.8491919401
 30
0.0
 11
-64185.71035635181
 21
116954.8491919401
 31
0.0
  0
LINE
  5
567
330
564
100
AcDbEntity
  8
0
 62
     7
370
    -2
100
AcDbLine
 10
-64293.70006519806
 20
117554.8491919402
 30
0.0
 11
-64185.71035635181
 21
117554.8491919402
 31
0.0
  0
LINE
  5
568
330
564
100
AcDbEntity
  8
0
 62
     7
370
    -2
100
AcDbLine
 10
-64205.71035635179
 20
116994.8491919401
 30
0.0
 11
-64205.71035635179
 21
117200.6199968515
 31
0.0
  0
LINE
  5
569
330
564
100
AcDbEntity
  8
0
 62
     7
370
    -2
100
AcDbLine
 10
-64205.71035635179
 20
117514.8491919402
 30
0.0
 11
-64205.71035635179
 21
117309.0783870288
 31
0.0
  0
SOLID
  5
56A
330
564
100
AcDbEntity
  8
0
 62
     7
100
AcDbTrace
 10
-64212.37702301847
 20
116994.8491919401
 30
0.0
 11
-64199.04368968514
 21
116994.8491919401
 31
0.0
 12
-64205.71035635179
 22
116954.8491919401
 32
0.0
 13
-64205.71035635179
 23
116954.8491919401
 33
0.0
  0
SOLID
  5
56B
330
564
100
AcDbEntity
  8
0
 62
     7
100
AcDbTrace
 10
-64212.37702301847
 20
117514.8491919402
 30
0.0
 11
-64199.04368968514
 21
117514.8491919402
 31
0.0
 12
-64205.71035635179
 22
117554.8491919402
 32
0.0
 13
-64205.71035635179
 23
117554.8491919402
 33
0.0
  0
MTEXT
  5
56C
330
564
100
AcDbEntity
  8
0
 62
     7
100
AcDbMText
 10
-64205.71035635182
 20
117254.8491919402
 30
0.0
 40
40.0
 41
0.0
 71
     5
 72
     1
  1
\A1;600
  7
ARIAL
 11
0.0000000000000001
 21
1.0
 31
0.0
 73
     1
 44
1.0
1001
ACAD
1000
MTEXTBEGIN
1070
    73
1070
     1
1070
    44
1040
1.0
1070
    74
1070
     0
1000
MTEXTEND
  0
POINT
  5
56D
330
564
100
AcDbEntity
  8
Defpoints
 62
     0
100
AcDbPoint
 10
-64313.70006519806
 20
116954.8491919401
 30
0.0
  0
POINT
  5
56E
330
564
100
AcDbEntity
  8
Defpoints
 62
     0
100
AcDbPoint
 10
-64313.70006519806
 20
117554.8491919402
 30
0.0
  0
POINT
  5
56F
330
564
100
AcDbEntity
  8
Defpoints
 62
     0
100
AcDbPoint
 10
-64205.71035635179
 20
117554.8491919402
 30
0.0
  0
ENDBLK
  5
570
330
564
100
AcDbEntity
  8
0
100
AcDbBlockEnd
  0
BLOCK
  5
572
330
571
100
AcDbEntity
  8
0
100
AcDbBlockBegin
  2
*D31
 70
     1
 10
0.0
 20
0.0
 30
0.0
  3
*D31
  1

  0
LINE
  5
573
330
571
100
AcDbEntity
  8
0
 62
     7
370
    -2
100
AcDbLine
 10
-64575.60548499941
 20
117304.9735382127
 30
0.0
 11
-64453.91554438412
 21
117418.7883041179
 31
0.0
  0
MTEXT
  5
574
330
571
100
AcDbEntity
  8
0
 62
     7
100
AcDbMText
 10
-64631.02394034113
 20
117253.141492855
 30
0.0
 40
40.0
 41
0.0
 71
     5
 72
     1
  1
\A1;\U+2205560
  7
ARIAL
 11
0.7303439008534735
 21
0.6830796340736062
 31
0.0
 73
     1
 44
1.0
1001
ACAD
1000
MTEXTBEGIN
1070
    73
1070
     1
1070
    44
1040
1.0
1070
    74
1070
     0
1000
MTEXTEND
  0
SOLID
  5
575
330
571
100
AcDbEntity
  8
0
 62
     7
100
AcDbTrace
 10
-64458.4694086113
 20
117423.6572634569
 30
0.0
 11
-64449.36168015697
 21
117413.9193447789
 31
0.0
 12
-64424.70178834999
 22
117446.1114894808
 32
0.0
 13
-64424.70178834999
 23
117446.1114894808
 33
0.0
  0
POINT
  5
576
330
571
100
AcDbEntity
  8
Defpoints
 62
     0
100
AcDbPoint
 10
-64424.70178834999
 20
117446.1114894808
 30
0.0
  0
POINT
  5
577
330
571
100
AcDbEntity
  8
Defpoints
 62
     0
100
AcDbPoint
 10
-64833.69437282792
 20
117063.5868943996
 30
0.0
  0
ENDBLK
  5
578
330
571
100
AcDbEntity
  8
0
100
AcDbBlockEnd
  0
BLOCK
  5
57A
330
579
100
AcDbEntity
  8
0
100
AcDbBlockBegin
  2
*D32
 70
     1
 10
0.0
 20
0.0
 30
0.0
  3
*D32
  1

  0
LINE
  5
57B
330
579
100
AcDbEntity
  8
0
 62
     7
370
    -2
100
AcDbLine
 10
-66005.43806262432
 20
116322.2684404283
 30
0.0
 11
-66005.43806262432
 21
116176.4478641109
 31
0.0
  0
LINE
  5
57C
330
579
100
AcDbEntity
  8
0
 62
     7
370
    -2
100
AcDbLine
 10
-65405.43806262431
 20
116322.2684404283
 30
0.0
 11
-65405.43806262431
 21
116176.4478641109
 31
0.0
  0
LINE
  5
57D
330
579
100
AcDbEntity
  8
0
 62
     7
370
    -2
100
AcDbLine
 10
-65965.43806262429
 20
116196.4478641109
 30
0.0
 11
-65759.66725771298
 21
116196.4478641109
 31
0.0
  0
LINE
  5
57E
330
579
100
AcDbEntity
  8
0
 62
     7
370
    -2
100
AcDbLine
 10
-65445.43806262431
 20
116196.4478641109
 30
0.0
 11
-65651.20886753564
 21
116196.4478641109
 31
0.0
  0
SOLID
  5
57F
330
579
100
AcDbEntity
  8
0
 62
     7
100
AcDbTrace
 10
-65965.43806262429
 20
116203.1145307776
 30
0.0
 11
-65965.43806262429
 21
116189.7811974442
 31
0.0
 12
-66005.43806262432
 22
116196.4478641109
 32
0.0
 13
-66005.43806262432
 23
116196.4478641109
 33
0.0
  0
SOLID
  5
580
330
579
100
AcDbEntity
  8
0
 62
     7
100
AcDbTrace
 10
-65445.43806262431
 20
116203.1145307776
 30
0.0
 11
-65445.43806262431
 21
116189.7811974442
 31
0.0
 12
-65405.43806262431
 22
116196.4478641109
 32
0.0
 13
-65405.43806262431
 23
116196.4478641109
 33
0.0
  0
MTEXT
  5
581
330
579
100
AcDbEntity
  8
0
 62
     7
100
AcDbMText
 10
-65705.43806262429
 20
116196.4478641109
 30
0.0
 40
40.0
 41
0.0
 71
     5
 72
     1
  1
\A1;600
  7
ARIAL
 73
     1
 44
1.0
1001
ACAD
1000
MTEXTBEGIN
1070
    73
1070
     1
1070
    44
1040
1.0
1070
    74
1070
     0
1000
MTEXTEND
  0
POINT
  5
582
330
579
100
AcDbEntity
  8
Defpoints
 62
     0
100
AcDbPoint
 10
-66005.43806262432
 20
116342.2684404284
 30
0.0
  0
POINT
  5
583
330
579
100
AcDbEntity
  8
Defpoints
 62
     0
100
AcDbPoint
 10
-65405.43806262431
 20
116342.2684404284
 30
0.0
  0
POINT
  5
584
330
579
100
AcDbEntity
  8
Defpoints
 62
     0
100
AcDbPoint
 10
-65405.43806262431
 20
116196.4478641109
 30
0.0
  0
ENDBLK
  5
585
330
579
100
AcDbEntity
  8
0
100
AcDbBlockEnd
  0
BLOCK
  5
587
330
586
100
AcDbEntity
  8
0
100
AcDbBlockBegin
  2
*D33
 70
     1
 10
0.0
 20
0.0
 30
0.0
  3
*D33
  1

  0
LINE
  5
588
330
586
100
AcDbEntity
  8
0
 62
     7
370
    -2
100
AcDbLine
 10
-65358.41366024138
 20
117554.8491919402
 30
0.0
 11
-65204.52345025766
 21
117554.8491919402
 31
0.0
  0
LINE
  5
589
330
586
100
AcDbEntity
  8
0
 62
     7
370
    -2
100
AcDbLine
 10
-65358.41366024138
 20
116354.8491919401
 30
0.0
 11
-65204.52345025766
 21
116354.8491919401
 31
0.0
  0
LINE
  5
58A
330
586
100
AcDbEntity
  8
0
 62
     7
370
    -2
100
AcDbLine
 10
-65224.52345025766
 20
117514.8491919402
 30
0.0
 11
-65224.52345025766
 21
117022.6254538774
 31
0.0
  0
LINE
  5
58B
330
586
100
AcDbEntity
  8
0
 62
     7
370
    -2
100
AcDbLine
 10
-65224.52345025766
 20
116394.8491919402
 30
0.0
 11
-65224.52345025766
 21
116887.0729300029
 31
0.0
  0
SOLID
  5
58C
330
586
100
AcDbEntity
  8
0
 62
     7
100
AcDbTrace
 10
-65231.19011692433
 20
117514.8491919402
 30
0.0
 11
-65217.85678359099
 21
117514.8491919402
 31
0.0
 12
-65224.52345025766
 22
117554.8491919402
 32
0.0
 13
-65224.52345025766
 23
117554.8491919402
 33
0.0
  0
SOLID
  5
58D
330
586
100
AcDbEntity
  8
0
 62
     7
100
AcDbTrace
 10
-65231.19011692433
 20
116394.8491919402
 30
0.0
 11
-65217.85678359099
 21
116394.8491919402
 31
0.0
 12
-65224.52345025766
 22
116354.8491919401
 32
0.0
 13
-65224.52345025766
 23
116354.8491919401
 33
0.0
  0
MTEXT
  5
58E
330
586
100
AcDbEntity
  8
0
 62
     7
100
AcDbMText
 10
-65224.52345025769
 20
116954.8491919401
 30
0.0
 40
40.0
 41
0.0
 71
     5
 72
     1
  1
\A1;1200
  7
ARIAL
 11
0.0000000000000001
 21
1.0
 31
0.0
 73
     1
 44
1.0
1001
ACAD
1000
MTEXTBEGIN
1070
    73
1070
     1
1070
    44
1040
1.0
1070
    74
1070
     0
1000
MTEXTEND
  0
POINT
  5
58F
330
586
100
AcDbEntity
  8
Defpoints
 62
     0
100
AcDbPoint
 10
-65378.41366024138
 20
117554.8491919402
 30
0.0
  0
POINT
  5
590
330
586
100
AcDbEntity
  8
Defpoints
 62
     0
100
AcDbPoint
 10
-65378.41366024138
 20
116354.8491919401
 30
0.0
  0
POINT
  5
591
330
586
100
AcDbEntity
  8
Defpoints
 62
     0
100
AcDbPoint
 10
-65224.52345025766
 20
116354.8491919401
 30
0.0
  0
ENDBLK
  5
592
330
586
100
AcDbEntity
  8
0
100
AcDbBlockEnd
  0
BLOCK
  5
594
330
593
100
AcDbEntity
  8
0
100
AcDbBlockBegin
  2
*D34
 70
     1
 10
0.0
 20
0.0
 30
0.0
  3
*D34
  1

  0
LINE
  5
595
330
593
100
AcDbEntity
  8
0
 62
     7
370
    -2
100
AcDbLine
 10
-65362.15359040022
 20
117598.3412930798
 30
0.0
 11
-65390.40462151192
 21
117570.0238207151
 31
0.0
  0
MTEXT
  5
596
330
593
100
AcDbEntity
  8
0
 62
     7
100
AcDbMText
 10
-65321.23199110574
 20
117639.3591324839
 30
0.0
 40
40.0
 41
0.0
 71
     5
 72
     1
  1
\A1;R45
  7
ARIAL
 11
0.7062757777926803
 21
0.7079368091174131
 31
0.0
 73
     1
 44
1.0
1001
ACAD
1000
MTEXTBEGIN
1070
    73
1070
     1
1070
    44
1040
1.0
1070
    74
1070
     0
1000
MTEXTEND
  0
SOLID
  5
597
330
593
100
AcDbEntity
  8
0
 62
     7
100
AcDbTrace
 10
-65395.12420023937
 20
117574.7323259004
 30
0.0
 11
-65385.68504278447
 21
117565.3153155298
 31
0.0
 12
-65418.65565262362
 22
117541.7063483504
 32
0.0
 13
-65418.65565262362
 23
117541.7063483504
 33
0.0
  0
LINE
  5
598
330
593
100
AcDbEntity
  8
0
 62
     7
370
    -2
100
AcDbLine
 10
-65452.93806262432
 20
117509.8491919401
 30
0.0
 11
-65447.93806262433
 21
117509.8491919401
 31
0.0
  0
LINE
  5
599
330
593
100
AcDbEntity
  8
0
 62
     7
370
    -2
100
AcDbLine
 10
-65450.43806262433
 20
117507.3491919401
 30
0.0
 11
-65450.43806262433
 21
117512.3491919401
 31
0.0
  0
POINT
  5
59A
330
593
100
AcDbEntity
  8
Defpoints
 62
     0
100
AcDbPoint
 10
-65418.65565262362
 20
117541.7063483504
 30
0.0
  0
POINT
  5
59B
330
593
100
AcDbEntity
  8
Defpoints
 62
     0
100
AcDbPoint
 10
-65450.43806262433
 20
117509.8491919401
 30
0.0
  0
ENDBLK
  5
59C
330
593
100
AcDbEntity
  8
0
100
AcDbBlockEnd
  0
BLOCK
  5
59E
330
59D
100
AcDbEntity
  8
0
100
AcDbBlockBegin
  2
*D35
 70
     1
 10
0.0
 20
0.0
 30
0.0
  3
*D35
  1

  0
LINE
  5
59F
330
59D
100
AcDbEntity
  8
0
 62
     7
370
    -2
100
AcDbLine
 10
-65887.28214540476
 20
117465.367973061
 30
0.0
 11
-65913.76205826744
 21
117495.3482034601
 31
0.0
  0
MTEXT
  5
5A0
330
59D
100
AcDbEntity
  8
0
 62
     7
100
AcDbMText
 10
-65849.16082473855
 20
117422.2074844816
 30
0.0
 40
40.0
 41
0.0
 71
     5
 72
     1
  1
\A1;R42
  7
ARIAL
 11
0.6619978215669464
 21
-0.749505759978279
 31
0.0
 73
     1
 44
1.0
1001
ACAD
1000
MTEXTBEGIN
1070
    73
1070
     1
1070
    44
1040
1.0
1070
    74
1070
     0
1000
MTEXTEND
  0
SOLID
  5
5A1
330
59D
100
AcDbEntity
  8
0
 62
     7
100
AcDbTrace
 10
-65908.76535320091
 20
117499.7615222705
 30
0.0
 11
-65918.75876333397
 21
117490.9348846497
 31
0.0
 12
-65940.24197113014
 22
117525.3284338592
 32
0.0
 13
-65940.24197113014
 23
117525.3284338592
 33
0.0
  0
LINE
  5
5A2
330
59D
100
AcDbEntity
  8
0
 62
     7
370
    -2
100
AcDbLine
 10
-65970.54587963588
 20
117556.8076757782
 30
0.0
 11
-65965.54587963587
 21
117556.8076757782
 31
0.0
  0
LINE
  5
5A3
330
59D
100
AcDbEntity
  8
0
 62
     7
370
    -2
100
AcDbLine
 10
-65968.04587963585
 20
117554.3076757782
 30
0.0
 11
-65968.04587963585
 21
117559.3076757782
 31
0.0
  0
POINT
  5
5A4
330
59D
100
AcDbEntity
  8
Defpoints
 62
     0
100
AcDbPoint
 10
-65940.24197113014
 20
117525.3284338592
 30
0.0
  0
POINT
  5
5A5
330
59D
100
AcDbEntity
  8
Defpoints
 62
     0
100
AcDbPoint
 10
-65968.04587963585
 20
117556.8076757782
 30
0.0
  0
ENDBLK
  5
5A6
330
59D
100
AcDbEntity
  8
0
100
AcDbBlockEnd
  0
BLOCK
  5
5A8
330
5A7
100
AcDbEntity
  8
0
100
AcDbBlockBegin
  2
*D36
 70
     1
 10
0.0
 20
0.0
 30
0.0
  3
*D36
  1

  0
LINE
  5
5A9
330
5A7
100
AcDbEntity
  8
0
 62
     7
370
    -2
100
AcDbLine
 10
-65954.43806262432
 20
117098.7724345712
 30
0.0
 11
-65954.43806262432
 21
117153.6693255765
 31
0.0
  0
LINE
  5
5AA
330
5A7
100
AcDbEntity
  8
0
 62
     7
370
    -2
100
AcDbLine
 10
-65424.4380626243
 20
117098.7724345712
 30
0.0
 11
-65424.4380626243
 21
117153.6693255765
 31
0.0
  0
LINE
  5
5AB
330
5A7
100
AcDbEntity
  8
0
 62
     7
370
    -2
100
AcDbLine
 10
-65914.43806262429
 20
117133.6693255764
 30
0.0
 11
-65743.55811719456
 21
117133.6693255764
 31
0.0
  0
LINE
  5
5AC
330
5A7
100
AcDbEntity
  8
0
 62
     7
370
    -2
100
AcDbLine
 10
-65464.43806262431
 20
117133.6693255764
 30
0.0
 11
-65635.31800805405
 21
117133.6693255764
 31
0.0
  0
SOLID
  5
5AD
330
5A7
100
AcDbEntity
  8
0
 62
     7
100
AcDbTrace
 10
-65914.43806262429
 20
117140.3359922431
 30
0.0
 11
-65914.43806262429
 21
117127.0026589098
 31
0.0
 12
-65954.43806262432
 22
117133.6693255764
 32
0.0
 13
-65954.43806262432
 23
117133.6693255764
 33
0.0
  0
SOLID
  5
5AE
330
5A7
100
AcDbEntity
  8
0
 62
     7
100
AcDbTrace
 10
-65464.43806262431
 20
117140.3359922431
 30
0.0
 11
-65464.43806262431
 21
117127.0026589098
 31
0.0
 12
-65424.4380626243
 22
117133.6693255764
 32
0.0
 13
-65424.4380626243
 23
117133.6693255764
 33
0.0
  0
MTEXT
  5
5AF
330
5A7
100
AcDbEntity
  8
0
 62
     7
100
AcDbMText
 10
-65689.43806262432
 20
117133.6693255764
 30
0.0
 40
40.0
 41
0.0
 71
     5
 72
     1
  1
\A1;530
  7
ARIAL
 73
     1
 44
1.0
1001
ACAD
1000
MTEXTBEGIN
1070
    73
1070
     1
1070
    44
1040
1.0
1070
    74
1070
     0
1000
MTEXTEND
  0
POINT
  5
5B0
330
5A7
100
AcDbEntity
  8
Defpoints
 62
     0
100
AcDbPoint
 10
-65954.43806262432
 20
117078.7724345712
 30
0.0
  0
POINT
  5
5B1
330
5A7
100
AcDbEntity
  8
Defpoints
 62
     0
100
AcDbPoint
 10
-65424.4380626243
 20
117078.7724345712
 30
0.0
  0
POINT
  5
5B2
330
5A7
100
AcDbEntity
  8
Defpoints
 62
     0
100
AcDbPoint
 10
-65424.4380626243
 20
117133.6693255764
 30
0.0
  0
ENDBLK
  5
5B3
330
5A7
100
AcDbEntity
  8
0
100
AcDbBlockEnd
  0
BLOCK
  5
5B5
330
5B4
100
AcDbEntity
  8
0
100
AcDbBlockBegin
  2
*D37
 70
     1
 10
0.0
 20
0.0
 30
0.0
  3
*D37
  1

  0
LINE
  5
5B6
330
5B4
100
AcDbEntity
  8
0
 62
     7
370
    -2
100
AcDbLine
 10
-65540.10346460616
 20
117535.8491919402
 30
0.0
 11
-65568.87831390924
 21
117535.8491919402
 31
0.0
  0
LINE
  5
5B7
330
5B4
100
AcDbEntity
  8
0
 62
     7
370
    -2
100
AcDbLine
 10
-65540.10346460616
 20
116405.8491919401
 30
0.0
 11
-65568.87831390924
 21
116405.8491919401
 31
0.0
  0
LINE
  5
5B8
330
5B4
100
AcDbEntity
  8
0
 62
     7
370
    -2
100
AcDbLine
 10
-65548.87831390924
 20
117495.8491919402
 30
0.0
 11
-65548.87831390924
 21
117038.6254538774
 31
0.0
  0
LINE
  5
5B9
330
5B4
100
AcDbEntity
  8
0
 62
     7
370
    -2
100
AcDbLine
 10
-65548.87831390924
 20
116445.8491919401
 30
0.0
 11
-65548.87831390924
 21
116903.0729300029
 31
0.0
  0
SOLID
  5
5BA
330
5B4
100
AcDbEntity
  8
0
 62
     7
100
AcDbTrace
 10
-65555.54498057593
 20
117495.8491919402
 30
0.0
 11
-65542.21164724258
 21
117495.8491919402
 31
0.0
 12
-65548.87831390924
 22
117535.8491919402
 32
0.0
 13
-65548.87831390924
 23
117535.8491919402
 33
0.0
  0
SOLID
  5
5BB
330
5B4
100
AcDbEntity
  8
0
 62
     7
100
AcDbTrace
 10
-65555.54498057593
 20
116445.8491919401
 30
0.0
 11
-65542.21164724258
 21
116445.8491919401
 31
0.0
 12
-65548.87831390924
 22
116405.8491919401
 32
0.0
 13
-65548.87831390924
 23
116405.8491919401
 33
0.0
  0
MTEXT
  5
5BC
330
5B4
100
AcDbEntity
  8
0
 62
     7
100
AcDbMText
 10
-65548.87831390927
 20
116970.8491919401
 30
0.0
 40
40.0
 41
0.0
 71
     5
 72
     1
  1
\A1;1130
  7
ARIAL
 11
0.0000000000000001
 21
1.0
 31
0.0
 73
     1
 44
1.0
1001
ACAD
1000
MTEXTBEGIN
1070
    73
1070
     1
1070
    44
1040
1.0
1070
    74
1070
     0
1000
MTEXTEND
  0
POINT
  5
5BD
330
5B4
100
AcDbEntity
  8
Defpoints
 62
     0
100
AcDbPoint
 10
-65520.10346460615
 20
117535.8491919402
 30
0.0
  0
POINT
  5
5BE
330
5B4
100
AcDbEntity
  8
Defpoints
 62
     0
100
AcDbPoint
 10
-65520.10346460615
 20
116405.8491919401
 30
0.0
  0
POINT
  5
5BF
330
5B4
100
AcDbEntity
  8
Defpoints
 62
     0
100
AcDbPoint
 10
-65548.87831390924
 20
116405.8491919401
 30
0.0
  0
ENDBLK
  5
5C0
330
5B4
100
AcDbEntity
  8
0
100
AcDbBlockEnd
  0
BLOCK
  5
5C2
330
5C1
100
AcDbEntity
  8
0
100
AcDbBlockBegin
  2
*D38
 70
     1
 10
0.0
 20
0.0
 30
0.0
  3
*D38
  1

  0
LINE
  5
5C3
330
5C1
100
AcDbEntity
  8
0
 62
     7
370
    -2
100
AcDbLine
 10
-65300.68470143771
 20
117554.8491919402
 30
0.0
 11
-65274.90691271005
 21
117554.8491919402
 31
0.0
  0
LINE
  5
5C4
330
5C1
100
AcDbEntity
  8
0
 62
     7
370
    -2
100
AcDbLine
 10
-65300.68470143771
 20
117535.8491919402
 30
0.0
 11
-65274.90691271005
 21
117535.8491919402
 31
0.0
  0
LINE
  5
5C5
330
5C1
100
AcDbEntity
  8
0
 62
     7
370
    -2
100
AcDbLine
 10
-65294.90691271005
 20
117594.8491919402
 30
0.0
 11
-65294.90691271005
 21
117634.8491919402
 31
0.0
  0
LINE
  5
5C6
330
5C1
100
AcDbEntity
  8
0
 62
     7
370
    -2
100
AcDbLine
 10
-65294.90691271005
 20
117495.8491919402
 30
0.0
 11
-65294.90691271005
 21
117455.8491919402
 31
0.0
  0
SOLID
  5
5C7
330
5C1
100
AcDbEntity
  8
0
 62
     7
100
AcDbTrace
 10
-65301.57357937671
 20
117594.8491919402
 30
0.0
 11
-65288.24024604339
 21
117594.8491919402
 31
0.0
 12
-65294.90691271005
 22
117554.8491919402
 32
0.0
 13
-65294.90691271005
 23
117554.8491919402
 33
0.0
  0
SOLID
  5
5C8
330
5C1
100
AcDbEntity
  8
0
 62
     7
100
AcDbTrace
 10
-65301.57357937671
 20
117495.8491919402
 30
0.0
 11
-65288.24024604339
 21
117495.8491919402
 31
0.0
 12
-65294.90691271005
 22
117535.8491919402
 32
0.0
 13
-65294.90691271005
 23
117535.8491919402
 33
0.0
  0
MTEXT
  5
5C9
330
5C1
100
AcDbEntity
  8
0
 62
     7
100
AcDbMText
 10
-65294.90691271008
 20
117419.0415521038
 30
0.0
 40
40.0
 41
0.0
 71
     5
 72
     1
  1
\A1;19
  7
ARIAL
 11
0.0000000000000001
 21
1.0
 31
0.0
 73
     1
 44
1.0
1001
ACAD
1000
MTEXTBEGIN
1070
    73
1070
     1
1070
    44
1040
1.0
1070
    74
1070
     0
1000
MTEXTEND
  0
POINT
  5
5CA
330
5C1
100
AcDbEntity
  8
Defpoints
 62
     0
100
AcDbPoint
 10
-65320.68470143771
 20
117554.8491919402
 30
0.0
  0
POINT
  5
5CB
330
5C1
100
AcDbEntity
  8
Defpoints
 62
     0
100
AcDbPoint
 10
-65320.68470143771
 20
117535.8491919402
 30
0.0
  0
POINT
  5
5CC
330
5C1
100
AcDbEntity
  8
Defpoints
 62
     0
100
AcDbPoint
 10
-65294.90691271005
 20
117535.8491919402
 30
0.0
  0
ENDBLK
  5
5CD
330
5C1
100
AcDbEntity
  8
0
100
AcDbBlockEnd
  0
BLOCK
  5
5CF
330
5CE
100
AcDbEntity
  8
0
100
AcDbBlockBegin
  2
*D39
 70
     1
 10
0.0
 20
0.0
 30
0.0
  3
*D39
  1

  0
LINE
  5
5D0
330
5CE
100
AcDbEntity
  8
0
 62
     7
370
    -2
100
AcDbLine
 10
-65405.43806262431
 20
116322.2684404283
 30
0.0
 11
-65405.43806262431
 21
116274.1626065117
 31
0.0
  0
LINE
  5
5D1
330
5CE
100
AcDbEntity
  8
0
 62
     7
370
    -2
100
AcDbLine
 10
-65424.4380626243
 20
116322.2684404283
 30
0.0
 11
-65424.4380626243
 21
116274.1626065117
 31
0.0
  0
LINE
  5
5D2
330
5CE
100
AcDbEntity
  8
0
 62
     7
370
    -2
100
AcDbLine
 10
-65365.43806262431
 20
116294.1626065117
 30
0.0
 11
-65325.43806262431
 21
116294.1626065117
 31
0.0
  0
LINE
  5
5D3
330
5CE
100
AcDbEntity
  8
0
 62
     7
370
    -2
100
AcDbLine
 10
-65464.43806262431
 20
116294.1626065117
 30
0.0
 11
-65504.4380626243
 21
116294.1626065117
 31
0.0
  0
SOLID
  5
5D4
330
5CE
100
AcDbEntity
  8
0
 62
     7
100
AcDbTrace
 10
-65365.43806262431
 20
116300.8292731783
 30
0.0
 11
-65365.43806262431
 21
116287.495939845
 31
0.0
 12
-65405.43806262431
 22
116294.1626065117
 32
0.0
 13
-65405.43806262431
 23
116294.1626065117
 33
0.0
  0
SOLID
  5
5D5
330
5CE
100
AcDbEntity
  8
0
 62
     7
100
AcDbTrace
 10
-65464.43806262431
 20
116300.8292731783
 30
0.0
 11
-65464.43806262431
 21
116287.495939845
 31
0.0
 12
-65424.4380626243
 22
116294.1626065117
 32
0.0
 13
-65424.4380626243
 23
116294.1626065117
 33
0.0
  0
MTEXT
  5
5D6
330
5CE
100
AcDbEntity
  8
0
 62
     7
100
AcDbMText
 10
-65541.24570246058
 20
116294.1626065117
 30
0.0
 40
40.0
 41
0.0
 71
     5
 72
     1
  1
\A1;19
  7
ARIAL
 73
     1
 44
1.0
1001
ACAD
1000
MTEXTBEGIN
1070
    73
1070
     1
1070
    44
1040
1.0
1070
    74
1070
     0
1000
MTEXTEND
  0
POINT
  5
5D7
330
5CE
100
AcDbEntity
  8
Defpoints
 62
     0
100
AcDbPoint
 10
-65405.43806262431
 20
116342.2684404284
 30
0.0
  0
POINT
  5
5D8
330
5CE
100
AcDbEntity
  8
Defpoints
 62
     0
100
AcDbPoint
 10
-65424.4380626243
 20
116342.2684404284
 30
0.0
  0
POINT
  5
5D9
330
5CE
100
AcDbEntity
  8
Defpoints
 62
     0
100
AcDbPoint
 10
-65424.4380626243
 20
116294.1626065117
 30
0.0
  0
ENDBLK
  5
5DA
330
5CE
100
AcDbEntity
  8
0
100
AcDbBlockEnd
  0
BLOCK
  5
623
330
61B
100
AcDbEntity
  8
0
100
AcDbBlockBegin
  2
*D40
 70
     1
 10
0.0
 20
0.0
 30
0.0
  3
*D40
  1

  0
LINE
  5
6B3
330
61B
100
AcDbEntity
  8
0
 62
     7
370
    -2
100
AcDbLine
 10
3332.986707068428
 20
1628.299854357349
 30
0.0
 11
3296.531847085445
 21
1611.836465167358
 31
0.0
  0
MTEXT
  5
6B4
330
61B
100
AcDbEntity
  8
0
 62
     7
100
AcDbMText
 10
3402.141526722368
 20
1659.530881190477
 30
0.0
 40
40.0
 41
0.0
 71
     5
 72
     1
  1
\A1;\U+2205700
  7
ARIAL
 11
0.9113714995745722
 21
0.4115847297497756
 31
0.0
 73
     1
 44
1.0
1001
ACAD
1000
MTEXTBEGIN
1070
    73
1070
     1
1070
    44
1040
1.0
1070
    74
1070
     0
1000
MTEXTEND
  0
SOLID
  5
6B5
330
61B
100
AcDbEntity
  8
0
 62
     7
100
AcDbTrace
 10
3293.787948887113
 20
1617.912275164522
 30
0.0
 11
3299.275745283777
 21
1605.760655170194
 31
0.0
 12
3260.076987102463
 22
1595.373075977367
 32
0.0
 13
3260.076987102463
 23
1595.373075977367
 33
0.0
  0
LINE
  5
6B6
330
61B
100
AcDbEntity
  8
0
 62
     7
370
    -2
100
AcDbLine
 10
2938.596962251376
 20
1451.318420564951
 30
0.0
 11
2943.596962251375
 21
1451.318420564951
 31
0.0
  0
LINE
  5
6B7
330
61B
100
AcDbEntity
  8
0
 62
     7
370
    -2
100
AcDbLine
 10
2941.096962251375
 20
1448.818420564951
 30
0.0
 11
2941.096962251375
 21
1453.818420564951
 31
0.0
  0
POINT
  5
6B8
330
61B
100
AcDbEntity
  8
Defpoints
 62
     0
100
AcDbPoint
 10
3260.076987102463
 20
1595.373075977367
 30
0.0
  0
POINT
  5
6B9
330
61B
100
AcDbEntity
  8
Defpoints
 62
     0
100
AcDbPoint
 10
2622.116937400288
 20
1307.263765152536
 30
0.0
  0
ENDBLK
  5
624
330
61B
100
AcDbEntity
  8
0
100
AcDbBlockEnd
  0
BLOCK
  5
62D
330
625
100
AcDbEntity
  8
0
100
AcDbBlockBegin
  2
*D41
 70
     1
 10
0.0
 20
0.0
 30
0.0
  3
*D41
  1

  0
LINE
  5
6BA
330
625
100
AcDbEntity
  8
0
 62
     7
370
    -2
100
AcDbLine
 10
3326.096962251361
 20
1451.318420564922
 30
0.0
 11
3286.09696225136
 21
1451.318420564922
 31
0.0
  0
MTEXT
  5
6BB
330
625
100
AcDbEntity
  8
0
 62
     7
100
AcDbMText
 10
3401.976907681103
 20
1451.318420564922
 30
0.0
 40
40.0
 41
0.0
 71
     5
 72
     1
  1
\A1;\U+2205610
  7
ARIAL
 73
     1
 44
1.0
1001
ACAD
1000
MTEXTBEGIN
1070
    73
1070
     1
1070
    44
1040
1.0
1070
    74
1070
     0
1000
MTEXTEND
  0
SOLID
  5
6BC
330
625
100
AcDbEntity
  8
0
 62
     7
100
AcDbTrace
 10
3286.09696225136
 20
1457.985087231589
 30
0.0
 11
3286.09696225136
 21
1444.651753898255
 31
0.0
 12
3246.09696225136
 22
1451.318420564922
 32
0.0
 13
3246.09696225136
 23
1451.318420564922
 33
0.0
  0
LINE
  5
6BD
330
625
100
AcDbEntity
  8
0
 62
     7
370
    -2
100
AcDbLine
 10
2938.596962251376
 20
1451.318420564922
 30
0.0
 11
2943.596962251375
 21
1451.318420564922
 31
0.0
  0
LINE
  5
6BE
330
625
100
AcDbEntity
  8
0
 62
     7
370
    -2
100
AcDbLine
 10
2941.096962251375
 20
1448.818420564922
 30
0.0
 11
2941.096962251375
 21
1453.818420564922
 31
0.0
  0
POINT
  5
6BF
330
625
100
AcDbEntity
  8
Defpoints
 62
     0
100
AcDbPoint
 10
3246.09696225136
 20
1451.318420564922
 30
0.0
  0
POINT
  5
6C0
330
625
100
AcDbEntity
  8
Defpoints
 62
     0
100
AcDbPoint
 10
2636.09696225139
 20
1451.318420564922
 30
0.0
  0
ENDBLK
  5
62E
330
625
100
AcDbEntity
  8
0
100
AcDbBlockEnd
  0
BLOCK
  5
63A
330
62F
100
AcDbEntity
  8
0
100
AcDbBlockBegin
  2
*D42
 70
     1
 10
0.0
 20
0.0
 30
0.0
  3
*D42
  1

  0
LINE
  5
6C1
330
62F
100
AcDbEntity
  8
0
 62
     7
370
    -2
100
AcDbLine
 10
1661.234192352271
 20
1162.676776200044
 30
0.0
 11
1661.234192352271
 21
1039.771424792422
 31
0.0
  0
LINE
  5
6C2
330
62F
100
AcDbEntity
  8
0
 62
     7
370
    -2
100
AcDbLine
 10
2261.234192352271
 20
1162.676776200044
 30
0.0
 11
2261.234192352271
 21
1039.771424792422
 31
0.0
  0
LINE
  5
6C3
330
62F
100
AcDbEntity
  8
0
 62
     7
370
    -2
100
AcDbLine
 10
1701.234192352271
 20
1059.771424792422
 30
0.0
 11
1907.004997263594
 21
1059.771424792422
 31
0.0
  0
LINE
  5
6C4
330
62F
100
AcDbEntity
  8
0
 62
     7
370
    -2
100
AcDbLine
 10
2221.234192352271
 20
1059.771424792422
 30
0.0
 11
2015.463387440948
 21
1059.771424792422
 31
0.0
  0
SOLID
  5
6C5
330
62F
100
AcDbEntity
  8
0
 62
     7
100
AcDbTrace
 10
1701.234192352271
 20
1066.438091459089
 30
0.0
 11
1701.234192352271
 21
1053.104758125755
 31
0.0
 12
1661.234192352271
 22
1059.771424792422
 32
0.0
 13
1661.234192352271
 23
1059.771424792422
 33
0.0
  0
SOLID
  5
6C6
330
62F
100
AcDbEntity
  8
0
 62
     7
100
AcDbTrace
 10
2221.234192352271
 20
1066.438091459089
 30
0.0
 11
2221.234192352271
 21
1053.104758125755
 31
0.0
 12
2261.234192352271
 22
1059.771424792422
 32
0.0
 13
2261.234192352271
 23
1059.771424792422
 33
0.0
  0
MTEXT
  5
6C7
330
62F
100
AcDbEntity
  8
0
 62
     7
100
AcDbMText
 10
1961.234192352271
 20
1059.771424792422
 30
0.0
 40
40.0
 41
0.0
 71
     5
 72
     1
  1
\A1;600
  7
ARIAL
 73
     1
 44
1.0
1001
ACAD
1000
MTEXTBEGIN
1070
    73
1070
     1
1070
    44
1040
1.0
1070
    74
1070
     0
1000
MTEXTEND
  0
POINT
  5
6C8
330
62F
100
AcDbEntity
  8
Defpoints
 62
     0
100
AcDbPoint
 10
1661.234192352271
 20
1182.676776200044
 30
0.0
  0
POINT
  5
6C9
330
62F
100
AcDbEntity
  8
Defpoints
 62
     0
100
AcDbPoint
 10
2261.234192352271
 20
1182.676776200044
 30
0.0
  0
POINT
  5
6CA
330
62F
100
AcDbEntity
  8
Defpoints
 62
     0
100
AcDbPoint
 10
2261.234192352271
 20
1059.771424792422
 30
0.0
  0
ENDBLK
  5
63B
330
62F
100
AcDbEntity
  8
0
100
AcDbBlockEnd
  0
BLOCK
  5
647
330
63C
100
AcDbEntity
  8
0
100
AcDbBlockBegin
  2
*D43
 70
     1
 10
0.0
 20
0.0
 30
0.0
  3
*D43
  1

  0
LINE
  5
6CB
330
63C
100
AcDbEntity
  8
0
 62
     7
370
    -2
100
AcDbLine
 10
2296.732207743126
 20
1201.318420564922
 30
0.0
 11
2404.721916589386
 21
1201.318420564922
 31
0.0
  0
LINE
  5
6CC
330
63C
100
AcDbEntity
  8
0
 62
     7
370
    -2
100
AcDbLine
 10
2296.732207743126
 20
1801.318420564921
 30
0.0
 11
2404.721916589386
 21
1801.318420564921
 31
0.0
  0
LINE
  5
6CD
330
63C
100
AcDbEntity
  8
0
 62
     7
370
    -2
100
AcDbLine
 10
2384.721916589386
 20
1241.318420564922
 30
0.0
 11
2384.721916589386
 21
1447.089225476245
 31
0.0
  0
LINE
  5
6CE
330
63C
100
AcDbEntity
  8
0
 62
     7
370
    -2
100
AcDbLine
 10
2384.721916589386
 20
1761.318420564922
 30
0.0
 11
2384.721916589386
 21
1555.547615653599
 31
0.0
  0
SOLID
  5
6CF
330
63C
100
AcDbEntity
  8
0
 62
     7
100
AcDbTrace
 10
2378.055249922719
 20
1241.318420564922
 30
0.0
 11
2391.388583256052
 21
1241.318420564922
 31
0.0
 12
2384.721916589386
 22
1201.318420564922
 32
0.0
 13
2384.721916589386
 23
1201.318420564922
 33
0.0
  0
SOLID
  5
6D0
330
63C
100
AcDbEntity
  8
0
 62
     7
100
AcDbTrace
 10
2378.055249922719
 20
1761.318420564922
 30
0.0
 11
2391.388583256052
 21
1761.318420564922
 31
0.0
 12
2384.721916589386
 22
1801.318420564921
 32
0.0
 13
2384.721916589386
 23
1801.318420564921
 33
0.0
  0
MTEXT
  5
6D1
330
63C
100
AcDbEntity
  8
0
 62
     7
100
AcDbMText
 10
2384.721916589386
 20
1501.318420564922
 30
0.0
 40
40.0
 41
0.0
 71
     5
 72
     1
  1
\A1;600
  7
ARIAL
 11
0.0000000000000001
 21
1.0
 31
0.0
 73
     1
 44
1.0
1001
ACAD
1000
MTEXTBEGIN
1070
    73
1070
     1
1070
    44
1040
1.0
1070
    74
1070
     0
1000
MTEXTEND
  0
POINT
  5
6D2
330
63C
100
AcDbEntity
  8
Defpoints
 62
     0
100
AcDbPoint
 10
2276.732207743126
 20
1201.318420564922
 30
0.0
  0
POINT
  5
6D3
330
63C
100
AcDbEntity
  8
Defpoints
 62
     0
100
AcDbPoint
 10
2276.732207743126
 20
1801.318420564921
 30
0.0
  0
POINT
  5
6D4
330
63C
100
AcDbEntity
  8
Defpoints
 62
     0
100
AcDbPoint
 10
2384.721916589386
 20
1801.318420564921
 30
0.0
  0
ENDBLK
  5
648
330
63C
100
AcDbEntity
  8
0
100
AcDbBlockEnd
  0
BLOCK
  5
64F
330
649
100
AcDbEntity
  8
0
100
AcDbBlockBegin
  2
*D44
 70
     1
 10
0.0
 20
0.0
 30
0.0
  3
*D44
  1

  0
LINE
  5
6D5
330
649
100
AcDbEntity
  8
0
 62
     7
370
    -2
100
AcDbLine
 10
2014.826787941772
 20
1551.44276683745
 30
0.0
 11
2136.516728557056
 21
1665.257532742648
 31
0.0
  0
MTEXT
  5
6D6
330
649
100
AcDbEntity
  8
0
 62
     7
100
AcDbMText
 10
1959.408332600066
 20
1499.610721479777
 30
0.0
 40
40.0
 41
0.0
 71
     5
 72
     1
  1
\A1;\U+2205560
  7
ARIAL
 11
0.7303439008534735
 21
0.6830796340736062
 31
0.0
 73
     1
 44
1.0
1001
ACAD
1000
MTEXTBEGIN
1070
    73
1070
     1
1070
    44
1040
1.0
1070
    74
1070
     0
1000
MTEXTEND
  0
SOLID
  5
6D7
330
649
100
AcDbEntity
  8
0
 62
     7
100
AcDbTrace
 10
2131.962864329899
 20
1670.126492081672
 30
0.0
 11
2141.070592784214
 21
1660.388573403625
 31
0.0
 12
2165.730484591196
 22
1692.580718105593
 32
0.0
 13
2165.730484591196
 23
1692.580718105593
 33
0.0
  0
POINT
  5
6D8
330
649
100
AcDbEntity
  8
Defpoints
 62
     0
100
AcDbPoint
 10
2165.730484591196
 20
1692.580718105593
 30
0.0
  0
POINT
  5
6D9
330
649
100
AcDbEntity
  8
Defpoints
 62
     0
100
AcDbPoint
 10
1756.737900113245
 20
1310.056123024369
 30
0.0
  0
ENDBLK
  5
650
330
649
100
AcDbEntity
  8
0
100
AcDbBlockEnd
  0
BLOCK
  5
65C
330
651
100
AcDbEntity
  8
0
100
AcDbBlockBegin
  2
*D45
 70
     1
 10
0.0
 20
0.0
 30
0.0
  3
*D45
  1

  0
LINE
  5
6DA
330
651
100
AcDbEntity
  8
0
 62
     7
370
    -2
100
AcDbLine
 10
584.9942103168814
 20
568.7376690531155
 30
0.0
 11
584.9942103168814
 21
422.9170927356672
 31
0.0
  0
LINE
  5
6DB
330
651
100
AcDbEntity
  8
0
 62
     7
370
    -2
100
AcDbLine
 10
1184.994210316881
 20
568.7376690531155
 30
0.0
 11
1184.994210316881
 21
422.9170927356672
 31
0.0
  0
LINE
  5
6DC
330
651
100
AcDbEntity
  8
0
 62
     7
370
    -2
100
AcDbLine
 10
624.9942103168814
 20
442.9170927356672
 30
0.0
 11
830.7650152282047
 21
442.9170927356672
 31
0.0
  0
LINE
  5
6DD
330
651
100
AcDbEntity
  8
0
 62
     7
370
    -2
100
AcDbLine
 10
1144.994210316881
 20
442.9170927356672
 30
0.0
 11
939.2234054055579
 21
442.9170927356672
 31
0.0
  0
SOLID
  5
6DE
330
651
100
AcDbEntity
  8
0
 62
     7
100
AcDbTrace
 10
624.9942103168814
 20
449.5837594023338
 30
0.0
 11
624.9942103168814
 21
436.2504260690005
 31
0.0
 12
584.9942103168814
 22
442.9170927356672
 32
0.0
 13
584.9942103168814
 23
442.9170927356672
 33
0.0
  0
SOLID
  5
6DF
330
651
100
AcDbEntity
  8
0
 62
     7
100
AcDbTrace
 10
1144.994210316881
 20
449.5837594023338
 30
0.0
 11
1144.994210316881
 21
436.2504260690005
 31
0.0
 12
1184.994210316881
 22
442.9170927356672
 32
0.0
 13
1184.994210316881
 23
442.9170927356672
 33
0.0
  0
MTEXT
  5
6E0
330
651
100
AcDbEntity
  8
0
 62
     7
100
AcDbMText
 10
884.9942103168814
 20
442.9170927356672
 30
0.0
 40
40.0
 41
0.0
 71
     5
 72
     1
  1
\A1;600
  7
ARIAL
 73
     1
 44
1.0
1001
ACAD
1000
MTEXTBEGIN
1070
    73
1070
     1
1070
    44
1040
1.0
1070
    74
1070
     0
1000
MTEXTEND
  0
POINT
  5
6E1
330
651
100
AcDbEntity
  8
Defpoints
 62
     0
100
AcDbPoint
 10
584.9942103168814
 20
588.7376690531152
 30
0.0
  0
POINT
  5
6E2
330
651
100
AcDbEntity
  8
Defpoints
 62
     0
100
AcDbPoint
 10
1184.994210316881
 20
588.7376690531152
 30
0.0
  0
POINT
  5
6E3
330
651
100
AcDbEntity
  8
Defpoints
 62
     0
100
AcDbPoint
 10
1184.994210316881
 20
442.9170927356672
 30
0.0
  0
ENDBLK
  5
65D
330
651
100
AcDbEntity
  8
0
100
AcDbBlockEnd
  0
BLOCK
  5
669
330
65E
100
AcDbEntity
  8
0
100
AcDbBlockBegin
  2
*D46
 70
     1
 10
0.0
 20
0.0
 30
0.0
  3
*D46
  1

  0
LINE
  5
6E4
330
65E
100
AcDbEntity
  8
0
 62
     7
370
    -2
100
AcDbLine
 10
1232.01861269981
 20
1801.318420564921
 30
0.0
 11
1385.908822683525
 21
1801.318420564921
 31
0.0
  0
LINE
  5
6E5
330
65E
100
AcDbEntity
  8
0
 62
     7
370
    -2
100
AcDbLine
 10
1232.01861269981
 20
601.3184205649222
 30
0.0
 11
1385.908822683524
 21
601.3184205649221
 31
0.0
  0
LINE
  5
6E6
330
65E
100
AcDbEntity
  8
0
 62
     7
370
    -2
100
AcDbLine
 10
1365.908822683525
 20
1761.318420564922
 30
0.0
 11
1365.908822683525
 21
1269.094682502166
 31
0.0
  0
LINE
  5
6E7
330
65E
100
AcDbEntity
  8
0
 62
     7
370
    -2
100
AcDbLine
 10
1365.908822683525
 20
641.3184205649221
 30
0.0
 11
1365.908822683525
 21
1133.542158627678
 31
0.0
  0
SOLID
  5
6E8
330
65E
100
AcDbEntity
  8
0
 62
     7
100
AcDbTrace
 10
1359.242156016858
 20
1761.318420564922
 30
0.0
 11
1372.575489350192
 21
1761.318420564922
 31
0.0
 12
1365.908822683525
 22
1801.318420564921
 32
0.0
 13
1365.908822683525
 23
1801.318420564921
 33
0.0
  0
SOLID
  5
6E9
330
65E
100
AcDbEntity
  8
0
 62
     7
100
AcDbTrace
 10
1359.242156016858
 20
641.3184205649221
 30
0.0
 11
1372.575489350191
 21
641.3184205649221
 31
0.0
 12
1365.908822683525
 22
601.3184205649221
 32
0.0
 13
1365.908822683525
 23
601.3184205649221
 33
0.0
  0
MTEXT
  5
6EA
330
65E
100
AcDbEntity
  8
0
 62
     7
100
AcDbMText
 10
1365.908822683524
 20
1201.318420564922
 30
0.0
 40
40.0
 41
0.0
 71
     5
 72
     1
  1
\A1;1200
  7
ARIAL
 11
0.0000000000000001
 21
1.0
 31
0.0
 73
     1
 44
1.0
1001
ACAD
1000
MTEXTBEGIN
1070
    73
1070
     1
1070
    44
1040
1.0
1070
    74
1070
     0
1000
MTEXTEND
  0
POINT
  5
6EB
330
65E
100
AcDbEntity
  8
Defpoints
 62
     0
100
AcDbPoint
 10
1212.01861269981
 20
1801.318420564921
 30
0.0
  0
POINT
  5
6EC
330
65E
100
AcDbEntity
  8
Defpoints
 62
     0
100
AcDbPoint
 10
1212.01861269981
 20
601.3184205649222
 30
0.0
  0
POINT
  5
6ED
330
65E
100
AcDbEntity
  8
Defpoints
 62
     0
100
AcDbPoint
 10
1365.908822683525
 20
601.3184205649221
 30
0.0
  0
ENDBLK
  5
66A
330
65E
100
AcDbEntity
  8
0
100
AcDbBlockEnd
  0
BLOCK
  5
673
330
66B
100
AcDbEntity
  8
0
100
AcDbBlockBegin
  2
*D47
 70
     1
 10
0.0
 20
0.0
 30
0.0
  3
*D47
  1

  0
LINE
  5
6EE
330
66B
100
AcDbEntity
  8
0
 62
     7
370
    -2
100
AcDbLine
 10
1228.278682540945
 20
1844.81052170461
 30
0.0
 11
1200.027651429248
 21
1816.493049339903
 31
0.0
  0
MTEXT
  5
6EF
330
66B
100
AcDbEntity
  8
0
 62
     7
100
AcDbMText
 10
1269.200281835413
 20
1885.828361108739
 30
0.0
 40
40.0
 41
0.0
 71
     5
 72
     1
  1
\A1;R45
  7
ARIAL
 11
0.7062757777924354
 21
0.7079368091176575
 31
0.0
 73
     1
 44
1.0
1001
ACAD
1000
MTEXTBEGIN
1070
    73
1070
     1
1070
    44
1040
1.0
1070
    74
1070
     0
1000
MTEXTEND
  0
SOLID
  5
6F0
330
66B
100
AcDbEntity
  8
0
 62
     7
100
AcDbTrace
 10
1195.308072701797
 20
1821.201554525186
 30
0.0
 11
1204.747230156699
 21
1811.78454415462
 31
0.0
 12
1171.77662031755
 22
1788.175576975197
 32
0.0
 13
1171.77662031755
 23
1788.175576975197
 33
0.0
  0
LINE
  5
6F1
330
66B
100
AcDbEntity
  8
0
 62
     7
370
    -2
100
AcDbLine
 10
1137.494210316867
 20
1756.318420564878
 30
0.0
 11
1142.494210316867
 21
1756.318420564878
 31
0.0
  0
LINE
  5
6F2
330
66B
100
AcDbEntity
  8
0
 62
     7
370
    -2
100
AcDbLine
 10
1139.994210316867
 20
1753.818420564878
 30
0.0
 11
1139.994210316867
 21
1758.818420564878
 31
0.0
  0
POINT
  5
6F3
330
66B
100
AcDbEntity
  8
Defpoints
 62
     0
100
AcDbPoint
 10
1171.77662031755
 20
1788.175576975197
 30
0.0
  0
POINT
  5
6F4
330
66B
100
AcDbEntity
  8
Defpoints
 62
     0
100
AcDbPoint
 10
1139.994210316867
 20
1756.318420564878
 30
0.0
  0
ENDBLK
  5
674
330
66B
100
AcDbEntity
  8
0
100
AcDbBlockEnd
  0
BLOCK
  5
67D
330
675
100
AcDbEntity
  8
0
100
AcDbBlockBegin
  2
*D48
 70
     1
 10
0.0
 20
0.0
 30
0.0
  3
*D48
  1

  0
LINE
  5
6F5
330
675
100
AcDbEntity
  8
0
 62
     7
370
    -2
100
AcDbLine
 10
703.1501275364396
 20
1711.837201685765
 30
0.0
 11
676.6702146737546
 21
1741.817432084889
 31
0.0
  0
MTEXT
  5
6F6
330
675
100
AcDbEntity
  8
0
 62
     7
100
AcDbMText
 10
741.2714482026715
 20
1668.676713106397
 30
0.0
 40
40.0
 41
0.0
 71
     5
 72
     1
  1
\A1;R42
  7
ARIAL
 11
0.6619978215671206
 21
-0.749505759978125
 31
0.0
 73
     1
 44
1.0
1001
ACAD
1000
MTEXTBEGIN
1070
    73
1070
     1
1070
    44
1040
1.0
1070
    74
1070
     0
1000
MTEXTEND
  0
SOLID
  5
6F7
330
675
100
AcDbEntity
  8
0
 62
     7
100
AcDbTrace
 10
681.6669197402757
 20
1746.230750895337
 30
0.0
 11
671.6735096072339
 21
1737.404113274442
 31
0.0
 12
650.19030181107
 22
1771.797662484015
 32
0.0
 13
650.19030181107
 23
1771.797662484015
 33
0.0
  0
LINE
  5
6F8
330
675
100
AcDbEntity
  8
0
 62
     7
370
    -2
100
AcDbLine
 10
619.8863933053306
 20
1803.276904403006
 30
0.0
 11
624.8863933053306
 21
1803.276904403006
 31
0.0
  0
LINE
  5
6F9
330
675
100
AcDbEntity
  8
0
 62
     7
370
    -2
100
AcDbLine
 10
622.3863933053308
 20
1800.776904403005
 30
0.0
 11
622.3863933053308
 21
1805.776904403005
 31
0.0
  0
POINT
  5
6FA
330
675
100
AcDbEntity
  8
Defpoints
 62
     0
100
AcDbPoint
 10
650.19030181107
 20
1771.797662484015
 30
0.0
  0
POINT
  5
6FB
330
675
100
AcDbEntity
  8
Defpoints
 62
     0
100
AcDbPoint
 10
622.3863933053308
 20
1803.276904403006
 30
0.0
  0
ENDBLK
  5
67E
330
675
100
AcDbEntity
  8
0
100
AcDbBlockEnd
  0
BLOCK
  5
68A
330
67F
100
AcDbEntity
  8
0
100
AcDbBlockBegin
  2
*D49
 70
     1
 10
0.0
 20
0.0
 30
0.0
  3
*D49
  1

  0
LINE
  5
6FC
330
67F
100
AcDbEntity
  8
0
 62
     7
370
    -2
100
AcDbLine
 10
635.9942103168814
 20
1345.241663195941
 30
0.0
 11
635.9942103168814
 21
1400.13855420122
 31
0.0
  0
LINE
  5
6FD
330
67F
100
AcDbEntity
  8
0
 62
     7
370
    -2
100
AcDbLine
 10
1165.994210316881
 20
1345.241663195941
 30
0.0
 11
1165.994210316881
 21
1400.13855420122
 31
0.0
  0
LINE
  5
6FE
330
67F
100
AcDbEntity
  8
0
 62
     7
370
    -2
100
AcDbLine
 10
675.9942103168814
 20
1380.138554201218
 30
0.0
 11
846.8741557466223
 21
1380.138554201218
 31
0.0
  0
LINE
  5
6FF
330
67F
100
AcDbEntity
  8
0
 62
     7
370
    -2
100
AcDbLine
 10
1125.994210316881
 20
1380.138554201218
 30
0.0
 11
955.1142648871406
 21
1380.138554201218
 31
0.0
  0
SOLID
  5
700
330
67F
100
AcDbEntity
  8
0
 62
     7
100
AcDbTrace
 10
675.9942103168814
 20
1386.805220867887
 30
0.0
 11
675.9942103168814
 21
1373.471887534553
 31
0.0
 12
635.9942103168814
 22
1380.138554201218
 32
0.0
 13
635.9942103168814
 23
1380.138554201218
 33
0.0
  0
SOLID
  5
701
330
67F
100
AcDbEntity
  8
0
 62
     7
100
AcDbTrace
 10
1125.994210316881
 20
1386.805220867887
 30
0.0
 11
1125.994210316881
 21
1373.471887534553
 31
0.0
 12
1165.994210316881
 22
1380.138554201218
 32
0.0
 13
1165.994210316881
 23
1380.138554201218
 33
0.0
  0
MTEXT
  5
702
330
67F
100
AcDbEntity
  8
0
 62
     7
100
AcDbMText
 10
900.9942103168814
 20
1380.138554201218
 30
0.0
 40
40.0
 41
0.0
 71
     5
 72
     1
  1
\A1;530
  7
ARIAL
 73
     1
 44
1.0
1001
ACAD
1000
MTEXTBEGIN
1070
    73
1070
     1
1070
    44
1040
1.0
1070
    74
1070
     0
1000
MTEXTEND
  0
POINT
  5
703
330
67F
100
AcDbEntity
  8
Defpoints
 62
     0
100
AcDbPoint
 10
635.9942103168814
 20
1325.241663195941
 30
0.0
  0
POINT
  5
704
330
67F
100
AcDbEntity
  8
Defpoints
 62
     0
100
AcDbPoint
 10
1165.994210316881
 20
1325.241663195941
 30
0.0
  0
POINT
  5
705
330
67F
100
AcDbEntity
  8
Defpoints
 62
     0
100
AcDbPoint
 10
1165.994210316881
 20
1380.138554201218
 30
0.0
  0
ENDBLK
  5
68B
330
67F
100
AcDbEntity
  8
0
100
AcDbBlockEnd
  0
BLOCK
  5
697
330
68C
100
AcDbEntity
  8
0
100
AcDbBlockBegin
  2
*D50
 70
     1
 10
0.0
 20
0.0
 30
0.0
  3
*D50
  1

  0
LINE
  5
706
330
68C
100
AcDbEntity
  8
0
 62
     7
370
    -2
100
AcDbLine
 10
1050.328808335029
 20
1782.318420564922
 30
0.0
 11
1021.553959031933
 21
1782.318420564922
 31
0.0
  0
LINE
  5
707
330
68C
100
AcDbEntity
  8
0
 62
     7
370
    -2
100
AcDbLine
 10
1050.328808335029
 20
652.3184205649222
 30
0.0
 11
1021.553959031933
 21
652.3184205649222
 31
0.0
  0
LINE
  5
708
330
68C
100
AcDbEntity
  8
0
 62
     7
370
    -2
100
AcDbLine
 10
1041.553959031933
 20
1742.318420564922
 30
0.0
 11
1041.553959031933
 21
1285.094682502166
 31
0.0
  0
LINE
  5
709
330
68C
100
AcDbEntity
  8
0
 62
     7
370
    -2
100
AcDbLine
 10
1041.553959031933
 20
692.3184205649222
 30
0.0
 11
1041.553959031933
 21
1149.542158627678
 31
0.0
  0
SOLID
  5
70A
330
68C
100
AcDbEntity
  8
0
 62
     7
100
AcDbTrace
 10
1034.887292365266
 20
1742.318420564922
 30
0.0
 11
1048.2206256986
 21
1742.318420564922
 31
0.0
 12
1041.553959031933
 22
1782.318420564922
 32
0.0
 13
1041.553959031933
 23
1782.318420564922
 33
0.0
  0
SOLID
  5
70B
330
68C
100
AcDbEntity
  8
0
 62
     7
100
AcDbTrace
 10
1034.887292365266
 20
692.3184205649222
 30
0.0
 11
1048.2206256986
 21
692.3184205649222
 31
0.0
 12
1041.553959031933
 22
652.3184205649222
 32
0.0
 13
1041.553959031933
 23
652.3184205649222
 33
0.0
  0
MTEXT
  5
70C
330
68C
100
AcDbEntity
  8
0
 62
     7
100
AcDbMText
 10
1041.553959031933
 20
1217.318420564922
 30
0.0
 40
40.0
 41
0.0
 71
     5
 72
     1
  1
\A1;1130
  7
ARIAL
 11
0.0000000000000001
 21
1.0
 31
0.0
 73
     1
 44
1.0
1001
ACAD
1000
MTEXTBEGIN
1070
    73
1070
     1
1070
    44
1040
1.0
1070
    74
1070
     0
1000
MTEXTEND
  0
POINT
  5
70D
330
68C
100
AcDbEntity
  8
Defpoints
 62
     0
100
AcDbPoint
 10
1070.328808335029
 20
1782.318420564922
 30
0.0
  0
POINT
  5
70E
330
68C
100
AcDbEntity
  8
Defpoints
 62
     0
100
AcDbPoint
 10
1070.328808335029
 20
652.3184205649222
 30
0.0
  0
POINT
  5
70F
330
68C
100
AcDbEntity
  8
Defpoints
 62
     0
100
AcDbPoint
 10
1041.553959031933
 20
652.3184205649222
 30
0.0
  0
ENDBLK
  5
698
330
68C
100
AcDbEntity
  8
0
100
AcDbBlockEnd
  0
BLOCK
  5
6A4
330
699
100
AcDbEntity
  8
0
100
AcDbBlockBegin
  2
*D51
 70
     1
 10
0.0
 20
0.0
 30
0.0
  3
*D51
  1

  0
LINE
  5
710
330
699
100
AcDbEntity
  8
0
 62
     7
370
    -2
100
AcDbLine
 10
1289.747571503476
 20
1801.318420564921
 30
0.0
 11
1315.525360231137
 21
1801.318420564921
 31
0.0
  0
LINE
  5
711
330
699
100
AcDbEntity
  8
0
 62
     7
370
    -2
100
AcDbLine
 10
1289.747571503476
 20
1782.318420564922
 30
0.0
 11
1315.525360231137
 21
1782.318420564922
 31
0.0
  0
LINE
  5
712
330
699
100
AcDbEntity
  8
0
 62
     7
370
    -2
100
AcDbLine
 10
1295.525360231137
 20
1841.318420564922
 30
0.0
 11
1295.525360231137
 21
1881.318420564922
 31
0.0
  0
LINE
  5
713
330
699
100
AcDbEntity
  8
0
 62
     7
370
    -2
100
AcDbLine
 10
1295.525360231137
 20
1742.318420564922
 30
0.0
 11
1295.525360231137
 21
1702.318420564922
 31
0.0
  0
SOLID
  5
714
330
699
100
AcDbEntity
  8
0
 62
     7
100
AcDbTrace
 10
1288.85869356447
 20
1841.318420564922
 30
0.0
 11
1302.192026897804
 21
1841.318420564922
 31
0.0
 12
1295.525360231137
 22
1801.318420564921
 32
0.0
 13
1295.525360231137
 23
1801.318420564921
 33
0.0
  0
SOLID
  5
715
330
699
100
AcDbEntity
  8
0
 62
     7
100
AcDbTrace
 10
1288.85869356447
 20
1742.318420564922
 30
0.0
 11
1302.192026897804
 21
1742.318420564922
 31
0.0
 12
1295.525360231137
 22
1782.318420564922
 32
0.0
 13
1295.525360231137
 23
1782.318420564922
 33
0.0
  0
MTEXT
  5
716
330
699
100
AcDbEntity
  8
0
 62
     7
100
AcDbMText
 10
1295.525360231136
 20
1665.510780728633
 30
0.0
 40
40.0
 41
0.0
 71
     5
 72
     1
  1
\A1;19
  7
ARIAL
 11
0.0000000000000001
 21
1.0
 31
0.0
 73
     1
 44
1.0
1001
ACAD
1000
MTEXTBEGIN
1070
    73
1070
     1
1070
    44
1040
1.0
1070
    74
1070
     0
1000
MTEXTEND
  0
POINT
  5
717
330
699
100
AcDbEntity
  8
Defpoints
 62
     0
100
AcDbPoint
 10
1269.747571503476
 20
1801.318420564921
 30
0.0
  0
POINT
  5
718
330
699
100
AcDbEntity
  8
Defpoints
 62
     0
100
AcDbPoint
 10
1269.747571503476
 20
1782.318420564922
 30
0.0
  0
POINT
  5
719
330
699
100
AcDbEntity
  8
Defpoints
 62
     0
100
AcDbPoint
 10
1295.525360231137
 20
1782.318420564922
 30
0.0
  0
ENDBLK
  5
6A5
330
699
100
AcDbEntity
  8
0
100
AcDbBlockEnd
  0
BLOCK
  5
6B1
330
6A6
100
AcDbEntity
  8
0
100
AcDbBlockBegin
  2
*D52
 70
     1
 10
0.0
 20
0.0
 30
0.0
  3
*D52
  1

  0
LINE
  5
71A
330
6A6
100
AcDbEntity
  8
0
 62
     7
370
    -2
100
AcDbLine
 10
1184.994210316881
 20
568.7376690531155
 30
0.0
 11
1184.994210316881
 21
520.6318351364233
 31
0.0
  0
LINE
  5
71B
330
6A6
100
AcDbEntity
  8
0
 62
     7
370
    -2
100
AcDbLine
 10
1165.994210316881
 20
568.7376690531155
 30
0.0
 11
1165.994210316881
 21
520.6318351364233
 31
0.0
  0
LINE
  5
71C
330
6A6
100
AcDbEntity
  8
0
 62
     7
370
    -2
100
AcDbLine
 10
1224.994210316881
 20
540.6318351364233
 30
0.0
 11
1264.994210316881
 21
540.6318351364233
 31
0.0
  0
LINE
  5
71D
330
6A6
100
AcDbEntity
  8
0
 62
     7
370
    -2
100
AcDbLine
 10
1125.994210316881
 20
540.6318351364233
 30
0.0
 11
1085.994210316881
 21
540.6318351364233
 31
0.0
  0
SOLID
  5
71E
330
6A6
100
AcDbEntity
  8
0
 62
     7
100
AcDbTrace
 10
1224.994210316881
 20
547.29850180309
 30
0.0
 11
1224.994210316881
 21
533.9651684697567
 31
0.0
 12
1184.994210316881
 22
540.6318351364233
 32
0.0
 13
1184.994210316881
 23
540.6318351364233
 33
0.0
  0
SOLID
  5
71F
330
6A6
100
AcDbEntity
  8
0
 62
     7
100
AcDbTrace
 10
1125.994210316881
 20
547.29850180309
 30
0.0
 11
1125.994210316881
 21
533.9651684697567
 31
0.0
 12
1165.994210316881
 22
540.6318351364233
 32
0.0
 13
1165.994210316881
 23
540.6318351364233
 33
0.0
  0
MTEXT
  5
720
330
6A6
100
AcDbEntity
  8
0
 62
     7
100
AcDbMText
 10
1049.186570480592
 20
540.6318351364233
 30
0.0
 40
40.0
 41
0.0
 71
     5
 72
     1
  1
\A1;19
  7
ARIAL
 73
     1
 44
1.0
1001
ACAD
1000
MTEXTBEGIN
1070
    73
1070
     1
1070
    44
1040
1.0
1070
    74
1070
     0
1000
MTEXTEND
  0
POINT
  5
721
330
6A6
100
AcDbEntity
  8
Defpoints
 62
     0
100
AcDbPoint
 10
1184.994210316881
 20
588.7376690531152
 30
0.0
  0
POINT
  5
722
330
6A6
100
AcDbEntity
  8
Defpoints
 62
     0
100
AcDbPoint
 10
1165.994210316881
 20
588.7376690531152
 30
0.0
  0
POINT
  5
723
330
6A6
100
AcDbEntity
  8
Defpoints
 62
     0
100
AcDbPoint
 10
1165.994210316881
 20
540.6318351364233
 30
0.0
  0
ENDBLK
  5
6B2
330
6A6
100
AcDbEntity
  8
0
100
AcDbBlockEnd
  0
BLOCK
  5
B4C
330
B42
100
AcDbEntity
  8
0
100
AcDbBlockBegin
  2
*D53
 70
     1
 10
0.0
 20
0.0
 30
0.0
  3
*D53
  1

  0
LINE
  5
B4F
330
B42
100
AcDbEntity
  8
0
 62
     0
370
    -2
100
AcDbLine
 10
516.2492260574398
 20
186.2588087771644
 30
0.0
 11
947.0138210612313
 21
186.2588087771643
 31
0.0
  0
LINE
  5
B50
330
B42
100
AcDbEntity
  8
0
 62
     0
370
    -2
100
AcDbLine
 10
516.2492260574398
 20
163.2588087771644
 30
0.0
 11
947.0138210612313
 21
163.2588087771643
 31
0.0
  0
LINE
  5
B51
330
B42
100
AcDbEntity
  8
0
 62
     0
370
    -2
100
AcDbLine
 10
945.7638210612312
 20
183.7588087771642
 30
0.0
 11
945.7638210612312
 21
165.7588087771643
 31
0.0
  0
SOLID
  5
B52
330
B42
100
AcDbEntity
  8
0
 62
     0
100
AcDbTrace
 10
945.3471543945646
 20
183.7588087771642
 30
0.0
 11
946.1804877278979
 21
183.7588087771642
 31
0.0
 12
945.7638210612312
 22
186.2588087771643
 32
0.0
 13
945.7638210612312
 23
186.2588087771643
 33
0.0
  0
SOLID
  5
B53
330
B42
100
AcDbEntity
  8
0
 62
     0
100
AcDbTrace
 10
945.3471543945646
 20
165.7588087771643
 30
0.0
 11
946.1804877278979
 21
165.7588087771643
 31
0.0
 12
945.7638210612312
 22
163.2588087771643
 32
0.0
 13
945.7638210612312
 23
163.2588087771643
 33
0.0
  0
MTEXT
  5
B54
330
B42
100
AcDbEntity
  8
0
 62
     0
100
AcDbMText
 10
943.8888210612313
 20
174.7588087771644
 30
0.0
 40
2.5
 41
0.0
 71
     5
 72
     1
  1
23
 11
0.0000000000000001
 21
1.0
 31
0.0
 73
     1
 44
1.0
1001
ACAD
1000
MTEXTBEGIN
1070
    73
1070
     1
1070
    44
1040
1.0
1070
    74
1070
     0
1000
MTEXTEND
  0
POINT
  5
B55
330
B42
100
AcDbEntity
  8
Defpoints
 62
     0
100
AcDbPoint
 10
515.62422605744
 20
186.2588087771644
 30
0.0
  0
POINT
  5
B56
330
B42
100
AcDbEntity
  8
Defpoints
 62
     0
100
AcDbPoint
 10
515.62422605744
 20
163.2588087771644
 30
0.0
  0
POINT
  5
B57
330
B42
100
AcDbEntity
  8
Defpoints
 62
     0
100
AcDbPoint
 10
945.7638210612312
 20
163.2588087771643
 30
0.0
  0
ENDBLK
  5
B4D
330
B42
100
AcDbEntity
  8
0
100
AcDbBlockEnd
  0
BLOCK
  5
B64
330
B5A
100
AcDbEntity
  8
0
100
AcDbBlockBegin
  2
*D54
 70
     1
 10
0.0
 20
0.0
 30
0.0
  3
*D54
  1

  0
LINE
  5
C2D
330
B5A
100
AcDbEntity
  8
0
 62
     0
370
    -2
100
AcDbLine
 10
777.6242260574401
 20
365.3838087771644
 30
0.0
 11
777.6242260574401
 21
442.7838943294203
 31
0.0
  0
LINE
  5
C2E
330
B5A
100
AcDbEntity
  8
0
 62
     0
370
    -2
100
AcDbLine
 10
814.3742260574397
 20
365.3838087771644
 30
0.0
 11
814.3742260574397
 21
442.7838943294203
 31
0.0
  0
LINE
  5
C2F
330
B5A
100
AcDbEntity
  8
0
 62
     0
370
    -2
100
AcDbLine
 10
780.1242260574397
 20
441.5338943294201
 30
0.0
 11
811.87422605744
 21
441.5338943294201
 31
0.0
  0
SOLID
  5
C30
330
B5A
100
AcDbEntity
  8
0
 62
     0
100
AcDbTrace
 10
780.1242260574397
 20
441.9505609960869
 30
0.0
 11
780.1242260574397
 21
441.1172276627535
 31
0.0
 12
777.6242260574401
 22
441.5338943294201
 32
0.0
 13
777.6242260574401
 23
441.5338943294201
 33
0.0
  0
SOLID
  5
C31
330
B5A
100
AcDbEntity
  8
0
 62
     0
100
AcDbTrace
 10
811.87422605744
 20
441.9505609960869
 30
0.0
 11
811.87422605744
 21
441.1172276627535
 31
0.0
 12
814.3742260574397
 22
441.5338943294201
 32
0.0
 13
814.3742260574397
 23
441.5338943294201
 33
0.0
  0
MTEXT
  5
C32
330
B5A
100
AcDbEntity
  8
0
 62
     0
100
AcDbMText
 10
795.99922605744
 20
443.6172276627535
 30
0.0
 40
2.5
 41
0.0
 71
     5
 72
     1
  1
36,75
 73
     1
 44
1.0
1001
ACAD
1000
MTEXTBEGIN
1070
    73
1070
     1
1070
    44
1040
1.0
1070
    74
1070
     0
1000
MTEXTEND
  0
POINT
  5
C33
330
B5A
100
AcDbEntity
  8
Defpoints
 62
     0
100
AcDbPoint
 10
777.6242260574401
 20
364.7588087771644
 30
0.0
  0
POINT
  5
C34
330
B5A
100
AcDbEntity
  8
Defpoints
 62
     0
100
AcDbPoint
 10
814.3742260574397
 20
364.7588087771644
 30
0.0
  0
POINT
  5
C35
330
B5A
100
AcDbEntity
  8
Defpoints
 62
     0
100
AcDbPoint
 10
814.3742260574397
 20
441.5338943294201
 30
0.0
  0
ENDBLK
  5
B65
330
B5A
100
AcDbEntity
  8
0
100
AcDbBlockEnd
  0
BLOCK
  5
B7C
330
B72
100
AcDbEntity
  8
0
100
AcDbBlockBegin
  2
*D55
 70
     1
 10
0.0
 20
0.0
 30
0.0
  3
*D55
  1

  0
LINE
  5
C1B
330
B72
100
AcDbEntity
  8
0
 62
     0
370
    -2
100
AcDbLine
 10
770.6242260574397
 20
376.6314108953519
 30
0.0
 11
770.6242260574397
 21
342.604307758167
 31
0.0
  0
LINE
  5
C1C
330
B72
100
AcDbEntity
  8
0
 62
     0
370
    -2
100
AcDbLine
 10
814.3742260574397
 20
379.0451769689362
 30
0.0
 11
814.3742260574397
 21
342.604307758167
 31
0.0
  0
LINE
  5
C1D
330
B72
100
AcDbEntity
  8
0
 62
     0
370
    -2
100
AcDbLine
 10
773.1242260574397
 20
343.854307758167
 30
0.0
 11
811.87422605744
 21
343.854307758167
 31
0.0
  0
SOLID
  5
C1E
330
B72
100
AcDbEntity
  8
0
 62
     0
100
AcDbTrace
 10
773.1242260574397
 20
344.2709744248337
 30
0.0
 11
773.1242260574397
 21
343.4376410915003
 31
0.0
 12
770.6242260574397
 22
343.854307758167
 32
0.0
 13
770.6242260574397
 23
343.854307758167
 33
0.0
  0
SOLID
  5
C1F
330
B72
100
AcDbEntity
  8
0
 62
     0
100
AcDbTrace
 10
811.87422605744
 20
344.2709744248337
 30
0.0
 11
811.87422605744
 21
343.4376410915003
 31
0.0
 12
814.3742260574397
 22
343.854307758167
 32
0.0
 13
814.3742260574397
 23
343.854307758167
 33
0.0
  0
MTEXT
  5
C20
330
B72
100
AcDbEntity
  8
0
 62
     0
100
AcDbMText
 10
792.4992260574397
 20
345.9376410915003
 30
0.0
 40
2.5
 41
0.0
 71
     5
 72
     1
  1
43,75
 73
     1
 44
1.0
1001
ACAD
1000
MTEXTBEGIN
1070
    73
1070
     1
1070
    44
1040
1.0
1070
    74
1070
     0
1000
MTEXTEND
  0
POINT
  5
C21
330
B72
100
AcDbEntity
  8
Defpoints
 62
     0
100
AcDbPoint
 10
770.6242260574397
 20
377.2564108953519
 30
0.0
  0
POINT
  5
C22
330
B72
100
AcDbEntity
  8
Defpoints
 62
     0
100
AcDbPoint
 10
814.3742260574397
 20
379.6701769689362
 30
0.0
  0
POINT
  5
C23
330
B72
100
AcDbEntity
  8
Defpoints
 62
     0
100
AcDbPoint
 10
814.3742260574397
 20
343.854307758167
 30
0.0
  0
ENDBLK
  5
B7D
330
B72
100
AcDbEntity
  8
0
100
AcDbBlockEnd
  0
BLOCK
  5
B94
330
B8A
100
AcDbEntity
  8
0
100
AcDbBlockBegin
  2
*D56
 70
     1
 10
0.0
 20
0.0
 30
0.0
  3
*D56
  1

  0
LINE
  5
C09
330
B8A
100
AcDbEntity
  8
0
 62
     0
370
    -2
100
AcDbLine
 10
775.6242260574397
 20
247.283219837238
 30
0.0
 11
775.6242260574397
 21
274.7491986458981
 31
0.0
  0
LINE
  5
C0A
330
B8A
100
AcDbEntity
  8
0
 62
     0
370
    -2
100
AcDbLine
 10
814.3742260574397
 20
247.283219837238
 30
0.0
 11
814.3742260574397
 21
274.7491986458981
 31
0.0
  0
LINE
  5
C0B
330
B8A
100
AcDbEntity
  8
0
 62
     0
370
    -2
100
AcDbLine
 10
778.12422605744
 20
273.4991986458981
 30
0.0
 11
811.87422605744
 21
273.4991986458981
 31
0.0
  0
SOLID
  5
C0C
330
B8A
100
AcDbEntity
  8
0
 62
     0
100
AcDbTrace
 10
778.12422605744
 20
273.9158653125648
 30
0.0
 11
778.12422605744
 21
273.0825319792314
 31
0.0
 12
775.6242260574397
 22
273.4991986458981
 32
0.0
 13
775.6242260574397
 23
273.4991986458981
 33
0.0
  0
SOLID
  5
C0D
330
B8A
100
AcDbEntity
  8
0
 62
     0
100
AcDbTrace
 10
811.87422605744
 20
273.9158653125648
 30
0.0
 11
811.87422605744
 21
273.0825319792314
 31
0.0
 12
814.3742260574397
 22
273.4991986458981
 32
0.0
 13
814.3742260574397
 23
273.4991986458981
 33
0.0
  0
MTEXT
  5
C0E
330
B8A
100
AcDbEntity
  8
0
 62
     0
100
AcDbMText
 10
794.9992260574397
 20
275.5825319792314
 30
0.0
 40
2.5
 41
0.0
 71
     5
 72
     1
  1
38,75
 73
     1
 44
1.0
1001
ACAD
1000
MTEXTBEGIN
1070
    73
1070
     1
1070
    44
1040
1.0
1070
    74
1070
     0
1000
MTEXTEND
  0
POINT
  5
C0F
330
B8A
100
AcDbEntity
  8
Defpoints
 62
     0
100
AcDbPoint
 10
775.6242260574397
 20
246.658219837238
 30
0.0
  0
POINT
  5
C10
330
B8A
100
AcDbEntity
  8
Defpoints
 62
     0
100
AcDbPoint
 10
814.3742260574397
 20
246.658219837238
 30
0.0
  0
POINT
  5
C11
330
B8A
100
AcDbEntity
  8
Defpoints
 62
     0
100
AcDbPoint
 10
814.3742260574397
 20
273.4991986458981
 30
0.0
  0
ENDBLK
  5
B95
330
B8A
100
AcDbEntity
  8
0
100
AcDbBlockEnd
  0
BLOCK
  5
BAC
330
BA2
100
AcDbEntity
  8
0
100
AcDbBlockBegin
  2
*D57
 70
     1
 10
0.0
 20
0.0
 30
0.0
  3
*D57
  1

  0
LINE
  5
BE8
330
BA2
100
AcDbEntity
  8
0
 62
     0
370
    -2
100
AcDbLine
 10
545.7487880574388
 20
543.2588087771644
 30
0.0
 11
880.4597718253335
 21
543.2588087771643
 31
0.0
  0
LINE
  5
BE9
330
BA2
100
AcDbEntity
  8
0
 62
     0
370
    -2
100
AcDbLine
 10
545.7487880574388
 20
613.2588087771644
 30
0.0
 11
880.4597718253335
 21
613.2588087771641
 31
0.0
  0
LINE
  5
BEA
330
BA2
100
AcDbEntity
  8
0
 62
     0
370
    -2
100
AcDbLine
 10
879.2097718253335
 20
545.7588087771641
 30
0.0
 11
879.2097718253335
 21
610.7588087771642
 31
0.0
  0
SOLID
  5
BEB
330
BA2
100
AcDbEntity
  8
0
 62
     0
100
AcDbTrace
 10
878.7931051586669
 20
545.7588087771641
 30
0.0
 11
879.6264384920002
 21
545.7588087771641
 31
0.0
 12
879.2097718253335
 22
543.2588087771643
 32
0.0
 13
879.2097718253335
 23
543.2588087771643
 33
0.0
  0
SOLID
  5
BEC
330
BA2
100
AcDbEntity
  8
0
 62
     0
100
AcDbTrace
 10
878.7931051586669
 20
610.7588087771642
 30
0.0
 11
879.6264384920002
 21
610.7588087771642
 31
0.0
 12
879.2097718253335
 22
613.2588087771641
 32
0.0
 13
879.2097718253335
 23
613.2588087771641
 33
0.0
  0
MTEXT
  5
BED
330
BA2
100
AcDbEntity
  8
0
 62
     0
100
AcDbMText
 10
877.3347718253333
 20
578.2588087771645
 30
0.0
 40
2.5
 41
0.0
 71
     5
 72
     1
  1
70
 11
0.0000000000000001
 21
1.0
 31
0.0
 73
     1
 44
1.0
1001
ACAD
1000
MTEXTBEGIN
1070
    73
1070
     1
1070
    44
1040
1.0
1070
    74
1070
     0
1000
MTEXTEND
  0
POINT
  5
BEE
330
BA2
100
AcDbEntity
  8
Defpoints
 62
     0
100
AcDbPoint
 10
545.123788057439
 20
543.2588087771644
 30
0.0
  0
POINT
  5
BEF
330
BA2
100
AcDbEntity
  8
Defpoints
 62
     0
100
AcDbPoint
 10
545.123788057439
 20
613.2588087771644
 30
0.0
  0
POINT
  5
BF0
330
BA2
100
AcDbEntity
  8
Defpoints
 62
     0
100
AcDbPoint
 10
879.2097718253335
 20
613.2588087771641
 30
0.0
  0
ENDBLK
  5
BAD
330
BA2
100
AcDbEntity
  8
0
100
AcDbBlockEnd
  0
BLOCK
  5
BC4
330
BBA
100
AcDbEntity
  8
0
100
AcDbBlockBegin
  2
*D58
 70
     1
 10
0.0
 20
0.0
 30
0.0
  3
*D58
  1

  0
LINE
  5
BC7
330
BBA
100
AcDbEntity
  8
0
 62
     0
370
    -2
100
AcDbLine
 10
687.59616383781
 20
613.2588087771644
 30
0.0
 11
1007.093136655314
 21
613.2588087771641
 31
0.0
  0
LINE
  5
BC8
330
BBA
100
AcDbEntity
  8
0
 62
     0
370
    -2
100
AcDbLine
 10
687.59616383781
 20
163.2588087771644
 30
0.0
 11
1007.093136655314
 21
163.2588087771643
 31
0.0
  0
LINE
  5
BC9
330
BBA
100
AcDbEntity
  8
0
 62
     0
370
    -2
100
AcDbLine
 10
1005.843136655314
 20
610.7588087771642
 30
0.0
 11
1005.843136655314
 21
165.7588087771643
 31
0.0
  0
SOLID
  5
BCA
330
BBA
100
AcDbEntity
  8
0
 62
     0
100
AcDbTrace
 10
1005.426469988647
 20
610.7588087771642
 30
0.0
 11
1006.259803321981
 21
610.7588087771642
 31
0.0
 12
1005.843136655314
 22
613.2588087771641
 32
0.0
 13
1005.843136655314
 23
613.2588087771641
 33
0.0
  0
SOLID
  5
BCB
330
BBA
100
AcDbEntity
  8
0
 62
     0
100
AcDbTrace
 10
1005.426469988647
 20
165.7588087771643
 30
0.0
 11
1006.25980332198
 21
165.7588087771643
 31
0.0
 12
1005.843136655314
 22
163.2588087771643
 32
0.0
 13
1005.843136655314
 23
163.2588087771643
 33
0.0
  0
MTEXT
  5
BCC
330
BBA
100
AcDbEntity
  8
0
 62
     0
100
AcDbMText
 10
1003.968136655314
 20
388.2588087771645
 30
0.0
 40
2.5
 41
0.0
 71
     5
 72
     1
  1
450
 11
0.0000000000000001
 21
1.0
 31
0.0
 73
     1
 44
1.0
1001
ACAD
1000
MTEXTBEGIN
1070
    73
1070
     1
1070
    44
1040
1.0
1070
    74
1070
     0
1000
MTEXTEND
  0
POINT
  5
BCD
330
BBA
100
AcDbEntity
  8
Defpoints
 62
     0
100
AcDbPoint
 10
686.9711638378102
 20
613.2588087771644
 30
0.0
  0
POINT
  5
BCE
330
BBA
100
AcDbEntity
  8
Defpoints
 62
     0
100
AcDbPoint
 10
686.9711638378102
 20
163.2588087771644
 30
0.0
  0
POINT
  5
BCF
330
BBA
100
AcDbEntity
  8
Defpoints
 62
     0
100
AcDbPoint
 10
1005.843136655314
 20
163.2588087771643
 30
0.0
  0
ENDBLK
  5
BC5
330
BBA
100
AcDbEntity
  8
0
100
AcDbBlockEnd
  0
BLOCK
  5
BDC
330
BD2
100
AcDbEntity
  8
0
100
AcDbBlockBegin
  2
*D59
 70
     1
 10
0.0
 20
0.0
 30
0.0
  3
*D59
  1

  0
LINE
  5
BD3
330
BD2
100
AcDbEntity
  8
0
 62
     0
370
    -2
100
AcDbLine
 10
544.498788057439
 20
516.4441607771641
 30
0.0
 11
447.7114573255639
 21
516.4441607771641
 31
0.0
  0
LINE
  5
BD4
330
BD2
100
AcDbEntity
  8
0
 62
     0
370
    -2
100
AcDbLine
 10
544.4987880574386
 20
186.2588087771644
 30
0.0
 11
447.7114573255639
 21
186.2588087771644
 31
0.0
  0
LINE
  5
BD5
330
BD2
100
AcDbEntity
  8
0
 62
     0
370
    -2
100
AcDbLine
 10
448.9614573255638
 20
513.9441607771641
 30
0.0
 11
448.9614573255638
 21
188.7588087771644
 31
0.0
  0
SOLID
  5
BD6
330
BD2
100
AcDbEntity
  8
0
 62
     0
100
AcDbTrace
 10
448.5447906588973
 20
513.9441607771641
 30
0.0
 11
449.3781239922306
 21
513.9441607771641
 31
0.0
 12
448.9614573255638
 22
516.4441607771641
 32
0.0
 13
448.9614573255638
 23
516.4441607771641
 33
0.0
  0
SOLID
  5
BD7
330
BD2
100
AcDbEntity
  8
0
 62
     0
100
AcDbTrace
 10
448.5447906588971
 20
188.7588087771644
 30
0.0
 11
449.3781239922306
 21
188.7588087771644
 31
0.0
 12
448.9614573255638
 22
186.2588087771644
 32
0.0
 13
448.9614573255638
 23
186.2588087771644
 33
0.0
  0
MTEXT
  5
BD8
330
BD2
100
AcDbEntity
  8
0
 62
     0
100
AcDbMText
 10
446.8781239922305
 20
351.3514847771646
 30
0.0
 40
2.5
 41
0.0
 71
     5
 72
     1
  1
330,19
 11
0.0000000000000001
 21
1.0
 31
0.0
 73
     1
 44
1.0
1001
ACAD
1000
MTEXTBEGIN
1070
    73
1070
     1
1070
    44
1040
1.0
1070
    74
1070
     0
1000
MTEXTEND
  0
POINT
  5
BD9
330
BD2
100
AcDbEntity
  8
Defpoints
 62
     0
100
AcDbPoint
 10
545.123788057439
 20
516.4441607771641
 30
0.0
  0
POINT
  5
BDA
330
BD2
100
AcDbEntity
  8
Defpoints
 62
     0
100
AcDbPoint
 10
545.1237880574389
 20
186.2588087771644
 30
0.0
  0
POINT
  5
BDB
330
BD2
100
AcDbEntity
  8
Defpoints
 62
     0
100
AcDbPoint
 10
448.9614573255638
 20
186.2588087771644
 30
0.0
  0
ENDBLK
  5
BDD
330
BD2
100
AcDbEntity
  8
0
100
AcDbBlockEnd
  0
BLOCK
  5
BFC
330
BF2
100
AcDbEntity
  8
0
100
AcDbBlockBegin
  2
*D60
 70
     1
 10
0.0
 20
0.0
 30
0.0
  3
*D60
  1

  0
LINE
  5
C12
330
BF2
100
AcDbEntity
  8
0
 62
     0
370
    -2
100
AcDbLine
 10
775.6242260574397
 20
488.3155989284951
 30
0.0
 11
775.6242260574397
 21
498.4256023489688
 31
0.0
  0
LINE
  5
C13
330
BF2
100
AcDbEntity
  8
0
 62
     0
370
    -2
100
AcDbLine
 10
814.3742260574397
 20
488.3155989284951
 30
0.0
 11
814.3742260574397
 21
498.4256023489688
 31
0.0
  0
LINE
  5
C14
330
BF2
100
AcDbEntity
  8
0
 62
     0
370
    -2
100
AcDbLine
 10
778.12422605744
 20
497.1756023489688
 30
0.0
 11
811.87422605744
 21
497.1756023489688
 31
0.0
  0
SOLID
  5
C15
330
BF2
100
AcDbEntity
  8
0
 62
     0
100
AcDbTrace
 10
778.12422605744
 20
497.5922690156354
 30
0.0
 11
778.12422605744
 21
496.7589356823021
 31
0.0
 12
775.6242260574397
 22
497.1756023489688
 32
0.0
 13
775.6242260574397
 23
497.1756023489688
 33
0.0
  0
SOLID
  5
C16
330
BF2
100
AcDbEntity
  8
0
 62
     0
100
AcDbTrace
 10
811.87422605744
 20
497.5922690156354
 30
0.0
 11
811.87422605744
 21
496.7589356823021
 31
0.0
 12
814.3742260574397
 22
497.1756023489688
 32
0.0
 13
814.3742260574397
 23
497.1756023489688
 33
0.0
  0
MTEXT
  5
C17
330
BF2
100
AcDbEntity
  8
0
 62
     0
100
AcDbMText
 10
794.9992260574397
 20
499.258935682302
 30
0.0
 40
2.5
 41
0.0
 71
     5
 72
     1
  1
38,75
 73
     1
 44
1.0
1001
ACAD
1000
MTEXTBEGIN
1070
    73
1070
     1
1070
    44
1040
1.0
1070
    74
1070
     0
1000
MTEXTEND
  0
POINT
  5
C18
330
BF2
100
AcDbEntity
  8
Defpoints
 62
     0
100
AcDbPoint
 10
775.6242260574397
 20
487.690598928495
 30
0.0
  0
POINT
  5
C19
330
BF2
100
AcDbEntity
  8
Defpoints
 62
     0
100
AcDbPoint
 10
814.3742260574397
 20
487.690598928495
 30
0.0
  0
POINT
  5
C1A
330
BF2
100
AcDbEntity
  8
Defpoints
 62
     0
100
AcDbPoint
 10
814.3742260574397
 20
497.1756023489688
 30
0.0
  0
ENDBLK
  5
BFD
330
BF2
100
AcDbEntity
  8
0
100
AcDbBlockEnd
  0
BLOCK
  5
C81
330
C77
100
AcDbEntity
  8
0
100
AcDbBlockBegin
  2
*D61
 70
     1
 10
0.0
 20
0.0
 30
0.0
  3
*D61
  1

  0
LINE
  5
C84
330
C77
100
AcDbEntity
  8
0
 62
     0
370
    -2
100
AcDbLine
 10
215.62422605744
 20
797.5723641009715
 30
0.0
 11
215.62422605744
 21
866.0445790163201
 31
0.0
  0
LINE
  5
C85
330
C77
100
AcDbEntity
  8
0
 62
     0
370
    -2
100
AcDbLine
 10
815.62422605744
 20
797.5723641009715
 30
0.0
 11
815.62422605744
 21
866.0445790163201
 31
0.0
  0
LINE
  5
C86
330
C77
100
AcDbEntity
  8
0
 62
     0
370
    -2
100
AcDbLine
 10
218.1242260574399
 20
864.7945790163204
 30
0.0
 11
813.1242260574397
 21
864.7945790163204
 31
0.0
  0
SOLID
  5
C87
330
C77
100
AcDbEntity
  8
0
 62
     0
100
AcDbTrace
 10
218.1242260574399
 20
865.2112456829867
 30
0.0
 11
218.1242260574399
 21
864.3779123496537
 31
0.0
 12
215.62422605744
 22
864.7945790163204
 32
0.0
 13
215.62422605744
 23
864.7945790163204
 33
0.0
  0
SOLID
  5
C88
330
C77
100
AcDbEntity
  8
0
 62
     0
100
AcDbTrace
 10
813.1242260574397
 20
865.2112456829867
 30
0.0
 11
813.1242260574397
 21
864.3779123496537
 31
0.0
 12
815.62422605744
 22
864.7945790163204
 32
0.0
 13
815.62422605744
 23
864.7945790163204
 33
0.0
  0
MTEXT
  5
C89
330
C77
100
AcDbEntity
  8
0
 62
     0
100
AcDbMText
 10
515.62422605744
 20
866.6695790163201
 30
0.0
 40
2.5
 41
0.0
 71
     5
 72
     1
  1
600
 73
     1
 44
1.0
1001
ACAD
1000
MTEXTBEGIN
1070
    73
1070
     1
1070
    44
1040
1.0
1070
    74
1070
     0
1000
MTEXTEND
  0
POINT
  5
C8A
330
C77
100
AcDbEntity
  8
Defpoints
 62
     0
100
AcDbPoint
 10
215.62422605744
 20
796.9473641009715
 30
0.0
  0
POINT
  5
C8B
330
C77
100
AcDbEntity
  8
Defpoints
 62
     0
100
AcDbPoint
 10
815.62422605744
 20
796.9473641009715
 30
0.0
  0
POINT
  5
C8C
330
C77
100
AcDbEntity
  8
Defpoints
 62
     0
100
AcDbPoint
 10
815.62422605744
 20
864.7945790163204
 30
0.0
  0
ENDBLK
  5
C82
330
C77
100
AcDbEntity
  8
0
100
AcDbBlockEnd
  0
BLOCK
  5
C99
330
C8F
100
AcDbEntity
  8
0
100
AcDbBlockBegin
  2
*D62
 70
     1
 10
0.0
 20
0.0
 30
0.0
  3
*D62
  1

  0
LINE
  5
C9C
330
C8F
100
AcDbEntity
  8
0
 62
     0
370
    -2
100
AcDbLine
 10
216.87422605744
 20
820.5723641009715
 30
0.0
 11
216.87422605744
 21
843.7309232801634
 31
0.0
  0
LINE
  5
C9D
330
C8F
100
AcDbEntity
  8
0
 62
     0
370
    -2
100
AcDbLine
 10
814.3742260574397
 20
820.5723641009715
 30
0.0
 11
814.3742260574397
 21
843.7309232801634
 31
0.0
  0
LINE
  5
C9E
330
C8F
100
AcDbEntity
  8
0
 62
     0
370
    -2
100
AcDbLine
 10
219.37422605744
 20
842.4809232801635
 30
0.0
 11
811.87422605744
 21
842.4809232801635
 31
0.0
  0
SOLID
  5
C9F
330
C8F
100
AcDbEntity
  8
0
 62
     0
100
AcDbTrace
 10
219.37422605744
 20
842.8975899468301
 30
0.0
 11
219.37422605744
 21
842.0642566134969
 31
0.0
 12
216.87422605744
 22
842.4809232801635
 32
0.0
 13
216.87422605744
 23
842.4809232801635
 33
0.0
  0
SOLID
  5
CA0
330
C8F
100
AcDbEntity
  8
0
 62
     0
100
AcDbTrace
 10
811.87422605744
 20
842.8975899468301
 30
0.0
 11
811.87422605744
 21
842.0642566134969
 31
0.0
 12
814.3742260574397
 22
842.4809232801635
 32
0.0
 13
814.3742260574397
 23
842.4809232801635
 33
0.0
  0
MTEXT
  5
CA1
330
C8F
100
AcDbEntity
  8
0
 62
     0
100
AcDbMText
 10
515.62422605744
 20
844.5642566134967
 30
0.0
 40
2.5
 41
0.0
 71
     5
 72
     1
  1
597,5
 73
     1
 44
1.0
1001
ACAD
1000
MTEXTBEGIN
1070
    73
1070
     1
1070
    44
1040
1.0
1070
    74
1070
     0
1000
MTEXTEND
  0
POINT
  5
CA2
330
C8F
100
AcDbEntity
  8
Defpoints
 62
     0
100
AcDbPoint
 10
216.87422605744
 20
819.9473641009715
 30
0.0
  0
POINT
  5
CA3
330
C8F
100
AcDbEntity
  8
Defpoints
 62
     0
100
AcDbPoint
 10
814.3742260574397
 20
819.9473641009715
 30
0.0
  0
POINT
  5
CA4
330
C8F
100
AcDbEntity
  8
Defpoints
 62
     0
100
AcDbPoint
 10
814.3742260574397
 20
842.4809232801635
 30
0.0
  0
ENDBLK
  5
C9A
330
C8F
100
AcDbEntity
  8
0
100
AcDbBlockEnd
  0
BLOCK
  5
CB2
330
CA8
100
AcDbEntity
  8
0
100
AcDbBlockBegin
  2
*D63
 70
     1
 10
0.0
 20
0.0
 30
0.0
  3
*D63
  1

  0
LINE
  5
CB5
330
CA8
100
AcDbEntity
  8
0
 62
     0
370
    -2
100
AcDbLine
 10
490.4055574025585
 20
796.9473641009715
 30
0.0
 11
489.7805574025587
 21
796.9473641009715
 31
0.0
  0
LINE
  5
CB6
330
CA8
100
AcDbEntity
  8
0
 62
     0
370
    -2
100
AcDbLine
 10
490.4055574025585
 20
719.9473641009715
 30
0.0
 11
489.7805574025587
 21
719.9473641009715
 31
0.0
  0
LINE
  5
CB7
330
CA8
100
AcDbEntity
  8
0
 62
     0
370
    -2
100
AcDbLine
 10
491.0305574025588
 20
794.4473641009715
 30
0.0
 11
491.0305574025588
 21
722.4473641009715
 31
0.0
  0
SOLID
  5
CB8
330
CA8
100
AcDbEntity
  8
0
 62
     0
100
AcDbTrace
 10
490.613890735892
 20
794.4473641009715
 30
0.0
 11
491.4472240692254
 21
794.4473641009715
 31
0.0
 12
491.0305574025588
 22
796.9473641009715
 32
0.0
 13
491.0305574025588
 23
796.9473641009715
 33
0.0
  0
SOLID
  5
CB9
330
CA8
100
AcDbEntity
  8
0
 62
     0
100
AcDbTrace
 10
490.613890735892
 20
722.4473641009715
 30
0.0
 11
491.4472240692254
 21
722.4473641009715
 31
0.0
 12
491.0305574025588
 22
719.9473641009715
 32
0.0
 13
491.0305574025588
 23
719.9473641009715
 33
0.0
  0
MTEXT
  5
CBA
330
CA8
100
AcDbEntity
  8
0
 62
     0
100
AcDbMText
 10
489.1555574025586
 20
758.4473641009716
 30
0.0
 40
2.5
 41
0.0
 71
     5
 72
     1
  1
77
 11
0.0000000000000001
 21
1.0
 31
0.0
 73
     1
 44
1.0
1001
ACAD
1000
MTEXTBEGIN
1070
    73
1070
     1
1070
    44
1040
1.0
1070
    74
1070
     0
1000
MTEXTEND
  0
POINT
  5
CBB
330
CA8
100
AcDbEntity
  8
Defpoints
 62
     0
100
AcDbPoint
 10
491.0305574025588
 20
796.9473641009715
 30
0.0
  0
POINT
  5
CBC
330
CA8
100
AcDbEntity
  8
Defpoints
 62
     0
100
AcDbPoint
 10
491.0305574025588
 20
719.9473641009715
 30
0.0
  0
POINT
  5
CBD
330
CA8
100
AcDbEntity
  8
Defpoints
 62
     0
100
AcDbPoint
 10
491.0305574025588
 20
719.9473641009715
 30
0.0
  0
ENDBLK
  5
CB3
330
CA8
100
AcDbEntity
  8
0
100
AcDbBlockEnd
  0
BLOCK
  5
CD9
330
CCF
100
AcDbEntity
  8
0
100
AcDbBlockBegin
  2
*D64
 70
     1
 10
0.0
 20
0.0
 30
0.0
  3
*D64
  1

  0
LINE
  5
CDC
330
CCF
100
AcDbEntity
  8
0
 62
     0
370
    -2
100
AcDbLine
 10
1424.086726197936
 20
1127.206872775507
 30
0.0
 11
1709.792923974639
 21
1127.206872775507
 31
0.0
  0
LINE
  5
CDD
330
CCF
100
AcDbEntity
  8
0
 62
     0
370
    -2
100
AcDbLine
 10
1424.086726197936
 20
1027.206872775507
 30
0.0
 11
1709.792923974639
 21
1027.206872775507
 31
0.0
  0
LINE
  5
CDE
330
CCF
100
AcDbEntity
  8
0
 62
     0
370
    -2
100
AcDbLine
 10
1708.542923974639
 20
1124.706872775507
 30
0.0
 11
1708.542923974639
 21
1029.706872775507
 31
0.0
  0
SOLID
  5
CDF
330
CCF
100
AcDbEntity
  8
0
 62
     0
100
AcDbTrace
 10
1708.126257307972
 20
1124.706872775507
 30
0.0
 11
1708.959590641306
 21
1124.706872775507
 31
0.0
 12
1708.542923974639
 22
1127.206872775507
 32
0.0
 13
1708.542923974639
 23
1127.206872775507
 33
0.0
  0
SOLID
  5
CE0
330
CCF
100
AcDbEntity
  8
0
 62
     0
100
AcDbTrace
 10
1708.126257307972
 20
1029.706872775507
 30
0.0
 11
1708.959590641306
 21
1029.706872775507
 31
0.0
 12
1708.542923974639
 22
1027.206872775507
 32
0.0
 13
1708.542923974639
 23
1027.206872775507
 33
0.0
  0
MTEXT
  5
CE1
330
CCF
100
AcDbEntity
  8
0
 62
     0
100
AcDbMText
 10
1706.667923974639
 20
1077.206872775507
 30
0.0
 40
2.5
 41
0.0
 71
     5
 72
     1
  1
100
 11
0.0000000000000001
 21
1.0
 31
0.0
 73
     1
 44
1.0
1001
ACAD
1000
MTEXTBEGIN
1070
    73
1070
     1
1070
    44
1040
1.0
1070
    74
1070
     0
1000
MTEXTEND
  0
POINT
  5
CE2
330
CCF
100
AcDbEntity
  8
Defpoints
 62
     0
100
AcDbPoint
 10
1423.461726197936
 20
1127.206872775507
 30
0.0
  0
POINT
  5
CE3
330
CCF
100
AcDbEntity
  8
Defpoints
 62
     0
100
AcDbPoint
 10
1423.461726197936
 20
1027.206872775507
 30
0.0
  0
POINT
  5
CE4
330
CCF
100
AcDbEntity
  8
Defpoints
 62
     0
100
AcDbPoint
 10
1708.542923974639
 20
1027.206872775507
 30
0.0
  0
ENDBLK
  5
CDA
330
CCF
100
AcDbEntity
  8
0
100
AcDbBlockEnd
  0
BLOCK
  5
CF1
330
CE7
100
AcDbEntity
  8
0
100
AcDbBlockBegin
  2
*D65
 70
     1
 10
0.0
 20
0.0
 30
0.0
  3
*D65
  1

  0
LINE
  5
CF4
330
CE7
100
AcDbEntity
  8
0
 62
     0
370
    -2
100
AcDbLine
 10
1141.098063630115
 20
1067.831872775507
 30
0.0
 11
1141.098063630115
 21
1168.421768238929
 31
0.0
  0
LINE
  5
CF5
330
CE7
100
AcDbEntity
  8
0
 62
     0
370
    -2
100
AcDbLine
 10
1587.094063630115
 20
1066.831872775507
 30
0.0
 11
1587.094063630115
 21
1168.421768238929
 31
0.0
  0
LINE
  5
CF6
330
CE7
100
AcDbEntity
  8
0
 62
     0
370
    -2
100
AcDbLine
 10
1143.598063630115
 20
1167.171768238929
 30
0.0
 11
1584.594063630115
 21
1167.171768238929
 31
0.0
  0
SOLID
  5
CF7
330
CE7
100
AcDbEntity
  8
0
 62
     0
100
AcDbTrace
 10
1143.598063630115
 20
1167.588434905596
 30
0.0
 11
1143.598063630115
 21
1166.755101572262
 31
0.0
 12
1141.098063630115
 22
1167.171768238929
 32
0.0
 13
1141.098063630115
 23
1167.171768238929
 33
0.0
  0
SOLID
  5
CF8
330
CE7
100
AcDbEntity
  8
0
 62
     0
100
AcDbTrace
 10
1584.594063630115
 20
1167.588434905596
 30
0.0
 11
1584.594063630115
 21
1166.755101572262
 31
0.0
 12
1587.094063630115
 22
1167.171768238929
 32
0.0
 13
1587.094063630115
 23
1167.171768238929
 33
0.0
  0
MTEXT
  5
CF9
330
CE7
100
AcDbEntity
  8
0
 62
     0
100
AcDbMText
 10
1364.096063630115
 20
1169.046768238929
 30
0.0
 40
2.5
 41
0.0
 71
     5
 72
     1
  1
446
 73
     1
 44
1.0
1001
ACAD
1000
MTEXTBEGIN
1070
    73
1070
     1
1070
    44
1040
1.0
1070
    74
1070
     0
1000
MTEXTEND
  0
POINT
  5
CFA
330
CE7
100
AcDbEntity
  8
Defpoints
 62
     0
100
AcDbPoint
 10
1141.098063630115
 20
1067.206872775507
 30
0.0
  0
POINT
  5
CFB
330
CE7
100
AcDbEntity
  8
Defpoints
 62
     0
100
AcDbPoint
 10
1587.094063630115
 20
1066.206872775507
 30
0.0
  0
POINT
  5
CFC
330
CE7
100
AcDbEntity
  8
Defpoints
 62
     0
100
AcDbPoint
 10
1587.094063630115
 20
1167.171768238929
 30
0.0
  0
ENDBLK
  5
CF2
330
CE7
100
AcDbEntity
  8
0
100
AcDbBlockEnd
  0
BLOCK
  5
D09
330
CFF
100
AcDbEntity
  8
0
100
AcDbBlockBegin
  2
*D66
 70
     1
 10
0.0
 20
0.0
 30
0.0
  3
*D66
  1

  0
LINE
  5
D0C
330
CFF
100
AcDbEntity
  8
0
 62
     0
370
    -2
100
AcDbLine
 10
216.87422605744
 20
1075.581872775507
 30
0.0
 11
216.87422605744
 21
1055.328595748455
 31
0.0
  0
LINE
  5
D0D
330
CFF
100
AcDbEntity
  8
0
 62
     0
370
    -2
100
AcDbLine
 10
814.3742260574397
 20
1075.581872775507
 30
0.0
 11
814.3742260574397
 21
1055.328595748455
 31
0.0
  0
LINE
  5
D0E
330
CFF
100
AcDbEntity
  8
0
 62
     0
370
    -2
100
AcDbLine
 10
219.37422605744
 20
1056.578595748455
 30
0.0
 11
811.87422605744
 21
1056.578595748455
 31
0.0
  0
SOLID
  5
D0F
330
CFF
100
AcDbEntity
  8
0
 62
     0
100
AcDbTrace
 10
219.37422605744
 20
1056.995262415121
 30
0.0
 11
219.37422605744
 21
1056.161929081788
 31
0.0
 12
216.87422605744
 22
1056.578595748455
 32
0.0
 13
216.87422605744
 23
1056.578595748455
 33
0.0
  0
SOLID
  5
D10
330
CFF
100
AcDbEntity
  8
0
 62
     0
100
AcDbTrace
 10
811.87422605744
 20
1056.995262415121
 30
0.0
 11
811.87422605744
 21
1056.161929081788
 31
0.0
 12
814.3742260574397
 22
1056.578595748455
 32
0.0
 13
814.3742260574397
 23
1056.578595748455
 33
0.0
  0
MTEXT
  5
D11
330
CFF
100
AcDbEntity
  8
0
 62
     0
100
AcDbMText
 10
515.62422605744
 20
1058.661929081788
 30
0.0
 40
2.5
 41
0.0
 71
     5
 72
     1
  1
597,5
 73
     1
 44
1.0
1001
ACAD
1000
MTEXTBEGIN
1070
    73
1070
     1
1070
    44
1040
1.0
1070
    74
1070
     0
1000
MTEXTEND
  0
POINT
  5
D12
330
CFF
100
AcDbEntity
  8
Defpoints
 62
     0
100
AcDbPoint
 10
216.87422605744
 20
1076.206872775507
 30
0.0
  0
POINT
  5
D13
330
CFF
100
AcDbEntity
  8
Defpoints
 62
     0
100
AcDbPoint
 10
814.3742260574397
 20
1076.206872775507
 30
0.0
  0
POINT
  5
D14
330
CFF
100
AcDbEntity
  8
Defpoints
 62
     0
100
AcDbPoint
 10
814.3742260574397
 20
1056.578595748455
 30
0.0
  0
ENDBLK
  5
D0A
330
CFF
100
AcDbEntity
  8
0
100
AcDbBlockEnd
  0
BLOCK
  5
D30
330
D26
100
AcDbEntity
  8
0
100
AcDbBlockBegin
  2
*D67
 70
     1
 10
0.0
 20
0.0
 30
0.0
  3
*D67
  1

  0
LINE
  5
D33
330
D26
100
AcDbEntity
  8
0
 62
     0
370
    -2
100
AcDbLine
 10
1116.956153638291
 20
1007.206872775507
 30
0.0
 11
969.2835488309572
 21
1007.206872775507
 31
0.0
  0
LINE
  5
D34
330
D26
100
AcDbEntity
  8
0
 62
     0
370
    -2
100
AcDbLine
 10
1116.956153638291
 20
1127.206872775507
 30
0.0
 11
969.2835488309572
 21
1127.206872775507
 31
0.0
  0
LINE
  5
D35
330
D26
100
AcDbEntity
  8
0
 62
     0
370
    -2
100
AcDbLine
 10
970.5335488309572
 20
1009.706872775507
 30
0.0
 11
970.5335488309572
 21
1124.706872775507
 31
0.0
  0
SOLID
  5
D36
330
D26
100
AcDbEntity
  8
0
 62
     0
100
AcDbTrace
 10
970.1168821642907
 20
1009.706872775507
 30
0.0
 11
970.950215497624
 21
1009.706872775507
 31
0.0
 12
970.5335488309572
 22
1007.206872775507
 32
0.0
 13
970.5335488309572
 23
1007.206872775507
 33
0.0
  0
SOLID
  5
D37
330
D26
100
AcDbEntity
  8
0
 62
     0
100
AcDbTrace
 10
970.1168821642907
 20
1124.706872775507
 30
0.0
 11
970.950215497624
 21
1124.706872775507
 31
0.0
 12
970.5335488309572
 22
1127.206872775507
 32
0.0
 13
970.5335488309572
 23
1127.206872775507
 33
0.0
  0
MTEXT
  5
D38
330
D26
100
AcDbEntity
  8
0
 62
     0
100
AcDbMText
 10
968.6585488309573
 20
1067.206872775507
 30
0.0
 40
2.5
 41
0.0
 71
     5
 72
     1
  1
120
 11
0.0000000000000001
 21
1.0
 31
0.0
 73
     1
 44
1.0
1001
ACAD
1000
MTEXTBEGIN
1070
    73
1070
     1
1070
    44
1040
1.0
1070
    74
1070
     0
1000
MTEXTEND
  0
POINT
  5
D39
330
D26
100
AcDbEntity
  8
Defpoints
 62
     0
100
AcDbPoint
 10
1117.581153638291
 20
1007.206872775507
 30
0.0
  0
POINT
  5
D3A
330
D26
100
AcDbEntity
  8
Defpoints
 62
     0
100
AcDbPoint
 10
1117.581153638291
 20
1127.206872775507
 30
0.0
  0
POINT
  5
D3B
330
D26
100
AcDbEntity
  8
Defpoints
 62
     0
100
AcDbPoint
 10
970.5335488309572
 20
1127.206872775507
 30
0.0
  0
ENDBLK
  5
D31
330
D26
100
AcDbEntity
  8
0
100
AcDbBlockEnd
  0
BLOCK
  5
D48
330
D3E
100
AcDbEntity
  8
0
100
AcDbBlockBegin
  2
*D68
 70
     1
 10
0.0
 20
0.0
 30
0.0
  3
*D68
  1

  0
LINE
  5
D4B
330
D3E
100
AcDbEntity
  8
0
 62
     0
370
    -2
100
AcDbLine
 10
1087.098063630115
 20
1067.831872775507
 30
0.0
 11
1087.098063630115
 21
1168.755711453513
 31
0.0
  0
LINE
  5
D4C
330
D3E
100
AcDbEntity
  8
0
 62
     0
370
    -2
100
AcDbLine
 10
1587.094063630115
 20
1066.831872775507
 30
0.0
 11
1587.094063630115
 21
1168.755711453513
 31
0.0
  0
LINE
  5
D4D
330
D3E
100
AcDbEntity
  8
0
 62
     0
370
    -2
100
AcDbLine
 10
1089.598063630115
 20
1167.505711453513
 30
0.0
 11
1584.594063630115
 21
1167.505711453513
 31
0.0
  0
SOLID
  5
D4E
330
D3E
100
AcDbEntity
  8
0
 62
     0
100
AcDbTrace
 10
1089.598063630115
 20
1167.922378120179
 30
0.0
 11
1089.598063630115
 21
1167.089044786846
 31
0.0
 12
1087.098063630115
 22
1167.505711453513
 32
0.0
 13
1087.098063630115
 23
1167.505711453513
 33
0.0
  0
SOLID
  5
D4F
330
D3E
100
AcDbEntity
  8
0
 62
     0
100
AcDbTrace
 10
1584.594063630115
 20
1167.922378120179
 30
0.0
 11
1584.594063630115
 21
1167.089044786846
 31
0.0
 12
1587.094063630115
 22
1167.505711453513
 32
0.0
 13
1587.094063630115
 23
1167.505711453513
 33
0.0
  0
MTEXT
  5
D50
330
D3E
100
AcDbEntity
  8
0
 62
     0
100
AcDbMText
 10
1337.096063630115
 20
1169.380711453513
 30
0.0
 40
2.5
 41
0.0
 71
     5
 72
     1
  1
500
 73
     1
 44
1.0
1001
ACAD
1000
MTEXTBEGIN
1070
    73
1070
     1
1070
    44
1040
1.0
1070
    74
1070
     0
1000
MTEXTEND
  0
POINT
  5
D51
330
D3E
100
AcDbEntity
  8
Defpoints
 62
     0
100
AcDbPoint
 10
1087.098063630115
 20
1067.206872775507
 30
0.0
  0
POINT
  5
D52
330
D3E
100
AcDbEntity
  8
Defpoints
 62
     0
100
AcDbPoint
 10
1587.094063630115
 20
1066.206872775507
 30
0.0
  0
POINT
  5
D53
330
D3E
100
AcDbEntity
  8
Defpoints
 62
     0
100
AcDbPoint
 10
1587.094063630115
 20
1167.505711453513
 30
0.0
  0
ENDBLK
  5
D49
330
D3E
100
AcDbEntity
  8
0
100
AcDbBlockEnd
  0
BLOCK
  5
D60
330
D56
100
AcDbEntity
  8
0
100
AcDbBlockBegin
  2
*D69
 70
     1
 10
0.0
 20
0.0
 30
0.0
  3
*D69
  1

  0
LINE
  5
D63
330
D56
100
AcDbEntity
  8
0
 62
     0
370
    -2
100
AcDbLine
 10
647.0827539905602
 20
1006.206872775507
 30
0.0
 11
700.5306815534459
 21
1006.206872775507
 31
0.0
  0
LINE
  5
D64
330
D56
100
AcDbEntity
  8
0
 62
     0
370
    -2
100
AcDbLine
 10
647.0827539905602
 20
1127.206872775507
 30
0.0
 11
700.5306815534459
 21
1127.206872775507
 31
0.0
  0
LINE
  5
D65
330
D56
100
AcDbEntity
  8
0
 62
     0
370
    -2
100
AcDbLine
 10
699.2806815534459
 20
1008.706872775507
 30
0.0
 11
699.2806815534459
 21
1124.706872775507
 31
0.0
  0
SOLID
  5
D66
330
D56
100
AcDbEntity
  8
0
 62
     0
100
AcDbTrace
 10
698.8640148867792
 20
1008.706872775507
 30
0.0
 11
699.6973482201124
 21
1008.706872775507
 31
0.0
 12
699.2806815534459
 22
1006.206872775507
 32
0.0
 13
699.2806815534459
 23
1006.206872775507
 33
0.0
  0
SOLID
  5
D67
330
D56
100
AcDbEntity
  8
0
 62
     0
100
AcDbTrace
 10
698.8640148867792
 20
1124.706872775507
 30
0.0
 11
699.6973482201124
 21
1124.706872775507
 31
0.0
 12
699.2806815534459
 22
1127.206872775507
 32
0.0
 13
699.2806815534459
 23
1127.206872775507
 33
0.0
  0
MTEXT
  5
D68
330
D56
100
AcDbEntity
  8
0
 62
     0
100
AcDbMText
 10
697.4056815534457
 20
1066.706872775507
 30
0.0
 40
2.5
 41
0.0
 71
     5
 72
     1
  1
121
 11
0.0000000000000001
 21
1.0
 31
0.0
 73
     1
 44
1.0
1001
ACAD
1000
MTEXTBEGIN
1070
    73
1070
     1
1070
    44
1040
1.0
1070
    74
1070
     0
1000
MTEXTEND
  0
POINT
  5
D69
330
D56
100
AcDbEntity
  8
Defpoints
 62
     0
100
AcDbPoint
 10
646.4577539905604
 20
1006.206872775507
 30
0.0
  0
POINT
  5
D6A
330
D56
100
AcDbEntity
  8
Defpoints
 62
     0
100
AcDbPoint
 10
646.4577539905604
 20
1127.206872775507
 30
0.0
  0
POINT
  5
D6B
330
D56
100
AcDbEntity
  8
Defpoints
 62
     0
100
AcDbPoint
 10
699.2806815534459
 20
1127.206872775507
 30
0.0
  0
ENDBLK
  5
D61
330
D56
100
AcDbEntity
  8
0
100
AcDbBlockEnd
  0
BLOCK
  5
D78
330
D6E
100
AcDbEntity
  8
0
100
AcDbBlockBegin
  2
*D70
 70
     1
 10
0.0
 20
0.0
 30
0.0
  3
*D70
  1

  0
LINE
  5
D7B
330
D6E
100
AcDbEntity
  8
0
 62
     0
370
    -2
100
AcDbLine
 10
575.7004190832667
 20
719.9473641009715
 30
0.0
 11
626.2930521758224
 21
719.9473641009715
 31
0.0
  0
LINE
  5
D7C
330
D6E
100
AcDbEntity
  8
0
 62
     0
370
    -2
100
AcDbLine
 10
575.7004190832667
 20
839.9473641009715
 30
0.0
 11
626.2930521758224
 21
839.9473641009715
 31
0.0
  0
LINE
  5
D7D
330
D6E
100
AcDbEntity
  8
0
 62
     0
370
    -2
100
AcDbLine
 10
625.0430521758223
 20
722.4473641009715
 30
0.0
 11
625.0430521758224
 21
837.4473641009714
 31
0.0
  0
SOLID
  5
D7E
330
D6E
100
AcDbEntity
  8
0
 62
     0
100
AcDbTrace
 10
624.6263855091557
 20
722.4473641009715
 30
0.0
 11
625.4597188424891
 21
722.4473641009715
 31
0.0
 12
625.0430521758223
 22
719.9473641009715
 32
0.0
 13
625.0430521758223
 23
719.9473641009715
 33
0.0
  0
SOLID
  5
D7F
330
D6E
100
AcDbEntity
  8
0
 62
     0
100
AcDbTrace
 10
624.6263855091561
 20
837.4473641009714
 30
0.0
 11
625.4597188424892
 21
837.4473641009714
 31
0.0
 12
625.0430521758224
 22
839.9473641009715
 32
0.0
 13
625.0430521758224
 23
839.9473641009715
 33
0.0
  0
MTEXT
  5
D80
330
D6E
100
AcDbEntity
  8
0
 62
     0
100
AcDbMText
 10
623.1680521758224
 20
779.9473641009716
 30
0.0
 40
2.5
 41
0.0
 71
     5
 72
     1
  1
120
 11
0.0000000000000001
 21
1.0
 31
0.0
 73
     1
 44
1.0
1001
ACAD
1000
MTEXTBEGIN
1070
    73
1070
     1
1070
    44
1040
1.0
1070
    74
1070
     0
1000
MTEXTEND
  0
POINT
  5
D81
330
D6E
100
AcDbEntity
  8
Defpoints
 62
     0
100
AcDbPoint
 10
575.0754190832667
 20
719.9473641009715
 30
0.0
  0
POINT
  5
D82
330
D6E
100
AcDbEntity
  8
Defpoints
 62
     0
100
AcDbPoint
 10
575.0754190832667
 20
839.9473641009715
 30
0.0
  0
POINT
  5
D83
330
D6E
100
AcDbEntity
  8
Defpoints
 62
     0
100
AcDbPoint
 10
625.0430521758224
 20
839.9473641009715
 30
0.0
  0
ENDBLK
  5
D79
330
D6E
100
AcDbEntity
  8
0
100
AcDbBlockEnd
  0
BLOCK
  5
DA1
330
D97
100
AcDbEntity
  8
0
100
AcDbBlockBegin
  2
*D71
 70
     1
 10
0.0
 20
0.0
 30
0.0
  3
*D71
  1

  0
LINE
  5
DA4
330
D97
100
AcDbEntity
  8
0
 62
     0
370
    -2
100
AcDbLine
 10
216.87422605744
 20
1076.831872775507
 30
0.0
 11
216.87422605744
 21
1262.331005087686
 31
0.0
  0
LINE
  5
DA5
330
D97
100
AcDbEntity
  8
0
 62
     0
370
    -2
100
AcDbLine
 10
814.3742260574397
 20
1076.831872775507
 30
0.0
 11
814.3742260574397
 21
1262.331005087686
 31
0.0
  0
LINE
  5
DA6
330
D97
100
AcDbEntity
  8
0
 62
     0
370
    -2
100
AcDbLine
 10
219.37422605744
 20
1261.081005087685
 30
0.0
 11
811.8742260574396
 21
1261.081005087685
 31
0.0
  0
SOLID
  5
DA7
330
D97
100
AcDbEntity
  8
0
 62
     0
100
AcDbTrace
 10
219.37422605744
 20
1261.497671754352
 30
0.0
 11
219.37422605744
 21
1260.664338421019
 31
0.0
 12
216.87422605744
 22
1261.081005087685
 32
0.0
 13
216.87422605744
 23
1261.081005087685
 33
0.0
  0
SOLID
  5
DA8
330
D97
100
AcDbEntity
  8
0
 62
     0
100
AcDbTrace
 10
811.8742260574396
 20
1261.497671754352
 30
0.0
 11
811.8742260574396
 21
1260.664338421019
 31
0.0
 12
814.3742260574397
 22
1261.081005087685
 32
0.0
 13
814.3742260574397
 23
1261.081005087685
 33
0.0
  0
MTEXT
  5
DA9
330
D97
100
AcDbEntity
  8
0
 62
     0
100
AcDbMText
 10
515.6242260574398
 20
1263.164338421019
 30
0.0
 40
2.5
 41
0.0
 71
     5
 72
     1
  1
597,5
 73
     1
 44
1.0
1001
ACAD
1000
MTEXTBEGIN
1070
    73
1070
     1
1070
    44
1040
1.0
1070
    74
1070
     0
1000
MTEXTEND
  0
POINT
  5
DAA
330
D97
100
AcDbEntity
  8
Defpoints
 62
     0
100
AcDbPoint
 10
216.87422605744
 20
1076.206872775507
 30
0.0
  0
POINT
  5
DAB
330
D97
100
AcDbEntity
  8
Defpoints
 62
     0
100
AcDbPoint
 10
814.3742260574397
 20
1076.206872775507
 30
0.0
  0
POINT
  5
DAC
330
D97
100
AcDbEntity
  8
Defpoints
 62
     0
100
AcDbPoint
 10
814.3742260574397
 20
1261.081005087685
 30
0.0
  0
ENDBLK
  5
DA2
330
D97
100
AcDbEntity
  8
0
100
AcDbBlockEnd
  0
BLOCK
  5
DB9
330
DAF
100
AcDbEntity
  8
0
100
AcDbBlockBegin
  2
*D72
 70
     1
 10
0.0
 20
0.0
 30
0.0
  3
*D72
  1

  0
LINE
  5
DBC
330
DAF
100
AcDbEntity
  8
0
 62
     0
370
    -2
100
AcDbLine
 10
690.3495255177976
 20
839.9473641009715
 30
0.0
 11
1028.320836650184
 21
839.9473641009715
 31
0.0
  0
LINE
  5
DBD
330
DAF
100
AcDbEntity
  8
0
 62
     0
370
    -2
100
AcDbLine
 10
690.3495255177976
 20
339.9473641009715
 30
0.0
 11
1028.320836650184
 21
339.9473641009714
 31
0.0
  0
LINE
  5
DBE
330
DAF
100
AcDbEntity
  8
0
 62
     0
370
    -2
100
AcDbLine
 10
1027.070836650184
 20
837.4473641009714
 30
0.0
 11
1027.070836650184
 21
342.4473641009714
 31
0.0
  0
SOLID
  5
DBF
330
DAF
100
AcDbEntity
  8
0
 62
     0
100
AcDbTrace
 10
1026.654169983517
 20
837.4473641009714
 30
0.0
 11
1027.487503316851
 21
837.4473641009714
 31
0.0
 12
1027.070836650184
 22
839.9473641009715
 32
0.0
 13
1027.070836650184
 23
839.9473641009715
 33
0.0
  0
SOLID
  5
DC0
330
DAF
100
AcDbEntity
  8
0
 62
     0
100
AcDbTrace
 10
1026.654169983517
 20
342.4473641009714
 30
0.0
 11
1027.487503316851
 21
342.4473641009714
 31
0.0
 12
1027.070836650184
 22
339.9473641009714
 32
0.0
 13
1027.070836650184
 23
339.9473641009714
 33
0.0
  0
MTEXT
  5
DC1
330
DAF
100
AcDbEntity
  8
0
 62
     0
100
AcDbMText
 10
1025.195836650184
 20
589.9473641009715
 30
0.0
 40
2.5
 41
0.0
 71
     5
 72
     1
  1
500
 11
0.0000000000000001
 21
1.0
 31
0.0
 73
     1
 44
1.0
1001
ACAD
1000
MTEXTBEGIN
1070
    73
1070
     1
1070
    44
1040
1.0
1070
    74
1070
     0
1000
MTEXTEND
  0
POINT
  5
DC2
330
DAF
100
AcDbEntity
  8
Defpoints
 62
     0
100
AcDbPoint
 10
689.7245255177977
 20
839.9473641009715
 30
0.0
  0
POINT
  5
DC3
330
DAF
100
AcDbEntity
  8
Defpoints
 62
     0
100
AcDbPoint
 10
689.7245255177977
 20
339.9473641009715
 30
0.0
  0
POINT
  5
DC4
330
DAF
100
AcDbEntity
  8
Defpoints
 62
     0
100
AcDbPoint
 10
1027.070836650184
 20
339.9473641009714
 30
0.0
  0
ENDBLK
  5
DBA
330
DAF
100
AcDbEntity
  8
0
100
AcDbBlockEnd
  0
BLOCK
  5
DD1
330
DC7
100
AcDbEntity
  8
0
100
AcDbBlockBegin
  2
*D73
 70
     1
 10
0.0
 20
0.0
 30
0.0
  3
*D73
  1

  0
LINE
  5
DD4
330
DC7
100
AcDbEntity
  8
0
 62
     0
370
    -2
100
AcDbLine
 10
215.62422605744
 20
721.4167923658647
 30
0.0
 11
215.62422605744
 21
904.4471253296032
 31
0.0
  0
LINE
  5
DD5
330
DC7
100
AcDbEntity
  8
0
 62
     0
370
    -2
100
AcDbLine
 10
815.62422605744
 20
721.4167923658647
 30
0.0
 11
815.62422605744
 21
904.4471253296032
 31
0.0
  0
LINE
  5
DD6
330
DC7
100
AcDbEntity
  8
0
 62
     0
370
    -2
100
AcDbLine
 10
218.12422605744
 20
903.1971253296033
 30
0.0
 11
813.1242260574401
 21
903.1971253296033
 31
0.0
  0
SOLID
  5
DD7
330
DC7
100
AcDbEntity
  8
0
 62
     0
100
AcDbTrace
 10
218.12422605744
 20
903.6137919962699
 30
0.0
 11
218.12422605744
 21
902.7804586629367
 31
0.0
 12
215.62422605744
 22
903.1971253296033
 32
0.0
 13
215.62422605744
 23
903.1971253296033
 33
0.0
  0
SOLID
  5
DD8
330
DC7
100
AcDbEntity
  8
0
 62
     0
100
AcDbTrace
 10
813.1242260574401
 20
903.6137919962699
 30
0.0
 11
813.1242260574401
 21
902.7804586629367
 31
0.0
 12
815.62422605744
 22
903.1971253296033
 32
0.0
 13
815.62422605744
 23
903.1971253296033
 33
0.0
  0
MTEXT
  5
DD9
330
DC7
100
AcDbEntity
  8
0
 62
     0
100
AcDbMText
 10
515.62422605744
 20
905.0721253296032
 30
0.0
 40
2.5
 41
0.0
 71
     5
 72
     1
  1
600
 73
     1
 44
1.0
1001
ACAD
1000
MTEXTBEGIN
1070
    73
1070
     1
1070
    44
1040
1.0
1070
    74
1070
     0
1000
MTEXTEND
  0
POINT
  5
DDA
330
DC7
100
AcDbEntity
  8
Defpoints
 62
     0
100
AcDbPoint
 10
215.62422605744
 20
720.7917923658647
 30
0.0
  0
POINT
  5
DDB
330
DC7
100
AcDbEntity
  8
Defpoints
 62
     0
100
AcDbPoint
 10
815.62422605744
 20
720.7917923658647
 30
0.0
  0
POINT
  5
DDC
330
DC7
100
AcDbEntity
  8
Defpoints
 62
     0
100
AcDbPoint
 10
815.62422605744
 20
903.1971253296033
 30
0.0
  0
ENDBLK
  5
DD2
330
DC7
100
AcDbEntity
  8
0
100
AcDbBlockEnd
  0
BLOCK
  5
DE9
330
DDF
100
AcDbEntity
  8
0
100
AcDbBlockBegin
  2
*D74
 70
     1
 10
0.0
 20
0.0
 30
0.0
  3
*D74
  1

  0
LINE
  5
DEC
330
DDF
100
AcDbEntity
  8
0
 62
     0
370
    -2
100
AcDbLine
 10
216.87422605744
 20
1076.831872775507
 30
0.0
 11
216.87422605744
 21
1230.006008796692
 31
0.0
  0
LINE
  5
DED
330
DDF
100
AcDbEntity
  8
0
 62
     0
370
    -2
100
AcDbLine
 10
814.3742260574397
 20
1076.831872775507
 30
0.0
 11
814.3742260574397
 21
1230.006008796692
 31
0.0
  0
LINE
  5
DEE
330
DDF
100
AcDbEntity
  8
0
 62
     0
370
    -2
100
AcDbLine
 10
219.37422605744
 20
1228.756008796692
 30
0.0
 11
811.8742260574396
 21
1228.756008796692
 31
0.0
  0
SOLID
  5
DEF
330
DDF
100
AcDbEntity
  8
0
 62
     0
100
AcDbTrace
 10
219.37422605744
 20
1229.172675463359
 30
0.0
 11
219.37422605744
 21
1228.339342130025
 31
0.0
 12
216.87422605744
 22
1228.756008796692
 32
0.0
 13
216.87422605744
 23
1228.756008796692
 33
0.0
  0
SOLID
  5
DF0
330
DDF
100
AcDbEntity
  8
0
 62
     0
100
AcDbTrace
 10
811.8742260574396
 20
1229.172675463359
 30
0.0
 11
811.8742260574396
 21
1228.339342130025
 31
0.0
 12
814.3742260574397
 22
1228.756008796692
 32
0.0
 13
814.3742260574397
 23
1228.756008796692
 33
0.0
  0
MTEXT
  5
DF1
330
DDF
100
AcDbEntity
  8
0
 62
     0
100
AcDbMText
 10
515.6242260574398
 20
1230.839342130025
 30
0.0
 40
2.5
 41
0.0
 71
     5
 72
     1
  1
597,5
 73
     1
 44
1.0
1001
ACAD
1000
MTEXTBEGIN
1070
    73
1070
     1
1070
    44
1040
1.0
1070
    74
1070
     0
1000
MTEXTEND
  0
POINT
  5
DF2
330
DDF
100
AcDbEntity
  8
Defpoints
 62
     0
100
AcDbPoint
 10
216.87422605744
 20
1076.206872775507
 30
0.0
  0
POINT
  5
DF3
330
DDF
100
AcDbEntity
  8
Defpoints
 62
     0
100
AcDbPoint
 10
814.3742260574397
 20
1076.206872775507
 30
0.0
  0
POINT
  5
DF4
330
DDF
100
AcDbEntity
  8
Defpoints
 62
     0
100
AcDbPoint
 10
814.3742260574397
 20
1228.756008796692
 30
0.0
  0
ENDBLK
  5
DEA
330
DDF
100
AcDbEntity
  8
0
100
AcDbBlockEnd
  0
BLOCK
  5
E01
330
DF7
100
AcDbEntity
  8
0
100
AcDbBlockBegin
  2
*D75
 70
     1
 10
0.0
 20
0.0
 30
0.0
  3
*D75
  1

  0
LINE
  5
E04
330
DF7
100
AcDbEntity
  8
0
 62
     0
370
    -2
100
AcDbLine
 10
725.0083910703206
 20
1127.206872775507
 30
0.0
 11
917.4124602972788
 21
1127.206872775507
 31
0.0
  0
LINE
  5
E05
330
DF7
100
AcDbEntity
  8
0
 62
     0
370
    -2
100
AcDbLine
 10
725.0083910703206
 20
1006.206872775507
 30
0.0
 11
917.4124602972788
 21
1006.206872775507
 31
0.0
  0
LINE
  5
E06
330
DF7
100
AcDbEntity
  8
0
 62
     0
370
    -2
100
AcDbLine
 10
916.1624602972787
 20
1124.706872775507
 30
0.0
 11
916.1624602972787
 21
1008.706872775507
 31
0.0
  0
SOLID
  5
E07
330
DF7
100
AcDbEntity
  8
0
 62
     0
100
AcDbTrace
 10
915.7457936306121
 20
1124.706872775507
 30
0.0
 11
916.5791269639454
 21
1124.706872775507
 31
0.0
 12
916.1624602972787
 22
1127.206872775507
 32
0.0
 13
916.1624602972787
 23
1127.206872775507
 33
0.0
  0
SOLID
  5
E08
330
DF7
100
AcDbEntity
  8
0
 62
     0
100
AcDbTrace
 10
915.7457936306121
 20
1008.706872775507
 30
0.0
 11
916.5791269639454
 21
1008.706872775507
 31
0.0
 12
916.1624602972787
 22
1006.206872775507
 32
0.0
 13
916.1624602972787
 23
1006.206872775507
 33
0.0
  0
MTEXT
  5
E09
330
DF7
100
AcDbEntity
  8
0
 62
     0
100
AcDbMText
 10
914.2874602972787
 20
1066.706872775507
 30
0.0
 40
2.5
 41
0.0
 71
     5
 72
     1
  1
121
 11
0.0000000000000001
 21
1.0
 31
0.0
 73
     1
 44
1.0
1001
ACAD
1000
MTEXTBEGIN
1070
    73
1070
     1
1070
    44
1040
1.0
1070
    74
1070
     0
1000
MTEXTEND
  0
POINT
  5
E0A
330
DF7
100
AcDbEntity
  8
Defpoints
 62
     0
100
AcDbPoint
 10
724.3833910703206
 20
1127.206872775507
 30
0.0
  0
POINT
  5
E0B
330
DF7
100
AcDbEntity
  8
Defpoints
 62
     0
100
AcDbPoint
 10
724.3833910703206
 20
1006.206872775507
 30
0.0
  0
POINT
  5
E0C
330
DF7
100
AcDbEntity
  8
Defpoints
 62
     0
100
AcDbPoint
 10
916.1624602972787
 20
1006.206872775507
 30
0.0
  0
ENDBLK
  5
E02
330
DF7
100
AcDbEntity
  8
0
100
AcDbBlockEnd
  0
ENDSEC
  0
SECTION
  2
ENTITIES
  0
LINE
  5
A58
330
1F
100
AcDbEntity
  8
1
 62
     7
370
    18
100
AcDbLine
 10
814.6242260574398
 20
1006.206872775507
 30
0.0
 11
534.6242260574398
 21
1006.206872775507
 31
0.0
  0
LINE
  5
A59
330
1F
100
AcDbEntity
  8
1
 62
     7
370
    18
100
AcDbLine
 10
496.6242260574397
 20
1006.206872775507
 30
0.0
 11
216.6242260574397
 21
1006.206872775507
 31
0.0
  0
LINE
  5
A5C
330
1F
100
AcDbEntity
  8
1
 62
     7
370
    18
100
AcDbLine
 10
814.6242260574398
 20
1006.206872775507
 30
0.0
 11
815.6242260574398
 21
1007.206872775507
 31
0.0
  0
LINE
  5
A5D
330
1F
100
AcDbEntity
  8
1
 62
     7
370
    18
100
AcDbLine
 10
534.6242260574398
 20
1006.206872775507
 30
0.0
 11
534.6242260574398
 21
1007.206872775507
 31
0.0
  0
LINE
  5
A5E
330
1F
100
AcDbEntity
  8
1
 62
     7
370
    18
100
AcDbLine
 10
215.6242260574397
 20
1007.206872775507
 30
0.0
 11
216.6242260574397
 21
1006.206872775507
 31
0.0
  0
LINE
  5
A5F
330
1F
100
AcDbEntity
  8
1
 62
     7
370
    18
100
AcDbLine
 10
496.6242260574397
 20
1007.206872775507
 30
0.0
 11
496.6242260574397
 21
1006.206872775507
 31
0.0
  0
LINE
  5
A60
330
1F
100
AcDbEntity
  8
1
 62
     7
370
    18
100
AcDbLine
 10
217.6242260574397
 20
1127.206872775507
 30
0.0
 11
813.6242260574398
 21
1127.206872775507
 31
0.0
  0
LINE
  5
A61
330
1F
100
AcDbEntity
  8
1
 62
     7
370
    18
100
AcDbLine
 10
217.6242260574397
 20
1007.206872775507
 30
0.0
 11
812.3742260574399
 21
1007.206872775507
 31
0.0
  0
LINE
  5
A62
330
1F
100
AcDbEntity
  8
1
 62
     7
370
    18
100
AcDbLine
 10
815.6242260574398
 20
1125.206872775507
 30
0.0
 11
815.6242260574398
 21
1027.206872775507
 31
0.0
  0
LINE
  5
A63
330
1F
100
AcDbEntity
  8
1
 62
     7
370
    18
100
AcDbLine
 10
815.6242260574398
 20
1007.206872775507
 30
0.0
 11
812.3742260574399
 21
1007.206872775507
 31
0.0
  0
LINE
  5
A64
330
1F
100
AcDbEntity
  8
1
 62
     7
370
    18
100
AcDbLine
 10
215.6242260574397
 20
1125.206872775507
 30
0.0
 11
215.6242260574397
 21
1027.206872775507
 31
0.0
  0
LINE
  5
A65
330
1F
100
AcDbEntity
  8
1
 62
     7
370
    18
100
AcDbLine
 10
215.6242260574397
 20
1007.206872775507
 30
0.0
 11
217.6242260574397
 21
1007.206872775507
 31
0.0
  0
LINE
  5
A66
330
1F
100
AcDbEntity
  8
1
 62
     7
370
    18
100
AcDbLine
 10
815.6242260574398
 20
1027.706872775507
 30
0.0
 11
815.6242260574398
 21
1007.206872775507
 31
0.0
  0
LINE
  5
A67
330
1F
100
AcDbEntity
  8
1
 62
     7
370
    18
100
AcDbLine
 10
215.6242260574397
 20
1027.706872775507
 30
0.0
 11
215.6242260574397
 21
1007.206872775507
 31
0.0
  0
ARC
  5
A6C
330
1F
100
AcDbEntity
  8
1
 62
     7
370
    18
100
AcDbCircle
 10
217.6242260574397
 20
1125.206872775507
 30
0.0
 40
2.0
100
AcDbArc
 50
90.0
 51
180.0
  0
ARC
  5
A6D
330
1F
100
AcDbEntity
  8
1
 62
     7
370
    18
100
AcDbCircle
 10
-813.6242260574398
 20
1125.206872775507
 30
0.0
 40
2.0
210
0.0
220
0.0
230
-1.0
100
AcDbArc
 50
90.0
 51
180.0
  0
LINE
  5
A71
330
1F
100
AcDbEntity
  8
1
 62
     7
370
    18
100
AcDbLine
 10
1587.094063630115
 20
1007.206872775507
 30
0.0
 11
1587.094063630115
 21
1125.206872775507
 31
0.0
  0
LINE
  5
A72
330
1F
100
AcDbEntity
  8
1
 62
     7
370
    18
100
AcDbLine
 10
1585.094063630115
 20
1007.206872775507
 30
0.0
 11
1587.094063630115
 21
1007.206872775507
 31
0.0
  0
LINE
  5
A73
330
1F
100
AcDbEntity
  8
1
 62
     7
370
    18
100
AcDbLine
 10
1585.094063630115
 20
1127.206872775507
 30
0.0
 11
1087.098063630115
 21
1127.206872775507
 31
0.0
  0
LINE
  5
A75
330
1F
100
AcDbEntity
  8
1
 62
     7
370
    18
100
AcDbLine
 10
1272.130258630115
 20
1007.206872775507
 30
0.0
 11
1087.098063630115
 21
1007.206872775507
 31
0.0
  0
LINE
  5
A78
330
1F
100
AcDbEntity
  8
1
 62
     7
370
    18
100
AcDbLine
 10
1585.094063630115
 20
1007.206872775507
 30
0.0
 11
1553.130258630115
 21
1007.206872775507
 31
0.0
  0
ARC
  5
A7F
330
1F
100
AcDbEntity
  8
1
 62
     7
370
    18
100
AcDbCircle
 10
-1585.094063630115
 20
1125.206872775507
 30
0.0
 40
2.0
210
0.0
220
0.0
230
-1.0
100
AcDbArc
 50
90.0
 51
180.0
  0
LINE
  5
A8F
330
1F
100
AcDbEntity
  8
1
 62
     7
370
    18
100
AcDbLine
 10
777.6242260574401
 20
719.9473641009715
 30
0.0
 11
777.6242260574401
 21
362.9473641009715
 31
0.0
  0
LINE
  5
A93
330
1F
100
AcDbEntity
  8
1
 62
     7
370
    18
100
AcDbLine
 10
777.6242260574401
 20
362.9473641009715
 30
0.0
 11
253.6242260574399
 21
362.9473641009715
 31
0.0
  0
LINE
  5
A98
330
1F
100
AcDbEntity
  8
1
 62
     7
370
    18
100
AcDbLine
 10
253.6242260574399
 20
634.9427061009712
 30
0.0
 11
253.6242260574399
 21
362.9473641009715
 31
0.0
  0
LINE
  5
A9B
330
1F
100
AcDbEntity
  8
1
 62
     7
370
    18
100
AcDbLine
 10
388.43141205744
 20
719.9473641009715
 30
0.0
 11
545.123788057439
 21
719.9473641009715
 31
0.0
  0
LINE
  5
A9C
330
1F
100
AcDbEntity
  8
1
 62
     7
370
    18
100
AcDbLine
 10
545.123788057439
 20
719.9473641009715
 30
0.0
 11
777.6242260574401
 21
719.9473641009715
 31
0.0
  0
LINE
  5
AA6
330
1F
100
AcDbEntity
  8
1
 62
     7
370
    18
100
AcDbLine
 10
812.3742260574399
 20
339.9473641009715
 30
0.0
 11
218.87422605744
 21
339.9473641009715
 31
0.0
  0
LINE
  5
AA7
330
1F
100
AcDbEntity
  8
1
 62
     7
370
    18
100
AcDbLine
 10
775.6242260574397
 20
713.5095761009715
 30
0.0
 11
564.1223500574397
 21
713.5095761009715
 31
0.0
  0
LINE
  5
AA8
330
1F
100
AcDbEntity
  8
1
 62
     7
370
    18
100
AcDbLine
 10
545.1179760574397
 20
713.5095761009715
 30
0.0
 11
388.42735005744
 21
713.5095761009715
 31
0.0
  0
LINE
  5
AAC
330
1F
100
AcDbEntity
  8
1
 62
     7
370
    18
100
AcDbLine
 10
777.6242260574401
 20
362.9473641009715
 30
0.0
 11
770.6226630865745
 21
692.5647099423542
 31
0.0
  0
LINE
  5
AC1
330
1F
100
AcDbEntity
  8
1
 62
     7
370
    18
100
AcDbLine
 10
388.4312260574388
 20
692.4160281009715
 30
0.0
 11
545.1207260574392
 21
692.4160281009715
 31
0.0
  0
LINE
  5
AC2
330
1F
100
AcDbEntity
  8
1
 62
     7
370
    18
100
AcDbLine
 10
545.1207260574392
 20
692.4160281009715
 30
0.0
 11
770.5735199950528
 21
692.5646775404801
 31
0.0
  0
LINE
  5
AC3
330
1F
100
AcDbEntity
  8
1
 62
     7
370
    18
100
AcDbLine
 10
775.6242260574397
 20
713.5095761009715
 30
0.0
 11
564.1223500574397
 21
713.5095761009715
 31
0.0
  0
LINE
  5
AC4
330
1F
100
AcDbEntity
  8
1
 62
     7
370
    18
100
AcDbLine
 10
564.1223500574397
 20
713.5095761009715
 30
0.0
 11
388.42735005744
 21
713.5095761009715
 31
0.0
  0
LINE
  5
B13
330
1F
100
AcDbEntity
  8
1
 62
     7
370
    18
100
AcDbLine
 10
253.6242267174912
 20
719.947363419897
 30
0.0
 11
253.6242260574399
 21
362.9473641009715
 31
0.0
  0
LINE
  5
B15
330
1F
100
AcDbEntity
  8
1
 62
     7
370
    18
100
AcDbLine
 10
467.1296640574401
 20
719.9473641009715
 30
0.0
 11
253.6242260574399
 21
719.9473641009715
 31
0.0
  0
LINE
  5
B17
330
1F
100
AcDbEntity
  8
1
 62
     7
370
    18
100
AcDbLine
 10
255.6242260574399
 20
713.5095761009715
 30
0.0
 11
467.1261020574402
 21
713.5095761009715
 31
0.0
  0
LINE
  5
B19
330
1F
100
AcDbEntity
  8
1
 62
     7
370
    18
100
AcDbLine
 10
253.6242260574399
 20
362.9473641009715
 30
0.0
 11
260.62422605744
 21
690.1941921009715
 31
0.0
  0
LINE
  5
B1B
330
1F
100
AcDbEntity
  8
1
 62
     7
370
    18
100
AcDbLine
 10
467.12472605744
 20
692.4160281009715
 30
0.0
 11
260.6749321198271
 21
692.5646775404801
 31
0.0
  0
LINE
  5
B1C
330
1F
100
AcDbEntity
  8
1
 62
     7
370
    18
100
AcDbLine
 10
253.6242267055885
 20
713.5095761046692
 30
0.0
 11
467.1261020574402
 21
713.5095761009715
 31
0.0
  0
LWPOLYLINE
  5
B33
330
1F
100
AcDbEntity
  8
0
100
AcDbPolyline
 90
        4
 70
     1
 43
0.0
 10
450.6242260574397
 20
995.2068727755072
 10
580.6242260574397
 20
995.2068727755072
 10
580.6242260574397
 20
1007.206872775507
 10
450.6242260574397
 20
1007.206872775507
  0
LINE
  5
B34
330
1F
100
AcDbEntity
  8
0
100
AcDbLine
 10
1553.130258630115
 20
1007.206872775507
 30
0.0
 11
1272.130258630115
 21
1007.206872775507
 31
0.0
  0
LINE
  5
B35
330
1F
100
AcDbEntity
  8
0
100
AcDbLine
 10
1087.098063630115
 20
1127.206872775507
 30
0.0
 11
1087.098063630115
 21
1007.206872775507
 31
0.0
  0
LWPOLYLINE
  5
B36
330
1F
100
AcDbEntity
  8
0
100
AcDbPolyline
 90
        4
 70
     1
 43
0.0
 10
1151.098063630115
 20
995.2068727755072
 10
1281.098063630115
 20
995.2068727755072
 10
1281.098063630115
 20
1007.206872775507
 10
1151.098063630115
 20
1007.206872775507
  0
LINE
  5
C40
330
1F
100
AcDbEntity
  8
0
100
AcDbLine
 10
253.6242260574399
 20
719.9473641009715
 30
0.0
 11
260.62422605744
 21
690.1941921009715
 31
0.0
  0
LINE
  5
C41
330
1F
100
AcDbEntity
  8
0
100
AcDbLine
 10
770.6242260574397
 20
692.4160281009715
 30
0.0
 11
777.6242260574401
 21
719.9473641009715
 31
0.0
  0
LINE
  5
C42
330
1F
100
AcDbEntity
  8
0
100
AcDbLine
 10
777.6242260574401
 20
719.9473641009715
 30
0.0
 11
777.6242260574401
 21
719.9473641009715
 31
0.0
  0
ARC
  5
C67
330
1F
100
AcDbEntity
  8
Hewi
  6
Continuous
100
AcDbCircle
 10
515.62422605744
 20
759.9473641009715
 30
0.0
 40
17.50000000000001
100
AcDbArc
 50
270.0
 51
90.0
  0
ARC
  5
C68
330
1F
100
AcDbEntity
  8
Hewi
  6
Continuous
100
AcDbCircle
 10
515.62422605744
 20
759.9473641009715
 30
0.0
 40
17.50000000000001
100
AcDbArc
 50
90.0
 51
270.0
  0
LINE
  5
C69
330
1F
100
AcDbEntity
  8
Hewi
  6
Continuous
100
AcDbLine
 10
483.1242260574398
 20
759.9473641009715
 30
0.0
 11
548.1242260574398
 21
759.9473641009715
 31
0.0
  0
LINE
  5
C6A
330
1F
100
AcDbEntity
  8
Hewi
  6
Continuous
100
AcDbLine
 10
515.62422605744
 20
727.4473641009715
 30
0.0
 11
515.62422605744
 21
792.4473641009714
 31
0.0
  0
LWPOLYLINE
  5
CCC
330
1F
100
AcDbEntity
  8
0
100
AcDbPolyline
 90
        8
 70
     1
 43
0.0
 10
215.62422605744
 20
341.4473641009715
 42
0.4142135623730951
 10
217.12422605744
 20
339.9473641009715
 10
814.1242260574397
 20
339.9473641009715
 42
0.4142135623730951
 10
815.62422605744
 20
341.4473641009715
 10
815.62422605744
 20
838.4473641009716
 42
0.4142135623730951
 10
814.1242260574397
 20
839.9473641009715
 10
217.12422605744
 20
839.9473641009715
 42
0.4142135623730951
 10
215.62422605744
 20
838.4473641009716
  0
ENDSEC
  0
SECTION
  2
OBJECTS
  0
DICTIONARY
  5
C
330
0
100
AcDbDictionary
281
     1
  3
ACAD_COLOR
350
6B
  3
ACAD_GROUP
350
D
  3
ACAD_LAYOUT
350
1A
  3
ACAD_MATERIAL
350
6A
  3
ACAD_MLINESTYLE
350
17
  3
ACAD_PLOTSETTINGS
350
19
  3
ACAD_PLOTSTYLENAME
350
E
  3
ACAD_TABLESTYLE
350
7E
  3
ACAD_VISUALSTYLE
350
EF
  3
AcDbVariableDictionary
350
5E
  3
DWGPROPS
350
E1A
  0
DICTIONARY
  5
141
330
2
100
AcDbDictionary
280
     1
281
     1
  3
ACAD_LAYERSTATES
360
142
  0
DICTIONARY
  5
116
330
1F
100
AcDbDictionary
280
     1
281
     1
  3
ACAD_SORTENTS
360
117
  0
DICTIONARY
  5
6B
102
{ACAD_REACTORS
330
C
102
}
330
C
100
AcDbDictionary
281
     1
  0
DICTIONARY
  5
D
102
{ACAD_REACTORS
330
C
102
}
330
C
100
AcDbDictionary
281
     1
  0
DICTIONARY
  5
1A
102
{ACAD_REACTORS
330
C
102
}
330
C
100
AcDbDictionary
281
     1
  3
Layout1
350
D3
  3
Layout2
350
D7
  3
Model
350
22
  0
DICTIONARY
  5
6A
102
{ACAD_REACTORS
330
C
102
}
330
C
100
AcDbDictionary
281
     1
  3
ByBlock
350
ED
  3
ByLayer
350
EC
  3
Global
350
EE
  0
DICTIONARY
  5
17
102
{ACAD_REACTORS
330
C
102
}
330
C
100
AcDbDictionary
281
     1
  3
Standard
350
18
  0
DICTIONARY
  5
19
102
{ACAD_REACTORS
330
C
102
}
330
C
100
AcDbDictionary
281
     1
  0
ACDBDICTIONARYWDFLT
  5
E
102
{ACAD_REACTORS
330
C
102
}
330
C
100
AcDbDictionary
281
     1
  3
Normal
350
F
100
AcDbDictionaryWithDefault
340
F
  0
DICTIONARY
  5
7E
102
{ACAD_REACTORS
330
C
102
}
330
C
100
AcDbDictionary
281
     1
  3
Standard
350
7F
  0
DICTIONARY
  5
EF
102
{ACAD_REACTORS
330
C
102
}
330
C
100
AcDbDictionary
281
     1
  3
2dWireframe
350
F5
  3
3D Hidden
350
F7
  3
3dWireframe
350
F6
  3
Basic
350
F4
  3
Brighten
350
FB
  3
ColorChange
350
FF
  3
Conceptual
350
F8
  3
Dim
350
FA
  3
Facepattern
350
FE
  3
Flat
350
F0
  3
FlatWithEdges
350
F1
  3
Gouraud
350
F2
  3
GouraudWithEdges
350
F3
  3
Linepattern
350
FD
  3
Realistic
350
F9
  3
Thicken
350
FC
  0
DICTIONARY
  5
5E
102
{ACAD_REACTORS
330
C
102
}
330
C
100
AcDbDictionary
281
     1
  3
CTABLESTYLE
350
84
  3
DIMASSOC
350
5F
  3
HIDETEXT
350
63
  3
INDEXCTL
350
327
  3
PSOLHEIGHT
350
E19
  3
PSOLWIDTH
350
E18
  3
SORTENTS
350
326
  0
XRECORD
  5
E1A
102
{ACAD_REACTORS
330
C
102
}
330
C
100
AcDbXrecord
280
     1
  1
DWGPROPS COOKIE
  2

  3

  4

  6

  7

  8
kaschu
  9

300
=
301
=
302
=
303
=
304
=
305
=
306
=
307
=
308
=
309
=
 40
0.0378749421296296
 41
2454768.552548658
 42
2455740.391284282
  1

 90
        0
  0
DICTIONARY
  5
142
102
{ACAD_REACTORS
330
141
102
}
330
141
100
AcDbDictionary
281
     1
  0
SORTENTSTABLE
  5
117
102
{ACAD_REACTORS
330
116
102
}
330
116
100
AcDbSortentsTable
330
1F
331
B1C
  5
B34
331
C68
  5
C68
331
A5F
  5
A5F
331
AA6
  5
AA6
331
A5C
  5
A5C
331
B35
  5
B41
331
A65
  5
A65
331
AAC
  5
AAC
331
A62
  5
A62
331
C40
  5
C41
331
B19
  5
B1C
331
B13
  5
B16
331
A71
  5
A71
331
AC2
  5
AC2
331
A59
  5
A59
331
A58
  5
A58
331
A5E
  5
A5E
331
B1B
  5
B1D
331
C67
  5
C67
331
C6A
  5
C6A
331
A61
  5
A61
331
AA8
  5
AA8
331
AC1
  5
AC1
331
A67
  5
A67
331
B34
  5
B36
331
A64
  5
A64
331
A93
  5
A93
331
C42
  5
C5A
331
A6D
  5
A6D
331
A9C
  5
A9C
331
B15
  5
B18
331
A73
  5
A73
331
AC4
  5
AC4
331
A7F
  5
A7F
331
A78
  5
A78
331
C69
  5
C69
331
A63
  5
A63
331
A60
  5
A60
331
AA7
  5
AA7
331
A5D
  5
A5D
331
CCC
  5
CCC
331
C41
  5
C42
331
A8F
  5
A8F
331
AC3
  5
AC3
331
B36
  5
C40
331
A66
  5
A66
331
A6C
  5
A6C
331
B33
  5
B35
331
A72
  5
A72
331
A9B
  5
A9B
331
B17
  5
B1A
331
A75
  5
A75
331
A98
  5
A98
  0
LAYOUT
  5
D3
102
{ACAD_XDICTIONARY
360
E1F
102
}
102
{ACAD_REACTORS
330
1A
102
}
330
1A
100
AcDbPlotSettings
  1

  2
C:\Documents and Settings\basas\Application Data\Autodesk\AutoCAD 2005\R16.1\enu\plotters\Default Windows System Printer.pc3
  4

  6

 40
0.0
 41
0.0
 42
0.0
 43
0.0
 44
0.0
 45
0.0
 46
0.0
 47
0.0
 48
0.0
 49
0.0
140
0.0
141
0.0
142
1.0
143
1.0
 70
   688
 72
     0
 73
     0
 74
     5
  7

 75
    16
147
1.0
148
0.0
149
0.0
100
AcDbLayout
  1
Layout1
 70
     1
 71
     1
 10
0.0
 20
0.0
 11
12.0
 21
9.0
 12
0.0
 22
0.0
 32
0.0
 14
0.0
 24
0.0
 34
0.0
 15
0.0
 25
0.0
 35
0.0
146
0.0
 13
0.0
 23
0.0
 33
0.0
 16
1.0
 26
0.0
 36
0.0
 17
0.0
 27
1.0
 37
0.0
 76
     0
330
D2
  0
LAYOUT
  5
D7
102
{ACAD_XDICTIONARY
360
E21
102
}
102
{ACAD_REACTORS
330
1A
102
}
330
1A
100
AcDbPlotSettings
  1

  2
C:\Documents and Settings\basas\Application Data\Autodesk\AutoCAD 2005\R16.1\enu\plotters\Default Windows System Printer.pc3
  4

  6

 40
0.0
 41
0.0
 42
0.0
 43
0.0
 44
0.0
 45
0.0
 46
0.0
 47
0.0
 48
0.0
 49
0.0
140
0.0
141
0.0
142
1.0
143
1.0
 70
   688
 72
     0
 73
     0
 74
     5
  7

 75
    16
147
1.0
148
0.0
149
0.0
100
AcDbLayout
  1
Layout2
 70
     1
 71
     2
 10
0.0
 20
0.0
 11
12.0
 21
9.0
 12
0.0
 22
0.0
 32
0.0
 14
0.0
 24
0.0
 34
0.0
 15
0.0
 25
0.0
 35
0.0
146
0.0
 13
0.0
 23
0.0
 33
0.0
 16
1.0
 26
0.0
 36
0.0
 17
0.0
 27
1.0
 37
0.0
 76
     0
330
D6
  0
LAYOUT
  5
22
102
{ACAD_XDICTIONARY
360
E1B
102
}
102
{ACAD_REACTORS
330
1A
102
}
330
1A
100
AcDbPlotSettings
  1

  2
none_device
  4
ISO_A4_(210.00_x_297.00_MM)
  6

 40
7.5
 41
20.0
 42
7.5
 43
20.0
 44
210.0
 45
297.0
 46
11.54999923706054
 47
-13.65000009536743
 48
0.0
 49
0.0
140
0.0
141
0.0
142
1.0
143
8.704084754739808
 70
 11952
 72
     1
 73
     0
 74
     0
  7

 75
     0
147
0.1148885871608098
148
0.0
149
0.0
100
AcDbLayout
  1
Model
 70
     1
 71
     0
 10
0.0
 20
0.0
 11
12.0
 21
9.0
 12
0.0
 22
0.0
 32
0.0
 14
0.0
 24
0.0
 34
0.0
 15
0.0
 25
0.0
 35
0.0
146
0.0
 13
0.0
 23
0.0
 33
0.0
 16
1.0
 26
0.0
 36
0.0
 17
0.0
 27
1.0
 37
0.0
 76
     0
330
1F
331
EA
1001
ACAD_PSEXT
1000
None
1000
None
1000
Not applicable
1000
The layout will not be plotted unless a new plotter configuration name is selected.
1070
     0
  0
MATERIAL
  5
ED
102
{ACAD_XDICTIONARY
360
335
102
}
102
{ACAD_REACTORS
330
6A
102
}
330
6A
100
AcDbMaterial
  1
ByBlock
  0
MATERIAL
  5
EC
102
{ACAD_XDICTIONARY
360
333
102
}
102
{ACAD_REACTORS
330
6A
102
}
330
6A
100
AcDbMaterial
  1
ByLayer
  0
MATERIAL
  5
EE
102
{ACAD_XDICTIONARY
360
337
102
}
102
{ACAD_REACTORS
330
6A
102
}
330
6A
100
AcDbMaterial
  1
Global
  0
MLINESTYLE
  5
18
102
{ACAD_REACTORS
330
17
102
}
330
17
100
AcDbMlineStyle
  2
STANDARD
 70
     0
  3

 62
   256
 51
90.0
 52
90.0
 71
     2
 49
0.5
 62
   256
  6
BYLAYER
 49
-0.5
 62
   256
  6
BYLAYER
  0
ACDBPLACEHOLDER
  5
F
102
{ACAD_REACTORS
330
E
102
}
330
E
  0
TABLESTYLE
  5
7F
102
{ACAD_XDICTIONARY
360
E1D
102
}
102
{ACAD_REACTORS
330
7E
102
}
330
7E
100
AcDbTableStyle
  3
Standard
 70
     0
 71
     0
 40
1.5
 41
1.5
280
     0
281
     0
  7
Standard
140
4.5
170
     2
 62
     0
 63
     7
283
     0
274
    -2
284
     1
 64
     0
275
    -2
285
     1
 65
     0
276
    -2
286
     1
 66
     0
277
    -2
287
     1
 67
     0
278
    -2
288
     1
 68
     0
279
    -2
289
     1
 69
     0
  7
Standard
140
6.0
170
     5
 62
     0
 63
     7
283
     0
274
    -2
284
     1
 64
     0
275
    -2
285
     1
 65
     0
276
    -2
286
     1
 66
     0
277
    -2
287
     1
 67
     0
278
    -2
288
     1
 68
     0
279
    -2
289
     1
 69
     0
  7
Standard
140
4.5
170
     5
 62
     0
 63
     7
283
     0
274
    -2
284
     1
 64
     0
275
    -2
285
     1
 65
     0
276
    -2
286
     1
 66
     0
277
    -2
287
     1
 67
     0
278
    -2
288
     1
 68
     0
279
    -2
289
     1
 69
     0
  0
VISUALSTYLE
  5
F5
102
{ACAD_REACTORS
330
EF
102
}
330
EF
100
AcDbVisualStyle
  2
2dWireframe
 70
     4
 71
     0
 72
     2
 73
     1
 90
        0
 40
-0.6
 41
-30.0
 62
     5
 63
     7
 74
     1
 91
        4
 64
     7
 65
   257
 75
     1
175
     1
 42
1.0
 92
        0
 66
   257
 43
1.0
 76
     1
 77
     6
 78
     2
 67
     7
 79
     5
170
     0
171
     0
290
     0
174
     0
 93
        1
 44
0.0
173
     0
291
     0
 45
0.0
1001
ACAD
1000
AcDbSavedByObjectVersion
1070
     0
1000
AcDbSavedByObjectVersion
1070
     0
1000
AcDbSavedByObjectVersion
1070
     0
1000
AcDbSavedByObjectVersion
1070
     0
1000
AcDbSavedByObjectVersion
1070
     0
1000
AcDbSavedByObjectVersion
1070
     0
  0
VISUALSTYLE
  5
F7
102
{ACAD_REACTORS
330
EF
102
}
330
EF
100
AcDbVisualStyle
  2
3D Hidden
 70
     6
 71
     1
 72
     2
 73
     2
 90
        0
 40
-0.6
 41
-30.0
 62
     5
 63
     7
 74
     2
 91
        2
 64
     7
 65
   257
 75
     2
175
     1
 42
40.0
 92
        0
 66
   257
 43
1.0
 76
     1
 77
     6
 78
     2
 67
     7
 79
     3
170
     0
171
     0
290
     0
174
     0
 93
        1
 44
0.0
173
     0
291
     0
 45
0.0
1001
ACAD
1000
AcDbSavedByObjectVersion
1070
     0
1000
AcDbSavedByObjectVersion
1070
     0
1000
AcDbSavedByObjectVersion
1070
     0
1000
AcDbSavedByObjectVersion
1070
     0
1000
AcDbSavedByObjectVersion
1070
     0
1000
AcDbSavedByObjectVersion
1070
     0
  0
VISUALSTYLE
  5
F6
102
{ACAD_REACTORS
330
EF
102
}
330
EF
100
AcDbVisualStyle
  2
3dWireframe
 70
     5
 71
     0
 72
     2
 73
     1
 90
        0
 40
-0.6
 41
-30.0
 62
     5
 63
     7
 74
     1
 91
        4
 64
     7
 65
   257
 75
     1
175
     1
 42
1.0
 92
        0
 66
   257
 43
1.0
 76
     1
 77
     6
 78
     2
 67
     7
 79
     5
170
     0
171
     0
290
     0
174
     0
 93
        1
 44
0.0
173
     0
291
     0
 45
0.0
1001
ACAD
1000
AcDbSavedByObjectVersion
1070
     0
1000
AcDbSavedByObjectVersion
1070
     0
1000
AcDbSavedByObjectVersion
1070
     0
1000
AcDbSavedByObjectVersion
1070
     0
1000
AcDbSavedByObjectVersion
1070
     0
1000
AcDbSavedByObjectVersion
1070
     0
  0
VISUALSTYLE
  5
F4
102
{ACAD_REACTORS
330
EF
102
}
330
EF
100
AcDbVisualStyle
  2
Basic
 70
     7
 71
     1
 72
     0
 73
     1
 90
        0
 40
-0.6
 41
-30.0
 62
     5
 63
     7
 74
     0
 91
        4
 64
     7
 65
   257
 75
     1
175
     1
 42
1.0
 92
        8
 66
     7
 43
1.0
 76
     1
 77
     6
 78
     2
 67
     7
 79
     5
170
     0
171
     0
290
     0
174
     0
 93
        1
 44
0.0
173
     0
291
     1
 45
0.0
1001
ACAD
1000
AcDbSavedByObjectVersion
1070
     0
1000
AcDbSavedByObjectVersion
1070
     0
1000
AcDbSavedByObjectVersion
1070
     0
1000
AcDbSavedByObjectVersion
1070
     0
1000
AcDbSavedByObjectVersion
1070
     0
1000
AcDbSavedByObjectVersion
1070
     0
  0
VISUALSTYLE
  5
FB
102
{ACAD_REACTORS
330
EF
102
}
330
EF
100
AcDbVisualStyle
  2
Brighten
 70
    12
 71
     2
 72
     2
 73
     1
 90
        0
 40
-0.6
 41
-30.0
 62
     5
 63
     7
 74
     1
 91
        4
 64
     7
 65
   257
 75
     1
175
     1
 42
1.0
 92
        8
 66
     7
 43
1.0
 76
     1
 77
     6
 78
     2
 67
     7
 79
     5
170
     0
171
     0
290
     0
174
     0
 93
        1
 44
50.0
173
     0
291
     1
 45
0.0
1001
ACAD
1000
AcDbSavedByObjectVersion
1070
     0
1000
AcDbSavedByObjectVersion
1070
     0
1000
AcDbSavedByObjectVersion
1070
     0
1000
AcDbSavedByObjectVersion
1070
     0
1000
AcDbSavedByObjectVersion
1070
     0
1000
AcDbSavedByObjectVersion
1070
     0
  0
VISUALSTYLE
  5
FF
102
{ACAD_REACTORS
330
EF
102
}
330
EF
100
AcDbVisualStyle
  2
ColorChange
 70
    16
 71
     2
 72
     2
 73
     3
 90
        0
 40
-0.6
 41
-30.0
 62
     5
 63
     8
 74
     1
 91
        4
 64
     7
 65
   257
 75
     1
175
     1
 42
1.0
 92
        8
 66
     8
 43
1.0
 76
     1
 77
     6
 78
     2
 67
     7
 79
     5
170
     0
171
     0
290
     0
174
     0
 93
        1
 44
0.0
173
     0
291
     1
 45
0.0
1001
ACAD
1000
AcDbSavedByObjectVersion
1070
     0
1000
AcDbSavedByObjectVersion
1070
     0
1000
AcDbSavedByObjectVersion
1070
     0
1000
AcDbSavedByObjectVersion
1070
     0
1000
AcDbSavedByObjectVersion
1070
     0
1000
AcDbSavedByObjectVersion
1070
     0
  0
VISUALSTYLE
  5
F8
102
{ACAD_REACTORS
330
EF
102
}
330
EF
100
AcDbVisualStyle
  2
Conceptual
 70
     9
 71
     3
 72
     2
 73
     1
 90
        0
 40
-0.6
 41
-30.0
 62
     5
 63
     7
 74
     2
 91
        2
 64
     7
 65
   257
 75
     1
175
     1
 42
40.0
 92
        8
 66
     7
 43
1.0
 76
     1
 77
     6
 78
     2
 67
     7
 79
     3
170
     0
171
     0
290
     0
174
     0
 93
        1
 44
0.0
173
     0
291
     0
 45
0.0
1001
ACAD
1000
AcDbSavedByObjectVersion
1070
     0
1000
AcDbSavedByObjectVersion
1070
     0
1000
AcDbSavedByObjectVersion
1070
     0
1000
AcDbSavedByObjectVersion
1070
     0
1000
AcDbSavedByObjectVersion
1070
     0
1000
AcDbSavedByObjectVersion
1070
     0
  0
VISUALSTYLE
  5
FA
102
{ACAD_REACTORS
330
EF
102
}
330
EF
100
AcDbVisualStyle
  2
Dim
 70
    11
 71
     2
 72
     2
 73
     1
 90
        0
 40
-0.6
 41
-30.0
 62
     5
 63
     7
 74
     1
 91
        4
 64
     7
 65
   257
 75
     1
175
     1
 42
1.0
 92
        8
 66
     7
 43
1.0
 76
     1
 77
     6
 78
     2
 67
     7
 79
     5
170
     0
171
     0
290
     0
174
     0
 93
        1
 44
-50.0
173
     0
291
     1
 45
0.0
1001
ACAD
1000
AcDbSavedByObjectVersion
1070
     0
1000
AcDbSavedByObjectVersion
1070
     0
1000
AcDbSavedByObjectVersion
1070
     0
1000
AcDbSavedByObjectVersion
1070
     0
1000
AcDbSavedByObjectVersion
1070
     0
1000
AcDbSavedByObjectVersion
1070
     0
  0
VISUALSTYLE
  5
FE
102
{ACAD_REACTORS
330
EF
102
}
330
EF
100
AcDbVisualStyle
  2
Facepattern
 70
    15
 71
     2
 72
     2
 73
     1
 90
        0
 40
-0.6
 41
-30.0
 62
     5
 63
     7
 74
     1
 91
        4
 64
     7
 65
   257
 75
     1
175
     1
 42
1.0
 92
        8
 66
     7
 43
1.0
 76
     1
 77
     6
 78
     2
 67
     7
 79
     5
170
     0
171
     0
290
     0
174
     0
 93
        1
 44
0.0
173
     0
291
     1
 45
0.0
1001
ACAD
1000
AcDbSavedByObjectVersion
1070
     0
1000
AcDbSavedByObjectVersion
1070
     0
1000
AcDbSavedByObjectVersion
1070
     0
1000
AcDbSavedByObjectVersion
1070
     0
1000
AcDbSavedByObjectVersion
1070
     0
1000
AcDbSavedByObjectVersion
1070
     0
  0
VISUALSTYLE
  5
F0
102
{ACAD_REACTORS
330
EF
102
}
330
EF
100
AcDbVisualStyle
  2
Flat
 70
     0
 71
     2
 72
     1
 73
     1
 90
        2
 40
-0.6
 41
30.0
 62
     5
 63
     7
 74
     0
 91
        4
 64
     7
 65
   257
 75
     1
175
     1
 42
1.0
 92
        8
 66
     7
 43
1.0
 76
     1
 77
     6
 78
     2
 67
     7
 79
     5
170
     0
171
     0
290
     0
174
     0
 93
       13
 44
0.0
173
     0
291
     1
 45
0.0
1001
ACAD
1000
AcDbSavedByObjectVersion
1070
     0
1000
AcDbSavedByObjectVersion
1070
     0
1000
AcDbSavedByObjectVersion
1070
     0
1000
AcDbSavedByObjectVersion
1070
     0
1000
AcDbSavedByObjectVersion
1070
     0
1000
AcDbSavedByObjectVersion
1070
     0
  0
VISUALSTYLE
  5
F1
102
{ACAD_REACTORS
330
EF
102
}
330
EF
100
AcDbVisualStyle
  2
FlatWithEdges
 70
     1
 71
     2
 72
     1
 73
     1
 90
        2
 40
-0.6
 41
30.0
 62
     5
 63
     7
 74
     1
 91
        4
 64
     7
 65
   257
 75
     1
175
     1
 42
1.0
 92
        0
 66
   257
 43
1.0
 76
     1
 77
     6
 78
     2
 67
     7
 79
     5
170
     0
171
     0
290
     0
174
     0
 93
       13
 44
0.0
173
     0
291
     1
 45
0.0
1001
ACAD
1000
AcDbSavedByObjectVersion
1070
     0
1000
AcDbSavedByObjectVersion
1070
     0
1000
AcDbSavedByObjectVersion
1070
     0
1000
AcDbSavedByObjectVersion
1070
     0
1000
AcDbSavedByObjectVersion
1070
     0
1000
AcDbSavedByObjectVersion
1070
     0
  0
VISUALSTYLE
  5
F2
102
{ACAD_REACTORS
330
EF
102
}
330
EF
100
AcDbVisualStyle
  2
Gouraud
 70
     2
 71
     2
 72
     2
 73
     1
 90
        2
 40
-0.6
 41
30.0
 62
     5
 63
     7
 74
     0
 91
        4
 64
     7
 65
   257
 75
     1
175
     1
 42
1.0
 92
        0
 66
     7
 43
1.0
 76
     1
 77
     6
 78
     2
 67
     7
 79
     5
170
     0
171
     0
290
     0
174
     0
 93
       13
 44
0.0
173
     0
291
     1
 45
0.0
1001
ACAD
1000
AcDbSavedByObjectVersion
1070
     0
1000
AcDbSavedByObjectVersion
1070
     0
1000
AcDbSavedByObjectVersion
1070
     0
1000
AcDbSavedByObjectVersion
1070
     0
1000
AcDbSavedByObjectVersion
1070
     0
1000
AcDbSavedByObjectVersion
1070
     0
  0
VISUALSTYLE
  5
F3
102
{ACAD_REACTORS
330
EF
102
}
330
EF
100
AcDbVisualStyle
  2
GouraudWithEdges
 70
     3
 71
     2
 72
     2
 73
     1
 90
        2
 40
-0.6
 41
30.0
 62
     5
 63
     7
 74
     1
 91
        4
 64
     7
 65
   257
 75
     1
175
     1
 42
1.0
 92
        0
 66
   257
 43
1.0
 76
     1
 77
     6
 78
     2
 67
     7
 79
     5
170
     0
171
     0
290
     0
174
     0
 93
       13
 44
0.0
173
     0
291
     1
 45
0.0
1001
ACAD
1000
AcDbSavedByObjectVersion
1070
     0
1000
AcDbSavedByObjectVersion
1070
     0
1000
AcDbSavedByObjectVersion
1070
     0
1000
AcDbSavedByObjectVersion
1070
     0
1000
AcDbSavedByObjectVersion
1070
     0
1000
AcDbSavedByObjectVersion
1070
     0
  0
VISUALSTYLE
  5
FD
102
{ACAD_REACTORS
330
EF
102
}
330
EF
100
AcDbVisualStyle
  2
Linepattern
 70
    14
 71
     2
 72
     2
 73
     1
 90
        0
 40
-0.6
 41
-30.0
 62
     5
 63
     7
 74
     1
 91
        4
 64
     7
 65
   257
 75
     7
175
     7
 42
1.0
 92
        8
 66
     7
 43
1.0
 76
     1
 77
     6
 78
     2
 67
     7
 79
     5
170
     0
171
     0
290
     0
174
     0
 93
        1
 44
0.0
173
     0
291
     1
 45
0.0
1001
ACAD
1000
AcDbSavedByObjectVersion
1070
     0
1000
AcDbSavedByObjectVersion
1070
     0
1000
AcDbSavedByObjectVersion
1070
     0
1000
AcDbSavedByObjectVersion
1070
     0
1000
AcDbSavedByObjectVersion
1070
     0
1000
AcDbSavedByObjectVersion
1070
     0
  0
VISUALSTYLE
  5
F9
102
{ACAD_REACTORS
330
EF
102
}
330
EF
100
AcDbVisualStyle
  2
Realistic
 70
     8
 71
     2
 72
     2
 73
     1
 90
        0
 40
-0.6
 41
-30.0
 62
     5
 63
     7
 74
     1
 91
        0
 64
     7
 65
   257
 75
     1
175
     1
 42
1.0
 92
        8
 66
     8
 43
1.0
 76
     1
 77
     6
 78
     2
 67
     7
 79
     5
170
     0
171
     0
290
     0
174
     0
 93
       13
 44
0.0
173
     0
291
     0
 45
0.0
1001
ACAD
1000
AcDbSavedByObjectVersion
1070
     0
1000
AcDbSavedByObjectVersion
1070
     0
1000
AcDbSavedByObjectVersion
1070
     0
1000
AcDbSavedByObjectVersion
1070
     0
1000
AcDbSavedByObjectVersion
1070
     0
1000
AcDbSavedByObjectVersion
1070
     0
  0
VISUALSTYLE
  5
FC
102
{ACAD_REACTORS
330
EF
102
}
330
EF
100
AcDbVisualStyle
  2
Thicken
 70
    13
 71
     2
 72
     2
 73
     1
 90
        0
 40
-0.6
 41
-30.0
 62
     5
 63
     7
 74
     1
 91
        4
 64
     7
 65
   257
 75
     1
175
     1
 42
1.0
 92
       12
 66
     7
 43
1.0
 76
     1
 77
     6
 78
     2
 67
     7
 79
     5
170
     0
171
     0
290
     0
174
     0
 93
        1
 44
0.0
173
     0
291
     1
 45
0.0
1001
ACAD
1000
AcDbSavedByObjectVersion
1070
     0
1000
AcDbSavedByObjectVersion
1070
     0
1000
AcDbSavedByObjectVersion
1070
     0
1000
AcDbSavedByObjectVersion
1070
     0
1000
AcDbSavedByObjectVersion
1070
     0
1000
AcDbSavedByObjectVersion
1070
     0
  0
DICTIONARYVAR
  5
84
102
{ACAD_REACTORS
330
5E
102
}
330
5E
100
DictionaryVariables
280
     0
  1
STANDARD
  0
DICTIONARYVAR
  5
5F
102
{ACAD_REACTORS
330
5E
102
}
330
5E
100
DictionaryVariables
280
     0
  1
2
  0
DICTIONARYVAR
  5
63
102
{ACAD_REACTORS
330
5E
102
}
330
5E
100
DictionaryVariables
280
     0
  1
1
  0
DICTIONARYVAR
  5
327
102
{ACAD_REACTORS
330
5E
102
}
330
5E
100
DictionaryVariables
280
     0
  1
0
  0
DICTIONARYVAR
  5
E19
102
{ACAD_REACTORS
330
5E
102
}
330
5E
100
DictionaryVariables
280
     0
  1
80.000000
  0
DICTIONARYVAR
  5
E18
102
{ACAD_REACTORS
330
5E
102
}
330
5E
100
DictionaryVariables
280
     0
  1
5.000000
  0
DICTIONARYVAR
  5
326
102
{ACAD_REACTORS
330
5E
102
}
330
5E
100
DictionaryVariables
280
     0
  1
127
  0
DICTIONARY
  5
E1F
330
D3
100
AcDbDictionary
280
     1
281
     1
  3
ACAD_XREC_ROUNDTRIP
360
E20
  0
DICTIONARY
  5
E21
330
D7
100
AcDbDictionary
280
     1
281
     1
  3
ACAD_XREC_ROUNDTRIP
360
E22
  0
DICTIONARY
  5
E1B
330
22
100
AcDbDictionary
280
     1
281
     1
  3
ACAD_XREC_ROUNDTRIP
360
E1C
  0
DICTIONARY
  5
335
330
ED
100
AcDbDictionary
280
     1
281
     1
  3
ACAD_XREC_ROUNDTRIP
360
336
  0
DICTIONARY
  5
333
330
EC
100
AcDbDictionary
280
     1
281
     1
  3
ACAD_XREC_ROUNDTRIP
360
334
  0
DICTIONARY
  5
337
330
EE
100
AcDbDictionary
280
     1
281
     1
  3
ACAD_XREC_ROUNDTRIP
360
338
  0
DICTIONARY
  5
E1D
330
7F
100
AcDbDictionary
280
     1
281
     1
  3
ACAD_XREC_ROUNDTRIP
360
E1E
  0
XRECORD
  5
E20
102
{ACAD_REACTORS
330
E1F
102
}
330
E1F
100
AcDbXrecord
280
     1
102
SHADEPLOT
 70
     0
102
SHADEPLOTRESLEVEL
 70
     2
102
SHADEPLOTCUSTOMDPI
 70
   300
  0
XRECORD
  5
E22
102
{ACAD_REACTORS
330
E21
102
}
330
E21
100
AcDbXrecord
280
     1
102
SHADEPLOT
 70
     0
102
SHADEPLOTRESLEVEL
 70
     2
102
SHADEPLOTCUSTOMDPI
 70
   300
  0
XRECORD
  5
E1C
102
{ACAD_REACTORS
330
E1B
102
}
330
E1B
100
AcDbXrecord
280
     1
102
SHADEPLOT
 70
     0
102
SHADEPLOTRESLEVEL
 70
     2
102
SHADEPLOTCUSTOMDPI
 70
   300
  0
XRECORD
  5
336
102
{ACAD_REACTORS
330
335
102
}
330
335
100
AcDbXrecord
280
     1
102
MATERIAL
148
0.0
149
0.0
149
0.0
 93
        0
 94
       63
282
     0
 72
     1
 77
     1
171
     1
175
     1
179
     1
273
     0
  0
XRECORD
  5
334
102
{ACAD_REACTORS
330
333
102
}
330
333
100
AcDbXrecord
280
     1
102
MATERIAL
148
0.0
149
0.0
149
0.0
 93
        0
 94
       63
282
     0
 72
     1
 77
     1
171
     1
175
     1
179
     1
273
     0
  0
XRECORD
  5
338
102
{ACAD_REACTORS
330
337
102
}
330
337
100
AcDbXrecord
280
     1
102
MATERIAL
148
0.0
149
0.0
149
0.0
 93
        0
 94
       63
282
     0
 72
     1
 77
     1
171
     1
175
     1
179
     1
273
     0
  0
XRECORD
  5
E1E
102
{ACAD_REACTORS
330
E1D
102
}
330
E1D
100
AcDbXrecord
280
     1
102
ACAD_ROUNDTRIP_PRE2007_TABLESTYLE
 90
      512
 91
        0
  1

 92
      512
 93
        0
  2

 94
      512
 95
        0
  3

  0
ENDSEC
  0
EOF
