  0
SECTION
  2
HEADER
  9
$ACADVER
  1
AC1024
  9
$ACADMAINTVER
 70
   205
  9
$DWGCODEPAGE
  3
ANSI_1252
  9
$LASTSAVEDBY
  1
kaschu
  9
$INSBASE
 10
0.0
 20
0.0
 30
0.0
  9
$EXTMIN
 10
446.7978990323855
 20
-436.4912251262292
 30
0.0
  9
$EXTMAX
 10
2106.658671179688
 20
732.794222689781
 30
0.0
  9
$LIMMIN
 10
-0.5
 20
-0.5
  9
$LIMMAX
 10
5.0
 20
5.0
  9
$ORTHOMODE
 70
     1
  9
$REGENMODE
 70
     1
  9
$FILLMODE
 70
     1
  9
$QTEXTMODE
 70
     0
  9
$MIRRTEXT
 70
     1
  9
$LTSCALE
 40
1.0
  9
$ATTMODE
 70
     1
  9
$TEXTSIZE
 40
0.2
  9
$TRACEWID
 40
0.05
  9
$TEXTSTYLE
  7
Standard
  9
$CLAYER
  8
0
  9
$CELTYPE
  6
BYLAYER
  9
$CECOLOR
 62
   256
  9
$CELTSCALE
 40
1.0
  9
$DISPSILH
 70
     0
  9
$DIMSCALE
 40
1.0
  9
$DIMASZ
 40
0.18
  9
$DIMEXO
 40
0.0625
  9
$DIMDLI
 40
0.38
  9
$DIMRND
 40
0.0
  9
$DIMDLE
 40
0.0
  9
$DIMEXE
 40
0.18
  9
$DIMTP
 40
0.0
  9
$DIMTM
 40
0.0
  9
$DIMTXT
 40
0.18
  9
$DIMCEN
 40
0.09
  9
$DIMTSZ
 40
0.0
  9
$DIMTOL
 70
     0
  9
$DIMLIM
 70
     0
  9
$DIMTIH
 70
     1
  9
$DIMTOH
 70
     1
  9
$DIMSE1
 70
     0
  9
$DIMSE2
 70
     0
  9
$DIMTAD
 70
     0
  9
$DIMZIN
 70
     0
  9
$DIMBLK
  1

  9
$DIMASO
 70
     1
  9
$DIMSHO
 70
     1
  9
$DIMPOST
  1

  9
$DIMAPOST
  1

  9
$DIMALT
 70
     0
  9
$DIMALTD
 70
     2
  9
$DIMALTF
 40
25.4
  9
$DIMLFAC
 40
1.0
  9
$DIMTOFL
 70
     0
  9
$DIMTVP
 40
0.0
  9
$DIMTIX
 70
     0
  9
$DIMSOXD
 70
     0
  9
$DIMSAH
 70
     0
  9
$DIMBLK1
  1

  9
$DIMBLK2
  1

  9
$DIMSTYLE
  2
Standard
  9
$DIMCLRD
 70
     0
  9
$DIMCLRE
 70
     0
  9
$DIMCLRT
 70
     0
  9
$DIMTFAC
 40
1.0
  9
$DIMGAP
 40
0.09
  9
$DIMJUST
 70
     0
  9
$DIMSD1
 70
     0
  9
$DIMSD2
 70
     0
  9
$DIMTOLJ
 70
     1
  9
$DIMTZIN
 70
     0
  9
$DIMALTZ
 70
     0
  9
$DIMALTTZ
 70
     0
  9
$DIMUPT
 70
     0
  9
$DIMDEC
 70
     4
  9
$DIMTDEC
 70
     4
  9
$DIMALTU
 70
     2
  9
$DIMALTTD
 70
     2
  9
$DIMTXSTY
  7
Standard
  9
$DIMAUNIT
 70
     0
  9
$DIMADEC
 70
     0
  9
$DIMALTRND
 40
0.0
  9
$DIMAZIN
 70
     0
  9
$DIMDSEP
 70
    46
  9
$DIMATFIT
 70
     3
  9
$DIMFRAC
 70
     0
  9
$DIMLDRBLK
  1

  9
$DIMLUNIT
 70
     2
  9
$DIMLWD
 70
    -2
  9
$DIMLWE
 70
    -2
  9
$DIMTMOVE
 70
     0
  9
$DIMFXL
 40
1.0
  9
$DIMFXLON
 70
     0
  9
$DIMJOGANG
 40
0.7853981633974483
  9
$DIMTFILL
 70
     0
  9
$DIMTFILLCLR
 70
     0
  9
$DIMARCSYM
 70
     0
  9
$DIMLTYPE
  6

  9
$DIMLTEX1
  6

  9
$DIMLTEX2
  6

  9
$DIMTXTDIRECTION
 70
     0
  9
$LUNITS
 70
     2
  9
$LUPREC
 70
     4
  9
$SKETCHINC
 40
0.1
  9
$FILLETRAD
 40
0.5
  9
$AUNITS
 70
     0
  9
$AUPREC
 70
     0
  9
$MENU
  1
.
  9
$ELEVATION
 40
0.0
  9
$PELEVATION
 40
0.0
  9
$THICKNESS
 40
0.0
  9
$LIMCHECK
 70
     0
  9
$CHAMFERA
 40
0.5
  9
$CHAMFERB
 40
0.5
  9
$CHAMFERC
 40
1.0
  9
$CHAMFERD
 40
0.0
  9
$SKPOLY
 70
     0
  9
$TDCREATE
 40
2457709.601483252
  9
$TDUCREATE
 40
2457709.559816586
  9
$TDUPDATE
 40
2458513.525184167
  9
$TDUUPDATE
 40
2458513.483517500
  9
$TDINDWG
 40
0.0096617477
  9
$TDUSRTIMER
 40
0.0096617361
  9
$USRTIMER
 70
     1
  9
$ANGBASE
 50
0.0
  9
$ANGDIR
 70
     0
  9
$PDMODE
 70
     0
  9
$PDSIZE
 40
0.0
  9
$PLINEWID
 40
0.0
  9
$SPLFRAME
 70
     0
  9
$SPLINETYPE
 70
     6
  9
$SPLINESEGS
 70
     8
  9
$HANDSEED
  5
D85
  9
$SURFTAB1
 70
     6
  9
$SURFTAB2
 70
     6
  9
$SURFTYPE
 70
     6
  9
$SURFU
 70
     6
  9
$SURFV
 70
     6
  9
$UCSBASE
  2

  9
$UCSNAME
  2

  9
$UCSORG
 10
0.0
 20
0.0
 30
0.0
  9
$UCSXDIR
 10
1.0
 20
0.0
 30
0.0
  9
$UCSYDIR
 10
0.0
 20
1.0
 30
0.0
  9
$UCSORTHOREF
  2

  9
$UCSORTHOVIEW
 70
     0
  9
$UCSORGTOP
 10
0.0
 20
0.0
 30
0.0
  9
$UCSORGBOTTOM
 10
0.0
 20
0.0
 30
0.0
  9
$UCSORGLEFT
 10
0.0
 20
0.0
 30
0.0
  9
$UCSORGRIGHT
 10
0.0
 20
0.0
 30
0.0
  9
$UCSORGFRONT
 10
0.0
 20
0.0
 30
0.0
  9
$UCSORGBACK
 10
0.0
 20
0.0
 30
0.0
  9
$PUCSBASE
  2

  9
$PUCSNAME
  2

  9
$PUCSORG
 10
0.0
 20
0.0
 30
0.0
  9
$PUCSXDIR
 10
1.0
 20
0.0
 30
0.0
  9
$PUCSYDIR
 10
0.0
 20
1.0
 30
0.0
  9
$PUCSORTHOREF
  2

  9
$PUCSORTHOVIEW
 70
     0
  9
$PUCSORGTOP
 10
0.0
 20
0.0
 30
0.0
  9
$PUCSORGBOTTOM
 10
0.0
 20
0.0
 30
0.0
  9
$PUCSORGLEFT
 10
0.0
 20
0.0
 30
0.0
  9
$PUCSORGRIGHT
 10
0.0
 20
0.0
 30
0.0
  9
$PUCSORGFRONT
 10
0.0
 20
0.0
 30
0.0
  9
$PUCSORGBACK
 10
0.0
 20
0.0
 30
0.0
  9
$USERI1
 70
     0
  9
$USERI2
 70
     0
  9
$USERI3
 70
     0
  9
$USERI4
 70
     0
  9
$USERI5
 70
     0
  9
$USERR1
 40
0.0
  9
$USERR2
 40
0.0
  9
$USERR3
 40
0.0
  9
$USERR4
 40
0.0
  9
$USERR5
 40
0.0
  9
$WORLDVIEW
 70
     1
  9
$SHADEDGE
 70
     3
  9
$SHADEDIF
 70
    70
  9
$TILEMODE
 70
     1
  9
$MAXACTVP
 70
    64
  9
$PINSBASE
 10
0.0
 20
0.0
 30
0.0
  9
$PLIMCHECK
 70
     0
  9
$PEXTMIN
 10
-0.5
 20
-0.5
 30
-0.5
  9
$PEXTMAX
 10
5.0
 20
5.0
 30
5.0
  9
$PLIMMIN
 10
-0.5
 20
-0.5
  9
$PLIMMAX
 10
5.0
 20
5.0
  9
$UNITMODE
 70
     0
  9
$VISRETAIN
 70
     1
  9
$PLINEGEN
 70
     0
  9
$PSLTSCALE
 70
     1
  9
$TREEDEPTH
 70
  3020
  9
$CMLSTYLE
  2
Standard
  9
$CMLJUST
 70
     0
  9
$CMLSCALE
 40
1.0
  9
$PROXYGRAPHICS
 70
     1
  9
$MEASUREMENT
 70
     1
  9
$CELWEIGHT
370
    -1
  9
$ENDCAPS
280
     0
  9
$JOINSTYLE
280
     0
  9
$LWDISPLAY
290
     1
  9
$INSUNITS
 70
     4
  9
$HYPERLINKBASE
  1

  9
$STYLESHEET
  1

  9
$XEDIT
290
     1
  9
$CEPSNTYPE
380
     0
  9
$PSTYLEMODE
290
     1
  9
$FINGERPRINTGUID
  2
{74175944-70EF-49AE-8438-56A2C0BBBA13}
  9
$VERSIONGUID
  2
{FCA48E40-26E8-4322-BBC7-77463383A8C5}
  9
$EXTNAMES
290
     1
  9
$PSVPSCALE
 40
0.0
  9
$OLESTARTUP
290
     0
  9
$SORTENTS
280
   127
  9
$INDEXCTL
280
     0
  9
$HIDETEXT
280
     1
  9
$XCLIPFRAME
280
     0
  9
$HALOGAP
280
     0
  9
$OBSCOLOR
 70
   257
  9
$OBSLTYPE
280
     0
  9
$INTERSECTIONDISPLAY
280
     0
  9
$INTERSECTIONCOLOR
 70
   257
  9
$DIMASSOC
280
     2
  9
$PROJECTNAME
  1

  9
$CAMERADISPLAY
290
     0
  9
$LENSLENGTH
 40
50.0
  9
$CAMERAHEIGHT
 40
0.0
  9
$STEPSPERSEC
 40
2.0
  9
$STEPSIZE
 40
6.0
  9
$3DDWFPREC
 40
2.0
  9
$PSOLWIDTH
 40
0.25
  9
$PSOLHEIGHT
 40
4.0
  9
$LOFTANG1
 40
1.570796326794896
  9
$LOFTANG2
 40
1.570796326794896
  9
$LOFTMAG1
 40
0.0
  9
$LOFTMAG2
 40
0.0
  9
$LOFTPARAM
 70
     7
  9
$LOFTNORMALS
280
     1
  9
$LATITUDE
 40
37.795
  9
$LONGITUDE
 40
-122.394
  9
$NORTHDIRECTION
 40
0.0
  9
$TIMEZONE
 70
 -8000
  9
$LIGHTGLYPHDISPLAY
280
     1
  9
$TILEMODELIGHTSYNCH
280
     1
  9
$CMATERIAL
347
3C
  9
$SOLIDHIST
280
     0
  9
$SHOWHIST
280
     1
  9
$DWFFRAME
280
     2
  9
$DGNFRAME
280
     0
  9
$REALWORLDSCALE
290
     1
  9
$INTERFERECOLOR
 62
     1
  9
$INTERFEREOBJVS
345
33
  9
$INTERFEREVPVS
346
5C8
  9
$CSHADOW
280
     0
  9
$SHADOWPLANELOCATION
 40
0.0
  0
ENDSEC
  0
SECTION
  2
CLASSES
  0
CLASS
  1
ACDBDICTIONARYWDFLT
  2
AcDbDictionaryWithDefault
  3
ObjectDBX Classes
 90
        0
 91
        1
280
     0
281
     0
  0
CLASS
  1
VISUALSTYLE
  2
AcDbVisualStyle
  3
ObjectDBX Classes
 90
     4095
 91
       26
280
     0
281
     0
  0
CLASS
  1
MATERIAL
  2
AcDbMaterial
  3
ObjectDBX Classes
 90
     1153
 91
        3
280
     0
281
     0
  0
CLASS
  1
TABLESTYLE
  2
AcDbTableStyle
  3
ObjectDBX Classes
 90
     4095
 91
        1
280
     0
281
     0
  0
CLASS
  1
SCALE
  2
AcDbScale
  3
ObjectDBX Classes
 90
     1153
 91
       17
280
     0
281
     0
  0
CLASS
  1
MLEADERSTYLE
  2
AcDbMLeaderStyle
  3
ACDB_MLEADERSTYLE_CLASS
 90
     4095
 91
        1
280
     0
281
     0
  0
CLASS
  1
ACDBSECTIONVIEWSTYLE
  2
AcDbSectionViewStyle
  3
ObjectDBX Classes
 90
     1025
 91
        1
280
     0
281
     0
  0
CLASS
  1
ACDBDETAILVIEWSTYLE
  2
AcDbDetailViewStyle
  3
ObjectDBX Classes
 90
     1025
 91
        1
280
     0
281
     0
  0
CLASS
  1
DICTIONARYVAR
  2
AcDbDictionaryVar
  3
ObjectDBX Classes
 90
        0
 91
        9
280
     0
281
     0
  0
CLASS
  1
CELLSTYLEMAP
  2
AcDbCellStyleMap
  3
ObjectDBX Classes
 90
     1152
 91
        2
280
     0
281
     0
  0
CLASS
  1
SORTENTSTABLE
  2
AcDbSortentsTable
  3
ObjectDBX Classes
 90
        0
 91
        1
280
     0
281
     0
  0
CLASS
  1
DIMASSOC
  2
AcDbDimAssoc
  3
"AcDbDimAssoc|Product Desc:     AcDim ARX App For Dimension|Company:          Autodesk, Inc.|WEB Address:      www.autodesk.com"
 90
        0
 91
        5
280
     0
281
     0
  0
ENDSEC
  0
SECTION
  2
TABLES
  0
TABLE
  2
VPORT
  5
8
330
0
100
AcDbSymbolTable
 70
    17
  0
VPORT
  5
29
330
8
100
AcDbSymbolTableRecord
100
AcDbViewportTableRecord
  2
DUMMY
 70
     0
 10
0.0
 20
0.0
 11
1.0
 21
1.0
 12
10.429907
 22
4.5
 13
0.0
 23
0.0
 14
0.5
 24
0.5
 15
0.5
 25
0.5
 16
0.0
 26
0.0
 36
1.0
 17
0.0
 27
0.0
 37
0.0
 40
9.0
 41
1.972972999999999
 42
50.0
 43
0.0
 44
0.0
 50
0.0
 51
0.0
 71
     0
 72
   100
 73
     1
 74
     3
 75
     0
 76
     0
 77
     0
 78
     0
281
     0
 65
     1
110
0.0
120
0.0
130
0.0
111
1.0
121
0.0
131
0.0
112
0.0
122
1.0
132
0.0
 79
     0
146
0.0
348
2F
 60
     3
 61
     5
292
     1
282
     1
141
0.0
142
0.0
 63
   250
421
  3355443
  0
VPORT
  5
58E
330
8
100
AcDbSymbolTableRecord
100
AcDbViewportTableRecord
  2
*ACTIVE
 70
     0
 10
0.0
 20
0.0
 11
1.0
 21
1.0
 12
761.026910272305
 22
256.4914520511603
 13
0.0
 23
0.0
 14
0.5
 24
0.5
 15
0.5
 25
0.5
 16
0.0
 26
0.0
 36
1.0
 17
0.0
 27
0.0
 37
0.0
 40
1421.800264507365
 41
2.243466299862448
 42
50.0
 43
3169.233652
 44
-3169.233652
 50
0.0
 51
0.0
 71
     0
 72
   100
 73
     1
 74
     3
 75
     0
 76
     0
 77
     0
 78
     0
281
     0
 65
     1
110
0.0
120
0.0
130
0.0
111
1.0
121
0.0
131
0.0
112
0.0
122
1.0
132
0.0
 79
     0
146
0.0
348
2F
 60
     3
 61
     5
292
     1
282
     1
141
0.0
142
0.0
 63
   250
421
  3355443
1001
ACAD_NAV_VCDISPLAY
1070
     3
  0
VPORT
  5
58F
330
8
100
AcDbSymbolTableRecord
100
AcDbViewportTableRecord
  2
L1
 70
     0
 10
0.0
 20
0.0
 11
1.0
 21
1.0
 12
1005.386794
 22
565.0256419999998
 13
0.0
 23
0.0
 14
0.5
 24
0.5
 15
0.5
 25
0.5
 16
0.0
 26
0.0
 36
1.0
 17
0.0
 27
0.0
 37
0.0
 40
254.0
 41
0.069908
 42
50.0
 43
3169.233652
 44
-3169.233652
 50
0.0
 51
0.0
 71
     0
 72
   100
 73
     1
 74
     3
 75
     0
 76
     0
 77
     0
 78
     0
281
     0
 65
     1
110
0.0
120
0.0
130
0.0
111
1.0
121
0.0
131
0.0
112
0.0
122
1.0
132
0.0
 79
     0
146
0.0
348
2F
 60
     3
 61
     5
292
     1
282
     1
141
0.0
142
0.0
 63
   250
421
  3355443
  0
VPORT
  5
590
330
8
100
AcDbSymbolTableRecord
100
AcDbViewportTableRecord
  2
L2
 70
     0
 10
0.0
 20
0.0
 11
0.5
 21
1.0
 12
0.0
 22
0.0
 13
0.0
 23
0.0
 14
0.5
 24
0.5
 15
0.5
 25
0.5
 16
0.0
 26
-1.0
 36
0.0
 17
0.0
 27
0.0
 37
0.0
 40
1319.822715
 41
0.013454
 42
50.0
 43
672.020833
 44
-672.020833
 50
0.0
 51
0.0
 71
     0
 72
   100
 73
     1
 74
     3
 75
     0
 76
     0
 77
     0
 78
     0
281
     0
 65
     1
110
0.0
120
0.0
130
0.0
111
1.0
121
0.0
131
0.0
112
0.0
122
1.0
132
0.0
 79
     0
146
0.0
348
2F
 60
     3
 61
     5
292
     1
282
     1
141
0.0
142
0.0
 63
   250
421
  3355443
  0
VPORT
  5
591
330
8
100
AcDbSymbolTableRecord
100
AcDbViewportTableRecord
  2
L2
 70
     0
 10
0.5
 20
0.0
 11
1.0
 21
1.0
 12
0.0
 22
0.0
 13
0.0
 23
0.0
 14
0.5
 24
0.5
 15
0.5
 25
0.5
 16
1.0
 26
0.0
 36
0.0
 17
0.0
 27
0.0
 37
0.0
 40
1319.822715
 41
0.013454
 42
50.0
 43
672.020833
 44
-672.020833
 50
0.0
 51
0.0
 71
     0
 72
   100
 73
     1
 74
     3
 75
     0
 76
     0
 77
     0
 78
     0
281
     0
 65
     1
110
0.0
120
0.0
130
0.0
111
1.0
121
0.0
131
0.0
112
0.0
122
1.0
132
0.0
 79
     0
146
0.0
348
2F
 60
     3
 61
     5
292
     1
282
     1
141
0.0
142
0.0
 63
   250
421
  3355443
  0
VPORT
  5
592
330
8
100
AcDbSymbolTableRecord
100
AcDbViewportTableRecord
  2
L3
 70
     0
 10
0.0
 20
0.5
 11
1.0
 21
1.0
 12
1005.386794
 22
565.0256419999998
 13
0.0
 23
0.0
 14
0.5
 24
0.5
 15
0.5
 25
0.5
 16
0.0
 26
0.0
 36
1.0
 17
0.0
 27
0.0
 37
0.0
 40
254.0
 41
0.069908
 42
50.0
 43
3169.233652
 44
-3169.233652
 50
0.0
 51
0.0
 71
     0
 72
   100
 73
     1
 74
     3
 75
     0
 76
     0
 77
     0
 78
     0
281
     0
 65
     1
110
0.0
120
0.0
130
0.0
111
1.0
121
0.0
131
0.0
112
0.0
122
1.0
132
0.0
 79
     0
146
0.0
348
2F
 60
     3
 61
     5
292
     1
282
     1
141
0.0
142
0.0
 63
   250
421
  3355443
  0
VPORT
  5
593
330
8
100
AcDbSymbolTableRecord
100
AcDbViewportTableRecord
  2
L3
 70
     0
 10
0.0
 20
0.0
 11
1.0
 21
0.5
 12
0.0
 22
0.0
 13
0.0
 23
0.0
 14
0.5
 24
0.5
 15
0.5
 25
0.5
 16
0.0
 26
-1.0
 36
0.0
 17
0.0
 27
0.0
 37
0.0
 40
1319.822715
 41
0.013454
 42
50.0
 43
672.020833
 44
-672.020833
 50
0.0
 51
0.0
 71
     0
 72
   100
 73
     1
 74
     3
 75
     0
 76
     0
 77
     0
 78
     0
281
     0
 65
     1
110
0.0
120
0.0
130
0.0
111
1.0
121
0.0
131
0.0
112
0.0
122
1.0
132
0.0
 79
     0
146
0.0
348
2F
 60
     3
 61
     5
292
     1
282
     1
141
0.0
142
0.0
 63
   250
421
  3355443
  0
VPORT
  5
594
330
8
100
AcDbSymbolTableRecord
100
AcDbViewportTableRecord
  2
L4
 70
     0
 10
0.0
 20
0.5
 11
0.5
 21
1.0
 12
1005.386794
 22
565.0256419999998
 13
0.0
 23
0.0
 14
0.5
 24
0.5
 15
0.5
 25
0.5
 16
0.0
 26
0.0
 36
1.0
 17
0.0
 27
0.0
 37
0.0
 40
254.0
 41
0.069908
 42
50.0
 43
3169.233652
 44
-3169.233652
 50
0.0
 51
0.0
 71
     0
 72
   100
 73
     1
 74
     3
 75
     0
 76
     0
 77
     0
 78
     0
281
     0
 65
     1
110
0.0
120
0.0
130
0.0
111
1.0
121
0.0
131
0.0
112
0.0
122
1.0
132
0.0
 79
     0
146
0.0
348
2F
 60
     3
 61
     5
292
     1
282
     1
141
0.0
142
0.0
 63
   250
421
  3355443
  0
VPORT
  5
595
330
8
100
AcDbSymbolTableRecord
100
AcDbViewportTableRecord
  2
L4
 70
     0
 10
0.0
 20
0.0
 11
0.5
 21
0.5
 12
0.0
 22
0.0
 13
0.0
 23
0.0
 14
0.5
 24
0.5
 15
0.5
 25
0.5
 16
0.0
 26
-1.0
 36
0.0
 17
0.0
 27
0.0
 37
0.0
 40
1319.822715
 41
0.013454
 42
50.0
 43
672.020833
 44
-672.020833
 50
0.0
 51
0.0
 71
     0
 72
   100
 73
     1
 74
     3
 75
     0
 76
     0
 77
     0
 78
     0
281
     0
 65
     1
110
0.0
120
0.0
130
0.0
111
1.0
121
0.0
131
0.0
112
0.0
122
1.0
132
0.0
 79
     0
146
0.0
348
2F
 60
     3
 61
     5
292
     1
282
     1
141
0.0
142
0.0
 63
   250
421
  3355443
  0
VPORT
  5
596
330
8
100
AcDbSymbolTableRecord
100
AcDbViewportTableRecord
  2
L4
 70
     0
 10
0.5
 20
0.0
 11
1.0
 21
0.5
 12
0.0
 22
0.0
 13
0.0
 23
0.0
 14
0.5
 24
0.5
 15
0.5
 25
0.5
 16
1.0
 26
0.0
 36
0.0
 17
0.0
 27
0.0
 37
0.0
 40
1319.822715
 41
0.013454
 42
50.0
 43
672.020833
 44
-672.020833
 50
0.0
 51
0.0
 71
     0
 72
   100
 73
     1
 74
     3
 75
     0
 76
     0
 77
     0
 78
     0
281
     0
 65
     1
110
0.0
120
0.0
130
0.0
111
1.0
121
0.0
131
0.0
112
0.0
122
1.0
132
0.0
 79
     0
146
0.0
348
2F
 60
     3
 61
     5
292
     1
282
     1
141
0.0
142
0.0
 63
   250
421
  3355443
  0
VPORT
  5
597
330
8
100
AcDbSymbolTableRecord
100
AcDbViewportTableRecord
  2
L4
 70
     0
 10
0.5
 20
0.5
 11
1.0
 21
1.0
 12
0.0
 22
0.0
 13
0.0
 23
0.0
 14
0.5
 24
0.5
 15
0.5
 25
0.5
 16
0.577350269189626
 26
-0.577350269189626
 36
0.577350269189626
 17
0.0
 27
0.0
 37
0.0
 40
1285.020866
 41
0.013818
 42
50.0
 43
667.141407
 44
-667.141407
 50
0.0
 51
0.0
 71
     0
 72
   100
 73
     1
 74
     3
 75
     0
 76
     0
 77
     0
 78
     0
281
     0
 65
     1
110
0.0
120
0.0
130
0.0
111
1.0
121
0.0
131
0.0
112
0.0
122
1.0
132
0.0
 79
     0
146
0.0
348
2F
 60
     3
 61
     5
292
     1
282
     1
141
0.0
142
0.0
 63
   250
421
  3355443
  0
VPORT
  5
598
330
8
100
AcDbSymbolTableRecord
100
AcDbViewportTableRecord
  2
L6
 70
     0
 10
0.0
 20
0.5
 11
0.333333
 21
1.0
 12
0.0
 22
0.0
 13
0.0
 23
0.0
 14
0.5
 24
0.5
 15
0.5
 25
0.5
 16
0.7188730927569435
 26
-0.5850486126764433
 36
0.3754192287502549
 17
0.0
 27
0.0
 37
0.0
 40
1357.434192
 41
0.013081
 42
50.0
 43
701.839477
 44
-701.839477
 50
0.0
 51
0.0
 71
     0
 72
   100
 73
     1
 74
     3
 75
     0
 76
     0
 77
     0
 78
     0
281
     0
 65
     1
110
0.0
120
0.0
130
0.0
111
1.0
121
0.0
131
0.0
112
0.0
122
1.0
132
0.0
 79
     0
146
0.0
348
2F
 60
     3
 61
     5
292
     1
282
     1
141
0.0
142
0.0
 63
   250
421
  3355443
  0
VPORT
  5
599
330
8
100
AcDbSymbolTableRecord
100
AcDbViewportTableRecord
  2
L6
 70
     0
 10
0.0
 20
0.0
 11
0.333333
 21
0.5
 12
0.0
 22
0.0
 13
0.0
 23
0.0
 14
0.5
 24
0.5
 15
0.5
 25
0.5
 16
-1.0
 26
0.0
 36
0.0
 17
0.0
 27
0.0
 37
0.0
 40
1319.822715
 41
0.013454
 42
50.0
 43
672.020833
 44
-672.020833
 50
0.0
 51
0.0
 71
     0
 72
   100
 73
     1
 74
     3
 75
     0
 76
     0
 77
     0
 78
     0
281
     0
 65
     1
110
0.0
120
0.0
130
0.0
111
1.0
121
0.0
131
0.0
112
0.0
122
1.0
132
0.0
 79
     0
146
0.0
348
2F
 60
     3
 61
     5
292
     1
282
     1
141
0.0
142
0.0
 63
   250
421
  3355443
  0
VPORT
  5
59A
330
8
100
AcDbSymbolTableRecord
100
AcDbViewportTableRecord
  2
L6
 70
     0
 10
0.333333
 20
0.5
 11
0.666667
 21
1.0
 12
1005.386794
 22
565.0256419999998
 13
0.0
 23
0.0
 14
0.5
 24
0.5
 15
0.5
 25
0.5
 16
0.0
 26
0.0
 36
1.0
 17
0.0
 27
0.0
 37
0.0
 40
254.0
 41
0.069908
 42
50.0
 43
3169.233652
 44
-3169.233652
 50
0.0
 51
0.0
 71
     0
 72
   100
 73
     1
 74
     3
 75
     0
 76
     0
 77
     0
 78
     0
281
     0
 65
     1
110
0.0
120
0.0
130
0.0
111
1.0
121
0.0
131
0.0
112
0.0
122
1.0
132
0.0
 79
     0
146
0.0
348
2F
 60
     3
 61
     5
292
     1
282
     1
141
0.0
142
0.0
 63
   250
421
  3355443
  0
VPORT
  5
59B
330
8
100
AcDbSymbolTableRecord
100
AcDbViewportTableRecord
  2
L6
 70
     0
 10
0.333333
 20
0.0
 11
0.666667
 21
0.5
 12
0.0
 22
0.0
 13
0.0
 23
0.0
 14
0.5
 24
0.5
 15
0.5
 25
0.5
 16
0.0
 26
-1.0
 36
0.0
 17
0.0
 27
0.0
 37
0.0
 40
1319.822715
 41
0.013454
 42
50.0
 43
672.020833
 44
-672.020833
 50
0.0
 51
0.0
 71
     0
 72
   100
 73
     1
 74
     3
 75
     0
 76
     0
 77
     0
 78
     0
281
     0
 65
     1
110
0.0
120
0.0
130
0.0
111
1.0
121
0.0
131
0.0
112
0.0
122
1.0
132
0.0
 79
     0
146
0.0
348
2F
 60
     3
 61
     5
292
     1
282
     1
141
0.0
142
0.0
 63
   250
421
  3355443
  0
VPORT
  5
59C
330
8
100
AcDbSymbolTableRecord
100
AcDbViewportTableRecord
  2
L6
 70
     0
 10
0.666667
 20
0.5
 11
1.0
 21
1.0
 12
0.0
 22
0.0
 13
0.0
 23
0.0
 14
0.5
 24
0.5
 15
0.5
 25
0.5
 16
0.577350269189626
 26
-0.577350269189626
 36
0.577350269189626
 17
0.0
 27
0.0
 37
0.0
 40
1285.020866
 41
0.013818
 42
50.0
 43
667.141407
 44
-667.141407
 50
0.0
 51
0.0
 71
     0
 72
   100
 73
     1
 74
     3
 75
     0
 76
     0
 77
     0
 78
     0
281
     0
 65
     1
110
0.0
120
0.0
130
0.0
111
1.0
121
0.0
131
0.0
112
0.0
122
1.0
132
0.0
 79
     0
146
0.0
348
2F
 60
     3
 61
     5
292
     1
282
     1
141
0.0
142
0.0
 63
   250
421
  3355443
  0
VPORT
  5
59D
330
8
100
AcDbSymbolTableRecord
100
AcDbViewportTableRecord
  2
L6
 70
     0
 10
0.666667
 20
0.0
 11
1.0
 21
0.5
 12
0.0
 22
0.0
 13
0.0
 23
0.0
 14
0.5
 24
0.5
 15
0.5
 25
0.5
 16
1.0
 26
0.0
 36
0.0
 17
0.0
 27
0.0
 37
0.0
 40
1319.822715
 41
0.013454
 42
50.0
 43
672.020833
 44
-672.020833
 50
0.0
 51
0.0
 71
     0
 72
   100
 73
     1
 74
     3
 75
     0
 76
     0
 77
     0
 78
     0
281
     0
 65
     1
110
0.0
120
0.0
130
0.0
111
1.0
121
0.0
131
0.0
112
0.0
122
1.0
132
0.0
 79
     0
146
0.0
348
2F
 60
     3
 61
     5
292
     1
282
     1
141
0.0
142
0.0
 63
   250
421
  3355443
  0
ENDTAB
  0
TABLE
  2
LTYPE
  5
5
330
0
100
AcDbSymbolTable
 70
     9
  0
LTYPE
  5
14
330
5
100
AcDbSymbolTableRecord
100
AcDbLinetypeTableRecord
  2
BYBLOCK
 70
     0
  3

 72
    65
 73
     0
 40
0.0
  0
LTYPE
  5
15
330
5
100
AcDbSymbolTableRecord
100
AcDbLinetypeTableRecord
  2
BYLAYER
 70
     0
  3

 72
    65
 73
     0
 40
0.0
  0
LTYPE
  5
16
330
5
100
AcDbSymbolTableRecord
100
AcDbLinetypeTableRecord
  2
CONTINUOUS
 70
     0
  3
Solid line
 72
    65
 73
     0
 40
0.0
  0
LTYPE
  5
3F
330
5
100
AcDbSymbolTableRecord
100
AcDbLinetypeTableRecord
  2
DASHED
 70
     0
  3
__ __ __ __ __ __ __ __ __
 72
    65
 73
     2
 40
25.72
 49
12.86
 74
     4
 75
     0
340
0
 46
0.0
 50
0.0
 44
0.0
 45
0.0
 49
-12.86
 74
     4
 75
     0
340
0
 46
0.0
 50
0.0
 44
0.0
 45
0.0
  0
LTYPE
  5
40
330
5
100
AcDbSymbolTableRecord
100
AcDbLinetypeTableRecord
  2
HIDDEN
 70
     0
  3
_ _ _ _ _ _ _ _ _ _ _ _ _ _ _
 72
    65
 73
     2
 40
0.5
 49
0.25
 74
     4
 75
     0
340
0
 46
0.0
 50
0.0
 44
0.0
 45
0.0
 49
-0.25
 74
     4
 75
     0
340
0
 46
0.0
 50
0.0
 44
0.0
 45
0.0
  0
LTYPE
  5
41
330
5
100
AcDbSymbolTableRecord
100
AcDbLinetypeTableRecord
  2
PHANTOM
 70
     0
  3
____ _ _ ____ _ _ _____ _ _ ____
 72
    65
 73
     6
 40
50.5
 49
18.0
 74
     4
 75
     0
340
0
 46
0.0
 50
0.0
 44
0.0
 45
0.0
 49
-6.5
 74
     4
 75
     0
340
0
 46
0.0
 50
0.0
 44
0.0
 45
0.0
 49
6.5
 74
     4
 75
     0
340
0
 46
0.0
 50
0.0
 44
0.0
 45
0.0
 49
-6.5
 74
     4
 75
     0
340
0
 46
0.0
 50
0.0
 44
0.0
 45
0.0
 49
6.5
 74
     4
 75
     0
340
0
 46
0.0
 50
0.0
 44
0.0
 45
0.0
 49
-6.5
 74
     4
 75
     0
340
0
 46
0.0
 50
0.0
 44
0.0
 45
0.0
  0
LTYPE
  5
42
330
5
100
AcDbSymbolTableRecord
100
AcDbLinetypeTableRecord
  2
CENTER
 70
     0
  3
____ _ ____ _ ____ _ ____
 72
    65
 73
     4
 40
47.4
 49
22.0
 74
     4
 75
     0
340
0
 46
0.0
 50
0.0
 44
0.0
 45
0.0
 49
-8.5
 74
     4
 75
     0
340
0
 46
0.0
 50
0.0
 44
0.0
 45
0.0
 49
8.5
 74
     4
 75
     0
340
0
 46
0.0
 50
0.0
 44
0.0
 45
0.0
 49
-8.5
 74
     4
 75
     0
340
0
 46
0.0
 50
0.0
 44
0.0
 45
0.0
  0
LTYPE
  5
43
330
5
100
AcDbSymbolTableRecord
100
AcDbLinetypeTableRecord
  2
DOT
 70
     0
  3
.........................
 72
    65
 73
     2
 40
10.0
 49
0.0
 74
     4
 75
     0
340
0
 46
0.0
 50
0.0
 44
0.0
 45
0.0
 49
-10.0
 74
     4
 75
     0
340
0
 46
0.0
 50
0.0
 44
0.0
 45
0.0
  0
LTYPE
  5
44
330
5
100
AcDbSymbolTableRecord
100
AcDbLinetypeTableRecord
  2
DASHDOT
 70
     0
  3
_._._._._._._._._._._._._._._._.
 72
    65
 73
     4
 40
70.0
 49
31.0
 74
     4
 75
     0
340
0
 46
0.0
 50
0.0
 44
0.0
 45
0.0
 49
-13.0
 74
     4
 75
     0
340
0
 46
0.0
 50
0.0
 44
0.0
 45
0.0
 49
13.0
 74
     4
 75
     0
340
0
 46
0.0
 50
0.0
 44
0.0
 45
0.0
 49
-13.0
 74
     4
 75
     0
340
0
 46
0.0
 50
0.0
 44
0.0
 45
0.0
  0
LTYPE
  5
6B1
330
5
100
AcDbSymbolTableRecord
100
AcDbLinetypeTableRecord
  2
CUSTOM
 70
     0
  3

 72
    65
 73
     0
 40
0.0
  0
ENDTAB
  0
TABLE
  2
LAYER
  5
2
102
{ACAD_XDICTIONARY
360
653
102
}
330
0
100
AcDbSymbolTable
 70
     4
  0
LAYER
  5
10
102
{ACAD_XDICTIONARY
360
5EE
102
}
330
2
100
AcDbSymbolTableRecord
100
AcDbLayerTableRecord
  2
0
 70
     0
 62
     7
  6
CONTINUOUS
370
    -3
390
F
347
3E
  0
LAYER
  5
46
102
{ACAD_XDICTIONARY
360
5F0
102
}
330
2
100
AcDbSymbolTableRecord
100
AcDbLayerTableRecord
  2
1
 70
     0
 62
     7
420
 16777215
  6
CONTINUOUS
370
    -3
390
F
347
3E
  0
LAYER
  5
64A
330
2
100
AcDbSymbolTableRecord
100
AcDbLayerTableRecord
  2
HEWI
 70
     0
 62
     7
  6
CONTINUOUS
370
     9
390
F
347
3E
1001
AcAecLayerStandard
1000

1000

1001
AcCmTransparency
1071
        0
  0
LAYER
  5
C46
330
2
100
AcDbSymbolTableRecord
100
AcDbLayerTableRecord
  2
Defpoints
 70
     0
 62
     7
  6
CONTINUOUS
290
     0
370
    -3
390
F
347
3E
  0
ENDTAB
  0
TABLE
  2
STYLE
  5
3
330
0
100
AcDbSymbolTable
 70
     1
  0
STYLE
  5
11
330
3
100
AcDbSymbolTableRecord
100
AcDbTextStyleTableRecord
  2
Standard
 70
     0
 40
0.0
 41
1.0
 50
0.0
 71
     0
 42
0.2
  3
txt
  4

  0
ENDTAB
  0
TABLE
  2
VIEW
  5
6
330
0
100
AcDbSymbolTable
 70
     1
  0
ENDTAB
  0
TABLE
  2
UCS
  5
7
330
0
100
AcDbSymbolTable
 70
     0
  0
ENDTAB
  0
TABLE
  2
APPID
  5
9
330
0
100
AcDbSymbolTable
 70
     7
  0
APPID
  5
12
330
9
100
AcDbSymbolTableRecord
100
AcDbRegAppTableRecord
  2
ACAD
 70
     0
  0
APPID
  5
5FC
330
9
100
AcDbSymbolTableRecord
100
AcDbRegAppTableRecord
  2
ACAD_NAV_VCDISPLAY
 70
     0
  0
APPID
  5
639
330
9
100
AcDbSymbolTableRecord
100
AcDbRegAppTableRecord
  2
ACAD_EXEMPT_FROM_CAD_STANDARDS
 70
     0
  0
APPID
  5
64B
330
9
100
AcDbSymbolTableRecord
100
AcDbRegAppTableRecord
  2
AcAecLayerStandard
 70
     0
  0
APPID
  5
64C
330
9
100
AcDbSymbolTableRecord
100
AcDbRegAppTableRecord
  2
AcCmTransparency
 70
     0
  0
APPID
  5
698
330
9
100
AcDbSymbolTableRecord
100
AcDbRegAppTableRecord
  2
ACAD_MLEADERVER
 70
     0
  0
APPID
  5
CB3
330
9
100
AcDbSymbolTableRecord
100
AcDbRegAppTableRecord
  2
ACAD_DSTYLE_DIMRADIAL_EXTENSION
 70
     0
  0
ENDTAB
  0
TABLE
  2
DIMSTYLE
  5
A
330
0
100
AcDbSymbolTable
 70
     3
100
AcDbDimStyleTable
 71
     1
340
27
  0
DIMSTYLE
105
27
330
A
100
AcDbSymbolTableRecord
100
AcDbDimStyleTableRecord
  2
Standard
 70
     0
340
11
  0
DIMSTYLE
105
6B2
330
A
100
AcDbSymbolTableRecord
100
AcDbDimStyleTableRecord
  2
ISO-25
 70
     0
 41
2.5
 42
0.625
 43
3.75
 44
1.25
 73
     0
 74
     0
 77
     1
 78
     8
140
2.5
141
2.5
143
0.03937007874016
147
0.625
171
     3
172
     1
271
     2
272
     2
274
     3
278
    44
283
     0
284
     8
340
11
  0
ENDTAB
  0
TABLE
  2
BLOCK_RECORD
  5
1
330
0
100
AcDbSymbolTable
 70
     8
  0
BLOCK_RECORD
  5
1F
102
{ACAD_XDICTIONARY
360
6A4
102
}
330
1
100
AcDbSymbolTableRecord
100
AcDbBlockTableRecord
  2
*Model_Space
340
22
 70
     0
280
     1
281
     0
  0
BLOCK_RECORD
  5
1B
330
1
100
AcDbSymbolTableRecord
100
AcDbBlockTableRecord
  2
*Paper_Space
340
1E
 70
     0
280
     1
281
     0
  0
BLOCK_RECORD
  5
23
330
1
100
AcDbSymbolTableRecord
100
AcDbBlockTableRecord
  2
*Paper_Space0
340
26
 70
     0
280
     1
281
     0
  0
BLOCK_RECORD
  5
C47
330
1
100
AcDbSymbolTableRecord
100
AcDbBlockTableRecord
  2
*D2
340
0
 70
     0
280
     1
281
     0
  0
BLOCK_RECORD
  5
C89
330
1
100
AcDbSymbolTableRecord
100
AcDbBlockTableRecord
  2
*D3
340
0
 70
     0
280
     1
281
     0
  0
BLOCK_RECORD
  5
CB5
330
1
100
AcDbSymbolTableRecord
100
AcDbBlockTableRecord
  2
*D5
340
0
 70
     0
280
     1
281
     0
  0
BLOCK_RECORD
  5
CD1
330
1
100
AcDbSymbolTableRecord
100
AcDbBlockTableRecord
  2
*D6
340
0
 70
     0
280
     1
281
     0
  0
BLOCK_RECORD
  5
CEC
330
1
100
AcDbSymbolTableRecord
100
AcDbBlockTableRecord
  2
*D7
340
0
 70
     0
280
     1
281
     0
  0
ENDTAB
  0
ENDSEC
  0
SECTION
  2
BLOCKS
  0
BLOCK
  5
20
330
1F
100
AcDbEntity
  8
0
100
AcDbBlockBegin
  2
*Model_Space
 70
     0
 10
0.0
 20
0.0
 30
0.0
  3
*Model_Space
  1

  0
ENDBLK
  5
21
330
1F
100
AcDbEntity
  8
0
100
AcDbBlockEnd
  0
BLOCK
  5
1C
330
1B
100
AcDbEntity
 67
     1
  8
0
100
AcDbBlockBegin
  2
*Paper_Space
 70
     0
 10
0.0
 20
0.0
 30
0.0
  3
*Paper_Space
  1

  0
ENDBLK
  5
1D
330
1B
100
AcDbEntity
 67
     1
  8
0
100
AcDbBlockEnd
  0
BLOCK
  5
24
330
23
100
AcDbEntity
 67
     1
  8
0
100
AcDbBlockBegin
  2
*Paper_Space0
 70
     0
 10
0.0
 20
0.0
 30
0.0
  3
*Paper_Space0
  1

  0
ENDBLK
  5
25
330
23
100
AcDbEntity
 67
     1
  8
0
100
AcDbBlockEnd
  0
BLOCK
  5
C48
330
C47
100
AcDbEntity
  8
0
100
AcDbBlockBegin
  2
*D2
 70
     1
 10
0.0
 20
0.0
 30
0.0
  3
*D2
  1

  0
LINE
  5
C7E
330
C47
100
AcDbEntity
  8
0
 62
     0
440
 16777216
370
    -2
100
AcDbLine
 10
1852.228771113763
 20
3.085184139418331
 30
0.0
 11
1928.142319104731
 21
3.085184139418309
 31
0.0
  0
LINE
  5
C7F
330
C47
100
AcDbEntity
  8
0
 62
     0
440
 16777216
370
    -2
100
AcDbLine
 10
1851.674615159655
 20
-108.4715550229926
 30
0.0
 11
1928.142319104731
 21
-108.4715550229926
 31
0.0
  0
LINE
  5
C80
330
C47
100
AcDbEntity
  8
0
 62
     0
440
 16777216
370
    -2
100
AcDbLine
 10
1927.962319104731
 20
2.905184139418309
 30
0.0
 11
1927.962319104731
 21
-47.60318544178715
 31
0.0
  0
LINE
  5
C81
330
C47
100
AcDbEntity
  8
0
 62
     0
440
 16777216
370
    -2
100
AcDbLine
 10
1927.962319104731
 20
-108.2915550229926
 30
0.0
 11
1927.962319104731
 21
-57.78318544178715
 31
0.0
  0
SOLID
  5
C82
330
C47
100
AcDbEntity
  8
0
 62
     0
440
 16777216
100
AcDbTrace
 10
1927.932319104731
 20
2.905184139418309
 30
0.0
 11
1927.992319104731
 21
2.905184139418309
 31
0.0
 12
1927.962319104731
 22
3.085184139418309
 32
0.0
 13
1927.962319104731
 23
3.085184139418309
 33
0.0
  0
SOLID
  5
C83
330
C47
100
AcDbEntity
  8
0
 62
     0
440
 16777216
100
AcDbTrace
 10
1927.932319104731
 20
-108.2915550229926
 30
0.0
 11
1927.992319104731
 21
-108.2915550229926
 31
0.0
 12
1927.962319104731
 22
-108.4715550229926
 32
0.0
 13
1927.962319104731
 23
-108.4715550229926
 33
0.0
  0
MTEXT
  5
C84
330
C47
100
AcDbEntity
  8
0
 62
     0
440
 16777216
100
AcDbMText
 10
1927.962319104731
 20
-52.69318544178684
 30
0.0
 40
10.0
 41
0.0
 46
0.0
 71
     5
 72
     1
  1
\A1;112
 73
     1
 44
1.0
  0
POINT
  5
C85
330
C47
100
AcDbEntity
  8
Defpoints
 62
     0
440
 16777216
100
AcDbPoint
 10
1852.166271113763
 20
3.085184139418331
 30
0.0
  0
POINT
  5
C86
330
C47
100
AcDbEntity
  8
Defpoints
 62
     0
440
 16777216
100
AcDbPoint
 10
1851.612115159656
 20
-108.4715550229926
 30
0.0
  0
POINT
  5
C87
330
C47
100
AcDbEntity
  8
Defpoints
 62
     0
440
 16777216
100
AcDbPoint
 10
1927.962319104731
 20
-108.4715550229926
 30
0.0
  0
ENDBLK
  5
C49
330
C47
100
AcDbEntity
  8
0
100
AcDbBlockEnd
  0
BLOCK
  5
C8A
330
C89
100
AcDbEntity
  8
0
100
AcDbBlockBegin
  2
*D3
 70
     1
 10
0.0
 20
0.0
 30
0.0
  3
*D3
  1

  0
LINE
  5
CA2
330
C89
100
AcDbEntity
  8
0
 62
     0
440
 16777216
370
    -2
100
AcDbLine
 10
1677.391253360876
 20
-52.37425308562587
 30
0.0
 11
1677.391253360876
 21
30.73407867232339
 31
0.0
  0
LINE
  5
CA3
330
C89
100
AcDbEntity
  8
0
 62
     0
440
 16777216
370
    -2
100
AcDbLine
 10
2028.896075890503
 20
-52.37425308562587
 30
0.0
 11
2028.896075890503
 21
30.73407867232339
 31
0.0
  0
LINE
  5
CA4
330
C89
100
AcDbEntity
  8
0
 62
     0
440
 16777216
370
    -2
100
AcDbLine
 10
1677.571253360876
 20
30.55407867232339
 30
0.0
 11
1839.720331292356
 21
30.55407867232339
 31
0.0
  0
LINE
  5
CA5
330
C89
100
AcDbEntity
  8
0
 62
     0
440
 16777216
370
    -2
100
AcDbLine
 10
2028.716075890503
 20
30.55407867232339
 30
0.0
 11
1866.566997959023
 21
30.55407867232339
 31
0.0
  0
SOLID
  5
CA6
330
C89
100
AcDbEntity
  8
0
 62
     0
440
 16777216
100
AcDbTrace
 10
1677.571253360876
 20
30.58407867232339
 30
0.0
 11
1677.571253360876
 21
30.52407867232338
 31
0.0
 12
1677.391253360876
 22
30.55407867232339
 32
0.0
 13
1677.391253360876
 23
30.55407867232339
 33
0.0
  0
SOLID
  5
CA7
330
C89
100
AcDbEntity
  8
0
 62
     0
440
 16777216
100
AcDbTrace
 10
2028.716075890503
 20
30.58407867232339
 30
0.0
 11
2028.716075890503
 21
30.52407867232338
 31
0.0
 12
2028.896075890503
 22
30.55407867232339
 32
0.0
 13
2028.896075890503
 23
30.55407867232339
 33
0.0
  0
MTEXT
  5
CA8
330
C89
100
AcDbEntity
  8
0
 62
     0
440
 16777216
100
AcDbMText
 10
1853.14366462569
 20
30.55407867232339
 30
0.0
 40
10.0
 41
0.0
 46
0.0
 71
     5
 72
     1
  1
\A1;352
 73
     1
 44
1.0
  0
POINT
  5
CA9
330
C89
100
AcDbEntity
  8
Defpoints
 62
     0
440
 16777216
100
AcDbPoint
 10
1677.391253360876
 20
-52.43675308562586
 30
0.0
  0
POINT
  5
CAA
330
C89
100
AcDbEntity
  8
Defpoints
 62
     0
440
 16777216
100
AcDbPoint
 10
2028.896075890503
 20
-52.43675308562586
 30
0.0
  0
POINT
  5
CAB
330
C89
100
AcDbEntity
  8
Defpoints
 62
     0
440
 16777216
100
AcDbPoint
 10
2028.896075890503
 20
30.55407867232339
 30
0.0
  0
ENDBLK
  5
C8B
330
C89
100
AcDbEntity
  8
0
100
AcDbBlockEnd
  0
BLOCK
  5
CB6
330
CB5
100
AcDbEntity
  8
0
100
AcDbBlockBegin
  2
*D5
 70
     1
 10
0.0
 20
0.0
 30
0.0
  3
*D5
  1

  0
LINE
  5
CC8
330
CB5
100
AcDbEntity
  8
0
 62
     0
440
 16777216
370
    -2
100
AcDbLine
 10
1764.456110558696
 20
-25.81700776552202
 30
0.0
 11
1750.072289941684
 21
-27.75377587028339
 31
0.0
  0
MTEXT
  5
CC9
330
CB5
100
AcDbEntity
  8
0
 62
     0
440
 16777216
100
AcDbMText
 10
1777.87944389203
 20
-25.81700776552205
 30
0.0
 40
10.0
 41
0.0
 46
0.0
 71
     5
 72
     1
  1
\A1;R36
 73
     1
 44
1.0
  0
SOLID
  5
CCA
330
CB5
100
AcDbEntity
  8
0
 62
     0
440
 16777216
100
AcDbTrace
 10
1750.068286597552
 20
-27.72404418288159
 30
0.0
 11
1750.076293285815
 21
-27.78350755768526
 31
0.0
 12
1749.893899817272
 22
-27.77779593507446
 32
0.0
 13
1749.893899817272
 23
-27.77779593507446
 33
0.0
  0
LINE
  5
CCB
330
CB5
100
AcDbEntity
  8
0
 62
     0
440
 16777216
370
    -2
100
AcDbLine
 10
1713.746764521501
 20
-32.63285575884061
 30
0.0
 11
1713.926764521501
 21
-32.63285575884061
 31
0.0
  0
LINE
  5
CCC
330
CB5
100
AcDbEntity
  8
0
 62
     0
440
 16777216
370
    -2
100
AcDbLine
 10
1713.8367645215
 20
-32.72285575884064
 30
0.0
 11
1713.8367645215
 21
-32.54285575884058
 31
0.0
  0
POINT
  5
CCD
330
CB5
100
AcDbEntity
  8
Defpoints
 62
     0
440
 16777216
100
AcDbPoint
 10
1749.893899817272
 20
-27.77779593507446
 30
0.0
  0
POINT
  5
CCE
330
CB5
100
AcDbEntity
  8
Defpoints
 62
     0
440
 16777216
100
AcDbPoint
 10
1713.8367645215
 20
-32.63285575884061
 30
0.0
  0
ENDBLK
  5
CB7
330
CB5
100
AcDbEntity
  8
0
100
AcDbBlockEnd
  0
BLOCK
  5
CD2
330
CD1
100
AcDbEntity
  8
0
100
AcDbBlockBegin
  2
*D6
 70
     1
 10
0.0
 20
0.0
 30
0.0
  3
*D6
  1

  0
LINE
  5
CDF
330
CD1
100
AcDbEntity
  8
0
 62
     0
440
 16777216
370
    -2
100
AcDbLine
 10
1852.677920542032
 20
-43.68998659084605
 30
0.0
 11
1902.808290930374
 21
-43.68998659084605
 31
0.0
  0
LINE
  5
CE0
330
CD1
100
AcDbEntity
  8
0
 62
     0
440
 16777216
370
    -2
100
AcDbLine
 10
1853.140466102707
 20
3.076166924228938
 30
0.0
 11
1902.808290930374
 21
3.076166924228924
 31
0.0
  0
LINE
  5
CE1
330
CD1
100
AcDbEntity
  8
0
 62
     0
440
 16777216
370
    -2
100
AcDbLine
 10
1902.628290930374
 20
-43.50998659084605
 30
0.0
 11
1902.628290930374
 21
-20.48690983330857
 31
0.0
  0
LINE
  5
CE2
330
CD1
100
AcDbEntity
  8
0
 62
     0
440
 16777216
370
    -2
100
AcDbLine
 10
1902.628290930374
 20
2.896166924228924
 30
0.0
 11
1902.628290930374
 21
-20.12690983330857
 31
0.0
  0
SOLID
  5
CE3
330
CD1
100
AcDbEntity
  8
0
 62
     0
440
 16777216
100
AcDbTrace
 10
1902.598290930374
 20
-43.50998659084605
 30
0.0
 11
1902.658290930374
 21
-43.50998659084605
 31
0.0
 12
1902.628290930374
 22
-43.68998659084605
 32
0.0
 13
1902.628290930374
 23
-43.68998659084605
 33
0.0
  0
SOLID
  5
CE4
330
CD1
100
AcDbEntity
  8
0
 62
     0
440
 16777216
100
AcDbTrace
 10
1902.598290930374
 20
2.896166924228924
 30
0.0
 11
1902.658290930374
 21
2.896166924228924
 31
0.0
 12
1902.628290930374
 22
3.076166924228924
 32
0.0
 13
1902.628290930374
 23
3.076166924228924
 33
0.0
  0
MTEXT
  5
CE5
330
CD1
100
AcDbEntity
  8
0
 62
     0
440
 16777216
100
AcDbMText
 10
1902.628290930374
 20
-20.30690983330826
 30
0.0
 40
0.18
 41
0.0
 46
0.0
 71
     5
 72
     1
  1
\A1;46.7662
 73
     1
 44
1.0
  0
POINT
  5
CE6
330
CD1
100
AcDbEntity
  8
Defpoints
 62
     0
440
 16777216
100
AcDbPoint
 10
1852.615420542031
 20
-43.68998659084605
 30
0.0
  0
POINT
  5
CE7
330
CD1
100
AcDbEntity
  8
Defpoints
 62
     0
440
 16777216
100
AcDbPoint
 10
1853.077966102707
 20
3.076166924228938
 30
0.0
  0
POINT
  5
CE8
330
CD1
100
AcDbEntity
  8
Defpoints
 62
     0
440
 16777216
100
AcDbPoint
 10
1902.628290930374
 20
3.076166924228924
 30
0.0
  0
ENDBLK
  5
CD3
330
CD1
100
AcDbEntity
  8
0
100
AcDbBlockEnd
  0
BLOCK
  5
CED
330
CEC
100
AcDbEntity
  8
0
100
AcDbBlockBegin
  2
*D7
 70
     1
 10
0.0
 20
0.0
 30
0.0
  3
*D7
  1

  0
LINE
  5
CFA
330
CEC
100
AcDbEntity
  8
0
 62
     0
440
 16777216
370
    -2
100
AcDbLine
 10
1827.321894897144
 20
-102.7157916395675
 30
0.0
 11
1652.165630524769
 21
-102.7157916395675
 31
0.0
  0
LINE
  5
CFB
330
CEC
100
AcDbEntity
  8
0
 62
     0
440
 16777216
370
    -2
100
AcDbLine
 10
1830.220253892136
 20
-106.2180246198463
 30
0.0
 11
1652.165630524769
 21
-106.2180246198463
 31
0.0
  0
LINE
  5
CFC
330
CEC
100
AcDbEntity
  8
0
 62
     0
440
 16777216
370
    -2
100
AcDbLine
 10
1652.345630524769
 20
-102.8957916395675
 30
0.0
 11
1652.345630524769
 21
-104.2869081297069
 31
0.0
  0
LINE
  5
CFD
330
CEC
100
AcDbEntity
  8
0
 62
     0
440
 16777216
370
    -2
100
AcDbLine
 10
1652.345630524769
 20
-106.0380246198463
 30
0.0
 11
1652.345630524769
 21
-104.6469081297069
 31
0.0
  0
SOLID
  5
CFE
330
CEC
100
AcDbEntity
  8
0
 62
     0
440
 16777216
100
AcDbTrace
 10
1652.315630524769
 20
-102.8957916395675
 30
0.0
 11
1652.375630524769
 21
-102.8957916395675
 31
0.0
 12
1652.345630524769
 22
-102.7157916395675
 32
0.0
 13
1652.345630524769
 23
-102.7157916395675
 33
0.0
  0
SOLID
  5
CFF
330
CEC
100
AcDbEntity
  8
0
 62
     0
440
 16777216
100
AcDbTrace
 10
1652.315630524769
 20
-106.0380246198463
 30
0.0
 11
1652.375630524769
 21
-106.0380246198463
 31
0.0
 12
1652.345630524769
 22
-106.2180246198463
 32
0.0
 13
1652.345630524769
 23
-106.2180246198463
 33
0.0
  0
MTEXT
  5
D00
330
CEC
100
AcDbEntity
  8
0
 62
     0
440
 16777216
100
AcDbMText
 10
1652.345630524769
 20
-104.4669081297066
 30
0.0
 40
0.18
 41
0.0
 46
0.0
 71
     5
 72
     1
  1
\A1;3.5022
 73
     1
 44
1.0
  0
POINT
  5
D01
330
CEC
100
AcDbEntity
  8
Defpoints
 62
     0
440
 16777216
100
AcDbPoint
 10
1827.384394897143
 20
-102.7157916395675
 30
0.0
  0
POINT
  5
D02
330
CEC
100
AcDbEntity
  8
Defpoints
 62
     0
440
 16777216
100
AcDbPoint
 10
1830.282753892136
 20
-106.2180246198463
 30
0.0
  0
POINT
  5
D03
330
CEC
100
AcDbEntity
  8
Defpoints
 62
     0
440
 16777216
100
AcDbPoint
 10
1652.345630524769
 20
-106.2180246198463
 30
0.0
  0
ENDBLK
  5
CEE
330
CEC
100
AcDbEntity
  8
0
100
AcDbBlockEnd
  0
ENDSEC
  0
SECTION
  2
ENTITIES
  0
LINE
  5
A2
330
1F
100
AcDbEntity
  8
HEWI
  6
Continuous
100
AcDbLine
 10
727.9900354999998
 20
588.5987243277014
 30
0.0
 11
702.1054615
 21
588.5987243277014
 31
0.0
  0
LINE
  5
A3
330
1F
100
AcDbEntity
  8
HEWI
  6
Continuous
100
AcDbLine
 10
702.1054615
 20
588.5987243277014
 30
0.0
 11
756.7090434999999
 21
588.5987243277014
 31
0.0
  0
LINE
  5
A4
330
1F
100
AcDbEntity
  8
HEWI
  6
Continuous
100
AcDbLine
 10
702.1054615
 20
588.5987243277014
 30
0.0
 11
679.1054615
 21
588.5987243277014
 31
0.0
  0
LINE
  5
A5
330
1F
100
AcDbEntity
  8
HEWI
  6
Continuous
100
AcDbLine
 10
702.1054615
 20
732.7942223277016
 30
0.0
 11
684.6054615
 21
732.7942223277016
 31
0.0
  0
LINE
  5
A6
330
1F
100
AcDbEntity
  8
HEWI
  6
Continuous
370
     5
100
AcDbLine
 10
525.2822995
 20
730.0302913277015
 30
0.0
 11
878.9286225000001
 21
730.0302893277015
 31
0.0
  0
LINE
  5
A7
330
1F
100
AcDbEntity
  8
HEWI
  6
Continuous
370
     5
100
AcDbLine
 10
465.7472375
 20
730.0670323277016
 30
0.0
 11
465.7472385
 21
730.0670303277016
 31
0.0
  0
LINE
  5
A8
330
1F
100
AcDbEntity
  8
HEWI
  6
Continuous
370
     5
100
AcDbLine
 10
869.7309465000001
 20
592.7942223277016
 30
0.0
 11
534.4799755
 21
592.7942223277016
 31
0.0
  0
LINE
  5
A9
330
1F
100
AcDbEntity
  8
HEWI
  6
Continuous
100
AcDbLine
 10
893.6567954999999
 20
592.7942223277016
 30
0.0
 11
510.5541264999999
 21
592.7942223277016
 31
0.0
  0
LINE
  5
AA
330
1F
100
AcDbEntity
  8
HEWI
  6
Continuous
370
     5
100
AcDbLine
 10
506.9060995
 20
596.1535223277016
 30
0.0
 11
448.4385995000002
 21
726.1535223277015
 31
0.0
  0
LINE
  5
AB
330
1F
100
AcDbEntity
  8
HEWI
  6
Continuous
370
     5
100
AcDbLine
 10
452.0866264999999
 20
731.7942223277015
 30
0.0
 11
952.1242954999999
 21
731.7942223277015
 31
0.0
  0
LINE
  5
AC
330
1F
100
AcDbEntity
  8
HEWI
  6
Continuous
100
AcDbLine
 10
702.1054615
 20
732.7942223277016
 30
0.0
 11
719.6054615
 21
732.7942223277016
 31
0.0
  0
LINE
  5
AD
330
1F
100
AcDbEntity
  8
HEWI
  6
Continuous
370
     5
100
AcDbLine
 10
952.1242954999999
 20
732.7942223277016
 30
0.0
 11
452.0866264999999
 21
732.7942223277016
 31
0.0
  0
LINE
  5
AE
330
1F
100
AcDbEntity
  8
HEWI
  6
Continuous
370
     5
100
AcDbLine
 10
938.4636845000001
 20
730.0670323277016
 30
0.0
 11
938.4636835000003
 21
730.0670303277016
 31
0.0
  0
LINE
  5
AF
330
1F
100
AcDbEntity
  8
HEWI
  6
Continuous
370
     5
100
AcDbLine
 10
878.9286225000001
 20
730.0302913277015
 30
0.0
 11
524.3554611124872
 21
730.0487251081297
 31
0.0
  0
LINE
  5
B0
330
1F
100
AcDbEntity
  8
HEWI
  6
Continuous
100
AcDbLine
 10
702.1054615
 20
588.5987243277014
 30
0.0
 11
725.1054615000001
 21
588.5987243277014
 31
0.0
  0
LINE
  5
B1
330
1F
100
AcDbEntity
  8
HEWI
  6
Continuous
100
AcDbLine
 10
702.1054615
 20
588.5987243277014
 30
0.0
 11
676.2208875000001
 21
588.5987243277014
 31
0.0
  0
LINE
  5
B2
330
1F
100
AcDbEntity
  8
HEWI
  6
Continuous
100
AcDbLine
 10
738.4980034999999
 20
588.5987243277014
 30
0.0
 11
737.8032675
 21
588.5987243277014
 31
0.0
  0
LINE
  5
B3
330
1F
100
AcDbEntity
  8
HEWI
  6
Continuous
100
AcDbLine
 10
702.1054615
 20
588.5987243277014
 30
0.0
 11
647.5018785000002
 21
588.5987243277014
 31
0.0
  0
LINE
  5
B4
330
1F
100
AcDbEntity
  8
HEWI
  6
Continuous
370
     5
100
AcDbLine
 10
452.0866264999999
 20
732.7942223277016
 30
0.0
 11
452.0866264999999
 21
731.7942223277015
 31
0.0
  0
LINE
  5
B5
330
1F
100
AcDbEntity
  8
HEWI
  6
Continuous
370
     5
100
AcDbLine
 10
952.1242954999999
 20
732.7942223277016
 30
0.0
 11
952.1242954999999
 21
731.7942223277015
 31
0.0
  0
LINE
  5
14B
330
1F
100
AcDbEntity
  8
HEWI
  6
Continuous
370
     5
100
AcDbLine
 10
1337.33981901024
 20
592.7942220192276
 30
0.0
 11
1331.24868001024
 21
592.7942220192276
 31
0.0
  0
LINE
  5
14D
330
1F
100
AcDbEntity
  8
HEWI
  6
Continuous
370
     5
100
AcDbLine
 10
1074.69697501024
 20
677.7942220192276
 30
0.0
 11
1074.69697501024
 21
697.7942220192276
 31
0.0
  0
LINE
  5
150
330
1F
100
AcDbEntity
  8
HEWI
  6
Continuous
370
     5
100
AcDbLine
 10
1074.69697501024
 20
677.7942220192276
 30
0.0
 11
1074.69697501024
 21
697.7942220192276
 31
0.0
  0
LINE
  5
159
330
1F
100
AcDbEntity
  8
HEWI
  6
Continuous
370
     5
100
AcDbLine
 10
1302.69697501024
 20
588.5987240192275
 30
0.0
 11
1256.69697501024
 21
588.5987240192275
 31
0.0
  0
LINE
  5
162
330
1F
100
AcDbEntity
  8
HEWI
  6
Continuous
370
     5
100
AcDbLine
 10
1117.19697501024
 20
732.7942220192276
 30
0.0
 11
1152.19697501024
 21
732.7942220192276
 31
0.0
  0
LINE
  5
169
330
1F
100
AcDbEntity
  8
HEWI
  6
Continuous
370
     5
100
AcDbLine
 10
1337.33981901024
 20
592.7942220192276
 30
0.0
 11
1331.24868001024
 21
592.7942220192276
 31
0.0
  0
LINE
  5
16A
330
1F
100
AcDbEntity
  8
HEWI
  6
Continuous
370
     5
100
AcDbLine
 10
1221.26344901024
 20
592.7942220192276
 30
0.0
 11
1108.73822601024
 21
592.7942220192276
 31
0.0
  0
LINE
  5
16B
330
1F
100
AcDbEntity
  8
HEWI
  6
Continuous
370
     5
100
AcDbLine
 10
1108.73822601024
 20
592.7942220192276
 30
0.0
 11
1221.26344901024
 21
592.7942220192276
 31
0.0
  0
LINE
  5
16C
330
1F
100
AcDbEntity
  8
HEWI
  6
Continuous
370
     5
100
AcDbLine
 10
1074.69697501024
 20
596.1535220192278
 30
0.0
 11
1074.69697501024
 21
726.1535220192278
 31
0.0
  0
LINE
  5
16D
330
1F
100
AcDbEntity
  8
HEWI
  6
Continuous
370
     5
100
AcDbLine
 10
1074.69697501024
 20
731.7942220192276
 30
0.0
 11
1074.69697501024
 21
726.1535220192278
 31
0.0
  0
LINE
  5
16E
330
1F
100
AcDbEntity
  8
HEWI
  6
Continuous
370
     5
100
AcDbLine
 10
1074.69697501024
 20
731.7942220192276
 30
0.0
 11
1074.69697501024
 21
726.1535220192278
 31
0.0
  0
LINE
  5
16F
330
1F
100
AcDbEntity
  8
HEWI
  6
Continuous
370
     5
100
AcDbLine
 10
1074.69697501024
 20
697.7942220192276
 30
0.0
 11
1074.69697501024
 21
677.7942220192276
 31
0.0
  0
LINE
  5
170
330
1F
100
AcDbEntity
  8
HEWI
  6
Continuous
370
     5
100
AcDbLine
 10
1074.69697501024
 20
697.7942220192276
 30
0.0
 11
1074.69697501024
 21
677.7942220192276
 31
0.0
  0
LINE
  5
171
330
1F
100
AcDbEntity
  8
HEWI
  6
Continuous
370
     5
100
AcDbLine
 10
1152.19697501024
 20
732.7942220192276
 30
0.0
 11
1117.19697501024
 21
732.7942220192276
 31
0.0
  0
LINE
  5
17F
330
1F
100
AcDbEntity
  8
HEWI
  6
Continuous
370
     5
100
AcDbLine
 10
1256.69697501024
 20
588.5987240192275
 30
0.0
 11
1302.69697501024
 21
588.5987240192275
 31
0.0
  0
LINE
  5
181
330
1F
100
AcDbEntity
  8
HEWI
  6
Continuous
370
     5
100
AcDbLine
 10
1317.55403501024
 20
588.5987240192275
 30
0.0
 11
1318.01701401024
 21
588.5987240192275
 31
0.0
  0
LINE
  5
182
330
1F
100
AcDbEntity
  8
HEWI
  6
Continuous
370
     5
100
AcDbLine
 10
1318.01701401024
 20
588.5987240192275
 30
0.0
 11
1317.55403501024
 21
588.5987240192275
 31
0.0
  0
LINE
  5
183
330
1F
100
AcDbEntity
  8
HEWI
  6
Continuous
370
     5
100
AcDbLine
 10
1075.69697501024
 20
732.7942220192276
 30
0.0
 11
1075.69697501024
 21
725.7433470192276
 31
0.0
  0
LINE
  5
184
330
1F
100
AcDbEntity
  8
HEWI
  6
Continuous
370
     5
100
AcDbLine
 10
1075.69697501024
 20
732.7942220192276
 30
0.0
 11
1075.69697501024
 21
725.7433470192276
 31
0.0
  0
LINE
  5
18C
330
1F
100
AcDbEntity
  8
HEWI
  6
Continuous
370
     5
100
AcDbLine
 10
525.2822989999998
 20
30.48420825352821
 30
0.0
 11
878.9286219999997
 21
30.4842092535281
 31
0.0
  0
LINE
  5
18D
330
1F
100
AcDbEntity
  8
HEWI
  6
Continuous
370
     5
100
AcDbLine
 10
465.7472369999998
 20
203.2159052535281
 30
0.0
 11
465.7472379999997
 21
89.98857925352821
 31
0.0
  0
LINE
  5
18E
330
1F
100
AcDbEntity
  8
HEWI
  6
Continuous
100
AcDbLine
 10
893.6567959999999
 20
362.1022422535282
 30
0.0
 11
510.5541259999998
 21
362.1022422535282
 31
0.0
  0
LINE
  5
18F
330
1F
100
AcDbEntity
  8
HEWI
  6
Continuous
370
     5
100
AcDbLine
 10
506.906099
 20
362.1022422535282
 30
0.0
 11
448.4385989999999
 21
362.1022422535282
 31
0.0
  0
LINE
  5
190
330
1F
100
AcDbEntity
  8
HEWI
  6
Continuous
370
     5
100
AcDbLine
 10
448.0866259999998
 20
362.1022422535282
 30
0.0
 11
452.086626
 21
362.1022422535282
 31
0.0
  0
LINE
  5
191
330
1F
100
AcDbEntity
  8
HEWI
  6
Continuous
370
     5
100
AcDbLine
 10
452.086626
 20
362.1022422535282
 30
0.0
 11
952.124296
 21
362.1022422535282
 31
0.0
  0
LINE
  5
192
330
1F
100
AcDbEntity
  8
HEWI
  6
Continuous
370
     5
100
AcDbLine
 10
952.124296
 20
362.1022422535282
 30
0.0
 11
956.1242959999999
 21
362.1022422535282
 31
0.0
  0
LINE
  5
193
330
1F
100
AcDbEntity
  8
HEWI
  6
Continuous
370
     5
100
AcDbLine
 10
952.124296
 20
361.1022422535282
 30
0.0
 11
452.086626
 21
361.1022422535282
 31
0.0
  0
LINE
  5
194
330
1F
100
AcDbEntity
  8
HEWI
  6
Continuous
370
     5
100
AcDbLine
 10
938.4636839999997
 20
89.98857925352821
 30
0.0
 11
938.4636829999998
 21
203.2159052535281
 31
0.0
  0
LINE
  5
195
330
1F
100
AcDbEntity
  8
HEWI
  6
Continuous
370
     5
100
AcDbLine
 10
878.9286219999997
 20
262.7202772535282
 30
0.0
 11
525.2822989999998
 21
262.7202762535282
 31
0.0
  0
LINE
  5
19D
330
1F
100
AcDbEntity
  8
HEWI
  6
Continuous
370
     5
100
AcDbLine
 10
452.086626
 20
361.1022422535282
 30
0.0
 11
447.086626
 21
361.1022422535282
 31
0.0
  0
LINE
  5
19E
330
1F
100
AcDbEntity
  8
HEWI
  6
Continuous
370
     5
100
AcDbLine
 10
957.1242959999999
 20
361.1022422535282
 30
0.0
 11
952.124296
 21
361.1022422535282
 31
0.0
  0
LINE
  5
1A0
330
1F
100
AcDbEntity
  8
HEWI
  6
Continuous
370
     5
100
AcDbLine
 10
452.086626
 20
361.1022422535282
 30
0.0
 11
452.086626
 21
362.1022422535282
 31
0.0
  0
LINE
  5
1A1
330
1F
100
AcDbEntity
  8
HEWI
  6
Continuous
370
     5
100
AcDbLine
 10
952.124296
 20
361.1022422535282
 30
0.0
 11
952.124296
 21
362.1022422535282
 31
0.0
  0
ARC
  5
1BA
330
1F
100
AcDbEntity
  8
HEWI
  6
Continuous
370
     5
100
AcDbCircle
 10
-452.0866264999999
 20
727.7942223277015
 30
0.0
 40
4.0
210
0.0
220
0.0
230
-1.0
100
AcDbArc
 50
335.7841680000001
 51
90.0
  0
ARC
  5
1BB
330
1F
100
AcDbEntity
  8
HEWI
  6
Continuous
370
     5
100
AcDbCircle
 10
-952.1242954999999
 20
727.7942223277015
 30
0.0
 40
4.0
210
0.0
220
0.0
230
-1.0
100
AcDbArc
 50
90.0
 51
204.2158319999999
  0
ARC
  5
1BC
330
1F
100
AcDbEntity
  8
HEWI
  6
Continuous
370
     5
100
AcDbCircle
 10
452.0866264999999
 20
727.7942223277015
 30
0.0
 40
5.0
100
AcDbArc
 50
90.0
 51
204.2158319999999
  0
ARC
  5
1BD
330
1F
100
AcDbEntity
  8
HEWI
  6
Continuous
370
     5
100
AcDbCircle
 10
952.1242954999999
 20
727.7942223277015
 30
0.0
 40
5.0
100
AcDbArc
 50
335.7841680000001
 51
90.0
  0
ARC
  5
1EF
330
1F
100
AcDbEntity
  8
HEWI
  6
Continuous
370
     5
100
AcDbCircle
 10
1075.69697501024
 20
731.7942220192276
 30
0.0
 40
1.000000000000001
100
AcDbArc
 50
90.0
 51
180.0
  0
ARC
  5
1F0
330
1F
100
AcDbEntity
  8
HEWI
  6
Continuous
370
     5
100
AcDbCircle
 10
1075.69697501024
 20
731.7942220192276
 30
0.0
 40
1.000000000000001
100
AcDbArc
 50
90.0
 51
180.0
  0
ARC
  5
1F1
330
1F
100
AcDbEntity
  8
HEWI
  6
Continuous
100
AcDbCircle
 10
448.0866259999998
 20
361.1022422535282
 30
0.0
 40
1.0
100
AcDbArc
 50
90.0
 51
180.0
  0
ARC
  5
1F2
330
1F
100
AcDbEntity
  8
HEWI
  6
Continuous
100
AcDbCircle
 10
956.1242959999999
 20
361.1022422535282
 30
0.0
 40
1.0
100
AcDbArc
 50
0.0
 51
90.0
  0
ARC
  5
1F3
330
1F
100
AcDbEntity
  8
HEWI
  6
Continuous
100
AcDbCircle
 10
702.1054609999996
 20
302.1022422535282
 30
0.0
 40
17.49999999999999
100
AcDbArc
 50
90.0
 51
270.0
  0
ARC
  5
1F4
330
1F
100
AcDbEntity
  8
HEWI
  6
Continuous
100
AcDbCircle
 10
702.1054609999996
 20
302.1022422535282
 30
0.0
 40
17.49999999999999
100
AcDbArc
 50
90.0
 51
270.0
  0
ARC
  5
1F5
330
1F
100
AcDbEntity
  8
HEWI
  6
Continuous
100
AcDbCircle
 10
702.1054609999996
 20
302.1022422535282
 30
0.0
 40
17.49999999999999
100
AcDbArc
 50
270.0
 51
90.0
  0
ARC
  5
1F6
330
1F
100
AcDbEntity
  8
HEWI
  6
Continuous
100
AcDbCircle
 10
702.1054609999996
 20
302.1022422535282
 30
0.0
 40
17.49999999999999
100
AcDbArc
 50
270.0
 51
90.0
  0
ELLIPSE
  5
211
330
1F
100
AcDbEntity
  8
HEWI
  6
Continuous
370
     5
100
AcDbEllipse
 10
461.3006915
 20
727.7942223277015
 30
0.0
 11
0.0
 21
-5.000000000000011
 31
0.0
210
0.0
220
0.0
230
1.0
 40
0.999891
 41
2.046451378366823
 42
3.141592653589792
  0
ELLIPSE
  5
213
330
1F
100
AcDbEntity
  8
HEWI
  6
Continuous
370
     5
100
AcDbEllipse
 10
461.3006915
 20
727.7942223277015
 30
0.0
 11
0.0
 21
5.000000000000004
 31
0.0
210
0.0
220
0.0
230
1.0
 40
0.999891
 41
5.188044031957455
 42
6.283185307179584
  0
ELLIPSE
  5
214
330
1F
100
AcDbEntity
  8
HEWI
  6
Continuous
370
     5
100
AcDbEllipse
 10
942.9102305
 20
727.7942223277015
 30
0.0
 11
0.0
 21
5.000000000000004
 31
0.0
210
0.0
220
0.0
230
1.0
 40
0.999891
 41
0.0
 42
1.095141275222134
  0
ELLIPSE
  5
216
330
1F
100
AcDbEntity
  8
HEWI
  6
Continuous
370
     5
100
AcDbEllipse
 10
942.9102305
 20
727.7942223277015
 30
0.0
 11
0.0
 21
-5.000000000000011
 31
0.0
210
0.0
220
0.0
230
1.0
 40
0.999891
 41
3.141592653589792
 42
4.236733928812756
  0
ELLIPSE
  5
28F
330
1F
100
AcDbEntity
  8
HEWI
  6
Continuous
370
     5
100
AcDbEllipse
 10
1325.88133301024
 20
582.9029560192277
 30
0.0
 11
4.351286336373721
 21
10.1027871015323
 31
0.0
210
0.0
220
0.0
230
1.0
 40
0.8779139999999998
 41
0.0068860363400401
 42
1.376828349365764
  0
ELLIPSE
  5
290
330
1F
100
AcDbEntity
  8
HEWI
  6
Continuous
370
     5
100
AcDbEllipse
 10
1325.40273301024
 20
583.0067480192276
 30
0.0
 11
0.141462380606271
 21
10.9990903439727
 31
0.0
210
0.0
220
0.0
230
0.9999999999999998
 40
0.830907
 41
0.0581466731338483
 42
1.048186399660297
  0
ELLIPSE
  5
291
330
1F
100
AcDbEntity
  8
HEWI
  6
Continuous
370
     5
100
AcDbEllipse
 10
1325.88133301024
 20
582.9029560192277
 30
0.0
 11
4.351286336373723
 21
10.1027871015323
 31
0.0
210
0.0
220
0.0
230
1.0
 40
0.8779139999999998
 41
0.0068860363421444
 42
1.376828349366614
  0
ELLIPSE
  5
293
330
1F
100
AcDbEntity
  8
HEWI
  6
Continuous
370
     5
100
AcDbEllipse
 10
1325.40273301024
 20
583.0067480192276
 30
0.0
 11
0.1414623806062708
 21
10.99909034397269
 31
0.0
210
0.0
220
0.0
230
1.0
 40
0.830907
 41
0.0581466731335385
 42
1.048186399659988
  0
ELLIPSE
  5
299
330
1F
100
AcDbEntity
  8
HEWI
  6
Continuous
370
     5
100
AcDbEllipse
 10
1075.69697501024
 20
726.1535220192278
 30
0.0
 11
-0.9999999999999801
 21
0.0000000000000002
 31
0.0
210
0.0
220
0.0
230
1.0
 40
0.410175
 41
0.0
 42
1.57079632679484
  0
ELLIPSE
  5
29A
330
1F
100
AcDbEntity
  8
HEWI
  6
Continuous
370
     5
100
AcDbEllipse
 10
1075.69697501024
 20
596.1535220192278
 30
0.0
 11
-1.000000000001429
 21
0.0000000000000002
 31
0.0
210
0.0
220
0.0
230
1.0
 40
0.410175
 41
0.0
 42
1.57079632679893
  0
ELLIPSE
  5
29B
330
1F
100
AcDbEntity
  8
HEWI
  6
Continuous
370
     5
100
AcDbEllipse
 10
1075.69697501024
 20
726.1535220192278
 30
0.0
 11
0.9999999999999808
 21
-0.0000000000000002
 31
0.0
210
0.0
220
0.0
230
1.0
 40
0.410175
 41
3.141592653589792
 42
4.712388980384746
  0
ELLIPSE
  5
29C
330
1F
100
AcDbEntity
  8
HEWI
  6
Continuous
370
     5
100
AcDbEllipse
 10
955.7723229999997
 20
361.1022422535282
 30
0.0
 11
0.0000000000000001
 21
0.9999999999999801
 31
0.0
210
0.0
220
0.0
230
1.0
 40
0.912007
 41
4.712388980384746
 42
6.283185307179584
  0
ELLIPSE
  5
29E
330
1F
100
AcDbEntity
  8
HEWI
  6
Continuous
370
     5
100
AcDbEllipse
 10
448.4385989999999
 20
361.1022422535282
 30
0.0
 11
0.0000000000000001
 21
0.9999999999999808
 31
0.0
210
0.0
220
0.0
230
1.0
 40
0.912007
 41
0.0
 42
1.570796326794951
  0
SPLINE
  5
336
330
1F
100
AcDbEntity
  8
HEWI
  6
Continuous
100
AcDbSpline
210
0.0
220
0.0
230
1.0
 70
     8
 71
     2
 72
     6
 73
     3
 74
     0
 42
0.000000001
 43
0.0000000001
 40
0.0
 40
0.0
 40
0.0
 40
1.0
 40
1.0
 40
1.0
 10
461.2936615579886
 20
732.7942226897809
 30
0.0
 10
464.2891253809262
 20
732.6858947120465
 30
0.0
 10
465.7472378528709
 20
730.0670311255895
 30
0.0
  0
SPLINE
  5
337
330
1F
100
AcDbEntity
  8
HEWI
  6
Continuous
100
AcDbSpline
210
0.0
220
0.0
230
1.0
 70
     8
 71
     3
 72
    11
 73
     7
 74
     0
 42
0.000000001
 43
0.0000000001
 40
0.0
 40
0.0
 40
0.0
 40
0.0
 40
0.2452227655170316
 40
0.5000000000000057
 40
0.7547772344829707
 40
1.0
 40
1.0
 40
1.0
 40
1.0
 10
938.4636843296867
 20
730.0670311255895
 30
0.0
 10
938.6746728552873
 20
730.4755975074307
 30
0.0
 10
939.1915553655563
 20
731.2220485859723
 30
0.0
 10
940.2712574833723
 20
732.1152161324017
 30
0.0
 10
941.5576066621015
 20
732.6709235370612
 30
0.0
 10
942.4574370137667
 20
732.7920106144074
 30
0.0
 10
942.9172606245442
 20
732.7942226897809
 30
0.0
  0
SPLINE
  5
338
330
1F
100
AcDbEntity
  8
HEWI
  6
Continuous
100
AcDbSpline
210
0.0
220
0.0
230
1.0
 70
     8
 71
     3
 72
    15
 73
    11
 74
     0
 42
0.000000001
 43
0.0000000001
 40
0.0
 40
0.0
 40
0.0
 40
0.0
 40
0.0986032388624892
 40
0.2099724843154558
 40
0.3332687387005914
 40
0.4660498896042456
 40
0.6042170828728758
 40
0.7425738344878396
 40
0.875893174643722
 40
1.0
 40
1.0
 40
1.0
 40
1.0
 10
452.0866263038013
 20
732.7942226897809
 30
0.0
 10
451.7550256831463
 20
732.7935674715067
 30
0.0
 10
451.0648963101354
 20
732.7259716180797
 30
0.0
 10
450.0005701530951
 20
732.3888465428056
 30
0.0
 10
448.9472763789747
 20
731.7555766686552
 30
0.0
 10
448.0225727695877
 20
730.8109247043812
 30
0.0
 10
447.3590246673083
 20
729.6079465138002
 30
0.0
 10
447.0470584155667
 20
728.269807545838
 30
0.0
 10
447.1046770272433
 20
726.9385399373613
 30
0.0
 10
447.3554756111798
 20
726.1277228957882
 30
0.0
 10
447.5265922620716
 20
725.7433473795129
 30
0.0
  0
SPLINE
  5
339
330
1F
100
AcDbEntity
  8
HEWI
  6
Continuous
100
AcDbSpline
210
0.0
220
0.0
230
1.0
 70
     8
 71
     3
 72
    15
 73
    11
 74
     0
 42
0.000000001
 43
0.0000000001
 40
0.0
 40
0.0
 40
0.0
 40
0.0
 40
0.0986032388624837
 40
0.2099724843154606
 40
0.3332687387005959
 40
0.466049889604249
 40
0.6042170828728806
 40
0.7425738344878373
 40
0.8758931746437134
 40
1.0
 40
1.0
 40
1.0
 40
1.0
 10
956.6843299204856
 20
725.7433473795129
 30
0.0
 10
956.819746662113
 20
726.0460381573984
 30
0.0
 10
957.0411726419715
 20
726.7031669775978
 30
0.0
 10
957.1702723255665
 20
727.8121199777897
 30
0.0
 10
957.0247607279815
 20
729.0324825809022
 30
0.0
 10
956.5425220654075
 20
730.2632912464302
 30
0.0
 10
955.7175686493344
 20
731.3618832873445
 30
0.0
 10
954.6251375767063
 20
732.1952698671274
 30
0.0
 10
953.3873787364255
 20
732.6887740749079
 30
0.0
 10
952.5450367494583
 20
732.7926209891752
 30
0.0
 10
952.1242958787563
 20
732.7942226897809
 30
0.0
  0
SPLINE
  5
33A
330
1F
100
AcDbEntity
  8
HEWI
  6
Continuous
100
AcDbSpline
210
0.0
220
0.0
230
1.0
 70
     8
 71
     2
 72
     6
 73
     3
 74
     0
 42
0.000000001
 43
0.0000000001
 40
0.0
 40
0.0
 40
0.0
 40
1.0
 40
1.0
 40
1.0
 10
893.6567958787563
 20
592.7942226897807
 30
0.0
 10
896.8073632551581
 20
592.9227113093571
 30
0.0
 10
898.2168299203538
 20
595.7433473792192
 30
0.0
  0
SPLINE
  5
33B
330
1F
100
AcDbEntity
  8
HEWI
  6
Continuous
100
AcDbSpline
210
0.0
220
0.0
230
1.0
 70
     8
 71
     3
 72
    11
 73
     7
 74
     0
 42
0.000000001
 43
0.0000000001
 40
0.0
 40
0.0
 40
0.0
 40
0.0
 40
0.2447790444619012
 40
0.5000000000000011
 40
0.7552209555380968
 40
1.0
 40
1.0
 40
1.0
 40
1.0
 10
505.9940922620718
 20
595.7433473795129
 30
0.0
 10
506.1935756203973
 20
595.3061888011717
 30
0.0
 10
506.6987148447782
 20
594.5041343694113
 30
0.0
 10
507.7990238153833
 20
593.5341921867025
 30
0.0
 10
509.1349369900123
 20
592.9285490092073
 30
0.0
 10
510.0736116051477
 20
592.7968413237272
 30
0.0
 10
510.5541263038013
 20
592.7942226897807
 30
0.0
  0
SPLINE
  5
33D
330
1F
100
AcDbEntity
  8
HEWI
  6
Continuous
370
     5
100
AcDbSpline
210
0.0
220
0.0
230
1.0
 70
    28
 71
     3
 72
     8
 73
     4
 74
     0
 42
0.000000001
 43
0.0000000001
 40
0.0
 40
0.0
 40
0.0
 40
0.0
 40
1.0
 40
1.0
 40
1.0
 40
1.0
 10
534.4799752490007
 20
592.7942226897807
 30
0.0
 41
1.0
 10
528.2297395816275
 20
592.7942226897807
 30
0.0
 41
0.8742030041272037
 10
523.1622327758799
 20
592.7942226897807
 30
0.0
 41
0.8742030041272037
 10
521.189886229942
 20
592.7942226897807
 30
0.0
 41
1.0
  0
SPLINE
  5
33E
330
1F
100
AcDbEntity
  8
HEWI
  6
Continuous
370
     5
100
AcDbSpline
210
0.0
220
0.0
230
1.0
 70
     8
 71
     3
 72
    21
 73
    17
 74
     0
 42
0.000000001
 43
0.0000000001
 40
0.0
 40
0.0
 40
0.0
 40
0.0
 40
0.0409002795630903
 40
0.0821053424875179
 40
0.1236393298294547
 40
0.1655294441281293
 40
0.2078073556614162
 40
0.2505105208258255
 40
0.3744383404388105
 40
0.4996833359529206
 40
0.5848912923343344
 40
0.6691166707713562
 40
0.752546362931943
 40
0.8353803570298621
 40
0.9178035420396652
 40
1.0
 40
1.0
 40
1.0
 40
1.0
 10
524.3554611124872
 20
730.0487251081297
 30
0.0
 10
523.1026768885032
 20
730.0727467894033
 30
0.0
 10
520.5877728616369
 20
730.1209691582768
 30
0.0
 10
516.8174669988835
 20
730.1854070505594
 30
0.0
 10
513.0491273563531
 20
730.2444091604857
 30
0.0
 10
509.2971591157846
 20
730.2973791404816
 30
0.0
 10
505.5758727787166
 20
730.3444757389224
 30
0.0
 10
499.586985106453
 20
730.4116214955882
 30
0.0
 10
491.650279581792
 20
730.4774824001031
 30
0.0
 10
483.6772519634532
 20
730.5048301619592
 30
0.0
 10
477.715093462888
 20
730.4947976377667
 30
0.0
 10
473.4165431399597
 20
730.4618660050141
 30
0.0
 10
470.0292651774669
 20
730.404813131155
 30
0.0
 10
467.6021994743876
 20
730.3230624485131
 30
0.0
 10
466.0619995686672
 20
730.2188326182657
 30
0.0
 10
465.850683848082
 20
730.1287875989711
 30
0.0
 10
465.7451715080596
 20
730.0838270978458
 30
0.0
  0
SPLINE
  5
33F
330
1F
100
AcDbEntity
  8
HEWI
  6
Continuous
100
AcDbSpline
210
0.0
220
0.0
230
1.0
 70
     8
 71
     3
 72
    10
 73
     6
 74
     0
 42
0.000000001
 43
0.0000000001
 40
0.0
 40
0.0
 40
0.0
 40
0.0
 40
0.9999550585991899
 40
0.9999550585991899
 40
1.0
 40
1.0
 40
1.0
 40
1.0
 10
465.7451715080598
 20
730.0838270978458
 30
0.0
 10
465.7436640677667
 20
730.0782809163588
 30
0.0
 10
465.7443542403016
 20
730.0726821495599
 30
0.0
 10
465.747233046527
 20
730.0670405445372
 30
0.0
 10
465.7472350941477
 20
730.0670365318263
 30
0.0
 10
465.7472377863597
 20
730.0670312560336
 30
0.0
  0
SPLINE
  5
340
330
1F
100
AcDbEntity
  8
HEWI
  6
Continuous
100
AcDbSpline
210
0.0
220
0.0
230
1.0
 70
     8
 71
     3
 72
    10
 73
     6
 74
     0
 42
0.000000001
 43
0.0000000001
 40
0.0
 40
0.0
 40
0.0
 40
0.0
 40
0.0000458882944037
 40
0.0000458882944037
 40
1.0
 40
1.0
 40
1.0
 40
1.0
 10
465.7472382637227
 20
730.0670318003549
 30
0.0
 10
465.7472345459455
 20
730.0670333148115
 30
0.0
 10
465.7472343978747
 20
730.0670395699174
 30
0.0
 10
465.7443542403241
 20
730.072682149384
 30
0.0
 10
465.7436640677437
 20
730.0782809162698
 30
0.0
 10
465.7451715080587
 20
730.0838270978422
 30
0.0
  0
SPLINE
  5
342
330
1F
100
AcDbEntity
  8
HEWI
  6
Continuous
370
     5
100
AcDbSpline
210
0.0
220
0.0
230
1.0
 70
     8
 71
     3
 72
    24
 73
    20
 74
     0
 42
0.000000001
 43
0.0000000001
 40
0.0
 40
0.0
 40
0.0
 40
0.0
 40
0.0410503889005351
 40
0.0821334440902699
 40
0.123275687288956
 40
0.1644951817502176
 40
0.2058173734667114
 40
0.2472689703261925
 40
0.2888686415493118
 40
0.3306391002169947
 40
0.3726100710646306
 40
0.4148049715000496
 40
0.4572451850199501
 40
0.4999531542928672
 40
0.6251753551429112
 40
0.7491061677517487
 40
0.8342100468289348
 40
0.9177616880745379
 40
1.0
 40
1.0
 40
1.0
 40
1.0
 10
465.7451715080588
 20
730.0838270978422
 30
0.0
 10
465.774618397425
 20
730.1068571471138
 30
0.0
 10
465.8335356088366
 20
730.1529355720675
 30
0.0
 10
466.2265076062181
 20
730.2143866748931
 30
0.0
 10
466.8426229923664
 20
730.2702304732219
 30
0.0
 10
467.7022910600046
 20
730.3199303638048
 30
0.0
 10
468.7988749430128
 20
730.363627426737
 30
0.0
 10
470.1325636769118
 20
730.4012772238852
 30
0.0
 10
471.70040092494
 20
730.4328980817967
 30
0.0
 10
473.4996702392892
 20
730.4584866602371
 30
0.0
 10
475.5270365962546
 20
730.4780382331846
 30
0.0
 10
477.7780909454453
 20
730.4915572705207
 30
0.0
 10
480.2480869803935
 20
730.499037968561
 30
0.0
 10
484.6501688380802
 20
730.5014438635822
 30
0.0
 10
491.6088056480397
 20
730.4776859213417
 30
0.0
 10
500.6902368616204
 20
730.4026694340871
 30
0.0
 10
509.1966008499328
 20
730.3011672794826
 30
0.0
 10
516.7542767627313
 20
730.1906659186776
 30
0.0
 10
521.8351492728109
 20
730.0957881826461
 30
0.0
 10
524.3554610911409
 20
730.0487251085496
 30
0.0
  0
SPLINE
  5
344
330
1F
100
AcDbEntity
  8
HEWI
  6
Continuous
370
     5
100
AcDbSpline
210
0.0
220
0.0
230
1.0
 70
    24
 71
     3
 72
    12
 73
     8
 74
     0
 42
0.000000001
 43
0.0000000001
 40
0.0
 40
0.0
 40
0.0
 40
0.0
 40
0.5
 40
0.5
 40
0.75
 40
0.75
 40
1.0
 40
1.0
 40
1.0
 40
1.0
 10
550.377848265139
 20
592.7942226897807
 30
0.0
 10
570.778115826461
 20
592.794222689781
 30
0.0
 10
591.1783802438016
 20
592.7942226897807
 30
0.0
 10
621.7786712859308
 20
592.7942226897807
 30
0.0
 10
631.9787483942397
 20
592.7942226897807
 30
0.0
 10
652.3788854981545
 20
592.7942226897807
 30
0.0
 10
662.5789302923732
 20
592.7942226897807
 30
0.0
 10
672.7790972189942
 20
592.7942226897807
 30
0.0
  0
SPLINE
  5
345
330
1F
100
AcDbEntity
  8
HEWI
  6
Continuous
370
     5
100
AcDbSpline
210
0.0
220
0.0
230
1.0
 70
    24
 71
     3
 72
    35
 73
    31
 74
     0
 42
0.000000001
 43
0.0000000001
 40
0.0
 40
0.0
 40
0.0
 40
0.0
 40
0.1249999999999998
 40
0.1249999999999998
 40
0.1875000000000006
 40
0.1875000000000006
 40
0.2500000000000014
 40
0.2500000000000014
 40
0.3750000000000029
 40
0.3750000000000029
 40
0.4062500000000028
 40
0.4062500000000028
 40
0.4375000000000028
 40
0.4375000000000028
 40
0.5000000000000026
 40
0.5000000000000026
 40
0.6250000000000029
 40
0.6250000000000029
 40
0.6562500000000029
 40
0.6562500000000029
 40
0.6875000000000029
 40
0.6875000000000029
 40
0.7500000000000023
 40
0.8125000000000015
 40
0.8125000000000015
 40
0.8437500000000015
 40
0.8437500000000015
 40
0.8750000000000014
 40
0.8750000000000014
 40
1.0
 40
1.0
 40
1.0
 40
1.0
 10
853.8330739174185
 20
592.7942226897807
 30
0.0
 10
855.7266914927307
 20
592.794222689781
 30
0.0
 10
857.5900472649108
 20
592.794222689781
 30
0.0
 10
860.3414846522394
 20
592.794222689781
 30
0.0
 10
861.251310187754
 20
592.7942226897807
 30
0.0
 10
863.0559716826862
 20
592.7942226897807
 30
0.0
 10
863.9529530529491
 20
592.7942226897807
 30
0.0
 10
866.5624335821894
 20
592.7942226897807
 30
0.0
 10
868.2136089085989
 20
592.794222689781
 30
0.0
 10
870.1677701625422
 20
592.7942226897807
 30
0.0
 10
870.55306221438
 20
592.7942226897807
 30
0.0
 10
871.3123818268629
 20
592.7942226897807
 30
0.0
 10
871.6874346928246
 20
592.7942226897807
 30
0.0
 10
872.786392074494
 20
592.7942226897807
 30
0.0
 10
873.4838399186457
 20
592.7942226897807
 30
0.0
 10
875.4738283695592
 20
592.794222689781
 30
0.0
 10
876.6649946363829
 20
592.7942226897807
 30
0.0
 10
877.9801511900869
 20
592.7942226897807
 30
0.0
 10
878.2349308535453
 20
592.7942226897807
 30
0.0
 10
878.7215629526587
 20
592.794222689781
 30
0.0
 10
878.9539752155468
 20
592.7942226897807
 30
0.0
 10
879.619087706515
 20
592.7942226897807
 30
0.0
 10
880.4203922194572
 20
592.7942226897807
 30
0.0
 10
881.0530669403782
 20
592.7942226897807
 30
0.0
 10
881.4633889814269
 20
592.794222689781
 30
0.0
 10
881.5894465326165
 20
592.7942226897807
 30
0.0
 10
881.8197281811054
 20
592.7942226897807
 30
0.0
 10
881.9239051427596
 20
592.7942226897807
 30
0.0
 10
882.3850523669149
 20
592.794222689781
 30
0.0
 10
882.5691863822568
 20
592.794222689781
 30
0.0
 10
882.5670253743588
 20
592.7942226897807
 30
0.0
  0
SPLINE
  5
346
330
1F
100
AcDbEntity
  8
HEWI
  6
Continuous
370
     5
100
AcDbSpline
210
0.0
220
0.0
230
1.0
 70
    24
 71
     3
 72
    12
 73
     8
 74
     0
 42
0.000000001
 43
0.0000000001
 40
0.0
 40
0.0
 40
0.0
 40
0.0
 40
0.2499999999999998
 40
0.2499999999999998
 40
0.5
 40
0.5
 40
1.0
 40
1.0
 40
1.0
 40
1.0
 10
731.4318249635633
 20
592.7942226897807
 30
0.0
 10
741.6319886924574
 20
592.7942226897807
 30
0.0
 10
751.8320370863298
 20
592.7942226897807
 30
0.0
 10
772.232178745005
 20
592.794222689781
 30
0.0
 10
782.4322577621748
 20
592.7942226897807
 30
0.0
 10
813.0325500831752
 20
592.7942226897807
 30
0.0
 10
833.4328100045668
 20
592.7942226897807
 30
0.0
 10
853.8330739174185
 20
592.7942226897807
 30
0.0
  0
SPLINE
  5
347
330
1F
100
AcDbEntity
  8
HEWI
  6
Continuous
370
     5
100
AcDbSpline
210
0.0
220
0.0
230
1.0
 70
    28
 71
     3
 72
     8
 73
     4
 74
     0
 42
0.000000001
 43
0.0000000001
 40
0.0
 40
0.0
 40
0.0
 40
0.0
 40
1.0
 40
1.0
 40
1.0
 40
1.0
 10
883.7373597919242
 20
592.7942226897807
 30
0.0
 41
1.0
 10
883.737349790924
 20
592.7942226897807
 30
0.0
 41
0.8049530926921807
 10
877.9372620137516
 20
592.7942226897807
 30
0.0
 41
0.8049530926921807
 10
869.7309469335568
 20
592.7942226897807
 30
0.0
 41
1.0
  0
SPLINE
  5
348
330
1F
100
AcDbEntity
  8
HEWI
  6
Continuous
370
     5
100
AcDbSpline
210
0.0
220
0.0
230
1.0
 70
    24
 71
     3
 72
    35
 73
    31
 74
     0
 42
0.000000001
 43
0.0000000001
 40
0.0
 40
0.0
 40
0.0
 40
0.0
 40
0.1250000000000001
 40
0.1250000000000001
 40
0.1875000000000002
 40
0.1875000000000002
 40
0.2500000000000004
 40
0.2500000000000004
 40
0.3750000000000017
 40
0.3750000000000017
 40
0.4062500000000015
 40
0.4062500000000015
 40
0.4375000000000013
 40
0.4375000000000013
 40
0.5000000000000019
 40
0.5000000000000019
 40
0.6250000000000023
 40
0.6250000000000023
 40
0.6562500000000016
 40
0.6562500000000016
 40
0.6875000000000008
 40
0.6875000000000008
 40
0.7500000000000011
 40
0.8125000000000014
 40
0.8125000000000014
 40
0.8437500000000014
 40
0.8437500000000014
 40
0.8750000000000014
 40
0.8750000000000014
 40
1.0
 40
1.0
 40
1.0
 40
1.0
 10
521.6438968081987
 20
592.7942226897807
 30
0.0
 10
521.6417358054298
 20
592.7942226897807
 30
0.0
 10
521.8258602530616
 20
592.794222689781
 30
0.0
 10
522.370454026311
 20
592.7942226897807
 30
0.0
 10
522.597053147531
 20
592.7942226897807
 30
0.0
 10
523.1425382696643
 20
592.7942226897807
 30
0.0
 10
523.4628972440291
 20
592.7942226897807
 30
0.0
 10
524.54272368687
 20
592.7942226897807
 30
0.0
 10
525.4244766422202
 20
592.7942226897807
 30
0.0
 10
526.7275651911205
 20
592.794222689781
 30
0.0
 10
526.9983188291307
 20
592.7942226897807
 30
0.0
 10
527.5604347251811
 20
592.7942226897807
 30
0.0
 10
527.8526553888513
 20
592.7942226897807
 30
0.0
 10
528.753769420594
 20
592.7942226897807
 30
0.0
 10
529.3860551935911
 20
592.794222689781
 30
0.0
 10
531.3746547154968
 20
592.7942226897807
 30
0.0
 10
532.8218316235165
 20
592.794222689781
 30
0.0
 10
534.7865700164226
 20
592.7942226897807
 30
0.0
 10
535.1883779661553
 20
592.7942226897807
 30
0.0
 10
535.9996508794004
 20
592.7942226897807
 30
0.0
 10
536.4097884505802
 20
592.794222689781
 30
0.0
 10
537.6534613113456
 20
592.794222689781
 30
0.0
 10
539.3469891721382
 20
592.7942226897807
 30
0.0
 10
541.1101156117616
 20
592.7942226897807
 30
0.0
 10
542.4589489027671
 20
592.7942226897807
 30
0.0
 10
542.9129826351485
 20
592.7942226897807
 30
0.0
 10
543.8300603405504
 20
592.794222689781
 30
0.0
 10
544.2933285869933
 20
592.7942226897807
 30
0.0
 10
546.6105663662577
 20
592.7942226897807
 30
0.0
 10
548.4842034200424
 20
592.7942226897807
 30
0.0
 10
550.377848265139
 20
592.7942226897807
 30
0.0
  0
SPLINE
  5
349
330
1F
100
AcDbEntity
  8
HEWI
  6
Continuous
370
     5
100
AcDbSpline
210
0.0
220
0.0
230
1.0
 70
    24
 71
     3
 72
    95
 73
    91
 74
     0
 42
0.000000001
 43
0.0000000001
 40
0.0
 40
0.0
 40
0.0
 40
0.0
 40
0.0968401297292905
 40
0.1062480450446098
 40
0.1062480450446098
 40
0.1086000238734396
 40
0.1086000238734396
 40
0.1109520027022694
 40
0.1109520027022694
 40
0.115655960359929
 40
0.115655960359929
 40
0.1203599180175886
 40
0.1203599180175886
 40
0.1250638756752483
 40
0.1250638756752483
 40
0.1297678333329079
 40
0.1297678333329079
 40
0.1344717909905676
 40
0.1344717909905676
 40
0.1438797063058868
 40
0.1438797063058868
 40
0.1485836639635466
 40
0.1485836639635466
 40
0.1532876216212062
 40
0.1532876216212062
 40
0.1626955369365256
 40
0.1626955369365256
 40
0.1721034522518449
 40
0.1721034522518449
 40
0.1815113675671642
 40
0.1815113675671642
 40
0.1909192828824836
 40
0.1909192828824836
 40
0.1956232405401433
 40
0.1956232405401433
 40
0.200327198197803
 40
0.200327198197803
 40
0.2026791770266328
 40
0.2026791770266328
 40
0.2050311558554627
 40
0.2050311558554627
 40
0.2097351135131226
 40
0.2473667747744016
 40
0.397893419819518
 40
0.5484200648646345
 40
0.5860517261259135
 40
0.5907556837835734
 40
0.5931076626124035
 40
0.5931076626124035
 40
0.5954596414412336
 40
0.5954596414412336
 40
0.6048675567565537
 40
0.6048675567565537
 40
0.6095715144142135
 40
0.6095715144142135
 40
0.6142754720718735
 40
0.6142754720718735
 40
0.6236833873871938
 40
0.6236833873871938
 40
0.6260353662160238
 40
0.6260353662160238
 40
0.628387345044854
 40
0.628387345044854
 40
0.6330913027025141
 40
0.6330913027025141
 40
0.6424992180178345
 40
0.6424992180178345
 40
0.6472031756754947
 40
0.6472031756754947
 40
0.6495551545043247
 40
0.6495551545043247
 40
0.6519071333331548
 40
0.6519071333331548
 40
0.6613150486484752
 40
0.6613150486484752
 40
0.6660190063061351
 40
0.6660190063061351
 40
0.6683709851349652
 40
0.6683709851349652
 40
0.6707229639637954
 40
0.6707229639637954
 40
0.6801308792791155
 40
0.6801308792791155
 40
0.6895387945944357
 40
0.6895387945944357
 40
0.6918907734232657
 40
0.6918907734232657
 40
0.6942427522520958
 40
0.6989467099097558
 40
1.0
 40
1.0
 40
1.0
 40
1.0
 10
893.656795904909
 20
592.7942226897807
 30
0.0
 10
893.6567990345425
 20
592.7942226897807
 30
0.0
 10
893.6568024571498
 20
592.7942226897807
 30
0.0
 10
893.6568058797563
 20
592.7942226897807
 30
0.0
 10
893.6568158807567
 20
592.7942226897807
 30
0.0
 10
893.6584025368716
 20
592.7942226897807
 30
0.0
 10
893.6327678411085
 20
592.7942226897807
 30
0.0
 10
893.6089424141696
 20
592.7942226897807
 30
0.0
 10
893.5041898152135
 20
592.7942226897807
 30
0.0
 10
893.3899801223285
 20
592.7942226897807
 30
0.0
 10
893.0716024797346
 20
592.7942226897807
 30
0.0
 10
892.8674371199557
 20
592.7942226897807
 30
0.0
 10
892.3681338621063
 20
592.7942226897807
 30
0.0
 10
892.0723842258707
 20
592.794222689781
 30
0.0
 10
891.3954881165881
 20
592.7942226897807
 30
0.0
 10
891.0135976860035
 20
592.7942226897807
 30
0.0
 10
890.1627095563961
 20
592.7942226897807
 30
0.0
 10
889.6950475164196
 20
592.794222689781
 30
0.0
 10
888.1801070780252
 20
592.794222689781
 30
0.0
 10
887.0167234825133
 20
592.7942226897807
 30
0.0
 10
885.0458367219617
 20
592.7942226897807
 30
0.0
 10
884.3511581276599
 20
592.7942226897807
 30
0.0
 10
882.8845792873067
 20
592.7942226897807
 30
0.0
 10
882.1091200328281
 20
592.7942226897807
 30
0.0
 10
879.6985993344595
 20
592.7942226897807
 30
0.0
 10
877.9772947250306
 20
592.7942226897807
 30
0.0
 10
874.3120930021921
 20
592.7942226897807
 30
0.0
 10
872.3685392380057
 20
592.7942226897807
 30
0.0
 10
868.2498436432258
 20
592.7942226897807
 30
0.0
 10
866.1244977286306
 20
592.7942226897807
 30
0.0
 10
861.7581896459855
 20
592.7942226897807
 30
0.0
 10
859.5150493063922
 20
592.7942226897807
 30
0.0
 10
856.0588233397853
 20
592.7942226897807
 30
0.0
 10
854.8882269639507
 20
592.7942226897807
 30
0.0
 10
852.5541703035852
 20
592.7942226897807
 30
0.0
 10
851.3865449666811
 20
592.7942226897807
 30
0.0
 10
849.634229554263
 20
592.794222689781
 30
0.0
 10
849.0499781921041
 20
592.7942226897807
 30
0.0
 10
847.881186137533
 20
592.7942226897807
 30
0.0
 10
847.2966049097664
 20
592.794222689781
 30
0.0
 10
845.54295182059
 20
592.794222689781
 30
0.0
 10
835.021033285532
 20
592.7942226897807
 30
0.0
 10
787.0878488480458
 20
592.7942226897807
 30
0.0
 10
702.9125005675814
 20
592.7942226897807
 30
0.0
 10
618.7371522871175
 20
592.794222689781
 30
0.0
 10
570.803967849631
 20
592.794222689781
 30
0.0
 10
559.6974982848478
 20
592.7942226897807
 30
0.0
 10
557.9438451956714
 20
592.7942226897807
 30
0.0
 10
556.7747431362204
 20
592.794222689781
 30
0.0
 10
556.1901811473702
 20
592.794222689781
 30
0.0
 10
553.2681497159311
 20
592.7942226897807
 30
0.0
 10
550.9261475954033
 20
592.794222689781
 30
0.0
 10
547.4617241612816
 20
592.794222689781
 30
0.0
 10
546.3159471559414
 20
592.7942226897807
 30
0.0
 10
544.0612728866113
 20
592.7942226897807
 30
0.0
 10
542.9496001960422
 20
592.7942226897807
 30
0.0
 10
539.6610091269235
 20
592.794222689781
 30
0.0
 10
537.5300917099208
 20
592.7942226897807
 30
0.0
 10
534.9445326516172
 20
592.7942226897807
 30
0.0
 10
534.4313563029771
 20
592.7942226897807
 30
0.0
 10
533.4129968451312
 20
592.794222689781
 30
0.0
 10
532.9075151416342
 20
592.794222689781
 30
0.0
 10
531.4159980380641
 20
592.794222689781
 30
0.0
 10
530.4504703496718
 20
592.7942226897807
 30
0.0
 10
527.638113223834
 20
592.7942226897807
 30
0.0
 10
525.8754164219793
 20
592.7942226897807
 30
0.0
 10
523.4000724261847
 20
592.7942226897807
 30
0.0
 10
522.6031415854753
 20
592.7942226897807
 30
0.0
 10
521.4513293231308
 20
592.7942226897807
 30
0.0
 10
521.0747289569892
 20
592.794222689781
 30
0.0
 10
520.3425486312329
 20
592.794222689781
 30
0.0
 10
519.9861222836499
 20
592.794222689781
 30
0.0
 10
518.2515643248527
 20
592.794222689781
 30
0.0
 10
517.0149468703058
 20
592.794222689781
 30
0.0
 10
515.3850257668323
 20
592.794222689781
 30
0.0
 10
514.879384460398
 20
592.7942226897807
 30
0.0
 10
514.1782662412984
 20
592.794222689781
 30
0.0
 10
513.9541134857528
 20
592.7942226897807
 30
0.0
 10
513.5253159740451
 20
592.7942226897807
 30
0.0
 10
513.3209165162583
 20
592.794222689781
 30
0.0
 10
512.3565147135374
 20
592.794222689781
 30
0.0
 10
511.7612000431344
 20
592.7942226897807
 30
0.0
 10
510.9088503133988
 20
592.7942226897807
 30
0.0
 10
510.6539769152536
 20
592.794222689781
 30
0.0
 10
510.5591982953519
 20
592.794222689781
 30
0.0
 10
510.5541473059019
 20
592.7942226897807
 30
0.0
 10
510.5541038015514
 20
592.7942226897807
 30
0.0
 10
510.5541203032013
 20
592.7942226897807
 30
0.0
 10
510.5541303042011
 20
592.794222689781
 30
0.0
 10
510.554140305201
 20
592.7942226897807
 30
0.0
 10
510.5541503062011
 20
592.7942226897807
 30
0.0
  0
SPLINE
  5
34A
330
1F
100
AcDbEntity
  8
HEWI
  6
Continuous
370
     5
100
AcDbSpline
210
0.0
220
0.0
230
1.0
 70
     8
 71
     3
 72
    32
 73
    28
 74
     0
 42
0.000000001
 43
0.0000000001
 40
0.0
 40
0.0
 40
0.0
 40
0.0
 40
0.1250000000000679
 40
0.1875000000000951
 40
0.2187500000001056
 40
0.2343750000001143
 40
0.2421875000001187
 40
0.2421875000001187
 40
0.2500000000001231
 40
0.2500000000001231
 40
0.3750000000003789
 40
0.437500000000508
 40
0.4687500000005784
 40
0.4843750000006133
 40
0.4921875000006254
 40
0.4921875000006254
 40
0.5000000000006374
 40
0.5000000000006374
 40
0.6250000000006435
 40
0.6875000000006584
 40
0.7187500000006609
 40
0.7343750000006694
 40
0.7421875000006619
 40
0.7421875000006619
 40
0.7500000000006546
 40
0.7500000000006546
 40
1.0
 40
1.0
 40
1.0
 40
1.0
 10
510.5541263038007
 20
592.7942226897807
 30
0.0
 10
510.3234095491477
 20
592.8545066338116
 30
0.0
 10
509.9864212346406
 20
592.9693109389038
 30
0.0
 10
509.6091701316249
 20
593.1459114756753
 30
0.0
 10
509.4245200627611
 20
593.2448772892687
 30
0.0
 10
509.3331888989903
 20
593.2970265823675
 30
0.0
 10
509.2942599439443
 20
593.3199476479027
 30
0.0
 10
509.2683546344215
 20
593.3353553290362
 30
0.0
 10
509.2541608115914
 20
593.3438901409775
 30
0.0
 10
509.0562723807585
 20
593.4639666720336
 30
0.0
 10
508.7877947379273
 20
593.651487195301
 30
0.0
 10
508.4936357754531
 20
593.9017623898694
 30
0.0
 10
508.3513225327566
 20
594.0347752998427
 30
0.0
 10
508.2813574710434
 20
594.1032505830016
 30
0.0
 10
508.2516277788025
 20
594.1330190246779
 30
0.0
 10
508.2318647249103
 20
594.152958406185
 30
0.0
 10
508.2208224925589
 20
594.1641929340695
 30
0.0
 10
508.0740154202048
 20
594.3145661655708
 30
0.0
 10
507.8756966145973
 20
594.5405635761435
 30
0.0
 10
507.6599665907242
 20
594.8282123536645
 30
0.0
 10
507.5560120577882
 20
594.978033025388
 30
0.0
 10
507.5050124110704
 20
595.0544424319907
 30
0.0
 10
507.4833649095666
 20
595.0875105499792
 30
0.0
 10
507.4689797952187
 20
595.1096273462926
 30
0.0
 10
507.4608597195061
 20
595.1222022843626
 30
0.0
 10
507.2564178339447
 20
595.4406171302787
 30
0.0
 10
507.0735626871327
 20
595.7811742044382
 30
0.0
 10
506.9060990704167
 20
596.1535224415666
 30
0.0
  0
SPLINE
  5
34B
330
1F
100
AcDbEntity
  8
HEWI
  6
Continuous
370
     5
100
AcDbSpline
210
0.0
220
0.0
230
1.0
 70
    24
 71
     3
 72
    14
 73
    10
 74
     0
 42
0.000000001
 43
0.0000000001
 40
0.0
 40
0.0
 40
0.0
 40
0.0
 40
0.0140308739745528
 40
0.0140308739745528
 40
0.0701543698727643
 40
0.0701543698727643
 40
0.2946483534656102
 40
0.2946483534656102
 40
1.0
 40
1.0
 40
1.0
 40
1.0
 10
955.7723231121402
 20
726.1535224415665
 30
0.0
 10
955.4988730707707
 20
725.545517902669
 30
0.0
 10
955.2254230294016
 20
724.9375133637718
 30
0.0
 10
953.8581728225564
 20
721.8974906692854
 30
0.0
 10
952.7643726570802
 20
719.4654725136963
 30
0.0
 10
947.2953718296992
 20
707.3053817357505
 30
0.0
 10
942.9201711677944
 20
697.5773091133937
 30
0.0
 10
924.7982547079732
 20
657.2839984745469
 30
0.0
 10
911.0515389100573
 20
626.7187604580567
 30
0.0
 10
897.3048231121405
 20
596.1535224415666
 30
0.0
  0
SPLINE
  5
34C
330
1F
100
AcDbEntity
  8
HEWI
  6
Continuous
370
     5
100
AcDbSpline
210
0.0
220
0.0
230
1.0
 70
    24
 71
     3
 72
    18
 73
    14
 74
     0
 42
0.000000001
 43
0.0000000001
 40
0.0
 40
0.0
 40
0.0
 40
0.0
 40
0.0140308739745528
 40
0.0140308739745528
 40
0.0701543698727649
 40
0.0701543698727649
 40
0.294648353465611
 40
0.294648353465611
 40
0.6473241767328052
 40
0.6473241767328052
 40
0.7083768057193005
 40
0.7083768057193005
 40
1.0
 40
1.0
 40
1.0
 40
1.0
 10
447.5265922620718
 20
725.7433473795131
 30
0.0
 10
447.8000423034408
 20
725.1353428406156
 30
0.0
 10
448.0734923448097
 20
724.5273383017185
 30
0.0
 10
449.4407425516551
 20
721.4873156072317
 30
0.0
 10
450.5345427171313
 20
719.0552974516426
 30
0.0
 10
456.0035435445124
 20
706.8952066736969
 30
0.0
 10
460.3787442064173
 20
697.1671340513402
 30
0.0
 10
471.6273027672803
 20
672.1564424207383
 30
0.0
 10
478.5006606662384
 20
656.8738234124934
 30
0.0
 10
486.5638834269525
 20
638.9455904815
 30
0.0
 10
487.7537482887083
 20
636.2999765587519
 30
0.0
 10
494.6271061876664
 20
621.0173575505068
 30
0.0
 10
500.3105992248688
 20
608.3803524650098
 30
0.0
 10
505.9940922620708
 20
595.7433473795131
 30
0.0
  0
SPLINE
  5
34D
330
1F
100
AcDbEntity
  8
HEWI
  6
Continuous
370
     5
100
AcDbSpline
210
0.0
220
0.0
230
1.0
 70
    24
 71
     3
 72
    18
 73
    14
 74
     0
 42
0.000000001
 43
0.0000000001
 40
0.0
 40
0.0
 40
0.0
 40
0.0
 40
0.0140308739745531
 40
0.0140308739745531
 40
0.0701543698727649
 40
0.0701543698727649
 40
0.294648353465611
 40
0.294648353465611
 40
0.6473241767328059
 40
0.6473241767328059
 40
0.7083768057193013
 40
0.7083768057193013
 40
1.0
 40
1.0
 40
1.0
 40
1.0
 10
898.2168299204865
 20
595.7433473795131
 30
0.0
 10
898.4902799618556
 20
596.3513519184102
 30
0.0
 10
898.7637300032249
 20
596.9593564573075
 30
0.0
 10
900.1309802100703
 20
599.9993791517939
 30
0.0
 10
901.2247803755458
 20
602.4313973073831
 30
0.0
 10
906.6937812029271
 20
614.5914880853289
 30
0.0
 10
911.0689818648321
 20
624.3195607076858
 30
0.0
 10
922.317540425695
 20
649.3302523382872
 30
0.0
 10
929.1908983246532
 20
664.6128713465325
 30
0.0
 10
937.2541210853674
 20
682.5411042775257
 30
0.0
 10
938.4439859471234
 20
685.1867182002738
 30
0.0
 10
945.3173438460817
 20
700.4693372085189
 30
0.0
 10
951.0008368832837
 20
713.1063422940159
 30
0.0
 10
956.6843299204856
 20
725.7433473795131
 30
0.0
  0
SPLINE
  5
34E
330
1F
100
AcDbEntity
  8
HEWI
  6
Continuous
370
     5
100
AcDbSpline
210
0.0
220
0.0
230
1.0
 70
    24
 71
     3
 72
    25
 73
    21
 74
     0
 42
0.000000001
 43
0.0000000001
 40
0.0
 40
0.0
 40
0.0
 40
0.0
 40
0.0039062499999999
 40
0.0039062499999999
 40
0.0078124999999998
 40
0.0156249999999999
 40
0.0312499999999999
 40
0.0624999999999999
 40
0.125
 40
0.25
 40
0.5
 40
0.75
 40
0.8749999999999996
 40
0.9374999999999998
 40
0.96875
 40
0.984375
 40
0.9921875
 40
0.99609375
 40
0.99609375
 40
1.0
 40
1.0
 40
1.0
 40
1.0
 10
524.2861638613967
 20
732.7942226897809
 30
0.0
 10
524.7492341730775
 20
732.7942226897809
 30
0.0
 10
525.2123052022827
 20
732.7942226897809
 30
0.0
 10
526.1384473781365
 20
732.7942226897809
 30
0.0
 10
527.5276606419176
 20
732.7942226897809
 30
0.0
 10
530.769158257407
 20
732.7942226897809
 30
0.0
 10
537.2521534883852
 20
732.7942226897809
 30
0.0
 10
550.2181439503418
 20
732.7942226897809
 30
0.0
 10
576.1501248742554
 20
732.7942226897809
 30
0.0
 10
628.0140867220822
 20
732.7942226897809
 30
0.0
 10
702.1054607904061
 20
732.7942226897809
 30
0.0
 10
776.1968348587303
 20
732.7942226897809
 30
0.0
 10
828.060796706557
 20
732.7942226897809
 30
0.0
 10
853.9927776304702
 20
732.7942226897809
 30
0.0
 10
866.9587680924269
 20
732.7942226897809
 30
0.0
 10
873.4417633234054
 20
732.7942226897809
 30
0.0
 10
876.6832609388941
 20
732.7942226897809
 30
0.0
 10
878.0724742026759
 20
732.7942226897809
 30
0.0
 10
878.9986163785298
 20
732.7942226897809
 30
0.0
 10
879.4616874516391
 20
732.7942226897809
 30
0.0
 10
879.9247583436876
 20
732.7942226897809
 30
0.0
  0
SPLINE
  5
34F
330
1F
100
AcDbEntity
  8
HEWI
  6
Continuous
370
     5
100
AcDbSpline
210
0.0
220
0.0
230
1.0
 70
    24
 71
     3
 72
    36
 73
    32
 74
     0
 42
0.000000001
 43
0.0000000001
 40
0.0
 40
0.0
 40
0.0
 40
0.0
 40
0.1250000000000012
 40
0.1250000000000012
 40
0.1562500000000013
 40
0.1562500000000013
 40
0.1875000000000015
 40
0.1875000000000015
 40
0.2500000000000018
 40
0.2500000000000018
 40
0.3750000000000016
 40
0.3750000000000016
 40
0.4062500000000015
 40
0.4062500000000015
 40
0.4375000000000013
 40
0.4375000000000013
 40
0.500000000000001
 40
0.500000000000001
 40
0.5625000000000007
 40
0.5625000000000007
 40
0.6250000000000005
 40
0.6250000000000005
 40
0.7500000000000001
 40
0.7500000000000001
 40
0.8124999999999998
 40
0.8124999999999998
 40
0.84375
 40
0.84375
 40
0.8750000000000001
 40
0.8750000000000001
 40
1.0
 40
1.0
 40
1.0
 40
1.0
 10
879.9247583436876
 20
732.7942226897809
 30
0.0
 10
884.0660497387487
 20
732.7942226897809
 30
0.0
 10
888.1447840376305
 20
732.7942226897809
 30
0.0
 10
893.1670691515718
 20
732.7942226897809
 30
0.0
 10
894.1676821790435
 20
732.7942226897809
 30
0.0
 10
896.1611236585296
 20
732.7942226897809
 30
0.0
 10
897.1554012531667
 20
732.7942226897809
 30
0.0
 10
900.1166977032042
 20
732.7942226897809
 30
0.0
 10
902.0450916122756
 20
732.7942226897809
 30
0.0
 10
907.6970162355136
 20
732.7942226897809
 30
0.0
 10
911.2890059760459
 20
732.7942226897809
 30
0.0
 10
915.5556626245436
 20
732.7942226897809
 30
0.0
 10
916.3986072355983
 20
732.7942226897809
 30
0.0
 10
918.0576714752636
 20
732.7942226897809
 30
0.0
 10
918.8688124936263
 20
732.7942226897809
 30
0.0
 10
921.2481287261901
 20
732.7942226897809
 30
0.0
 10
922.7622833008176
 20
732.7942226897809
 30
0.0
 10
925.6493158218864
 20
732.7942226897809
 30
0.0
 10
927.0222451391768
 20
732.7942226897809
 30
0.0
 10
929.6259372723179
 20
732.7942226897809
 30
0.0
 10
930.8578776203074
 20
732.7942226897809
 30
0.0
 10
934.3254606516659
 20
732.7942226897809
 30
0.0
 10
936.2691283425244
 20
732.7942226897809
 30
0.0
 10
938.6553702076067
 20
732.7942226897809
 30
0.0
 10
939.3619260843756
 20
732.7942226897809
 30
0.0
 10
940.2855982333106
 20
732.7942226897809
 30
0.0
 10
940.5709818469496
 20
732.7942226897809
 30
0.0
 10
941.0944296619176
 20
732.7942226897809
 30
0.0
 10
941.3311608037883
 20
732.7942226897809
 30
0.0
 10
942.3918061978616
 20
732.7942226897809
 30
0.0
 10
942.8490491067419
 20
732.7942226897809
 30
0.0
 10
942.9102304022556
 20
732.7942226897809
 30
0.0
  0
SPLINE
  5
350
330
1F
100
AcDbEntity
  8
HEWI
  6
Continuous
370
     5
100
AcDbSpline
210
0.0
220
0.0
230
1.0
 70
    25
 71
     3
 72
    21
 73
    17
 74
     0
 42
0.000000001
 43
0.0000000001
 40
0.0
 40
0.0
 40
0.0
 40
0.0
 40
0.015625
 40
0.015625
 40
0.03125
 40
0.0624999999999999
 40
0.125
 40
0.2500000000000001
 40
0.5000000000000002
 40
0.7500000000000005
 40
0.8750000000000001
 40
0.9375000000000003
 40
0.96875
 40
0.984375
 40
0.984375
 40
1.0
 40
1.0
 40
1.0
 40
1.0
 10
942.9102304022535
 20
732.7942226897809
 30
0.0
 10
942.9190895136924
 20
732.7942226897809
 30
0.0
 10
942.9173121296937
 20
732.7942226897809
 30
0.0
 10
942.9172456230439
 20
732.7942226897809
 30
0.0
 10
942.9172191203939
 20
732.7942226897809
 30
0.0
 10
942.9172291213941
 20
732.7942226897809
 30
0.0
 10
942.9172391223939
 20
732.7942226897809
 30
0.0
 10
942.917249123394
 20
732.7942226897809
 30
0.0
 10
942.9172591243942
 20
732.7942226897809
 30
0.0
 10
942.917269125394
 20
732.7942226897809
 30
0.0
 10
942.917279126394
 20
732.7942226897809
 30
0.0
 10
942.9172891273939
 20
732.7942226897809
 30
0.0
 10
942.9172991283939
 20
732.7942226897809
 30
0.0
 10
942.9173091293941
 20
732.7942226897809
 30
0.0
 10
942.917319130394
 20
732.7942226897809
 30
0.0
 10
942.9190895053663
 20
732.7942226897809
 30
0.0
 10
942.9102304022535
 20
732.7942226897809
 30
0.0
  0
SPLINE
  5
351
330
1F
100
AcDbEntity
  8
HEWI
  6
Continuous
370
     5
100
AcDbSpline
210
0.0
220
0.0
230
1.0
 70
    24
 71
     3
 72
    36
 73
    32
 74
     0
 42
0.000000001
 43
0.0000000001
 40
0.0
 40
0.0
 40
0.0
 40
0.0
 40
0.1250000000000012
 40
0.1250000000000012
 40
0.1562500000000014
 40
0.1562500000000014
 40
0.1875000000000016
 40
0.1875000000000016
 40
0.2500000000000019
 40
0.2500000000000019
 40
0.3750000000000019
 40
0.3750000000000019
 40
0.4062500000000015
 40
0.4062500000000015
 40
0.4375000000000013
 40
0.4375000000000013
 40
0.5000000000000011
 40
0.5000000000000011
 40
0.562500000000001
 40
0.562500000000001
 40
0.625000000000001
 40
0.625000000000001
 40
0.7500000000000005
 40
0.7500000000000005
 40
0.8125000000000003
 40
0.8125000000000003
 40
0.8437500000000005
 40
0.8437500000000005
 40
0.8750000000000005
 40
0.8750000000000005
 40
1.0
 40
1.0
 40
1.0
 40
1.0
 10
524.2861638384583
 20
732.7942226897809
 30
0.0
 10
520.1448724434152
 20
732.7942226897809
 30
0.0
 10
516.0661381445536
 20
732.7942226897809
 30
0.0
 10
511.0438530306394
 20
732.7942226897809
 30
0.0
 10
510.0432400031735
 20
732.7942226897809
 30
0.0
 10
508.0497985236983
 20
732.7942226897809
 30
0.0
 10
507.0555209290676
 20
732.7942226897809
 30
0.0
 10
504.0942244790463
 20
732.7942226897809
 30
0.0
 10
502.1658305699864
 20
732.7942226897809
 30
0.0
 10
496.5139059467833
 20
732.7942226897809
 30
0.0
 10
492.9219162062749
 20
732.7942226897809
 30
0.0
 10
488.6552595578081
 20
732.7942226897809
 30
0.0
 10
487.8123149467599
 20
732.7942226897809
 30
0.0
 10
486.1532507071059
 20
732.7942226897809
 30
0.0
 10
485.3421096887483
 20
732.7942226897809
 30
0.0
 10
482.9627934562008
 20
732.7942226897809
 30
0.0
 10
481.4486388815841
 20
732.7942226897809
 30
0.0
 10
478.5616063605366
 20
732.7942226897809
 30
0.0
 10
477.1886770432566
 20
732.7942226897809
 30
0.0
 10
474.5849849101357
 20
732.7942226897809
 30
0.0
 10
473.3530445621581
 20
732.7942226897809
 30
0.0
 10
469.8854615308242
 20
732.7942226897809
 30
0.0
 10
467.9417938399808
 20
732.7942226897809
 30
0.0
 10
465.5555519749175
 20
732.7942226897809
 30
0.0
 10
464.8489960981543
 20
732.7942226897809
 30
0.0
 10
463.9253239492268
 20
732.7942226897809
 30
0.0
 10
463.6399403355905
 20
732.7942226897809
 30
0.0
 10
463.1164925206261
 20
732.7942226897809
 30
0.0
 10
462.8797613787571
 20
732.7942226897809
 30
0.0
 10
461.8191159846916
 20
732.7942226897809
 30
0.0
 10
461.3618730758152
 20
732.7942226897809
 30
0.0
 10
461.3006917803022
 20
732.7942226897809
 30
0.0
  0
SPLINE
  5
352
330
1F
100
AcDbEntity
  8
HEWI
  6
Continuous
370
     5
100
AcDbSpline
210
0.0
220
0.0
230
1.0
 70
    24
 71
     3
 72
    25
 73
    21
 74
     0
 42
0.000000001
 43
0.0000000001
 40
0.0
 40
0.0
 40
0.0
 40
0.0
 40
0.0039062500000001
 40
0.0039062500000001
 40
0.0078125000000001
 40
0.0156250000000002
 40
0.0312500000000002
 40
0.0625000000000001
 40
0.1250000000000002
 40
0.2500000000000002
 40
0.5000000000000002
 40
0.7500000000000001
 40
0.8750000000000001
 40
0.9375
 40
0.96875
 40
0.984375
 40
0.9921875
 40
0.99609375
 40
0.99609375
 40
1.0
 40
1.0
 40
1.0
 40
1.0
 10
879.924758341942
 20
732.7942226897809
 30
0.0
 10
879.461688030234
 20
732.7942226897809
 30
0.0
 10
878.9986170010008
 20
732.7942226897809
 30
0.0
 10
878.0724748250916
 20
732.7942226897809
 30
0.0
 10
876.683261561228
 20
732.7942226897809
 30
0.0
 10
873.4417639455452
 20
732.7942226897809
 30
0.0
 10
866.958768714181
 20
732.7942226897809
 30
0.0
 10
853.9927782514514
 20
732.7942226897809
 30
0.0
 10
828.0607973259927
 20
732.7942226897809
 30
0.0
 10
776.1968354750755
 20
732.7942226897809
 30
0.0
 10
702.1054614023364
 20
732.7942226897809
 30
0.0
 10
628.0140873295972
 20
732.7942226897809
 30
0.0
 10
576.1501254786799
 20
732.7942226897809
 30
0.0
 10
550.2181445532213
 20
732.7942226897809
 30
0.0
 10
537.2521540904918
 20
732.7942226897809
 30
0.0
 10
530.7691588591275
 20
732.7942226897809
 30
0.0
 10
527.5276612434448
 20
732.7942226897809
 30
0.0
 10
526.1384479795812
 20
732.7942226897809
 30
0.0
 10
525.2123058036718
 20
732.7942226897809
 30
0.0
 10
524.749234730535
 20
732.7942226897809
 30
0.0
 10
524.2861638384583
 20
732.7942226897809
 30
0.0
  0
SPLINE
  5
353
330
1F
100
AcDbEntity
  8
HEWI
  6
Continuous
370
     5
100
AcDbSpline
210
0.0
220
0.0
230
1.0
 70
    24
 71
     3
 72
    38
 73
    34
 74
     0
 42
0.000000001
 43
0.0000000001
 40
0.0
 40
0.0
 40
0.0
 40
0.0
 40
0.124999999999999
 40
0.124999999999999
 40
0.1562499999999987
 40
0.1562499999999987
 40
0.1874999999999984
 40
0.1874999999999984
 40
0.2499999999999975
 40
0.2499999999999975
 40
0.3749999999999956
 40
0.3749999999999956
 40
0.4062499999999953
 40
0.4062499999999953
 40
0.4374999999999952
 40
0.4374999999999952
 40
0.4999999999999952
 40
0.4999999999999952
 40
0.5624999999999952
 40
0.5624999999999952
 40
0.5937499999999952
 40
0.5937499999999952
 40
0.6249999999999952
 40
0.6249999999999952
 40
0.7499999999999958
 40
0.7499999999999958
 40
0.8124999999999966
 40
0.8124999999999966
 40
0.8437499999999971
 40
0.8437499999999971
 40
0.8749999999999975
 40
0.8749999999999975
 40
1.0
 40
1.0
 40
1.0
 40
1.0
 10
461.3006917803051
 20
732.7942226897809
 30
0.0
 10
461.3618731639402
 20
732.7942226897809
 30
0.0
 10
461.8189901903541
 20
732.7942226897809
 30
0.0
 10
462.8738199701799
 20
732.7942226897809
 30
0.0
 10
463.1091042969281
 20
732.7942226897809
 30
0.0
 10
463.6289340563848
 20
732.7942226897809
 30
0.0
 10
463.9139421648416
 20
732.7942226897809
 30
0.0
 10
464.8413072684676
 20
732.7942226897809
 30
0.0
 10
465.5501407798706
 20
732.7942226897809
 30
0.0
 10
467.9395483739648
 20
732.7942226897809
 30
0.0
 10
469.8805908897996
 20
732.7942226897809
 30
0.0
 10
472.7502890164172
 20
732.7942226897809
 30
0.0
 10
473.3473221293416
 20
732.7942226897809
 30
0.0
 10
474.5838933950603
 20
732.7942226897809
 30
0.0
 10
475.2198323925759
 20
732.7942226897809
 30
0.0
 10
477.1795353116801
 20
732.7942226897809
 30
0.0
 10
478.5550571506919
 20
732.7942226897809
 30
0.0
 10
481.4416195383365
 20
732.7942226897809
 30
0.0
 10
482.9527164212189
 20
732.7942226897809
 30
0.0
 10
485.3218992297441
 20
732.7942226897809
 30
0.0
 10
486.1287364696361
 20
732.7942226897809
 30
0.0
 10
487.7770904389074
 20
732.7942226897809
 30
0.0
 10
488.6195355574048
 20
732.7942226897809
 30
0.0
 10
492.9104012999673
 20
732.7942226897809
 30
0.0
 10
496.5105388182506
 20
732.7942226897809
 30
0.0
 10
502.1524145946206
 20
732.7942226897809
 30
0.0
 10
504.0737235613514
 20
732.7942226897809
 30
0.0
 10
507.0178799922548
 20
732.7942226897809
 30
0.0
 10
508.0105957112484
 20
732.7942226897809
 30
0.0
 10
510.0131109014351
 20
732.7942226897809
 30
0.0
 10
511.0178272677069
 20
732.7942226897809
 30
0.0
 10
516.0584384896334
 20
732.7942226897809
 30
0.0
 10
520.1448944270108
 20
732.7942226897809
 30
0.0
 10
524.2861638613967
 20
732.7942226897809
 30
0.0
  0
SPLINE
  5
354
330
1F
100
AcDbEntity
  8
HEWI
  6
Continuous
370
     5
100
AcDbSpline
210
0.0
220
0.0
230
1.0
 70
    25
 71
     3
 72
    21
 73
    17
 74
     0
 42
0.000000001
 43
0.0000000001
 40
0.0
 40
0.0
 40
0.0
 40
0.0
 40
0.0156249999999999
 40
0.0156249999999999
 40
0.0312499999999998
 40
0.0624999999999999
 40
0.1249999999999997
 40
0.2499999999999997
 40
0.4999999999999999
 40
0.7499999999999997
 40
0.8749999999999996
 40
0.9374999999999998
 40
0.96875
 40
0.984375
 40
0.984375
 40
1.0
 40
1.0
 40
1.0
 40
1.0
 10
461.3006917803036
 20
732.7942226897809
 30
0.0
 10
461.2918326688649
 20
732.7942226897809
 30
0.0
 10
461.2936100528637
 20
732.7942226897809
 30
0.0
 10
461.2936765595136
 20
732.7942226897809
 30
0.0
 10
461.2937030621636
 20
732.7942226897809
 30
0.0
 10
461.2936930611637
 20
732.7942226897809
 30
0.0
 10
461.2936830601636
 20
732.7942226897809
 30
0.0
 10
461.2936730591636
 20
732.7942226897809
 30
0.0
 10
461.2936630581636
 20
732.7942226897809
 30
0.0
 10
461.2936530571636
 20
732.7942226897809
 30
0.0
 10
461.2936430561637
 20
732.7942226897809
 30
0.0
 10
461.2936330551636
 20
732.7942226897809
 30
0.0
 10
461.2936230541635
 20
732.7942226897809
 30
0.0
 10
461.2936130531635
 20
732.7942226897809
 30
0.0
 10
461.2936030521637
 20
732.7942226897809
 30
0.0
 10
461.2918326771914
 20
732.7942226897809
 30
0.0
 10
461.3006917803036
 20
732.7942226897809
 30
0.0
  0
SPLINE
  5
355
330
1F
100
AcDbEntity
  8
HEWI
  6
Continuous
370
     5
100
AcDbSpline
210
0.0
220
0.0
230
1.0
 70
    24
 71
     3
 72
   113
 73
   109
 74
     0
 42
0.000000001
 43
0.0000000001
 40
0.0
 40
0.0
 40
0.0
 40
0.0
 40
0.015066092703202
 40
0.0420240888231168
 40
0.0487635878530955
 40
0.0521333373680849
 40
0.0521333373680849
 40
0.0555030868830742
 40
0.0555030868830742
 40
0.0689820849430315
 40
0.0689820849430315
 40
0.0723518344580209
 40
0.0723518344580209
 40
0.0757215839730103
 40
0.0757215839730103
 40
0.082461083002989
 40
0.082461083002989
 40
0.0959400810629465
 40
0.0959400810629465
 40
0.109419079122904
 40
0.109419079122904
 40
0.1161585781528828
 40
0.1161585781528828
 40
0.1228980771828615
 40
0.1228980771828615
 40
0.1363770752428189
 40
0.1363770752428189
 40
0.1498560733027762
 40
0.1498560733027762
 40
0.1532258228177656
 40
0.1532258228177656
 40
0.1565955723327551
 40
0.1565955723327551
 40
0.163335071362734
 40
0.163335071362734
 40
0.1768140694226914
 40
0.1768140694226914
 40
0.1835535684526701
 40
0.1835535684526701
 40
0.1869233179676596
 40
0.1869233179676596
 40
0.190293067482649
 40
0.190293067482649
 40
0.2037720655426069
 40
0.2037720655426069
 40
0.2172510636025645
 40
0.2172510636025645
 40
0.2239905626325436
 40
0.2239905626325436
 40
0.2307300616625226
 40
0.2307300616625226
 40
0.2340998111775121
 40
0.2340998111775121
 40
0.2374695606925016
 40
0.2442090597224807
 40
0.2576880577824385
 40
0.2846460539023543
 40
0.5003100228616813
 40
0.7159739918210084
 40
0.7429319879409242
 40
0.7564109860008821
 40
0.7631504850308613
 40
0.7665202345458507
 40
0.7665202345458507
 40
0.7698899840608405
 40
0.7698899840608405
 40
0.7766294830908197
 40
0.7766294830908197
 40
0.7833689821207991
 40
0.7833689821207991
 40
0.7968479801807577
 40
0.7968479801807577
 40
0.8103269782407156
 40
0.8103269782407156
 40
0.8136967277557054
 40
0.8136967277557054
 40
0.8170664772706947
 40
0.8170664772706947
 40
0.8238059763006743
 40
0.8238059763006743
 40
0.8507639724205915
 40
0.8507639724205915
 40
0.8642429704805502
 40
0.8642429704805502
 40
0.8777219685405086
 40
0.8777219685405086
 40
0.8844614675704878
 40
0.8844614675704878
 40
0.8878312170854773
 40
0.8878312170854773
 40
0.8912009666004671
 40
0.8912009666004671
 40
0.9046799646604252
 40
0.9046799646604252
 40
0.9181589627203836
 40
0.9181589627203836
 40
0.9248984617503628
 40
0.9248984617503628
 40
0.9316379607803424
 40
0.9316379607803424
 40
0.9451169588403008
 40
0.9451169588403008
 40
0.9484867083552902
 40
0.9484867083552902
 40
0.9518564578702795
 40
0.9585959569002591
 40
0.9855539530201758
 40
1.0
 40
1.0
 40
1.0
 40
1.0
 10
452.0866264377693
 20
732.794222689781
 30
0.0
 10
452.0866253307873
 20
732.7942226897809
 30
0.0
 10
452.0866218691208
 20
732.7942226897809
 30
0.0
 10
452.0866163028014
 20
732.7942226897809
 30
0.0
 10
452.0866063018013
 20
732.7942226897809
 30
0.0
 10
452.0865963008013
 20
732.7942226897809
 30
0.0
 10
452.0865862998014
 20
732.7942226897809
 30
0.0
 10
452.0832680732944
 20
732.794222689781
 30
0.0
 10
452.1288936225936
 20
732.794222689781
 30
0.0
 10
452.3376461166916
 20
732.7942226897809
 30
0.0
 10
452.8175532093968
 20
732.7942226897809
 30
0.0
 10
452.9245344325238
 20
732.7942226897809
 30
0.0
 10
453.1607888599165
 20
732.7942226897809
 30
0.0
 10
453.2902857681147
 20
732.7942226897809
 30
0.0
 10
453.7100272424129
 20
732.7942226897809
 30
0.0
 10
454.0318039243941
 20
732.7942226897809
 30
0.0
 10
455.1193473105469
 20
732.7942226897809
 30
0.0
 10
456.0066941213809
 20
732.7942226897809
 30
0.0
 10
458.1047201343038
 20
732.7942226897809
 30
0.0
 10
459.3156634910548
 20
732.7942226897809
 30
0.0
 10
461.3785609614244
 20
732.7942226897809
 30
0.0
 10
462.1093074604515
 20
732.7942226897809
 30
0.0
 10
463.6355100609208
 20
732.7942226897809
 30
0.0
 10
464.4329546855598
 20
732.7942226897809
 30
0.0
 10
466.9263101401391
 20
732.7942226897809
 30
0.0
 10
468.7218785862613
 20
732.7942226897809
 30
0.0
 10
472.5765543316405
 20
732.7942226897809
 30
0.0
 10
474.6369366004756
 20
732.7942226897809
 30
0.0
 10
477.3847732795255
 20
732.7942226897809
 30
0.0
 10
477.9429658071617
 20
732.7942226897809
 30
0.0
 10
479.0689950149134
 20
732.7942226897809
 30
0.0
 10
479.637754318496
 20
732.7942226897809
 30
0.0
 10
481.3610569572039
 20
732.7942226897809
 30
0.0
 10
482.5325939924589
 20
732.7942226897809
 30
0.0
 10
486.1146829312028
 20
732.7942226897809
 30
0.0
 10
488.5931870269971
 20
732.7942226897809
 30
0.0
 10
492.4447559819826
 20
732.7942226897809
 30
0.0
 10
493.7509466098072
 20
732.7942226897809
 30
0.0
 10
495.7443182701228
 20
732.7942226897809
 30
0.0
 10
496.4144637172174
 20
732.7942226897809
 30
0.0
 10
497.7663233588692
 20
732.7942226897809
 30
0.0
 10
498.4491796175486
 20
732.7942226897809
 30
0.0
 10
501.8776303630826
 20
732.7942226897809
 30
0.0
 10
504.6579808951531
 20
732.7942226897809
 30
0.0
 10
510.2904649861312
 20
732.7942226897809
 30
0.0
 10
513.142718904295
 20
732.7942226897809
 30
0.0
 10
517.4758716977
 20
732.7942226897809
 30
0.0
 10
518.9293767923978
 20
732.794222689781
 30
0.0
 10
521.8549554634831
 20
732.794222689781
 30
0.0
 10
523.329864143758
 20
732.7942226897809
 30
0.0
 10
525.5398629623991
 20
732.7942226897809
 30
0.0
 10
526.2765546882019
 20
732.7942226897809
 30
0.0
 10
527.7499320815751
 20
732.7942226897809
 30
0.0
 10
529.9599981716347
 20
732.7942226897809
 30
0.0
 10
535.1168190484408
 20
732.7942226897809
 30
0.0
 10
545.4304608020528
 20
732.7942226897809
 30
0.0
 10
601.4188017502317
 20
732.7942226897809
 30
0.0
 10
701.6084644996056
 20
732.7942226897809
 30
0.0
 10
801.79812724898
 20
732.7942226897809
 30
0.0
 10
857.7864681971588
 20
732.7942226897809
 30
0.0
 10
868.1001099507707
 20
732.7942226897809
 30
0.0
 10
873.2569308275767
 20
732.7942226897809
 30
0.0
 10
875.4669969176365
 20
732.7942226897809
 30
0.0
 10
876.9403743110096
 20
732.7942226897809
 30
0.0
 10
877.6770670373274
 20
732.7942226897809
 30
0.0
 10
879.8871182024507
 20
732.7942226897809
 30
0.0
 10
881.3633829845493
 20
732.7942226897809
 30
0.0
 10
884.2955767077214
 20
732.7942226897809
 30
0.0
 10
885.7524708190048
 20
732.7942226897809
 30
0.0
 10
890.0961071395771
 20
732.7942226897809
 30
0.0
 10
892.9557860501306
 20
732.7942226897809
 30
0.0
 10
898.6040262848062
 20
732.7942226897809
 30
0.0
 10
901.3927582458535
 20
732.7942226897809
 30
0.0
 10
904.8326602779413
 20
732.7942226897809
 30
0.0
 10
905.5194774830763
 20
732.7942226897809
 30
0.0
 10
906.8811210809496
 20
732.7942226897809
 30
0.0
 10
907.5561368654868
 20
732.7942226897809
 30
0.0
 10
909.5640959628633
 20
732.7942226897809
 30
0.0
 10
910.8799808914367
 20
732.7942226897809
 30
0.0
 10
917.3480644295066
 20
732.7942226897809
 30
0.0
 10
922.1681943694948
 20
732.7942226897809
 30
0.0
 10
928.8507135119273
 20
732.7942226897809
 30
0.0
 10
930.9419389980167
 20
732.7942226897809
 30
0.0
 10
934.8562935109088
 20
732.7942226897809
 30
0.0
 10
936.6815782499479
 20
732.7942226897809
 30
0.0
 10
939.2210645435753
 20
732.7942226897809
 30
0.0
 10
940.0342352549897
 20
732.7942226897809
 30
0.0
 10
941.2026371058226
 20
732.7942226897809
 30
0.0
 10
941.5835774221518
 20
732.7942226897809
 30
0.0
 10
942.3282822870612
 20
732.7942226897809
 30
0.0
 10
942.6922545574177
 20
732.7942226897809
 30
0.0
 10
944.457182721252
 20
732.7942226897809
 30
0.0
 10
945.7042750638116
 20
732.7942226897809
 30
0.0
 10
947.8759797049063
 20
732.7942226897809
 30
0.0
 10
948.799934609495
 20
732.7942226897809
 30
0.0
 10
949.9434474422564
 20
732.7942226897809
 30
0.0
 10
950.2840643169374
 20
732.7942226897809
 30
0.0
 10
950.8820989102886
 20
732.7942226897809
 30
0.0
 10
951.1393250748435
 20
732.7942226897809
 30
0.0
 10
951.7755489370351
 20
732.7942226897809
 30
0.0
 10
952.0241075643117
 20
732.7942226897809
 30
0.0
 10
952.1185848556987
 20
732.7942226897809
 30
0.0
 10
952.1242613753059
 20
732.7942226897809
 30
0.0
 10
952.1243063798062
 20
732.7942226897809
 30
0.0
 10
952.124326381806
 20
732.7942226897809
 30
0.0
 10
952.1243063798062
 20
732.7942226897809
 30
0.0
 10
952.1243008842644
 20
732.794222689781
 30
0.0
 10
952.1242974542612
 20
732.794222689781
 30
0.0
 10
952.1242963821956
 20
732.7942226897809
 30
0.0
  0
SPLINE
  5
356
330
1F
100
AcDbEntity
  8
HEWI
  6
Continuous
370
     5
100
AcDbSpline
210
0.0
220
0.0
230
1.0
 70
    24
 71
     3
 72
    38
 73
    34
 74
     0
 42
0.000000001
 43
0.0000000001
 40
0.0
 40
0.0
 40
0.0
 40
0.0
 40
0.1250000000000015
 40
0.1250000000000015
 40
0.1562500000000016
 40
0.1562500000000016
 40
0.1875000000000017
 40
0.1875000000000017
 40
0.2500000000000018
 40
0.2500000000000018
 40
0.3750000000000025
 40
0.3750000000000025
 40
0.4062500000000028
 40
0.4062500000000028
 40
0.4375000000000029
 40
0.4375000000000029
 40
0.5000000000000028
 40
0.5000000000000028
 40
0.5625000000000027
 40
0.5625000000000027
 40
0.5937500000000026
 40
0.5937500000000026
 40
0.6250000000000026
 40
0.6250000000000026
 40
0.7500000000000017
 40
0.7500000000000017
 40
0.8125000000000012
 40
0.8125000000000012
 40
0.8437500000000007
 40
0.8437500000000007
 40
0.8750000000000003
 40
0.8750000000000003
 40
1.0
 40
1.0
 40
1.0
 40
1.0
 10
942.9102304022523
 20
732.7942226897809
 30
0.0
 10
942.8490490186304
 20
732.7942226897809
 30
0.0
 10
942.3919319923964
 20
732.7942226897809
 30
0.0
 10
941.3371022130013
 20
732.7942226897809
 30
0.0
 10
941.1018178863491
 20
732.7942226897809
 30
0.0
 10
940.5819881271073
 20
732.7942226897809
 30
0.0
 10
940.2969800187731
 20
732.7942226897809
 30
0.0
 10
939.3696149155175
 20
732.7942226897809
 30
0.0
 10
938.6607814043973
 20
732.7942226897809
 30
0.0
 10
936.2713738112576
 20
732.7942226897809
 30
0.0
 10
934.3303312962003
 20
732.7942226897809
 30
0.0
 10
931.4606331707615
 20
732.7942226897809
 30
0.0
 10
930.8636000581053
 20
732.7942226897809
 30
0.0
 10
929.6270287928438
 20
732.7942226897809
 30
0.0
 10
928.9910897955634
 20
732.7942226897809
 30
0.0
 10
927.0313868771836
 20
732.7942226897809
 30
0.0
 10
925.6558650386804
 20
732.7942226897809
 30
0.0
 10
922.7693026521096
 20
732.7942226897809
 30
0.0
 10
921.2582057697927
 20
732.7942226897809
 30
0.0
 10
918.8890229621629
 20
732.7942226897809
 30
0.0
 10
918.0821857225772
 20
732.7942226897809
 30
0.0
 10
916.433831753936
 20
732.7942226897809
 30
0.0
 10
915.5913866358092
 20
732.7942226897809
 30
0.0
 10
911.3005208946056
 20
732.7942226897809
 30
0.0
 10
907.7003833774623
 20
732.7942226897809
 30
0.0
 10
902.0585076029119
 20
732.7942226897809
 30
0.0
 10
900.1371986368061
 20
732.7942226897809
 30
0.0
 10
897.1930422068718
 20
732.7942226897809
 30
0.0
 10
896.2003264882698
 20
732.7942226897809
 30
0.0
 10
894.1978112985859
 20
732.7942226897809
 30
0.0
 10
893.1930949325632
 20
732.7942226897809
 30
0.0
 10
888.1524837118663
 20
732.7942226897809
 30
0.0
 10
884.0660277754281
 20
732.7942226897809
 30
0.0
 10
879.924758341942
 20
732.7942226897809
 30
0.0
  0
SPLINE
  5
357
330
1F
100
AcDbEntity
  8
HEWI
  6
Continuous
370
     5
100
AcDbSpline
210
0.0
220
0.0
230
1.0
 70
     8
 71
     3
 72
    21
 73
    17
 74
     0
 42
0.000000001
 43
0.0000000001
 40
0.0
 40
0.0
 40
0.0
 40
0.0
 40
0.0409002795697796
 40
0.0821053424982922
 40
0.1236393298416927
 40
0.1655294441392086
 40
0.2078073556686917
 40
0.2505105208266207
 40
0.3744383406012826
 40
0.4996833359543055
 40
0.5848912924066867
 40
0.6691166708887925
 40
0.7525463630671424
 40
0.8353803571533521
 40
0.9178035421192856
 40
1.0
 40
1.0
 40
1.0
 40
1.0
 10
879.8554610894091
 20
730.0487251085103
 30
0.0
 10
881.108245313325
 20
730.0727467897717
 30
0.0
 10
883.6231493399729
 20
730.1209691586189
 30
0.0
 10
887.39345520218
 20
730.1854070508642
 30
0.0
 10
891.161794843857
 20
730.2444091607518
 30
0.0
 10
894.9137630832691
 20
730.297379140707
 30
0.0
 10
898.6350494189011
 20
730.3444757391072
 30
0.0
 10
904.6239370936431
 20
730.4116214957501
 30
0.0
 10
912.5606426151584
 20
730.4774824002743
 30
0.0
 10
920.5336702312557
 20
730.5048301620092
 30
0.0
 10
926.4958287281864
 20
730.4947976375867
 30
0.0
 10
930.79437905072
 20
730.4618660047479
 30
0.0
 10
934.1816570111832
 20
730.4048131308568
 30
0.0
 10
936.6087227114736
 20
730.3230624482538
 30
0.0
 10
938.1489226145298
 20
730.2188326181147
 30
0.0
 10
938.3602383347037
 20
730.1287875989141
 30
0.0
 10
938.4657506744977
 20
730.0838270978458
 30
0.0
  0
SPLINE
  5
358
330
1F
100
AcDbEntity
  8
HEWI
  6
Continuous
100
AcDbSpline
210
0.0
220
0.0
230
1.0
 70
     8
 71
     3
 72
    10
 73
     6
 74
     0
 42
0.000000001
 43
0.0000000001
 40
0.0
 40
0.0
 40
0.0
 40
0.0
 40
0.0000458882946707
 40
0.0000458882946707
 40
1.0
 40
1.0
 40
1.0
 40
1.0
 10
938.4636839188347
 20
730.0670318003549
 30
0.0
 10
938.4636876366116
 20
730.0670333148112
 30
0.0
 10
938.4636877846828
 20
730.0670395699174
 30
0.0
 10
938.4665679422337
 20
730.072682149384
 30
0.0
 10
938.4672581148139
 20
730.0782809162697
 30
0.0
 10
938.4657506744987
 20
730.0838270978422
 30
0.0
  0
SPLINE
  5
359
330
1F
100
AcDbEntity
  8
HEWI
  6
Continuous
370
     5
100
AcDbSpline
210
0.0
220
0.0
230
1.0
 70
     8
 71
     3
 72
    10
 73
     6
 74
     0
 42
0.000000001
 43
0.0000000001
 40
0.0
 40
0.0
 40
0.0
 40
0.0
 40
0.0000647068776648
 40
0.0000647068776648
 40
1.0
 40
1.0
 40
1.0
 40
1.0
 10
878.928622531982
 20
730.0302906672807
 30
0.0
 10
878.9286425259177
 20
730.0302906672807
 30
0.0
 10
878.9286625117703
 20
730.0302914713036
 30
0.0
 10
879.2375924927499
 20
730.0365042729388
 30
0.0
 10
879.5465376109458
 20
730.0426486195772
 30
0.0
 10
879.8554610894091
 20
730.0487251085101
 30
0.0
  0
SPLINE
  5
35A
330
1F
100
AcDbEntity
  8
HEWI
  6
Continuous
370
     5
100
AcDbSpline
210
0.0
220
0.0
230
1.0
 70
     8
 71
     3
 72
    24
 73
    20
 74
     0
 42
0.000000001
 43
0.0000000001
 40
0.0
 40
0.0
 40
0.0
 40
0.0
 40
0.0410503888713977
 40
0.0821334440381619
 40
0.1232756872197079
 40
0.1644951816693644
 40
0.2058173733795071
 40
0.2472689702376719
 40
0.288868641464322
 40
0.3306391001401823
 40
0.3726100710005019
 40
0.4148049714529904
 40
0.4572451849942371
 40
0.4999531542926878
 40
0.6251753553049468
 40
0.7491061677518417
 40
0.8342100470556971
 40
0.9177616883002476
 40
1.0
 40
1.0
 40
1.0
 40
1.0
 10
938.4657506744987
 20
730.0838270978422
 30
0.0
 10
938.4363037851688
 20
730.1068571470969
 30
0.0
 10
938.3773865738247
 20
730.1529355720203
 30
0.0
 10
937.9844145769
 20
730.2143866748033
 30
0.0
 10
937.3682991913442
 20
730.2702304730992
 30
0.0
 10
936.5086311243622
 20
730.3199303636581
 30
0.0
 10
935.412047241982
 20
730.3636274265763
 30
0.0
 10
934.0783585085969
 20
730.4012772237191
 30
0.0
 10
932.5105212608916
 20
730.4328980816347
 30
0.0
 10
930.711251946605
 20
730.4584866600889
 30
0.0
 10
928.6838855893776
 20
730.4780382330592
 30
0.0
 10
926.4328312395447
 20
730.4915572704274
 30
0.0
 10
923.9628352035229
 20
730.4990379685092
 30
0.0
 10
919.5607533415643
 20
730.5014438636128
 30
0.0
 10
912.6021165301194
 20
730.4776859215484
 30
0.0
 10
903.5206853098435
 20
730.4026694340158
 30
0.0
 10
895.0143213189223
 20
730.301167279117
 30
0.0
 10
887.4566454055811
 20
730.190665918375
 30
0.0
 10
882.3757729024482
 20
730.0957881824972
 30
0.0
 10
879.855461091034
 20
730.048725108542
 30
0.0
  0
SPLINE
  5
35B
330
1F
100
AcDbEntity
  8
HEWI
  6
Continuous
100
AcDbSpline
210
0.0
220
0.0
230
1.0
 70
     8
 71
     3
 72
    10
 73
     6
 74
     0
 42
0.000000001
 43
0.0000000001
 40
0.0
 40
0.0
 40
0.0
 40
0.0
 40
0.9999550585989114
 40
0.9999550585989114
 40
1.0
 40
1.0
 40
1.0
 40
1.0
 10
938.4657506744977
 20
730.0838270978458
 30
0.0
 10
938.4672581147908
 20
730.0782809163588
 30
0.0
 10
938.4665679422555
 20
730.0726821495599
 30
0.0
 10
938.4636891360305
 20
730.0670405445372
 30
0.0
 10
938.4636870884095
 20
730.0670365318263
 30
0.0
 10
938.4636843961979
 20
730.0670312560335
 30
0.0
  0
SPLINE
  5
35C
330
1F
100
AcDbEntity
  8
HEWI
  6
Continuous
370
     5
100
AcDbSpline
210
0.0
220
0.0
230
1.0
 70
     8
 71
     3
 72
    10
 73
     6
 74
     0
 42
0.000000001
 43
0.0000000001
 40
0.0
 40
0.0
 40
0.0
 40
0.0
 40
0.999935276768822
 40
0.999935276768822
 40
1.0
 40
1.0
 40
1.0
 40
1.0
 10
879.855461091034
 20
730.048725108542
 30
0.0
 10
879.546537617081
 20
730.0426486196982
 30
0.0
 10
879.2375925033969
 20
730.0365042731507
 30
0.0
 10
878.9286625218746
 20
730.0302914715067
 30
0.0
 10
878.9286425269285
 20
730.0302910693938
 30
0.0
 10
878.928622531982
 20
730.0302906672807
 30
0.0
  0
SPLINE
  5
35D
330
1F
100
AcDbEntity
  8
HEWI
  6
Continuous
100
AcDbSpline
210
0.0
220
0.0
230
1.0
 70
    28
 71
     3
 72
    16
 73
    12
 74
     0
 42
0.000000001
 43
0.0000000001
 40
0.0
 40
0.0
 40
0.0
 40
0.0
 40
0.25
 40
0.25
 40
0.5
 40
0.5
 40
0.75
 40
0.75
 40
0.875
 40
0.875
 40
1.0
 40
1.0
 40
1.0
 40
1.0
 10
756.7090439770986
 20
588.5987245338891
 30
0.0
 41
1.000000000000161
 10
757.2601258174809
 20
588.5987245339045
 30
0.0
 41
1.000000000000155
 10
757.8093988026036
 20
588.5987245338991
 30
0.0
 41
1.00000000000015
 10
758.8723094102191
 20
588.5987245338794
 30
0.0
 41
1.000000000000142
 10
759.3883437666826
 20
588.5987245339097
 30
0.0
 41
1.000000000000137
 10
760.3882246263658
 20
588.5987245338692
 30
0.0
 41
1.000000000000133
 10
760.8719950304998
 20
588.598724533913
 30
0.0
 41
1.000000000000132
 10
761.5690124613928
 20
588.598724533878
 30
0.0
 41
1.000000000000132
 10
761.796710619211
 20
588.5987245338878
 30
0.0
 41
1.000000000000132
 10
762.2365458043037
 20
588.5987245338915
 30
0.0
 41
1.000000000000133
 10
762.4493649460458
 20
588.5987245338927
 30
0.0
 41
1.000000000000135
 10
762.6549455568864
 20
588.5987245338895
 30
0.0
 41
1.000000000000136
  0
SPLINE
  5
35E
330
1F
100
AcDbEntity
  8
HEWI
  6
Continuous
100
AcDbSpline
210
0.0
220
0.0
230
1.0
 70
    28
 71
     3
 72
    12
 73
     8
 74
     0
 42
0.000000001
 43
0.0000000001
 40
0.0
 40
0.0
 40
0.0
 40
0.0
 40
0.2499999999999999
 40
0.2499999999999999
 40
0.5
 40
0.5
 40
1.0
 40
1.0
 40
1.0
 40
1.0
 10
737.8032673612376
 20
588.5987245339471
 30
0.0
 41
0.9999999999979527
 10
737.0364499958838
 20
588.5987245339554
 30
0.0
 41
0.9999999999980996
 10
736.2553620045432
 20
588.5987245339496
 30
0.0
 41
0.9999999999982291
 10
734.6665763586598
 20
588.5987245339329
 30
0.0
 41
0.9999999999984607
 10
733.8588744510928
 20
588.5987245339413
 30
0.0
 41
0.9999999999985631
 10
731.3997915920212
 20
588.598724533926
 30
0.0
 41
0.999999999998838
 10
729.7123576686617
 20
588.598724533917
 30
0.0
 41
0.9999999999989768
 10
727.9900351353932
 20
588.5987245339286
 30
0.0
 41
0.999999999999089
  0
SPLINE
  5
35F
330
1F
100
AcDbEntity
  8
HEWI
  6
Continuous
100
AcDbSpline
210
0.0
220
0.0
230
1.0
 70
    28
 71
     3
 72
    38
 73
    34
 74
     0
 42
0.000000001
 43
0.0000000001
 40
0.0
 40
0.0
 40
0.0
 40
0.0
 40
0.125
 40
0.125
 40
0.1874999999999999
 40
0.1874999999999999
 40
0.2187499999999999
 40
0.2187499999999999
 40
0.2499999999999999
 40
0.2499999999999999
 40
0.3749999999999999
 40
0.3749999999999999
 40
0.4375
 40
0.4375
 40
0.46875
 40
0.46875
 40
0.5
 40
0.5
 40
0.6250000000000001
 40
0.6250000000000001
 40
0.6875000000000001
 40
0.6875000000000001
 40
0.7187500000000001
 40
0.7187500000000001
 40
0.7500000000000001
 40
0.7500000000000001
 40
0.875
 40
0.875
 40
0.9375
 40
0.9375
 40
0.96875
 40
0.96875
 40
1.0
 40
1.0
 40
1.0
 40
1.0
 10
762.6549455568724
 20
588.5987245338582
 30
0.0
 41
1.000000000001012
 10
763.9900123002896
 20
588.5987245338323
 30
0.0
 41
1.000000000001004
 10
765.021045544559
 20
588.5987245338708
 30
0.0
 41
1.000000000000996
 10
766.1254041507324
 20
588.5987245338529
 30
0.0
 41
1.000000000000986
 10
766.4194312617628
 20
588.5987245338673
 30
0.0
 41
1.000000000000984
 10
766.747469833861
 20
588.598724533855
 30
0.0
 41
1.000000000000976
 10
766.8379572016572
 20
588.5987245338635
 30
0.0
 41
1.000000000000976
 10
766.9805857406761
 20
588.5987245338549
 30
0.0
 41
1.000000000000972
 10
767.0323742999312
 20
588.59872453386
 30
0.0
 41
1.000000000000969
 10
767.1942111582711
 20
588.5987245338565
 30
0.0
 41
1.000000000000961
 10
767.016082314134
 20
588.598724533859
 30
0.0
 41
1.000000000000953
 10
766.2923971554882
 20
588.5987245338606
 30
0.0
 41
1.000000000000939
 10
765.9746860813775
 20
588.5987245338717
 30
0.0
 41
1.000000000000937
 10
765.3802660811818
 20
588.5987245338546
 30
0.0
 41
1.000000000000929
 10
765.1629539541445
 20
588.5987245338541
 30
0.0
 41
1.000000000000929
 10
764.6928800496733
 20
588.5987245338671
 30
0.0
 41
1.000000000000925
 10
764.439788177362
 20
588.5987245338561
 30
0.0
 41
1.000000000000923
 10
763.085265961566
 20
588.5987245338789
 30
0.0
 41
1.000000000000913
 10
761.7185104807338
 20
588.5987245338655
 30
0.0
 41
1.000000000000905
 10
759.2440006714515
 20
588.5987245338592
 30
0.0
 41
1.000000000000894
 10
758.3480721933467
 20
588.5987245338671
 30
0.0
 41
1.000000000000889
 10
756.894126993889
 20
588.598724533859
 30
0.0
 41
1.000000000000885
 10
756.3924134518575
 20
588.5987245338567
 30
0.0
 41
1.000000000000882
 10
755.3614707054241
 20
588.5987245338667
 30
0.0
 41
1.000000000000879
 10
754.8313411051305
 20
588.59872453386
 30
0.0
 41
1.000000000000877
 10
752.1083989800135
 20
588.5987245338695
 30
0.0
 41
1.000000000000869
 10
749.7001929018367
 20
588.5987245338704
 30
0.0
 41
1.000000000000861
 10
745.7438943608159
 20
588.5987245338583
 30
0.0
 41
1.000000000000851
 10
744.3675069383697
 20
588.5987245338749
 30
0.0
 41
1.000000000000849
 10
742.213839768872
 20
588.5987245338566
 30
0.0
 41
1.000000000000845
 10
741.4829117390496
 20
588.5987245338569
 30
0.0
 41
1.000000000000841
 10
740.0047155640635
 20
588.5987245338689
 30
0.0
 41
1.000000000000839
 10
739.2560661316613
 20
588.5987245338765
 30
0.0
 41
1.000000000000839
 10
738.4980031710713
 20
588.5987245338631
 30
0.0
 41
1.000000000000837
  0
SPLINE
  5
360
330
1F
100
AcDbEntity
  8
HEWI
  6
Continuous
100
AcDbSpline
210
0.0
220
0.0
230
1.0
 70
    28
 71
     3
 72
    12
 73
     8
 74
     0
 42
0.000000001
 43
0.0000000001
 40
0.0
 40
0.0
 40
0.0
 40
0.0
 40
0.5
 40
0.5
 40
0.7500000000000001
 40
0.7500000000000001
 40
1.0
 40
1.0
 40
1.0
 40
1.0
 10
676.2208870471853
 20
588.598724533893
 30
0.0
 41
1.00000000000004
 10
674.5043200611827
 20
588.5987245339016
 30
0.0
 41
1.000000000000044
 10
672.8182393218832
 20
588.5987245338887
 30
0.0
 41
1.000000000000051
 10
670.3542631153602
 20
588.5987245338944
 30
0.0
 41
1.000000000000063
 10
669.5433315311414
 20
588.5987245338744
 30
0.0
 41
1.000000000000067
 10
667.9474595517258
 20
588.5987245339102
 30
0.0
 41
1.000000000000077
 10
667.1677818355516
 20
588.5987245339199
 30
0.0
 41
1.000000000000083
 10
666.4076548213163
 20
588.5987245338922
 30
0.0
 41
1.000000000000089
  0
SPLINE
  5
361
330
1F
100
AcDbEntity
  8
HEWI
  6
Continuous
100
AcDbSpline
210
0.0
220
0.0
230
1.0
 70
    28
 71
     3
 72
    38
 73
    34
 74
     0
 42
0.000000001
 43
0.0000000001
 40
0.0
 40
0.0
 40
0.0
 40
0.0
 40
0.03125
 40
0.03125
 40
0.0625000000000002
 40
0.0625000000000002
 40
0.1250000000000001
 40
0.1250000000000001
 40
0.25
 40
0.25
 40
0.2812500000000001
 40
0.2812500000000001
 40
0.3125
 40
0.3125
 40
0.3749999999999999
 40
0.3749999999999999
 40
0.5
 40
0.5
 40
0.53125
 40
0.53125
 40
0.5625
 40
0.5625
 40
0.625
 40
0.625
 40
0.75
 40
0.75
 40
0.78125
 40
0.78125
 40
0.8125
 40
0.8125
 40
0.875
 40
0.875
 40
1.0
 40
1.0
 40
1.0
 40
1.0
 10
665.7129190114673
 20
588.5987245339229
 30
0.0
 41
0.9999999999992416
 10
664.9548560508692
 20
588.5987245339244
 30
0.0
 41
0.9999999999992406
 10
664.2062066184887
 20
588.5987245339289
 30
0.0
 41
0.9999999999992391
 10
662.728010443473
 20
588.598724533917
 30
0.0
 41
0.9999999999992363
 10
661.9970824136807
 20
588.5987245339142
 30
0.0
 41
0.9999999999992351
 10
659.8434152441351
 20
588.5987245339406
 30
0.0
 41
0.9999999999992311
 10
658.4670278217243
 20
588.598724533917
 30
0.0
 41
0.9999999999992283
 10
654.5107292806878
 20
588.5987245339362
 30
0.0
 41
0.9999999999992196
 10
652.1025232025192
 20
588.5987245339309
 30
0.0
 41
0.9999999999992136
 10
649.379581077401
 20
588.598724533922
 30
0.0
 41
0.9999999999992056
 10
648.8494514771016
 20
588.5987245339276
 30
0.0
 41
0.999999999999204
 10
647.8185087306788
 20
588.5987245339204
 30
0.0
 41
0.9999999999992006
 10
647.3167951886503
 20
588.5987245339172
 30
0.0
 41
0.9999999999991986
 10
645.8628499891665
 20
588.5987245339378
 30
0.0
 41
0.9999999999991937
 10
644.9669215110867
 20
588.5987245339186
 30
0.0
 41
0.9999999999991903
 10
642.4924117017779
 20
588.5987245339362
 30
0.0
 41
0.99999999999918
 10
641.1256562209842
 20
588.5987245339313
 30
0.0
 41
0.9999999999991732
 10
639.7711340051594
 20
588.5987245339235
 30
0.0
 41
0.9999999999991642
 10
639.5180421328517
 20
588.5987245339307
 30
0.0
 41
0.9999999999991622
 10
639.0479682283835
 20
588.5987245339195
 30
0.0
 41
0.9999999999991587
 10
638.8306561013412
 20
588.5987245339215
 30
0.0
 41
0.9999999999991567
 10
638.2362361011558
 20
588.5987245339326
 30
0.0
 41
0.9999999999991516
 10
637.9185250270341
 20
588.5987245339244
 30
0.0
 41
0.9999999999991477
 10
637.1948398683975
 20
588.598724533928
 30
0.0
 41
0.9999999999991374
 10
637.0167110242467
 20
588.598724533934
 30
0.0
 41
0.9999999999991302
 10
637.1785478825952
 20
588.5987245339241
 30
0.0
 41
0.9999999999991215
 10
637.2303364418481
 20
588.5987245339219
 30
0.0
 41
0.9999999999991198
 10
637.3729649808672
 20
588.5987245339307
 30
0.0
 41
0.9999999999991164
 10
637.4634523486595
 20
588.5987245339241
 30
0.0
 41
0.9999999999991148
 10
637.7914909207683
 20
588.5987245339308
 30
0.0
 41
0.9999999999991096
 10
638.0855180317902
 20
588.5987245339268
 30
0.0
 41
0.9999999999991063
 10
639.1898766379678
 20
588.598724533926
 30
0.0
 41
0.9999999999990963
 10
640.2209098822448
 20
588.5987245338852
 30
0.0
 41
0.9999999999990903
 10
641.5559766256513
 20
588.5987245339271
 30
0.0
 41
0.9999999999990839
  0
SPLINE
  5
362
330
1F
100
AcDbEntity
  8
HEWI
  6
Continuous
100
AcDbSpline
210
0.0
220
0.0
230
1.0
 70
    28
 71
     3
 72
    16
 73
    12
 74
     0
 42
0.000000001
 43
0.0000000001
 40
0.0
 40
0.0
 40
0.0
 40
0.0
 40
0.1249999999999999
 40
0.1249999999999999
 40
0.2499999999999998
 40
0.2499999999999998
 40
0.5
 40
0.5
 40
0.7500000000000002
 40
0.7500000000000002
 40
1.0
 40
1.0
 40
1.0
 40
1.0
 10
641.5559766256673
 20
588.5987245338903
 30
0.0
 41
1.000000000000119
 10
641.7615572365075
 20
588.5987245338944
 30
0.0
 41
1.000000000000117
 10
641.9743763782498
 20
588.5987245338939
 30
0.0
 41
1.000000000000117
 10
642.4142115633446
 20
588.5987245338865
 30
0.0
 41
1.000000000000115
 10
642.6419097211544
 20
588.598724533879
 30
0.0
 41
1.000000000000115
 10
643.3389271520742
 20
588.598724533913
 30
0.0
 41
1.000000000000115
 10
643.8226975561875
 20
588.5987245338717
 30
0.0
 41
1.000000000000115
 10
644.8225784158816
 20
588.5987245339086
 30
0.0
 41
1.000000000000121
 10
645.3386127723305
 20
588.5987245338807
 30
0.0
 41
1.000000000000123
 10
646.4015233799711
 20
588.5987245338992
 30
0.0
 41
1.000000000000132
 10
646.9507963650742
 20
588.5987245339037
 30
0.0
 41
1.000000000000137
 10
647.501878205467
 20
588.5987245338898
 30
0.0
 41
1.000000000000142
  0
SPLINE
  5
363
330
1F
100
AcDbEntity
  8
HEWI
  6
Continuous
370
     5
100
AcDbSpline
210
0.0
220
0.0
230
1.0
 70
     8
 71
     3
 72
    13
 73
     9
 74
     0
 42
0.000000001
 43
0.0000000001
 40
0.0
 40
0.0
 40
0.0
 40
0.0
 40
0.1199337654900149
 40
0.2464581169052815
 40
0.4948017264139133
 40
0.7461628905697121
 40
0.8518482314853741
 40
1.0
 40
1.0
 40
1.0
 40
1.0
 10
505.9940922620693
 20
595.7433473795166
 30
0.0
 10
506.0985016153918
 20
595.5344436668782
 30
0.0
 10
506.3130578123232
 20
595.1051565897902
 30
0.0
 10
506.8908846766497
 20
594.3349673388038
 30
0.0
 10
507.8078585575844
 20
593.5312966758432
 30
0.0
 10
508.8679278567787
 20
593.0515119655515
 30
0.0
 10
509.7969534264901
 20
592.8302135118506
 30
0.0
 10
510.2750725612688
 20
592.8074869969107
 30
0.0
 10
510.5541263037937
 20
592.7942226897807
 30
0.0
  0
SPLINE
  5
364
330
1F
100
AcDbEntity
  8
HEWI
  6
Continuous
370
     5
100
AcDbSpline
210
0.0
220
0.0
230
1.0
 70
     8
 71
     3
 72
    13
 73
     9
 74
     0
 42
0.000000001
 43
0.0000000001
 40
0.0
 40
0.0
 40
0.0
 40
0.0
 40
0.1481462325981959
 40
0.2538371105189605
 40
0.5051982671683525
 40
0.7535418692610182
 40
0.8800595568043373
 40
1.0
 40
1.0
 40
1.0
 40
1.0
 10
893.6567958787538
 20
592.7942226897807
 30
0.0
 10
893.9358391917405
 20
592.8074860839458
 30
0.0
 10
894.4139583246808
 20
592.8302118839306
 30
0.0
 10
895.3429846424837
 20
593.0515075888547
 30
0.0
 10
896.4030635913617
 20
593.5312965963783
 30
0.0
 10
897.3200278346237
 20
594.3349590113178
 30
0.0
 10
897.8978571101068
 20
595.1051452940212
 30
0.0
 10
898.1124142841638
 20
595.5344321532276
 30
0.0
 10
898.2168299204833
 20
595.7433473795052
 30
0.0
  0
SPLINE
  5
4C3
330
1F
100
AcDbEntity
  8
HEWI
  6
Continuous
370
     5
100
AcDbSpline
210
0.0
220
0.0
230
1.0
 70
    24
 71
     3
 72
    11
 73
     7
 74
     0
 42
0.000000001
 43
0.0000000001
 40
0.0
 40
0.0
 40
0.0
 40
0.0
 40
0.237698992098799
 40
0.4871054580950644
 40
0.7409698953788416
 40
1.0
 40
1.0
 40
1.0
 40
1.0
 10
1356.098706427178
 20
595.4824747457045
 30
0.0
 10
1361.662913223323
 20
606.1535562725565
 30
0.0
 10
1372.979561453197
 20
627.8567172613565
 30
0.0
 10
1389.93640080007
 20
660.3766831320715
 30
0.0
 10
1407.076629685653
 20
693.2483549674365
 30
0.0
 10
1418.373170716544
 20
714.9129542047618
 30
0.0
 10
1424.020446968865
 20
725.7433470174337
 30
0.0
  0
SPLINE
  5
4CF
330
1F
100
AcDbEntity
  8
HEWI
  6
Continuous
370
     5
100
AcDbSpline
210
0.0
220
0.0
230
1.0
 70
     8
 71
     3
 72
    15
 73
    11
 74
     0
 42
0.000000001
 43
0.0000000001
 40
0.0
 40
0.0
 40
0.0
 40
0.0
 40
0.0978498717349289
 40
0.2089392816099143
 40
0.3324651659429775
 40
0.4658709253345588
 40
0.6047700551039066
 40
0.7435839295676656
 40
0.8767643149201656
 40
1.0
 40
1.0
 40
1.0
 40
1.0
 10
1423.884420647353
 20
725.4824746200134
 30
0.0
 10
1424.040433921415
 20
725.7832227693916
 30
0.0
 10
1424.304378250593
 20
726.4421937545996
 30
0.0
 10
1424.494804724593
 20
727.5728844108974
 30
0.0
 10
1424.400455132365
 20
728.8366653057595
 30
0.0
 10
1423.947842695091
 20
730.1262812489026
 30
0.0
 10
1423.124995693837
 20
731.2849623378526
 30
0.0
 10
1422.012299649899
 20
732.1648004785425
 30
0.0
 10
1420.744054715443
 20
732.6838045866026
 30
0.0
 10
1419.881246250636
 20
732.7924715363276
 30
0.0
 10
1419.450931892885
 20
732.7942223277016
 30
0.0
  0
SPLINE
  5
4DB
330
1F
100
AcDbEntity
  8
HEWI
  6
Continuous
370
     5
100
AcDbSpline
210
0.0
220
0.0
230
1.0
 70
     8
 71
     2
 72
     6
 73
     3
 74
     0
 42
0.000000001
 43
0.0000000001
 40
0.0
 40
0.0
 40
0.0
 40
1.0
 40
1.0
 40
1.0
 10
1351.665217607143
 20
592.7942223277016
 30
0.0
 10
1354.633309092624
 20
592.8992203739714
 30
0.0
 10
1356.098706361639
 20
595.4824746200134
 30
0.0
  0
SPLINE
  5
4F8
330
1F
100
AcDbEntity
  8
HEWI
  6
Continuous
370
     5
100
AcDbSpline
210
0.0
220
0.0
230
1.0
 70
    24
 71
     3
 72
    12
 73
     8
 74
     0
 42
0.000000001
 43
0.0000000001
 40
0.0
 40
0.0
 40
0.0
 40
0.0
 40
0.5
 40
0.5
 40
0.75
 40
0.75
 40
1.0
 40
1.0
 40
1.0
 40
1.0
 10
1332.268035306549
 20
592.7942223277016
 30
0.0
 10
1332.105392374957
 20
592.7942223277016
 30
0.0
 10
1331.942365410877
 20
592.7942223277016
 30
0.0
 10
1331.684928056996
 20
592.7942223277016
 30
0.0
 10
1331.596682187123
 20
592.7942223277016
 30
0.0
 10
1331.418027469641
 20
592.7942223277016
 30
0.0
 10
1331.325736720767
 20
592.7942223277016
 30
0.0
 10
1331.248679995465
 20
592.7942223277016
 30
0.0
  0
SPLINE
  5
4F9
330
1F
100
AcDbEntity
  8
HEWI
  6
Continuous
370
     5
100
AcDbSpline
210
0.0
220
0.0
230
1.0
 70
     8
 71
     3
 72
    12
 73
     8
 74
     0
 42
0.000000001
 43
0.0000000001
 40
0.0
 40
0.0
 40
0.0
 40
0.0
 40
0.0625006758447027
 40
0.1250059090863112
 40
0.2500142557006798
 40
0.5000176383295917
 40
1.0
 40
1.0
 40
1.0
 40
1.0
 10
1330.17196256188
 20
593.0317176965975
 30
0.0
 10
1330.19587313111
 20
593.0209785264196
 30
0.0
 10
1330.243696013071
 20
592.9994994029905
 30
0.0
 10
1330.33899363868
 20
592.9609071653965
 30
0.0
 10
1330.502667931506
 20
592.9026216147384
 30
0.0
 10
1330.821599731565
 20
592.8167272025266
 30
0.0
 10
1331.077846314614
 20
592.8032241897567
 30
0.0
 10
1331.248674590667
 20
592.7942223277016
 30
0.0
  0
SPLINE
  5
4FA
330
1F
100
AcDbEntity
  8
HEWI
  6
Continuous
370
     5
100
AcDbSpline
210
0.0
220
0.0
230
1.0
 70
     8
 71
     3
 72
    11
 73
     7
 74
     0
 42
0.000000001
 43
0.0000000001
 40
0.0
 40
0.0
 40
0.0
 40
0.0
 40
0.2677529183435359
 40
0.4985585032508489
 40
0.7498257612474299
 40
1.0
 40
1.0
 40
1.0
 40
1.0
 10
1330.171442220228
 20
593.0318080939107
 30
0.0
 10
1329.731225635375
 20
593.2016777064585
 30
0.0
 10
1328.911538130161
 20
593.5179765550548
 30
0.0
 10
1327.622108004901
 20
593.8173188889314
 30
0.0
 10
1326.340331450286
 20
593.9961836282938
 30
0.0
 10
1325.454710768666
 20
593.9947781859324
 30
0.0
 10
1325.012865645587
 20
593.9940769965126
 30
0.0
  0
SPLINE
  5
505
330
1F
100
AcDbEntity
  8
HEWI
  6
Continuous
370
     5
100
AcDbSpline
210
0.0
220
0.0
230
1.0
 70
    24
 71
     3
 72
    35
 73
    31
 74
     0
 42
0.000000001
 43
0.0000000001
 40
0.0
 40
0.0
 40
0.0
 40
0.0
 40
0.1249999999999998
 40
0.1249999999999998
 40
0.1875000000000006
 40
0.1875000000000006
 40
0.2500000000000014
 40
0.2500000000000014
 40
0.3750000000000029
 40
0.3750000000000029
 40
0.4062500000000028
 40
0.4062500000000028
 40
0.4375000000000028
 40
0.4375000000000028
 40
0.5000000000000026
 40
0.5000000000000026
 40
0.6250000000000029
 40
0.6250000000000029
 40
0.6562500000000029
 40
0.6562500000000029
 40
0.6875000000000029
 40
0.6875000000000029
 40
0.7500000000000023
 40
0.8125000000000015
 40
0.8125000000000015
 40
0.8437500000000015
 40
0.8437500000000015
 40
0.8750000000000014
 40
0.8750000000000014
 40
1.0
 40
1.0
 40
1.0
 40
1.0
 10
1332.268035306549
 20
592.7942223277016
 30
0.0
 10
1332.283132339607
 20
592.7942223277016
 30
0.0
 10
1332.111529993595
 20
592.7942223277016
 30
0.0
 10
1331.585160455643
 20
592.7942223277016
 30
0.0
 10
1331.364541794542
 20
592.7942223277016
 30
0.0
 10
1330.830826686481
 20
592.7942223277016
 30
0.0
 10
1330.516294459041
 20
592.7942223277016
 30
0.0
 10
1329.453360152453
 20
592.7942223277016
 30
0.0
 10
1328.582164305801
 20
592.7942223277016
 30
0.0
 10
1327.291404933149
 20
592.7942223277016
 30
0.0
 10
1327.0230733194
 20
592.7942223277016
 30
0.0
 10
1326.465712354545
 20
592.7942223277016
 30
0.0
 10
1326.175824319869
 20
592.7942223277016
 30
0.0
 10
1325.281744557423
 20
592.7942223277016
 30
0.0
 10
1324.65390272687
 20
592.7942223277016
 30
0.0
 10
1322.677916521977
 20
592.7942223277016
 30
0.0
 10
1321.238197370563
 20
592.7942223277016
 30
0.0
 10
1319.281548016152
 20
592.7942223277016
 30
0.0
 10
1318.881347267742
 20
592.7942223277016
 30
0.0
 10
1318.073265718288
 20
592.7942223277016
 30
0.0
 10
1317.664647918875
 20
592.7942223277016
 30
0.0
 10
1316.425309874606
 20
592.7942223277016
 30
0.0
 10
1314.736964170832
 20
592.7942223277016
 30
0.0
 10
1312.977833633821
 20
592.7942223277016
 30
0.0
 10
1311.631543554021
 20
592.7942223277016
 30
0.0
 10
1311.178281801477
 20
592.7942223277016
 30
0.0
 10
1310.262593383272
 20
592.7942223277016
 30
0.0
 10
1309.800042744231
 20
592.7942223277016
 30
0.0
 10
1307.48601634009
 20
592.7942223277016
 30
0.0
 10
1305.613655536351
 20
592.7942223277016
 30
0.0
 10
1303.719982160708
 20
592.7942223277016
 30
0.0
  0
SPLINE
  5
506
330
1F
100
AcDbEntity
  8
HEWI
  6
Continuous
370
     5
100
AcDbSpline
210
0.0
220
0.0
230
1.0
 70
    24
 71
     3
 72
    12
 73
     8
 74
     0
 42
0.000000001
 43
0.0000000001
 40
0.0
 40
0.0
 40
0.0
 40
0.0
 40
0.2499999999999998
 40
0.2499999999999998
 40
0.5
 40
0.5
 40
1.0
 40
1.0
 40
1.0
 40
1.0
 10
1331.248679995465
 20
592.7942223277016
 30
0.0
 10
1331.325736696641
 20
592.7942223277016
 30
0.0
 10
1331.41802747325
 20
592.7942223277016
 30
0.0
 10
1331.596682230442
 20
592.7942223277016
 30
0.0
 10
1331.684928115736
 20
592.7942223277016
 30
0.0
 10
1331.942365477436
 20
592.7942223277016
 30
0.0
 10
1332.105392404034
 20
592.7942223277016
 30
0.0
 10
1332.268035306549
 20
592.7942223277016
 30
0.0
  0
SPLINE
  5
507
330
1F
100
AcDbEntity
  8
HEWI
  6
Continuous
370
     5
100
AcDbSpline
210
0.0
220
0.0
230
1.0
 70
    24
 71
     3
 72
     8
 73
     4
 74
     0
 42
0.000000001
 43
0.0000000001
 40
0.0
 40
0.0
 40
0.0
 40
0.0
 40
1.0
 40
1.0
 40
1.0
 40
1.0
 10
1303.719982160708
 20
592.7942223277016
 30
0.0
 10
1285.263545290408
 20
592.7942223277016
 30
0.0
 10
1266.807088985835
 20
592.7942223277016
 30
0.0
 10
1248.350660310075
 20
592.7942223277016
 30
0.0
  0
SPLINE
  5
509
330
1F
100
AcDbEntity
  8
HEWI
  6
Continuous
370
     5
100
AcDbSpline
210
0.0
220
0.0
230
1.0
 70
    24
 71
     3
 72
    14
 73
    10
 74
     0
 42
0.000000001
 43
0.0000000001
 40
0.0
 40
0.0
 40
0.0
 40
0.0
 40
0.499999999999999
 40
0.499999999999999
 40
0.7499999999999991
 40
0.7499999999999991
 40
0.8749999999999994
 40
0.8749999999999994
 40
1.0
 40
1.0
 40
1.0
 40
1.0
 10
1248.350660310075
 20
592.7942223277016
 30
0.0
 10
1244.825897459605
 20
592.7942223277016
 30
0.0
 10
1241.302610452161
 20
592.7942223277016
 30
0.0
 10
1236.021538928838
 20
592.7942223277016
 30
0.0
 10
1234.261816734212
 20
592.7942223277016
 30
0.0
 10
1231.623774478747
 20
592.7942223277016
 30
0.0
 10
1230.744686994478
 20
592.7942223277016
 30
0.0
 10
1228.987279672913
 20
592.7942223277016
 30
0.0
 10
1228.108943004038
 20
592.7942223277016
 30
0.0
 10
1227.231289776699
 20
592.7942223277016
 30
0.0
  0
SPLINE
  5
50A
330
1F
100
AcDbEntity
  8
HEWI
  6
Continuous
370
     5
100
AcDbSpline
210
0.0
220
0.0
230
1.0
 70
    24
 71
     3
 72
     8
 73
     4
 74
     0
 42
0.000000001
 43
0.0000000001
 40
0.0
 40
0.0
 40
0.0
 40
0.0
 40
1.0
 40
1.0
 40
1.0
 40
1.0
 10
1227.231289776699
 20
592.7942223277016
 30
0.0
 10
1225.24766386736
 20
592.7942223277016
 30
0.0
 10
1223.259949726527
 20
592.7942223277016
 30
0.0
 10
1221.263448640054
 20
592.7942223277016
 30
0.0
  0
SPLINE
  5
50C
330
1F
100
AcDbEntity
  8
HEWI
  6
Continuous
370
     5
100
AcDbSpline
210
0.0
220
0.0
230
1.0
 70
    24
 71
     3
 72
    14
 73
    10
 74
     0
 42
0.000000001
 43
0.0000000001
 40
0.0
 40
0.0
 40
0.0
 40
0.0
 40
0.1250000000000001
 40
0.1250000000000001
 40
0.2500000000000002
 40
0.2500000000000002
 40
0.5000000000000001
 40
0.5000000000000001
 40
1.0
 40
1.0
 40
1.0
 40
1.0
 10
1227.231289776699
 20
592.7942223277016
 30
0.0
 10
1228.108943004039
 20
592.7942223277016
 30
0.0
 10
1228.987279672915
 20
592.7942223277016
 30
0.0
 10
1230.74468699448
 20
592.7942223277016
 30
0.0
 10
1231.623774478751
 20
592.7942223277016
 30
0.0
 10
1234.261816734217
 20
592.7942223277016
 30
0.0
 10
1236.021538928845
 20
592.7942223277016
 30
0.0
 10
1241.302610452172
 20
592.7942223277016
 30
0.0
 10
1244.825897459619
 20
592.7942223277016
 30
0.0
 10
1248.350660310092
 20
592.7942223277016
 30
0.0
  0
SPLINE
  5
50D
330
1F
100
AcDbEntity
  8
HEWI
  6
Continuous
370
     5
100
AcDbSpline
210
0.0
220
0.0
230
1.0
 70
    24
 71
     3
 72
     8
 73
     4
 74
     0
 42
0.000000001
 43
0.0000000001
 40
0.0
 40
0.0
 40
0.0
 40
0.0
 40
1.0
 40
1.0
 40
1.0
 40
1.0
 10
1221.263448640037
 20
592.7942223277016
 30
0.0
 10
1223.259949726515
 20
592.7942223277016
 30
0.0
 10
1225.247663867354
 20
592.7942223277016
 30
0.0
 10
1227.231289776699
 20
592.7942223277016
 30
0.0
  0
SPLINE
  5
50E
330
1F
100
AcDbEntity
  8
HEWI
  6
Continuous
370
     5
100
AcDbSpline
210
0.0
220
0.0
230
1.0
 70
    24
 71
     3
 72
    35
 73
    31
 74
     0
 42
0.000000001
 43
0.0000000001
 40
0.0
 40
0.0
 40
0.0
 40
0.0
 40
0.1250000000000001
 40
0.1250000000000001
 40
0.1875000000000002
 40
0.1875000000000002
 40
0.2500000000000004
 40
0.2500000000000004
 40
0.3750000000000017
 40
0.3750000000000017
 40
0.4062500000000015
 40
0.4062500000000015
 40
0.4375000000000013
 40
0.4375000000000013
 40
0.5000000000000019
 40
0.5000000000000019
 40
0.6250000000000023
 40
0.6250000000000023
 40
0.6562500000000016
 40
0.6562500000000016
 40
0.6875000000000008
 40
0.6875000000000008
 40
0.7500000000000011
 40
0.8125000000000014
 40
0.8125000000000014
 40
0.8437500000000014
 40
0.8437500000000014
 40
0.8750000000000014
 40
0.8750000000000014
 40
1.0
 40
1.0
 40
1.0
 40
1.0
 10
1303.719982160708
 20
592.7942223277016
 30
0.0
 10
1305.613651041738
 20
592.7942223277016
 30
0.0
 10
1307.475818428232
 20
592.7942223277016
 30
0.0
 10
1310.223680966719
 20
592.7942223277016
 30
0.0
 10
1311.132014019326
 20
592.7942223277016
 30
0.0
 10
1312.93307410362
 20
592.7942223277016
 30
0.0
 10
1313.828011547805
 20
592.7942223277016
 30
0.0
 10
1316.430662363544
 20
592.7942223277016
 30
0.0
 10
1318.076213217578
 20
592.7942223277016
 30
0.0
 10
1320.022010469805
 20
592.7942223277016
 30
0.0
 10
1320.405562477598
 20
592.7942223277016
 30
0.0
 10
1321.161265302063
 20
592.7942223277016
 30
0.0
 10
1321.534430378476
 20
592.7942223277016
 30
0.0
 10
1322.627824385137
 20
592.7942223277016
 30
0.0
 10
1323.321333529769
 20
592.7942223277016
 30
0.0
 10
1325.298842297956
 20
592.7942223277016
 30
0.0
 10
1326.480810346986
 20
592.7942223277016
 30
0.0
 10
1327.783357068954
 20
592.7942223277016
 30
0.0
 10
1328.035584954477
 20
592.7942223277016
 30
0.0
 10
1328.517119518744
 20
592.7942223277016
 30
0.0
 10
1328.746940725104
 20
592.7942223277016
 30
0.0
 10
1329.404157536317
 20
592.7942223277016
 30
0.0
 10
1330.194608368607
 20
592.7942223277016
 30
0.0
 10
1330.815805273239
 20
592.7942223277016
 30
0.0
 10
1331.217286749748
 20
592.7942223277016
 30
0.0
 10
1331.340358683101
 20
592.7942223277016
 30
0.0
 10
1331.564590915361
 20
592.7942223277016
 30
0.0
 10
1331.66572616841
 20
592.7942223277016
 30
0.0
 10
1332.111586346013
 20
592.7942223277016
 30
0.0
 10
1332.283132557017
 20
592.7942223277016
 30
0.0
 10
1332.268035306549
 20
592.7942223277016
 30
0.0
  0
SPLINE
  5
50F
330
1F
100
AcDbEntity
  8
HEWI
  6
Continuous
370
     5
100
AcDbSpline
210
0.0
220
0.0
230
1.0
 70
    25
 71
     3
 72
    95
 73
    91
 74
     0
 42
0.000000001
 43
0.0000000001
 40
0.0
 40
0.0
 40
0.0
 40
0.0
 40
0.2499999999999874
 40
0.257812499999987
 40
0.257812499999987
 40
0.2597656249999869
 40
0.2597656249999869
 40
0.2617187499999868
 40
0.2617187499999868
 40
0.2656249999999866
 40
0.2656249999999866
 40
0.2695312499999864
 40
0.2695312499999864
 40
0.2734374999999862
 40
0.2734374999999862
 40
0.277343749999986
 40
0.277343749999986
 40
0.2812499999999858
 40
0.2812499999999858
 40
0.2890624999999855
 40
0.2890624999999855
 40
0.2929687499999853
 40
0.2929687499999853
 40
0.2968749999999851
 40
0.2968749999999851
 40
0.3046874999999848
 40
0.3046874999999848
 40
0.3124999999999845
 40
0.3124999999999845
 40
0.3203124999999842
 40
0.3203124999999842
 40
0.3281249999999839
 40
0.3281249999999839
 40
0.3320312499999837
 40
0.3320312499999837
 40
0.3359374999999836
 40
0.3359374999999836
 40
0.3378906249999835
 40
0.3378906249999835
 40
0.3398437499999835
 40
0.3398437499999835
 40
0.3437499999999835
 40
0.3749999999999836
 40
0.4999999999999841
 40
0.6249999999999849
 40
0.6562499999999849
 40
0.6601562499999849
 40
0.6621093749999849
 40
0.6621093749999849
 40
0.6640624999999849
 40
0.6640624999999849
 40
0.6718749999999854
 40
0.6718749999999854
 40
0.6757812499999854
 40
0.6757812499999854
 40
0.6796874999999855
 40
0.6796874999999855
 40
0.6874999999999859
 40
0.6874999999999859
 40
0.689453124999986
 40
0.689453124999986
 40
0.6914062499999863
 40
0.6914062499999863
 40
0.6953124999999865
 40
0.6953124999999865
 40
0.7031249999999869
 40
0.7031249999999869
 40
0.7070312499999872
 40
0.7070312499999872
 40
0.7089843749999872
 40
0.7089843749999872
 40
0.7109374999999875
 40
0.7109374999999875
 40
0.7187499999999878
 40
0.7187499999999878
 40
0.722656249999988
 40
0.722656249999988
 40
0.7246093749999881
 40
0.7246093749999881
 40
0.7265624999999884
 40
0.7265624999999884
 40
0.7343749999999887
 40
0.7343749999999887
 40
0.742187499999989
 40
0.742187499999989
 40
0.7441406249999893
 40
0.7441406249999893
 40
0.7460937499999894
 40
0.7499999999999895
 40
1.0
 40
1.0
 40
1.0
 40
1.0
 10
1074.696974809219
 20
592.7942223277016
 30
0.0
 10
1149.098465038848
 20
592.7942223277016
 30
0.0
 10
1225.825001838154
 20
592.7942223277016
 30
0.0
 10
1302.55153863746
 20
592.7942223277016
 30
0.0
 10
1305.457846849555
 20
592.7942223277016
 30
0.0
 10
1306.039175333505
 20
592.7942223277016
 30
0.0
 10
1307.200632142354
 20
592.7942223277007
 30
0.0
 10
1307.780902579494
 20
592.7942223277007
 30
0.0
 10
1309.520329501781
 20
592.7942223277016
 30
0.0
 10
1310.678101339741
 20
592.7942223277007
 30
0.0
 10
1312.98990249725
 20
592.7942223277007
 30
0.0
 10
1314.143931924546
 20
592.7942223277016
 30
0.0
 10
1316.448206063743
 20
592.7942223277016
 30
0.0
 10
1317.598989900105
 20
592.7942223277016
 30
0.0
 10
1319.864568373225
 20
592.7942223277016
 30
0.0
 10
1320.983381543335
 20
592.7942223277016
 30
0.0
 10
1323.19298416373
 20
592.7942223277016
 30
0.0
 10
1324.279946753595
 20
592.7942223277016
 30
0.0
 10
1327.461905662416
 20
592.7942223277016
 30
0.0
 10
1329.489004892361
 20
592.7942223277016
 30
0.0
 10
1332.390998491452
 20
592.7942223277016
 30
0.0
 10
1333.335170677649
 20
592.7942223277016
 30
0.0
 10
1335.176098539374
 20
592.7942223277016
 30
0.0
 10
1336.076418206053
 20
592.7942223277016
 30
0.0
 10
1338.666583065366
 20
592.7942223277016
 30
0.0
 10
1340.252832217791
 20
592.7942223277007
 30
0.0
 10
1343.151639661104
 20
592.7942223277007
 30
0.0
 10
1344.464620120499
 20
592.7942223277016
 30
0.0
 10
1346.805829593112
 20
592.7942223277016
 30
0.0
 10
1347.804985816514
 20
592.7942223277016
 30
0.0
 10
1349.470292986569
 20
592.7942223277016
 30
0.0
 10
1350.136278133652
 20
592.7942223277016
 30
0.0
 10
1350.880985483513
 20
592.7942223277016
 30
0.0
 10
1351.08693326603
 20
592.7942223277016
 30
0.0
 10
1351.404968627507
 20
592.7942223277016
 30
0.0
 10
1351.518206646615
 20
592.7942223277016
 30
0.0
 10
1351.620782358372
 20
592.7942223277016
 30
0.0
 10
1351.643761462853
 20
592.7942223277016
 30
0.0
 10
1351.667533252982
 20
592.7942223277016
 30
0.0
 10
1351.665256361045
 20
592.7942223277016
 30
0.0
 10
1351.665204105821
 20
592.7942223277016
 30
0.0
 10
1351.665191854596
 20
592.7942223277016
 30
0.0
 10
1351.665201855595
 20
592.7942223277016
 30
0.0
 10
1351.665211856595
 20
592.7942223277016
 30
0.0
 10
1351.665221857595
 20
592.7942223277016
 30
0.0
 10
1351.665231858595
 20
592.7942223277016
 30
0.0
 10
1351.665241859596
 20
592.7942223277016
 30
0.0
 10
1351.665251860596
 20
592.7942223277016
 30
0.0
 10
1351.665261861595
 20
592.7942223277016
 30
0.0
 10
1351.666251379755
 20
592.7942223277016
 30
0.0
 10
1351.597983248454
 20
592.7942223277016
 30
0.0
 10
1351.36357623773
 20
592.7942223277016
 30
0.0
 10
1350.744970863161
 20
592.7942223277016
 30
0.0
 10
1350.494968951272
 20
592.7942223277007
 30
0.0
 10
1349.913628833627
 20
592.7942223277016
 30
0.0
 10
1349.581631487482
 20
592.7942223277016
 30
0.0
 10
1348.463151726926
 20
592.7942223277016
 30
0.0
 10
1347.555305608616
 20
592.7942223277016
 30
0.0
 10
1346.214480222102
 20
592.7942223277016
 30
0.0
 10
1345.935932266863
 20
592.7942223277016
 30
0.0
 10
1345.357747902766
 20
592.7942223277016
 30
0.0
 10
1345.05786287118
 20
592.7942223277016
 30
0.0
 10
1344.134252012345
 20
592.7942223277016
 30
0.0
 10
1343.48428457104
 20
592.7942223277016
 30
0.0
 10
1341.434344580577
 20
592.7942223277016
 30
0.0
 10
1339.93444518452
 20
592.7942223277016
 30
0.0
 10
1337.484224622644
 20
592.7942223277016
 30
0.0
 10
1336.634009664216
 20
592.7942223277016
 30
0.0
 10
1335.306921208113
 20
592.7942223277016
 30
0.0
 10
1334.855901551571
 20
592.7942223277016
 30
0.0
 10
1333.944354515842
 20
592.7942223277016
 30
0.0
 10
1333.482875803631
 20
592.7942223277016
 30
0.0
 10
1331.147396269546
 20
592.7942223277016
 30
0.0
 10
1329.189850207823
 20
592.7942223277016
 30
0.0
 10
1326.120695618913
 20
592.7942223277016
 30
0.0
 10
1325.075407499251
 20
592.7942223277016
 30
0.0
 10
1323.473621487242
 20
592.7942223277016
 30
0.0
 10
1322.934052856447
 20
592.7942223277016
 30
0.0
 10
1321.843398722439
 20
592.7942223277016
 30
0.0
 10
1321.292772686812
 20
592.7942223277016
 30
0.0
 10
1318.534465376301
 20
592.7942223277016
 30
0.0
 10
1316.2930533956
 20
592.7942223277016
 30
0.0
 10
1311.743485837503
 20
592.7942223277016
 30
0.0
 10
1309.434903757777
 20
592.7942223277016
 30
0.0
 10
1306.505017146915
 20
592.7942223277016
 30
0.0
 10
1305.917550418751
 20
592.7942223277016
 30
0.0
 10
1304.743841913119
 20
592.7942223277016
 30
0.0
 10
1302.983279154671
 20
592.7942223277016
 30
0.0
 10
1226.105372035764
 20
592.7942223277016
 30
0.0
 10
1149.814319169679
 20
592.7942223277016
 30
0.0
 10
1074.696974809219
 20
592.7942223277016
 30
0.0
  0
SPLINE
  5
510
330
1F
100
AcDbEntity
  8
HEWI
  6
Continuous
370
     5
100
AcDbSpline
210
0.0
220
0.0
230
1.0
 70
    24
 71
     3
 72
    32
 73
    28
 74
     0
 42
0.000000001
 43
0.0000000001
 40
0.0
 40
0.0
 40
0.0
 40
0.0
 40
0.1250000000000679
 40
0.1875000000000951
 40
0.2187500000001056
 40
0.2343750000001143
 40
0.2421875000001187
 40
0.2421875000001187
 40
0.2500000000001231
 40
0.2500000000001231
 40
0.3750000000003789
 40
0.437500000000508
 40
0.4687500000005784
 40
0.4843750000006133
 40
0.4921875000006254
 40
0.4921875000006254
 40
0.5000000000006374
 40
0.5000000000006374
 40
0.6250000000006435
 40
0.6875000000006584
 40
0.7187500000006609
 40
0.7343750000006694
 40
0.7421875000006619
 40
0.7421875000006619
 40
0.7500000000006546
 40
0.7500000000006546
 40
1.0
 40
1.0
 40
1.0
 40
1.0
 10
1074.69697480922
 20
592.7942223277016
 30
0.0
 10
1074.696974809219
 20
592.8545062717317
 30
0.0
 10
1074.696974809219
 20
592.9693105768246
 30
0.0
 10
1074.696974809219
 20
593.1459111135954
 30
0.0
 10
1074.696974809219
 20
593.2448769271895
 30
0.0
 10
1074.696974809219
 20
593.2970262202878
 30
0.0
 10
1074.696974809219
 20
593.3199472858238
 30
0.0
 10
1074.696974809219
 20
593.3353549669566
 30
0.0
 10
1074.696974809219
 20
593.3438897788976
 30
0.0
 10
1074.696974809219
 20
593.4639663099535
 30
0.0
 10
1074.696974809219
 20
593.6514868332217
 30
0.0
 10
1074.696974809219
 20
593.9017620277895
 30
0.0
 10
1074.696974809219
 20
594.0347749377634
 30
0.0
 10
1074.696974809219
 20
594.1032502209216
 30
0.0
 10
1074.696974809219
 20
594.1330186625983
 30
0.0
 10
1074.696974809219
 20
594.1529580441056
 30
0.0
 10
1074.696974809219
 20
594.1641925719896
 30
0.0
 10
1074.696974809219
 20
594.3145658034906
 30
0.0
 10
1074.696974809219
 20
594.5405632140636
 30
0.0
 10
1074.696974809219
 20
594.8282119915844
 30
0.0
 10
1074.696974809219
 20
594.9780326633084
 30
0.0
 10
1074.696974809219
 20
595.0544420699116
 30
0.0
 10
1074.696974809219
 20
595.0875101878996
 30
0.0
 10
1074.696974809219
 20
595.1096269842127
 30
0.0
 10
1074.696974809219
 20
595.1222019222824
 30
0.0
 10
1074.696974809219
 20
595.4406167681987
 30
0.0
 10
1074.696974809219
 20
595.7811738423584
 30
0.0
 10
1074.696974809219
 20
596.1535220794863
 30
0.0
  0
SPLINE
  5
511
330
1F
100
AcDbEntity
  8
HEWI
  6
Continuous
370
     5
100
AcDbSpline
210
0.0
220
0.0
230
1.0
 70
    24
 71
     3
 72
    14
 73
    10
 74
     0
 42
0.000000001
 43
0.0000000001
 40
0.0
 40
0.0
 40
0.0
 40
0.0
 40
0.0140308739745528
 40
0.0140308739745528
 40
0.0701543698727643
 40
0.0701543698727643
 40
0.2946483534656102
 40
0.2946483534656102
 40
1.0
 40
1.0
 40
1.0
 40
1.0
 10
1074.696974809219
 20
726.1535220794865
 30
0.0
 10
1074.696974809219
 20
725.5455175405894
 30
0.0
 10
1074.696974809219
 20
724.9375130016926
 30
0.0
 10
1074.696974809219
 20
721.8974903072058
 30
0.0
 10
1074.696974809219
 20
719.4654721516168
 30
0.0
 10
1074.696974809219
 20
707.3053813736707
 30
0.0
 10
1074.696974809219
 20
697.5773087513147
 30
0.0
 10
1074.696974809219
 20
657.2839981124677
 30
0.0
 10
1074.696974809219
 20
626.7187600959767
 30
0.0
 10
1074.696974809219
 20
596.1535220794863
 30
0.0
  0
SPLINE
  5
512
330
1F
100
AcDbEntity
  8
HEWI
  6
Continuous
370
     5
100
AcDbSpline
210
0.0
220
0.0
230
1.0
 70
    24
 71
     3
 72
     8
 73
     4
 74
     0
 42
0.000000001
 43
0.0000000001
 40
0.0
 40
0.0
 40
0.0
 40
0.0
 40
1.0
 40
1.0
 40
1.0
 40
1.0
 10
1248.350660310092
 20
592.7942223277016
 30
0.0
 10
1266.807088939271
 20
592.7942223277016
 30
0.0
 10
1285.263545269983
 20
592.7942223277016
 30
0.0
 10
1303.719982160708
 20
592.7942223277016
 30
0.0
  0
SPLINE
  5
513
330
1F
100
AcDbEntity
  8
HEWI
  6
Continuous
370
     5
100
AcDbSpline
210
0.0
220
0.0
230
1.0
 70
    24
 71
     3
 72
    32
 73
    28
 74
     0
 42
0.000000001
 43
0.0000000001
 40
0.0
 40
0.0
 40
0.0
 40
0.0
 40
0.1249999999997608
 40
0.1874999999996491
 40
0.2187499999995886
 40
0.2343749999995504
 40
0.2421874999995442
 40
0.2421874999995442
 40
0.249999999999538
 40
0.249999999999538
 40
0.3749999999994848
 40
0.4374999999994595
 40
0.4687499999994469
 40
0.4843749999994348
 40
0.492187499999429
 40
0.492187499999429
 40
0.4999999999994231
 40
0.4999999999994231
 40
0.6249999999994828
 40
0.6874999999995177
 40
0.7187499999995351
 40
0.7343749999995436
 40
0.7421874999995523
 40
0.7421874999995523
 40
0.7499999999995608
 40
0.7499999999995608
 40
1.0
 40
1.0
 40
1.0
 40
1.0
 10
1074.696974809219
 20
596.1535220794863
 30
0.0
 10
1074.696974809219
 20
595.9675197748165
 30
0.0
 10
1074.696974809219
 20
595.7003091435035
 30
0.0
 10
1074.696974809219
 20
595.4092008519346
 30
0.0
 10
1074.696974809219
 20
595.2688060673906
 30
0.0
 10
1074.696974809219
 20
595.1998985154296
 30
0.0
 10
1074.696974809219
 20
595.1706431017976
 30
0.0
 10
1074.696974809219
 20
595.1512009136775
 30
0.0
 10
1074.696974809219
 20
595.1429639390987
 30
0.0
 10
1074.696974809219
 20
594.9540415435567
 30
0.0
 10
1074.696974809219
 20
594.7008329583666
 30
0.0
 10
1074.696974809219
 20
594.4290573660396
 30
0.0
 10
1074.696974809219
 20
594.2990781758067
 30
0.0
 10
1074.696974809219
 20
594.2355657321736
 30
0.0
 10
1074.696974809219
 20
594.2086626459347
 30
0.0
 10
1074.696974809219
 20
594.1907975956546
 30
0.0
 10
1074.696974809219
 20
594.1830881334217
 30
0.0
 10
1074.696974809219
 20
594.0122368205837
 30
0.0
 10
1074.696974809219
 20
593.7888752748815
 30
0.0
 10
1074.696974809219
 20
593.5595073433996
 30
0.0
 10
1074.696974809219
 20
593.4526285122845
 30
0.0
 10
1074.696974809219
 20
593.4011403803834
 30
0.0
 10
1074.696974809219
 20
593.3794921703528
 30
0.0
 10
1074.696974809219
 20
593.3651529486013
 30
0.0
 10
1074.696974809219
 20
593.3587812030207
 30
0.0
 10
1074.696974809219
 20
593.1004539437338
 30
0.0
 10
1074.696974809219
 20
592.9148770182166
 30
0.0
 10
1074.696974809218
 20
592.7942223277016
 30
0.0
  0
SPLINE
  5
515
330
1F
100
AcDbEntity
  8
HEWI
  6
Continuous
370
     5
100
AcDbSpline
210
0.0
220
0.0
230
1.0
 70
    24
 71
     3
 72
    18
 73
    14
 74
     0
 42
0.000000001
 43
0.0000000001
 40
0.0
 40
0.0
 40
0.0
 40
0.0
 40
0.0140308739745528
 40
0.0140308739745528
 40
0.0701543698727649
 40
0.0701543698727649
 40
0.294648353465611
 40
0.294648353465611
 40
0.6473241767328052
 40
0.6473241767328052
 40
0.7083768057193005
 40
0.7083768057193005
 40
1.0
 40
1.0
 40
1.0
 40
1.0
 10
1075.696974809219
 20
725.7433470174337
 30
0.0
 10
1075.696974809219
 20
725.1353424785357
 30
0.0
 10
1075.696974809219
 20
724.5273379396389
 30
0.0
 10
1075.696974809219
 20
721.4873152451518
 30
0.0
 10
1075.696974809219
 20
719.0552970895627
 30
0.0
 10
1075.696974809219
 20
706.8952063116174
 30
0.0
 10
1075.696974809219
 20
697.1671336892605
 30
0.0
 10
1075.696974809219
 20
672.1564420586584
 30
0.0
 10
1075.696974809219
 20
656.8738230504135
 30
0.0
 10
1075.696974809219
 20
638.9455901194204
 30
0.0
 10
1075.696974809219
 20
636.2999761966728
 30
0.0
 10
1075.696974809219
 20
621.0173571884276
 30
0.0
 10
1075.696974809219
 20
608.3803521029306
 30
0.0
 10
1075.696974809219
 20
595.7433470174337
 30
0.0
  0
SPLINE
  5
51C
330
1F
100
AcDbEntity
  8
HEWI
  6
Continuous
370
     5
100
AcDbSpline
210
0.0
220
0.0
230
1.0
 70
    24
 71
     3
 72
    18
 73
    14
 74
     0
 42
0.000000001
 43
0.0000000001
 40
0.0
 40
0.0
 40
0.0
 40
0.0
 40
0.0140308739745531
 40
0.0140308739745531
 40
0.0701543698727649
 40
0.0701543698727649
 40
0.294648353465611
 40
0.294648353465611
 40
0.6473241767328059
 40
0.6473241767328059
 40
0.7083768057193013
 40
0.7083768057193013
 40
1.0
 40
1.0
 40
1.0
 40
1.0
 10
1075.696974809219
 20
595.7433470174337
 30
0.0
 10
1075.696974809219
 20
596.3513515563306
 30
0.0
 10
1075.696974809219
 20
596.9593560952274
 30
0.0
 10
1075.696974809219
 20
599.9993787897146
 30
0.0
 10
1075.696974809219
 20
602.4313969453037
 30
0.0
 10
1075.696974809219
 20
614.5914877232495
 30
0.0
 10
1075.696974809219
 20
624.3195603456056
 30
0.0
 10
1075.696974809219
 20
649.3302519762076
 30
0.0
 10
1075.696974809219
 20
664.6128709844528
 30
0.0
 10
1075.696974809219
 20
682.5411039154454
 30
0.0
 10
1075.696974809219
 20
685.1867178381946
 30
0.0
 10
1075.696974809219
 20
700.4693368464398
 30
0.0
 10
1075.696974809219
 20
713.1063419319366
 30
0.0
 10
1075.696974809219
 20
725.7433470174337
 30
0.0
  0
SPLINE
  5
526
330
1F
100
AcDbEntity
  8
HEWI
  6
Continuous
370
     5
100
AcDbSpline
210
0.0
220
0.0
230
1.0
 70
    25
 71
     3
 72
   117
 73
   113
 74
     0
 42
0.000000001
 43
0.0000000001
 40
0.0
 40
0.0
 40
0.0
 40
0.0
 40
0.1249999999999948
 40
0.1874999999999922
 40
0.2187499999999909
 40
0.2343749999999903
 40
0.2382812499999901
 40
0.24023437499999
 40
0.24023437499999
 40
0.2421874999999899
 40
0.2421874999999899
 40
0.2499999999999896
 40
0.2499999999999896
 40
0.2519531249999895
 40
0.2519531249999895
 40
0.2539062499999894
 40
0.2539062499999894
 40
0.2578124999999893
 40
0.2578124999999893
 40
0.2656249999999889
 40
0.2656249999999889
 40
0.2734374999999887
 40
0.2734374999999887
 40
0.2773437499999886
 40
0.2773437499999886
 40
0.2812499999999885
 40
0.2812499999999885
 40
0.2890624999999881
 40
0.2890624999999881
 40
0.2968749999999877
 40
0.2968749999999877
 40
0.2988281249999877
 40
0.2988281249999877
 40
0.3007812499999876
 40
0.3007812499999876
 40
0.3046874999999876
 40
0.3046874999999876
 40
0.3124999999999873
 40
0.3124999999999873
 40
0.3164062499999872
 40
0.3164062499999872
 40
0.3183593749999872
 40
0.3183593749999872
 40
0.3203124999999871
 40
0.3203124999999871
 40
0.3281249999999871
 40
0.3281249999999871
 40
0.3359374999999869
 40
0.3359374999999869
 40
0.339843749999987
 40
0.339843749999987
 40
0.343749999999987
 40
0.343749999999987
 40
0.345703124999987
 40
0.345703124999987
 40
0.347656249999987
 40
0.351562499999987
 40
0.359374999999987
 40
0.3749999999999868
 40
0.4999999999999866
 40
0.6249999999999865
 40
0.6406249999999865
 40
0.6484374999999865
 40
0.6523437499999865
 40
0.6542968749999865
 40
0.6542968749999865
 40
0.6562499999999865
 40
0.6562499999999865
 40
0.6601562499999867
 40
0.6601562499999867
 40
0.6640624999999869
 40
0.6640624999999869
 40
0.6718749999999872
 40
0.6718749999999872
 40
0.6796874999999875
 40
0.6796874999999875
 40
0.6816406249999876
 40
0.6816406249999876
 40
0.6835937499999875
 40
0.6835937499999875
 40
0.6874999999999878
 40
0.6874999999999878
 40
0.7031249999999886
 40
0.7031249999999886
 40
0.7109374999999889
 40
0.7109374999999889
 40
0.7187499999999893
 40
0.7187499999999893
 40
0.7226562499999895
 40
0.7226562499999895
 40
0.7246093749999895
 40
0.7246093749999895
 40
0.7265624999999895
 40
0.7265624999999895
 40
0.7343749999999896
 40
0.7343749999999896
 40
0.7421874999999899
 40
0.7421874999999899
 40
0.7460937499999902
 40
0.7460937499999902
 40
0.7499999999999904
 40
0.7499999999999904
 40
0.7578124999999904
 40
0.7578124999999904
 40
0.7597656249999906
 40
0.7597656249999906
 40
0.7617187499999904
 40
0.7656249999999908
 40
0.7812499999999913
 40
0.8124999999999925
 40
0.8749999999999948
 40
1.0
 40
1.0
 40
1.0
 40
1.0
 10
1075.696974809233
 20
732.7942223277016
 30
0.0
 10
1122.278310862148
 20
732.7942223277016
 30
0.0
 10
1192.150314941501
 20
732.7942223277016
 30
0.0
 10
1273.667653034078
 20
732.7942223277016
 30
0.0
 10
1314.426322080368
 20
732.7942223277016
 30
0.0
 10
1333.349989851859
 20
732.7942223277016
 30
0.0
 10
1341.356156985951
 20
732.7942223277016
 30
0.0
 10
1343.539657113431
 20
732.7942223277016
 30
0.0
 10
1344.995323865084
 20
732.7942223277016
 30
0.0
 10
1345.723209720377
 20
732.7942223277016
 30
0.0
 10
1349.361663603642
 20
732.7942223277016
 30
0.0
 10
1352.269734906976
 20
732.7942223277016
 30
0.0
 10
1355.901402221079
 20
732.7942223277016
 30
0.0
 10
1356.62756378865
 20
732.7942223277016
 30
0.0
 10
1358.079538564358
 20
732.7942223277016
 30
0.0
 10
1358.806355974661
 20
732.7942223277016
 30
0.0
 10
1360.973041273642
 20
732.7942223277016
 30
0.0
 10
1362.402370822337
 20
732.7942223277016
 30
0.0
 10
1366.646287892352
 20
732.7942223277016
 30
0.0
 10
1369.417032189106
 20
732.7942223277016
 30
0.0
 10
1374.841923297813
 20
732.7942223277016
 30
0.0
 10
1377.495974852469
 20
732.7942223277016
 30
0.0
 10
1381.388167702805
 20
732.7942223277016
 30
0.0
 10
1382.673173447254
 20
732.7942223277016
 30
0.0
 10
1385.179672410752
 20
732.7942223277016
 30
0.0
 10
1386.404934738379
 20
732.7942223277016
 30
0.0
 10
1389.998396943548
 20
732.7942223277016
 30
0.0
 10
1392.285383568972
 20
732.7942223277016
 30
0.0
 10
1396.644593030131
 20
732.7942223277016
 30
0.0
 10
1398.715776864235
 20
732.7942223277016
 30
0.0
 10
1401.164297525812
 20
732.7942223277016
 30
0.0
 10
1401.646964298854
 20
732.7942223277016
 30
0.0
 10
1402.591868068284
 20
732.7942223277016
 30
0.0
 10
1403.054943466836
 20
732.7942223277016
 30
0.0
 10
1404.416381939151
 20
732.7942223277016
 30
0.0
 10
1405.287007933128
 20
732.7942223277016
 30
0.0
 10
1407.78874874523
 20
732.7942223277016
 30
0.0
 10
1409.308952145287
 20
732.7942223277016
 30
0.0
 10
1411.370848270577
 20
732.7942223277016
 30
0.0
 10
1412.021692968419
 20
732.7942223277016
 30
0.0
 10
1412.942325380664
 20
732.7942223277016
 30
0.0
 10
1413.239918539895
 20
732.7942223277016
 30
0.0
 10
1413.816222374321
 20
732.7942223277016
 30
0.0
 10
1414.095365269708
 20
732.7942223277016
 30
0.0
 10
1415.436925746238
 20
732.7942223277016
 30
0.0
 10
1416.33598330682
 20
732.7942223277016
 30
0.0
 10
1417.801457678835
 20
732.7942223277016
 30
0.0
 10
1418.367316748489
 20
732.7942223277016
 30
0.0
 10
1418.962293664799
 20
732.7942223277016
 30
0.0
 10
1419.11835360464
 20
732.7942223277016
 30
0.0
 10
1419.344427605069
 20
732.7942223277016
 30
0.0
 10
1419.414392218575
 20
732.7942223277016
 30
0.0
 10
1419.45265479069
 20
732.7942223277016
 30
0.0
 10
1419.450983398035
 20
732.7942223277016
 30
0.0
 10
1419.450916891384
 20
732.7942223277016
 30
0.0
 10
1419.450890388735
 20
732.7942223277016
 30
0.0
 10
1419.450900389734
 20
732.7942223277016
 30
0.0
 10
1419.450910390735
 20
732.7942223277016
 30
0.0
 10
1419.450920391735
 20
732.7942223277016
 30
0.0
 10
1419.450930392734
 20
732.7942223277016
 30
0.0
 10
1419.450940393734
 20
732.7942223277016
 30
0.0
 10
1419.450950394734
 20
732.7942223277016
 30
0.0
 10
1419.450960395735
 20
732.7942223277016
 30
0.0
 10
1419.450970396735
 20
732.7942223277016
 30
0.0
 10
1419.450980397735
 20
732.7942223277016
 30
0.0
 10
1419.450990398735
 20
732.7942223277016
 30
0.0
 10
1419.453203856678
 20
732.7942223277016
 30
0.0
 10
1419.444788963434
 20
732.7942223277016
 30
0.0
 10
1419.394694330541
 20
732.7942223277016
 30
0.0
 10
1419.207637610208
 20
732.7942223277016
 30
0.0
 10
1419.070870132322
 20
732.7942223277016
 30
0.0
 10
1418.53349201872
 20
732.7942223277016
 30
0.0
 10
1418.005724487353
 20
732.7942223277016
 30
0.0
 10
1416.616043480136
 20
732.7942223277016
 30
0.0
 10
1415.754931741792
 20
732.7942223277016
 30
0.0
 10
1414.462350390778
 20
732.7942223277016
 30
0.0
 10
1414.192464968059
 20
732.7942223277016
 30
0.0
 10
1413.633620187143
 20
732.7942223277016
 30
0.0
 10
1413.344665953831
 20
732.7942223277016
 30
0.0
 10
1412.449749142782
 20
732.7942223277016
 30
0.0
 10
1411.815781495305
 20
732.7942223277016
 30
0.0
 10
1408.463152475619
 20
732.7942223277016
 30
0.0
 10
1405.199327733709
 20
732.7942223277016
 30
0.0
 10
1399.404461030019
 20
732.7942223277016
 30
0.0
 10
1397.358790724131
 20
732.7942223277016
 30
0.0
 10
1393.049756933385
 20
732.7942223277016
 30
0.0
 10
1390.787042778848
 20
732.7942223277016
 30
0.0
 10
1387.230181779249
 20
732.7942223277016
 30
0.0
 10
1386.017223706085
 20
732.7942223277016
 30
0.0
 10
1384.155658463838
 20
732.7942223277016
 30
0.0
 10
1383.528141668431
 20
732.7942223277016
 30
0.0
 10
1382.259018036492
 20
732.7942223277016
 30
0.0
 10
1381.616951325712
 20
732.7942223277016
 30
0.0
 10
1378.392750006429
 20
732.7942223277016
 30
0.0
 10
1375.753207375597
 20
732.7942223277016
 30
0.0
 10
1370.356394877695
 20
732.7942223277016
 30
0.0
 10
1367.598885016946
 20
732.7942223277016
 30
0.0
 10
1363.374120546188
 20
732.7942223277016
 30
0.0
 10
1361.95106071802
 20
732.7942223277016
 30
0.0
 10
1359.074567688586
 20
732.7942223277016
 30
0.0
 10
1357.61950495031
 20
732.7942223277016
 30
0.0
 10
1353.262059899905
 20
732.7942223277016
 30
0.0
 10
1350.350091599218
 20
732.7942223277016
 30
0.0
 10
1346.701505399384
 20
732.7942223277016
 30
0.0
 10
1345.971262185432
 20
732.7942223277016
 30
0.0
 10
1344.510320091506
 20
732.7942223277016
 30
0.0
 10
1342.318906950618
 20
732.7942223277016
 30
0.0
 10
1334.283725434028
 20
732.7942223277016
 30
0.0
 10
1315.291478212997
 20
732.7942223277016
 30
0.0
 10
1274.385099583084
 20
732.7942223277016
 30
0.0
 10
1192.572342323256
 20
732.7942223277016
 30
0.0
 10
1122.447121814833
 20
732.7942223277016
 30
0.0
 10
1075.696974809233
 20
732.7942223277016
 30
0.0
  0
SPLINE
  5
548
330
1F
100
AcDbEntity
  8
HEWI
  6
Continuous
370
     5
100
AcDbSpline
210
0.0
220
0.0
230
1.0
 70
    28
 71
     3
 72
    38
 73
    34
 74
     0
 42
0.000000001
 43
0.0000000001
 40
0.0
 40
0.0
 40
0.0
 40
0.0
 40
0.125
 40
0.125
 40
0.1874999999999999
 40
0.1874999999999999
 40
0.2187499999999999
 40
0.2187499999999999
 40
0.2499999999999999
 40
0.2499999999999999
 40
0.3749999999999999
 40
0.3749999999999999
 40
0.4375
 40
0.4375
 40
0.46875
 40
0.46875
 40
0.5
 40
0.5
 40
0.6250000000000001
 40
0.6250000000000001
 40
0.6875000000000001
 40
0.6875000000000001
 40
0.7187500000000001
 40
0.7187500000000001
 40
0.7500000000000001
 40
0.7500000000000001
 40
0.875
 40
0.875
 40
0.9375
 40
0.9375
 40
0.96875
 40
0.96875
 40
1.0
 40
1.0
 40
1.0
 40
1.0
 10
1240.058871438841
 20
588.5987241717783
 30
0.0
 41
1.000000000001012
 10
1243.478672163766
 20
588.5987241717526
 30
0.0
 41
1.000000000001004
 10
1246.968761568582
 20
588.5987241717913
 30
0.0
 41
1.000000000000996
 10
1252.306282907819
 20
588.5987241717725
 30
0.0
 41
1.000000000000986
 10
1254.10264189337
 20
588.5987241717876
 30
0.0
 41
1.000000000000984
 10
1256.823460313753
 20
588.5987241717757
 30
0.0
 41
1.000000000000976
 10
1257.734785458312
 20
588.5987241717836
 30
0.0
 41
1.000000000000976
 10
1259.566362716462
 20
588.5987241717757
 30
0.0
 41
1.000000000000972
 10
1260.482573283128
 20
588.5987241717804
 30
0.0
 41
1.000000000000969
 10
1265.052552304473
 20
588.5987241717766
 30
0.0
 41
1.000000000000961
 10
1268.686840725025
 20
588.5987241717796
 30
0.0
 41
1.000000000000953
 10
1274.106543293843
 20
588.5987241717804
 30
0.0
 41
1.000000000000939
 10
1275.907790896706
 20
588.5987241717925
 30
0.0
 41
1.000000000000937
 10
1278.601488758927
 20
588.5987241717746
 30
0.0
 41
1.000000000000929
 10
1279.495428404014
 20
588.5987241717746
 30
0.0
 41
1.000000000000929
 10
1281.265512889108
 20
588.5987241717876
 30
0.0
 41
1.000000000000925
 10
1282.143184690214
 20
588.5987241717766
 30
0.0
 41
1.000000000000923
 10
1286.495204433444
 20
588.5987241717996
 30
0.0
 41
1.000000000000913
 10
1289.861321558085
 20
588.5987241717855
 30
0.0
 41
1.000000000000905
 10
1294.737423730251
 20
588.5987241717796
 30
0.0
 41
1.000000000000894
 10
1296.333792519524
 20
588.5987241717876
 30
0.0
 41
1.000000000000889
 10
1298.683406208672
 20
588.5987241717796
 30
0.0
 41
1.000000000000885
 10
1299.456848807396
 20
588.5987241717766
 30
0.0
 41
1.000000000000882
 10
1300.974839889505
 20
588.5987241717876
 30
0.0
 41
1.000000000000879
 10
1301.720858870087
 20
588.5987241717804
 30
0.0
 41
1.000000000000877
 10
1305.386939063031
 20
588.5987241717896
 30
0.0
 41
1.000000000000869
 10
1308.116316920561
 20
588.5987241717904
 30
0.0
 41
1.000000000000861
 10
1311.905078424781
 20
588.5987241717783
 30
0.0
 41
1.000000000000851
 10
1313.116850019805
 20
588.5987241717957
 30
0.0
 41
1.000000000000849
 10
1314.855249859353
 20
588.5987241717766
 30
0.0
 41
1.000000000000845
 10
1315.419901536104
 20
588.5987241717774
 30
0.0
 41
1.000000000000841
 10
1316.512609607262
 20
588.5987241717896
 30
0.0
 41
1.000000000000839
 10
1317.04179270435
 20
588.5987241717966
 30
0.0
 41
1.000000000000839
 10
1317.554034522576
 20
588.5987241717836
 30
0.0
 41
1.000000000000837
  0
SPLINE
  5
54A
330
1F
100
AcDbEntity
  8
HEWI
  6
Continuous
370
     5
100
AcDbSpline
210
0.0
220
0.0
230
1.0
 70
    28
 71
     3
 72
    38
 73
    34
 74
     0
 42
0.000000001
 43
0.0000000001
 40
0.0
 40
0.0
 40
0.0
 40
0.0
 40
0.03125
 40
0.03125
 40
0.0625000000000002
 40
0.0625000000000002
 40
0.1250000000000001
 40
0.1250000000000001
 40
0.25
 40
0.25
 40
0.2812500000000001
 40
0.2812500000000001
 40
0.3125
 40
0.3125
 40
0.3749999999999999
 40
0.3749999999999999
 40
0.5
 40
0.5
 40
0.53125
 40
0.53125
 40
0.5625
 40
0.5625
 40
0.625
 40
0.625
 40
0.75
 40
0.75
 40
0.78125
 40
0.78125
 40
0.8125
 40
0.8125
 40
0.875
 40
0.875
 40
1.0
 40
1.0
 40
1.0
 40
1.0
 10
1317.554034522606
 20
588.5987241718424
 30
0.0
 41
0.9999999999992416
 10
1317.041792704366
 20
588.5987241718446
 30
0.0
 41
0.9999999999992406
 10
1316.512609607302
 20
588.5987241718495
 30
0.0
 41
0.9999999999992391
 10
1315.419901536121
 20
588.5987241718376
 30
0.0
 41
0.9999999999992363
 10
1314.855249859392
 20
588.5987241718346
 30
0.0
 41
0.9999999999992351
 10
1313.116850019811
 20
588.5987241718606
 30
0.0
 41
0.9999999999992311
 10
1311.905078424811
 20
588.5987241718376
 30
0.0
 41
0.9999999999992283
 10
1308.116316920581
 20
588.5987241718566
 30
0.0
 41
0.9999999999992196
 10
1305.386939063056
 20
588.5987241718517
 30
0.0
 41
0.9999999999992136
 10
1301.72085887011
 20
588.5987241718424
 30
0.0
 41
0.9999999999992056
 10
1300.974839889518
 20
588.5987241718476
 30
0.0
 41
0.999999999999204
 10
1299.456848807428
 20
588.5987241718408
 30
0.0
 41
0.9999999999992006
 10
1298.683406208704
 20
588.5987241718376
 30
0.0
 41
0.9999999999991986
 10
1296.333792519527
 20
588.5987241718575
 30
0.0
 41
0.9999999999991937
 10
1294.737423730284
 20
588.5987241718384
 30
0.0
 41
0.9999999999991903
 10
1289.861321558079
 20
588.5987241718566
 30
0.0
 41
0.99999999999918
 10
1286.495204433513
 20
588.5987241718517
 30
0.0
 41
0.9999999999991732
 10
1282.143184690217
 20
588.5987241718435
 30
0.0
 41
0.9999999999991642
 10
1281.265512889116
 20
588.5987241718505
 30
0.0
 41
0.9999999999991622
 10
1279.495428404036
 20
588.5987241718396
 30
0.0
 41
0.9999999999991587
 10
1278.60148875893
 20
588.5987241718416
 30
0.0
 41
0.9999999999991567
 10
1275.907790896742
 20
588.5987241718526
 30
0.0
 41
0.9999999999991516
 10
1274.106543293826
 20
588.5987241718446
 30
0.0
 41
0.9999999999991477
 10
1268.686840725095
 20
588.5987241718485
 30
0.0
 41
0.9999999999991374
 10
1265.052552304513
 20
588.5987241718546
 30
0.0
 41
0.9999999999991302
 10
1260.482573283128
 20
588.5987241718446
 30
0.0
 41
0.9999999999991215
 10
1259.566362716471
 20
588.5987241718424
 30
0.0
 41
0.9999999999991198
 10
1257.734785458316
 20
588.5987241718505
 30
0.0
 41
0.9999999999991164
 10
1256.823460313782
 20
588.5987241718446
 30
0.0
 41
0.9999999999991148
 10
1254.10264189333
 20
588.5987241718517
 30
0.0
 41
0.9999999999991096
 10
1252.306282907815
 20
588.5987241718476
 30
0.0
 41
0.9999999999991063
 10
1246.968761568601
 20
588.5987241718465
 30
0.0
 41
0.9999999999990963
 10
1243.478672163759
 20
588.5987241718055
 30
0.0
 41
0.9999999999990903
 10
1240.05887143884
 20
588.5987241718476
 30
0.0
 41
0.9999999999990839
  0
SPLINE
  5
55A
330
1F
100
AcDbEntity
  8
HEWI
  6
Continuous
370
     5
100
AcDbSpline
210
0.0
220
0.0
230
1.0
 70
     8
 71
     3
 72
    15
 73
    11
 74
     0
 42
0.000000001
 43
0.0000000001
 40
0.0
 40
0.0
 40
0.0
 40
0.0
 40
0.0157388477819206
 40
0.0314664593973426
 40
0.0628764647366229
 40
0.125532382489921
 40
0.2503213606352038
 40
0.4988504777603823
 40
0.7307984598079909
 40
1.0
 40
1.0
 40
1.0
 40
1.0
 10
1325.012865634261
 20
593.9940769937086
 30
0.0
 10
1325.040628841391
 20
593.9949344855684
 30
0.0
 10
1325.096135435139
 20
593.9966488571126
 30
0.0
 10
1325.207069508382
 20
593.9991131502567
 30
0.0
 10
1325.400804161414
 20
594.0015179483996
 30
0.0
 10
1325.78697471131
 20
593.9982970342465
 30
0.0
 10
1326.555486139053
 20
593.9607976856065
 30
0.0
 10
1327.614969880292
 20
593.8200133404357
 30
0.0
 10
1328.90466766885
 20
593.5199326038185
 30
0.0
 10
1329.728763970036
 20
593.2023847000555
 30
0.0
 10
1330.171442220141
 20
593.0318080937056
 30
0.0
  0
SPLINE
  5
567
330
1F
100
AcDbEntity
  8
HEWI
  6
Continuous
370
     5
100
AcDbSpline
210
0.0
220
0.0
230
1.0
 70
     8
 71
     3
 72
    13
 73
     9
 74
     0
 42
0.000000001
 43
0.0000000001
 40
0.0
 40
0.0
 40
0.0
 40
0.0
 40
0.1199337654900149
 40
0.2464581169052815
 40
0.4948017264139133
 40
0.7461628905697121
 40
0.8518482314853741
 40
1.0
 40
1.0
 40
1.0
 40
1.0
 10
1075.696974809219
 20
595.7433470174366
 30
0.0
 10
1075.692583398337
 20
595.5344433047985
 30
0.0
 10
1075.683559260289
 20
595.1051562277105
 30
0.0
 10
1075.594973108338
 20
594.3349669767246
 30
0.0
 10
1075.398602263701
 20
593.5312963137635
 30
0.0
 10
1075.134828948253
 20
593.0515116034713
 30
0.0
 10
1074.894170420138
 20
592.8302131497708
 30
0.0
 10
1074.769650647044
 20
592.8074866348306
 30
0.0
 10
1074.69697480922
 20
592.7942223277016
 30
0.0
  0
SPLINE
  5
568
330
1F
100
AcDbEntity
  8
HEWI
  6
Continuous
370
     5
100
AcDbSpline
210
0.0
220
0.0
230
1.0
 70
     8
 71
     3
 72
    13
 73
     9
 74
     0
 42
0.000000001
 43
0.0000000001
 40
0.0
 40
0.0
 40
0.0
 40
0.0
 40
0.1481462325981959
 40
0.2538371105189605
 40
0.5051982671683525
 40
0.7535418692610182
 40
0.8800595568043373
 40
1.0
 40
1.0
 40
1.0
 40
1.0
 10
1074.696974809218
 20
592.7942223277016
 30
0.0
 10
1074.769647825855
 20
592.8074857218668
 30
0.0
 10
1074.894167418638
 20
592.8302115218516
 30
0.0
 10
1075.134826638438
 20
593.0515072267747
 30
0.0
 10
1075.398602854153
 20
593.5312962342988
 30
0.0
 10
1075.594969177153
 20
594.3349586492386
 30
0.0
 10
1075.683561558626
 20
595.1051449319415
 30
0.0
 10
1075.692583986396
 20
595.5344317911474
 30
0.0
 10
1075.696974809219
 20
595.7433470174255
 30
0.0
  0
SPLINE
  5
56A
330
1F
100
AcDbEntity
  8
HEWI
  6
Continuous
370
     5
100
AcDbSpline
210
0.0
220
0.0
230
1.0
 70
    12
 71
     2
 72
     6
 73
     3
 74
     0
 42
0.000000001
 43
0.0000000001
 40
0.0
 40
0.0
 40
0.0
 40
1.0
 40
1.0
 40
1.0
 10
1075.696974809219
 20
595.7433470174337
 30
0.0
 41
1.0
 10
1074.696974809219
 20
595.7433470174337
 30
0.0
 41
0.7071067811865476
 10
1074.696974809219
 20
596.1535220794863
 30
0.0
 41
1.0
  0
SPLINE
  5
56B
330
1F
100
AcDbEntity
  8
HEWI
  6
Continuous
100
AcDbSpline
210
0.0
220
0.0
230
1.0
 70
     8
 71
     3
 72
    76
 73
    72
 74
     0
 42
0.000000001
 43
0.0000000001
 40
0.0
 40
0.0
 40
0.0
 40
0.0
 40
0.0130960007450393
 40
0.0247562285105488
 40
0.0349806832964741
 40
0.0437693651027781
 40
0.05112227392944
 40
0.0571947814684455
 40
0.0857568345281748
 40
0.1380875042830511
 40
0.1713888395817441
 40
0.2052575748997358
 40
0.2130699787083465
 40
0.2209587701079716
 40
0.2289238759533418
 40
0.2369776419501548
 40
0.2447714467750698
 40
0.2507276919640848
 40
0.2553088043279617
 40
0.2612001149853349
 40
0.2688266202055933
 40
0.2773714625275236
 40
0.2856523776010809
 40
0.293763889729357
 40
0.3017210583842825
 40
0.309482917000327
 40
0.3172304009569203
 40
0.3249852979317438
 40
0.332639956495095
 40
0.3461251548463631
 40
0.3589742298017188
 40
0.3719172618083003
 40
0.3849200157076974
 40
0.3979715131352922
 40
0.4110506615237865
 40
0.4241316693753728
 40
0.496086178754115
 40
0.6149714055997296
 40
0.6248324061078636
 40
0.6346512267607288
 40
0.6444277504770822
 40
0.6541595733936299
 40
0.664422410809714
 40
0.6745653423723594
 40
0.6822206163390763
 40
0.68999719055576
 40
0.6979456349107323
 40
0.7061557811913952
 40
0.7145233381481148
 40
0.7226634238240948
 40
0.7303249232995439
 40
0.7373890531212651
 40
0.7454760297024996
 40
0.7528285532022179
 40
0.7606145312978444
 40
0.7698191233997879
 40
0.7802914856025751
 40
0.7905630309624648
 40
0.8004074795219878
 40
0.8098361234971831
 40
0.8684133573532296
 40
0.8879501407285026
 40
0.9073427953145252
 40
0.9251489689508984
 40
0.9308870469365398
 40
0.9380500484378803
 40
0.9469553795429131
 40
0.9576030402516394
 40
0.9699930305640606
 40
0.9841253504801787
 40
1.0
 40
1.0
 40
1.0
 40
1.0
 10
447.0869312332617
 20
361.1022424545524
 30
0.0
 10
447.0869312331616
 20
356.1275981260556
 30
0.0
 10
447.0869312369576
 20
346.7237019173345
 30
0.0
 10
447.0869312213126
 20
333.4359462770585
 30
0.0
 10
447.0869312679456
 20
321.7843679809631
 30
0.0
 10
447.0869311292526
 20
311.7689670324954
 30
0.0
 10
447.0869315283536
 20
303.3307239606476
 30
0.0
 10
447.0869289619736
 20
287.3813719218659
 30
0.0
 10
447.0869968564536
 20
254.3467752839273
 30
0.0
 10
447.0865530534826
 20
210.9690483981673
 30
0.0
 10
447.0877781433438
 20
165.5755032580581
 30
0.0
 10
447.0847269047729
 20
137.092716880648
 30
0.0
 10
447.0885899965918
 20
118.2630394633924
 30
0.0
 10
447.0805361325687
 20
109.2732778677563
 30
0.0
 10
447.1122452455658
 20
100.1913214535482
 30
0.0
 10
446.9953929341829
 20
91.14745964552005
 30
0.0
 10
447.3902724143807
 20
82.85985213097513
 30
0.0
 10
448.5131730623926
 20
75.97644669255874
 30
0.0
 10
449.9660278852116
 20
69.90379249985517
 30
0.0
 10
452.0718291416446
 20
63.35009177935353
 30
0.0
 10
455.4101014974706
 20
55.6445006818235
 30
0.0
 10
460.078782450548
 20
47.58687017777957
 30
0.0
 10
465.8025878599798
 20
40.01089049071139
 30
0.0
 10
472.2219150641087
 20
33.32253287078908
 30
0.0
 10
479.2200146001926
 20
27.54895198432286
 30
0.0
 10
486.7083588319819
 20
22.67991242152391
 30
0.0
 10
494.6242033851376
 20
18.70754166066432
 30
0.0
 10
502.8964339301837
 20
15.67106907117255
 30
0.0
 10
513.5703785972498
 20
12.98689042117036
 30
0.0
 10
526.5234779616196
 20
12.14995524259871
 30
0.0
 10
541.4306751758329
 20
12.40076021990808
 30
0.0
 10
556.1706475029358
 20
12.33411129901964
 30
0.0
 10
570.9832397529187
 20
12.35210726481102
 30
0.0
 10
585.8486899058517
 20
12.34726102775039
 30
0.0
 10
600.7435564670116
 20
12.34855578008842
 30
0.0
 10
638.0134081068567
 20
12.34776338660003
 30
0.0
 10
715.4747310970767
 20
12.35099378009869
 30
0.0
 10
791.7125889288977
 20
12.33964877890167
 30
0.0
 10
844.3481787663367
 20
12.35049814570777
 30
0.0
 10
855.5371594955866
 20
12.33959469358581
 30
0.0
 10
866.6784852300867
 20
12.38066426399911
 30
0.0
 10
877.9830959737127
 20
12.22550451405976
 30
0.0
 10
889.4477312250696
 20
12.83315643395633
 30
0.0
 10
899.8938900545418
 20
15.19161264725795
 30
0.0
 10
909.0515357249456
 20
18.47993206472023
 30
0.0
 10
917.0380012953641
 20
22.41033302251532
 30
0.0
 10
924.7075101488347
 20
27.32933464969119
 30
0.0
 10
931.9283451129418
 20
33.25110773849014
 30
0.0
 10
938.4415748466048
 20
40.04563794290845
 30
0.0
 10
943.9776184802997
 20
47.39620659399371
 30
0.0
 10
948.3852656008627
 20
54.90123882638329
 30
0.0
 10
951.9664870615576
 20
62.80809074562434
 30
0.0
 10
954.6220451698728
 20
70.95451697205374
 30
0.0
 10
956.4191594376508
 20
79.60856674904778
 30
0.0
 10
957.2654365267835
 20
88.83830019673395
 30
0.0
 10
957.0763574232987
 20
99.27580343033881
 30
0.0
 10
957.1367841736329
 20
110.6502893636114
 30
0.0
 10
957.1206037242907
 20
122.2700415946187
 30
0.0
 10
957.1247714520817
 20
133.4927426176522
 30
0.0
 10
957.1224790663647
 20
163.0650197673666
 30
0.0
 10
957.124187151896
 20
196.3189082365535
 30
0.0
 10
957.1239618110039
 20
233.3577804685525
 30
0.0
 10
957.1239974635666
 20
254.9093579526501
 30
0.0
 10
957.1239897781655
 20
271.2193631256941
 30
0.0
 10
957.1239903930118
 20
282.8838143831505
 30
0.0
 10
957.1239902631967
 20
291.1671933274694
 30
0.0
 10
957.123990310769
 20
301.3155254171156
 30
0.0
 10
957.1239902941838
 20
313.4493804748017
 30
0.0
 10
957.1239902997501
 20
327.5687584980012
 30
0.0
 10
957.1239902977035
 20
343.6736594875885
 30
0.0
 10
957.1239902978819
 20
355.0721011359823
 30
0.0
 10
957.123990297687
 20
361.1022424545522
 30
0.0
  0
SPLINE
  5
56C
330
1F
100
AcDbEntity
  8
HEWI
  6
Continuous
370
     5
100
AcDbSpline
210
0.0
220
0.0
230
1.0
 70
     8
 71
     3
 72
    21
 73
    17
 74
     0
 42
0.000000001
 43
0.0000000001
 40
0.0
 40
0.0
 40
0.0
 40
0.0
 40
0.0409002795630903
 40
0.0821053424875179
 40
0.1236393298294547
 40
0.1655294441281293
 40
0.2078073556614162
 40
0.2505105208258255
 40
0.3744383404388105
 40
0.4996833359529206
 40
0.5848912923343344
 40
0.6691166707713562
 40
0.752546362931943
 40
0.8353803570298621
 40
0.9178035420396652
 40
1.0
 40
1.0
 40
1.0
 40
1.0
 10
524.3554607866829
 20
262.7223440975985
 30
0.0
 10
523.1026765626989
 20
262.6923888296501
 30
0.0
 10
520.5877725358329
 20
262.6322550711409
 30
0.0
 10
516.8174666730788
 20
262.23716526161
 30
0.0
 10
513.0491270305488
 20
261.613812607756
 30
0.0
 10
509.2971587899809
 20
260.7358876973354
 30
0.0
 10
505.5758724529128
 20
259.6050201314629
 30
0.0
 10
499.5869847806488
 20
257.3405958265811
 30
0.0
 10
491.6502792559876
 20
253.0907441656673
 30
0.0
 10
483.6772516376488
 20
246.5520680703627
 30
0.0
 10
477.7150931370838
 20
239.7403286941115
 30
0.0
 10
473.4165428141556
 20
233.2694587821677
 30
0.0
 10
470.0292648516627
 20
226.358047184298
 30
0.0
 10
467.6021991485828
 20
219.1195875539985
 30
0.0
 10
466.0619992428626
 20
211.6657337354516
 30
0.0
 10
465.8506835222778
 20
206.6210902553855
 30
0.0
 10
465.7451711822557
 20
204.1022424541584
 30
0.0
  0
SPLINE
  5
570
330
1F
100
AcDbEntity
  8
HEWI
  6
Continuous
370
     5
100
AcDbSpline
210
0.0
220
0.0
230
1.0
 70
     8
 71
     3
 72
    24
 73
    20
 74
     0
 42
0.000000001
 43
0.0000000001
 40
0.0
 40
0.0
 40
0.0
 40
0.0
 40
0.0410503889005351
 40
0.0821334440902699
 40
0.123275687288956
 40
0.1644951817502176
 40
0.2058173734667114
 40
0.2472689703261925
 40
0.2888686415493118
 40
0.3306391002169947
 40
0.3726100710646306
 40
0.4148049715000496
 40
0.4572451850199501
 40
0.4999531542928672
 40
0.6251753551429112
 40
0.7491061677517487
 40
0.8342100468289348
 40
0.9177616880745379
 40
1.0
 40
1.0
 40
1.0
 40
1.0
 10
465.7451711822548
 20
89.10224245513539
 30
0.0
 10
465.7746180716208
 20
87.84465523403502
 30
0.0
 10
465.8335352830317
 20
85.32848005325547
 30
0.0
 10
466.2265072804139
 20
81.56859810187361
 30
0.0
 10
466.8426226665617
 20
77.83535758210508
 30
0.0
 10
467.7022907341998
 20
74.14212745791847
 30
0.0
 10
468.7988746172086
 20
70.50247091639469
 30
0.0
 10
470.1325633511078
 20
66.93021178470769
 30
0.0
 10
471.7004005991358
 20
63.43922455371465
 30
0.0
 10
473.4996699134848
 20
60.04356555013782
 30
0.0
 10
475.5270362704508
 20
56.75740051826675
 30
0.0
 10
477.778090619641
 20
53.59501167086989
 30
0.0
 10
480.2480866545888
 20
50.57082947658784
 30
0.0
 10
484.6501685122756
 20
45.85831775728183
 30
0.0
 10
491.6088053222359
 20
40.14322026184867
 30
0.0
 10
500.6902365358156
 20
35.26301696187471
 30
0.0
 10
509.1966005241288
 20
32.37503799936434
 30
0.0
 10
516.7542764369264
 20
30.80518788083401
 30
0.0
 10
521.8351489470069
 20
30.58925298141304
 30
0.0
 10
524.3554607653368
 20
30.48214081161916
 30
0.0
  0
SPLINE
  5
572
330
1F
100
AcDbEntity
  8
HEWI
  6
Continuous
370
     5
100
AcDbSpline
210
0.0
220
0.0
230
1.0
 70
    24
 71
     3
 72
    32
 73
    28
 74
     0
 42
0.000000001
 43
0.0000000001
 40
0.0
 40
0.0
 40
0.0
 40
0.0
 40
0.1250000000000679
 40
0.1875000000000951
 40
0.2187500000001056
 40
0.2343750000001143
 40
0.2421875000001187
 40
0.2421875000001187
 40
0.2500000000001231
 40
0.2500000000001231
 40
0.3750000000003789
 40
0.437500000000508
 40
0.4687500000005784
 40
0.4843750000006133
 40
0.4921875000006254
 40
0.4921875000006254
 40
0.5000000000006374
 40
0.5000000000006374
 40
0.6250000000006435
 40
0.6875000000006584
 40
0.7187500000006609
 40
0.7343750000006694
 40
0.7421875000006619
 40
0.7421875000006619
 40
0.7500000000006546
 40
0.7500000000006546
 40
1.0
 40
1.0
 40
1.0
 40
1.0
 10
510.5541259779957
 20
362.1022424545483
 30
0.0
 10
510.323409223344
 20
362.1022424545491
 30
0.0
 10
509.9864209088359
 20
362.1022424545491
 30
0.0
 10
509.6091698058208
 20
362.1022424545492
 30
0.0
 10
509.4245197369567
 20
362.1022424545491
 30
0.0
 10
509.3331885731859
 20
362.1022424545492
 30
0.0
 10
509.2942596181396
 20
362.1022424545492
 30
0.0
 10
509.2683543086168
 20
362.1022424545491
 30
0.0
 10
509.2541604857866
 20
362.1022424545491
 30
0.0
 10
509.0562720549536
 20
362.1022424545491
 30
0.0
 10
508.7877944121228
 20
362.1022424545491
 30
0.0
 10
508.4936354496488
 20
362.1022424545491
 30
0.0
 10
508.3513222069515
 20
362.102242454549
 30
0.0
 10
508.2813571452389
 20
362.1022424545491
 30
0.0
 10
508.2516274529978
 20
362.1022424545491
 30
0.0
 10
508.2318643991059
 20
362.1022424545491
 30
0.0
 10
508.2208221667548
 20
362.1022424545491
 30
0.0
 10
508.0740150944007
 20
362.1022424545491
 30
0.0
 10
507.8756962887928
 20
362.1022424545491
 30
0.0
 10
507.6599662649198
 20
362.1022424545491
 30
0.0
 10
507.5560117319837
 20
362.1022424545491
 30
0.0
 10
507.5050120852658
 20
362.1022424545491
 30
0.0
 10
507.4833645837618
 20
362.1022424545491
 30
0.0
 10
507.4689794694138
 20
362.102242454549
 30
0.0
 10
507.4608593937019
 20
362.1022424545491
 30
0.0
 10
507.2564175081407
 20
362.102242454549
 30
0.0
 10
507.073562361328
 20
362.1022424545491
 30
0.0
 10
506.9060987446126
 20
362.1022424545491
 30
0.0
  0
SPLINE
  5
573
330
1F
100
AcDbEntity
  8
HEWI
  6
Continuous
370
     5
100
AcDbSpline
210
0.0
220
0.0
230
1.0
 70
    24
 71
     3
 72
    14
 73
    10
 74
     0
 42
0.000000001
 43
0.0000000001
 40
0.0
 40
0.0
 40
0.0
 40
0.0
 40
0.0140308739745528
 40
0.0140308739745528
 40
0.0701543698727643
 40
0.0701543698727643
 40
0.2946483534656102
 40
0.2946483534656102
 40
1.0
 40
1.0
 40
1.0
 40
1.0
 10
955.7723227863361
 20
362.1022424545491
 30
0.0
 10
955.4988727449659
 20
362.1022424545491
 30
0.0
 10
955.2254227035977
 20
362.1022424545491
 30
0.0
 10
953.8581724967519
 20
362.1022424545491
 30
0.0
 10
952.7643723312758
 20
362.1022424545491
 30
0.0
 10
947.2953715038947
 20
362.1022424545491
 30
0.0
 10
942.9201708419896
 20
362.1022424545491
 30
0.0
 10
924.7982543821686
 20
362.1022424545491
 30
0.0
 10
911.0515385842527
 20
362.1022424545491
 30
0.0
 10
897.304822786336
 20
362.1022424545491
 30
0.0
  0
SPLINE
  5
575
330
1F
100
AcDbEntity
  8
HEWI
  6
Continuous
370
     5
100
AcDbSpline
210
0.0
220
0.0
230
1.0
 70
    24
 71
     3
 72
    18
 73
    14
 74
     0
 42
0.000000001
 43
0.0000000001
 40
0.0
 40
0.0
 40
0.0
 40
0.0
 40
0.0140308739745528
 40
0.0140308739745528
 40
0.0701543698727649
 40
0.0701543698727649
 40
0.294648353465611
 40
0.294648353465611
 40
0.6473241767328052
 40
0.6473241767328052
 40
0.7083768057193005
 40
0.7083768057193005
 40
1.0
 40
1.0
 40
1.0
 40
1.0
 10
447.5265919362668
 20
361.1022424545491
 30
0.0
 10
447.8000419776367
 20
361.1022424545491
 30
0.0
 10
448.0734920190058
 20
361.1022424545492
 30
0.0
 10
449.4407422258508
 20
361.1022424545492
 30
0.0
 10
450.5345423913268
 20
361.1022424545491
 30
0.0
 10
456.0035432187078
 20
361.1022424545491
 30
0.0
 10
460.3787438806128
 20
361.1022424545492
 30
0.0
 10
471.6273024414759
 20
361.1022424545492
 30
0.0
 10
478.5006603404338
 20
361.1022424545492
 30
0.0
 10
486.5638831011478
 20
361.1022424545492
 30
0.0
 10
487.7537479629038
 20
361.1022424545491
 30
0.0
 10
494.6271058618616
 20
361.1022424545491
 30
0.0
 10
500.3105988990649
 20
361.1022424545491
 30
0.0
 10
505.9940919362667
 20
361.1022424545492
 30
0.0
  0
SPLINE
  5
576
330
1F
100
AcDbEntity
  8
HEWI
  6
Continuous
370
     5
100
AcDbSpline
210
0.0
220
0.0
230
1.0
 70
    24
 71
     3
 72
    11
 73
     7
 74
     0
 42
0.000000001
 43
0.0000000001
 40
0.0
 40
0.0
 40
0.0
 40
0.0
 40
0.2509266251493711
 40
0.501853250298742
 40
0.7527798754481131
 40
1.0
 40
1.0
 40
1.0
 40
1.0
 10
447.5265919362668
 20
91.2678684680908
 30
0.0
 10
447.5265919362668
 20
114.7530439228038
 30
0.0
 10
447.5265919362668
 20
160.7326404138117
 30
0.0
 10
447.5265919362676
 20
228.0807561316791
 30
0.0
 10
447.5265919362668
 20
294.4966649825182
 30
0.0
 10
447.5265919362668
 20
338.8723383056598
 30
0.0
 10
447.5265919362668
 20
361.1022424545491
 30
0.0
  0
SPLINE
  5
577
330
1F
100
AcDbEntity
  8
HEWI
  6
Continuous
370
     5
100
AcDbSpline
210
0.0
220
0.0
230
1.0
 70
    24
 71
     3
 72
    11
 73
     7
 74
     0
 42
0.000000001
 43
0.0000000001
 40
0.0
 40
0.0
 40
0.0
 40
0.0
 40
0.2472201245518872
 40
0.4981467497012583
 40
0.749073374850629
 40
1.0
 40
1.0
 40
1.0
 40
1.0
 10
956.6843295946821
 20
361.1022424545491
 30
0.0
 10
956.6843295946821
 20
338.8723383056599
 30
0.0
 10
956.6843295946808
 20
294.4966649825182
 30
0.0
 10
956.6843295946821
 20
228.0807561316793
 30
0.0
 10
956.6843295946821
 20
160.7326404138117
 30
0.0
 10
956.6843295946821
 20
114.7530439228037
 30
0.0
 10
956.6843295946821
 20
91.2678684680908
 30
0.0
  0
SPLINE
  5
578
330
1F
100
AcDbEntity
  8
HEWI
  6
Continuous
370
     5
100
AcDbSpline
210
0.0
220
0.0
230
1.0
 70
     8
 71
     3
 72
    22
 73
    18
 74
     0
 42
0.000000001
 43
0.0000000001
 40
0.0
 40
0.0
 40
0.0
 40
0.0
 40
0.0361548484706167
 40
0.0722736021010731
 40
0.1083081405778485
 40
0.1442198034431833
 40
0.1799467316796216
 40
0.2154224503315095
 40
0.2505938981771652
 40
0.3747495491637476
 40
0.5001070239090203
 40
0.6250521730401494
 40
0.7498216291833561
 40
0.8122021770558941
 40
0.8748771859195743
 40
0.9375469226368863
 40
1.0
 40
1.0
 40
1.0
 40
1.0
 10
956.6843295946821
 20
91.2678684680908
 30
0.0
 10
956.6500412704368
 20
89.78696853010283
 30
0.0
 10
956.5814988533627
 20
86.82664709612879
 30
0.0
 10
956.160644592296
 20
82.40667343870347
 30
0.0
 10
955.5107889508468
 20
78.02634152285361
 30
0.0
 10
954.6133331684746
 20
73.70555371026978
 30
0.0
 10
953.4834113935358
 20
69.463734867374
 30
0.0
 10
952.1296587994099
 20
65.31938340505246
 30
0.0
 10
949.2365457234059
 20
57.88031286756302
 30
0.0
 10
943.6586089135619
 20
47.54572224630999
 30
0.0
 10
933.8392194041317
 20
35.63743035834018
 30
0.0
 10
921.8820616740035
 20
25.83666069819498
 30
0.0
 10
910.537211862025
 20
19.75614132012401
 30
0.0
 10
900.8992139826727
 20
16.27270918133286
 30
0.0
 10
893.4351267720497
 20
14.38170076042831
 30
0.0
 10
885.8190677535906
 20
13.17399169096865
 30
0.0
 10
880.6926004912988
 20
13.00109518025829
 30
0.0
 10
878.1338052876879
 20
12.91479661641483
 30
0.0
  0
SPLINE
  5
579
330
1F
100
AcDbEntity
  8
HEWI
  6
Continuous
370
     5
100
AcDbSpline
210
0.0
220
0.0
230
1.0
 70
    24
 71
     3
 72
    18
 73
    14
 74
     0
 42
0.000000001
 43
0.0000000001
 40
0.0
 40
0.0
 40
0.0
 40
0.0
 40
0.0140308739745531
 40
0.0140308739745531
 40
0.0701543698727649
 40
0.0701543698727649
 40
0.294648353465611
 40
0.294648353465611
 40
0.6473241767328059
 40
0.6473241767328059
 40
0.7083768057193013
 40
0.7083768057193013
 40
1.0
 40
1.0
 40
1.0
 40
1.0
 10
898.2168295946816
 20
361.102242454549
 30
0.0
 10
898.4902796360518
 20
361.102242454549
 30
0.0
 10
898.7637296774199
 20
361.1022424545491
 30
0.0
 10
900.1309798842658
 20
361.1022424545491
 30
0.0
 10
901.2247800497418
 20
361.1022424545489
 30
0.0
 10
906.6937808771227
 20
361.1022424545489
 30
0.0
 10
911.0689815390276
 20
361.102242454549
 30
0.0
 10
922.3175400998908
 20
361.102242454549
 30
0.0
 10
929.1908979988486
 20
361.1022424545491
 30
0.0
 10
937.2541207595627
 20
361.1022424545491
 30
0.0
 10
938.4439856213187
 20
361.102242454549
 30
0.0
 10
945.3173435202769
 20
361.102242454549
 30
0.0
 10
951.0008365574789
 20
361.1022424545491
 30
0.0
 10
956.6843295946821
 20
361.1022424545491
 30
0.0
  0
SPLINE
  5
57A
330
1F
100
AcDbEntity
  8
HEWI
  6
Continuous
370
     5
100
AcDbSpline
210
0.0
220
0.0
230
1.0
 70
    24
 71
     3
 72
    11
 73
     7
 74
     0
 42
0.000000001
 43
0.0000000001
 40
0.0
 40
0.0
 40
0.0
 40
0.0
 40
0.2499999999999999
 40
0.5
 40
0.75
 40
1.0
 40
1.0
 40
1.0
 40
1.0
 10
878.1338052876879
 20
12.91479661641483
 30
0.0
 10
847.9329685160408
 20
12.91479661641483
 30
0.0
 10
788.8903294880467
 20
12.91479661641449
 30
0.0
 10
702.1054607654747
 20
12.91479661641489
 30
0.0
 10
615.3205920429018
 20
12.91479661641472
 30
0.0
 10
556.277953014908
 20
12.91479661641472
 30
0.0
 10
526.0771162432607
 20
12.91479661641472
 30
0.0
  0
SPLINE
  5
57B
330
1F
100
AcDbEntity
  8
HEWI
  6
Continuous
370
     5
100
AcDbSpline
210
0.0
220
0.0
230
1.0
 70
     8
 71
     3
 72
    25
 73
    21
 74
     0
 42
0.000000001
 43
0.0000000001
 40
0.0
 40
0.0
 40
0.0
 40
0.0
 40
0.0039062499999999
 40
0.0039062499999999
 40
0.0078124999999998
 40
0.0156249999999999
 40
0.0312499999999999
 40
0.0624999999999999
 40
0.125
 40
0.25
 40
0.5
 40
0.75
 40
0.8749999999999996
 40
0.9374999999999998
 40
0.96875
 40
0.984375
 40
0.9921875
 40
0.99609375
 40
0.99609375
 40
1.0
 40
1.0
 40
1.0
 40
1.0
 10
524.2861635355918
 20
267.1846772022255
 30
0.0
 10
524.7492338472727
 20
267.1918683954665
 30
0.0
 10
525.2123048764786
 20
267.1924123982986
 30
0.0
 10
526.1384470523328
 20
267.1924123982986
 30
0.0
 10
527.5276603161128
 20
267.1924123982986
 30
0.0
 10
530.7691579316029
 20
267.1924123982986
 30
0.0
 10
537.2521531625807
 20
267.1924123982986
 30
0.0
 10
550.2181436245376
 20
267.1924123982986
 30
0.0
 10
576.1501245484508
 20
267.1924123982986
 30
0.0
 10
628.0140863962778
 20
267.1924123982988
 30
0.0
 10
702.1054604646019
 20
267.1924123982984
 30
0.0
 10
776.1968345329257
 20
267.1924123982988
 30
0.0
 10
828.0607963807526
 20
267.1924123982988
 30
0.0
 10
853.9927773046656
 20
267.1924123982986
 30
0.0
 10
866.9587677666228
 20
267.1924123982985
 30
0.0
 10
873.4417629976006
 20
267.1924123982985
 30
0.0
 10
876.6832606130897
 20
267.1924123982985
 30
0.0
 10
878.0724738768709
 20
267.1924123982985
 30
0.0
 10
878.9986160527247
 20
267.1924123982986
 30
0.0
 10
879.4616871258346
 20
267.191868404292
 30
0.0
 10
879.9247580178827
 20
267.1846772018757
 30
0.0
  0
SPLINE
  5
57C
330
1F
100
AcDbEntity
  8
HEWI
  6
Continuous
370
     5
100
AcDbSpline
210
0.0
220
0.0
230
1.0
 70
     8
 71
     3
 72
    36
 73
    32
 74
     0
 42
0.000000001
 43
0.0000000001
 40
0.0
 40
0.0
 40
0.0
 40
0.0
 40
0.1250000000000012
 40
0.1250000000000012
 40
0.1562500000000013
 40
0.1562500000000013
 40
0.1875000000000015
 40
0.1875000000000015
 40
0.2500000000000018
 40
0.2500000000000018
 40
0.3750000000000016
 40
0.3750000000000016
 40
0.4062500000000015
 40
0.4062500000000015
 40
0.4375000000000013
 40
0.4375000000000013
 40
0.500000000000001
 40
0.500000000000001
 40
0.5625000000000007
 40
0.5625000000000007
 40
0.6250000000000005
 40
0.6250000000000005
 40
0.7500000000000001
 40
0.7500000000000001
 40
0.8124999999999998
 40
0.8124999999999998
 40
0.84375
 40
0.84375
 40
0.8750000000000001
 40
0.8750000000000001
 40
1.0
 40
1.0
 40
1.0
 40
1.0
 10
879.9247580178827
 20
267.1846772018757
 30
0.0
 10
884.0660494129448
 20
267.1203655269285
 30
0.0
 10
888.1447837118257
 20
266.6602752657583
 30
0.0
 10
893.1670688257666
 20
265.6034950054801
 30
0.0
 10
894.1676818532387
 20
265.3678192339228
 30
0.0
 10
896.1611233327246
 20
264.8472171907585
 30
0.0
 10
897.1554009273617
 20
264.5618319062829
 30
0.0
 10
900.1166973773997
 20
263.63333281471
 30
0.0
 10
902.0450912864708
 20
262.9236679893178
 30
0.0
 10
907.6970159097085
 20
260.5308999236564
 30
0.0
 10
911.2890056502417
 20
258.5874200599666
 30
0.0
 10
915.5556622987388
 20
255.7160022802394
 30
0.0
 10
916.3986069097941
 20
255.1187413761053
 30
0.0
 10
918.0576711494586
 20
253.8813781471866
 30
0.0
 10
918.8688121678216
 20
253.2450576177781
 30
0.0
 10
921.248128400386
 20
251.2842021480317
 30
0.0
 10
922.762282975013
 20
249.9078559842873
 30
0.0
 10
925.6493154960818
 20
247.0196651694979
 30
0.0
 10
927.0222448133727
 20
245.5078697882612
 30
0.0
 10
929.6259369465138
 20
242.3479270605906
 30
0.0
 10
930.8578772945027
 20
240.6980384907944
 30
0.0
 10
934.3254603258619
 20
235.5471305180662
 30
0.0
 10
936.2691280167197
 20
231.9456455568641
 30
0.0
 10
938.6553698818026
 20
226.3024876351266
 30
0.0
 10
939.3619257585706
 20
224.380984870335
 30
0.0
 10
940.2855979075066
 20
221.4367469798637
 30
0.0
 10
940.5709815211448
 20
220.4441280983011
 30
0.0
 10
941.0944293361138
 20
218.4414070413339
 30
0.0
 10
941.3311604779835
 20
217.4366058366219
 30
0.0
 10
942.3918058720566
 20
212.3956653659444
 30
0.0
 10
942.8490487809378
 20
208.3090475977568
 30
0.0
 10
942.910230076451
 20
204.1679052603756
 30
0.0
  0
SPLINE
  5
57D
330
1F
100
AcDbEntity
  8
HEWI
  6
Continuous
370
     5
100
AcDbSpline
210
0.0
220
0.0
230
1.0
 70
     8
 71
     3
 72
    21
 73
    17
 74
     0
 42
0.000000001
 43
0.0000000001
 40
0.0
 40
0.0
 40
0.0
 40
0.0
 40
0.015625
 40
0.015625
 40
0.03125
 40
0.0624999999999999
 40
0.125
 40
0.2500000000000001
 40
0.5000000000000002
 40
0.7500000000000005
 40
0.8750000000000001
 40
0.9375000000000003
 40
0.96875
 40
0.984375
 40
0.984375
 40
1.0
 40
1.0
 40
1.0
 40
1.0
 10
942.910230076451
 20
204.1679052603756
 30
0.0
 10
942.9190891878876
 20
203.5682637991103
 30
0.0
 10
942.9172602987398
 20
202.968621289274
 30
0.0
 10
942.9172602987398
 20
201.7693366284567
 30
0.0
 10
942.9172602987398
 20
199.9704096372306
 30
0.0
 10
942.9172602987398
 20
195.7729133243694
 30
0.0
 10
942.9172602987398
 20
187.3779206986474
 30
0.0
 10
942.9172602987398
 20
170.5879354472031
 30
0.0
 10
942.9172602987398
 20
146.6022422308543
 30
0.0
 10
942.9172602987398
 20
122.6165490145056
 30
0.0
 10
942.9172602987398
 20
105.8265637630614
 30
0.0
 10
942.9172602987398
 20
97.43157113733936
 30
0.0
 10
942.9172602987398
 20
93.23407482447818
 30
0.0
 10
942.9172602987398
 20
91.43514783325214
 30
0.0
 10
942.9172602987398
 20
90.23586317243459
 30
0.0
 10
942.919089179562
 20
89.63622054626773
 30
0.0
 10
942.9102300764482
 20
89.03657964851266
 30
0.0
  0
SPLINE
  5
57E
330
1F
100
AcDbEntity
  8
HEWI
  6
Continuous
370
     5
100
AcDbSpline
210
0.0
220
0.0
230
1.0
 70
     8
 71
     3
 72
    22
 73
    18
 74
     0
 42
0.000000001
 43
0.0000000001
 40
0.0
 40
0.0
 40
0.0
 40
0.0
 40
0.0356589022843304
 40
0.0714181598015019
 40
0.1072375604884535
 40
0.1430862110253778
 40
0.1789110869241973
 40
0.2146513537229525
 40
0.2502583739785318
 40
0.3750266067136928
 40
0.4999810314979444
 40
0.6253310075585689
 40
0.7494892591215949
 40
0.8112191740363027
 40
0.8737569401984462
 40
0.9367688429375528
 40
1.0
 40
1.0
 40
1.0
 40
1.0
 10
526.0771162432607
 20
12.91479661641489
 30
0.0
 10
524.616414828597
 20
12.94637530978156
 30
0.0
 10
521.6909011315436
 20
13.0096215687721
 30
0.0
 10
517.3133900568436
 20
13.41438132956472
 30
0.0
 10
512.9565991864558
 20
14.04581847145391
 30
0.0
 10
508.6395343005017
 20
14.92545862641083
 30
0.0
 10
504.3812963598636
 20
16.04190205235471
 30
0.0
 10
500.2005199056168
 20
17.389900160298
 30
0.0
 10
492.7010740863837
 20
20.27678255963952
 30
0.0
 10
482.3264512379926
 20
25.83837838305982
 30
0.0
 10
470.3707183906588
 20
35.6383995245713
 30
0.0
 10
460.5504880916766
 20
47.54827004079754
 30
0.0
 10
454.4550575959787
 20
58.84387049897247
 30
0.0
 10
450.9571624028957
 20
68.41499286675492
 30
0.0
 10
449.0422033854598
 20
75.85375963109015
 30
0.0
 10
447.8016474826438
 20
83.50549340670601
 30
0.0
 10
447.6183832139496
 20
88.67741597905192
 30
0.0
 10
447.5265919362676
 20
91.2678684680908
 30
0.0
  0
SPLINE
  5
57F
330
1F
100
AcDbEntity
  8
HEWI
  6
Continuous
370
     5
100
AcDbSpline
210
0.0
220
0.0
230
1.0
 70
     8
 71
     3
 72
    36
 73
    32
 74
     0
 42
0.000000001
 43
0.0000000001
 40
0.0
 40
0.0
 40
0.0
 40
0.0
 40
0.1250000000000012
 40
0.1250000000000012
 40
0.1562500000000014
 40
0.1562500000000014
 40
0.1875000000000016
 40
0.1875000000000016
 40
0.2500000000000019
 40
0.2500000000000019
 40
0.3750000000000019
 40
0.3750000000000019
 40
0.4062500000000015
 40
0.4062500000000015
 40
0.4375000000000013
 40
0.4375000000000013
 40
0.5000000000000011
 40
0.5000000000000011
 40
0.562500000000001
 40
0.562500000000001
 40
0.625000000000001
 40
0.625000000000001
 40
0.7500000000000005
 40
0.7500000000000005
 40
0.8125000000000003
 40
0.8125000000000003
 40
0.8437500000000005
 40
0.8437500000000005
 40
0.8750000000000005
 40
0.8750000000000005
 40
1.0
 40
1.0
 40
1.0
 40
1.0
 10
524.2861635126538
 20
26.01980770722902
 30
0.0
 10
520.1448721176108
 20
26.08411938220252
 30
0.0
 10
516.066137818749
 20
26.54420964339499
 30
0.0
 10
511.0438527048346
 20
27.60098990369687
 30
0.0
 10
510.0432396773688
 20
27.83666567525853
 30
0.0
 10
508.0497981978936
 20
28.35726771843139
 30
0.0
 10
507.0555206032627
 20
28.64265300291106
 30
0.0
 10
504.0942241532416
 20
29.57115209449563
 30
0.0
 10
502.1658302441819
 20
30.28081691989473
 30
0.0
 10
496.5139056209788
 20
32.67358498557348
 30
0.0
 10
492.9219158804706
 20
34.61706484927123
 30
0.0
 10
488.655259232004
 20
37.48848262900253
 30
0.0
 10
487.8123146209558
 20
38.08574353313657
 30
0.0
 10
486.1532503813016
 20
39.3231067620568
 30
0.0
 10
485.3421093629438
 20
39.9594272914659
 30
0.0
 10
482.9627931303969
 20
41.92028276121334
 30
0.0
 10
481.4486385557797
 20
43.29662892495742
 30
0.0
 10
478.561606034732
 20
46.18481973974406
 30
0.0
 10
477.1886767174528
 20
47.69661512097866
 30
0.0
 10
474.5849845843308
 20
50.85655784864265
 30
0.0
 10
473.3530442363539
 20
52.50644641843189
 30
0.0
 10
469.8854612050197
 20
57.65735439115042
 30
0.0
 10
467.9417935141769
 20
61.25883935234252
 30
0.0
 10
465.5555516491125
 20
66.90199727405945
 30
0.0
 10
464.8489957723497
 20
68.82350003884323
 30
0.0
 10
463.9253236234226
 20
71.76773792930145
 30
0.0
 10
463.6399400097858
 20
72.76035681085805
 30
0.0
 10
463.1164921948218
 20
74.76307786781866
 30
0.0
 10
462.8797610529526
 20
75.76787907252708
 30
0.0
 10
461.8191156588868
 20
80.80881954318682
 30
0.0
 10
461.3618727500108
 20
84.89543731135894
 30
0.0
 10
461.3006914544978
 20
89.03657964872275
 30
0.0
  0
SPLINE
  5
580
330
1F
100
AcDbEntity
  8
HEWI
  6
Continuous
370
     5
100
AcDbSpline
210
0.0
220
0.0
230
1.0
 70
     8
 71
     3
 72
    25
 73
    21
 74
     0
 42
0.000000001
 43
0.0000000001
 40
0.0
 40
0.0
 40
0.0
 40
0.0
 40
0.0039062500000001
 40
0.0039062500000001
 40
0.0078125000000001
 40
0.0156250000000002
 40
0.0312500000000002
 40
0.0625000000000001
 40
0.1250000000000002
 40
0.2500000000000002
 40
0.5000000000000002
 40
0.7500000000000001
 40
0.8750000000000001
 40
0.9375
 40
0.96875
 40
0.984375
 40
0.9921875
 40
0.99609375
 40
0.99609375
 40
1.0
 40
1.0
 40
1.0
 40
1.0
 10
879.9247580161377
 20
26.01980770719547
 30
0.0
 10
879.4616877044289
 20
26.01261651380395
 30
0.0
 10
878.9986166751967
 20
26.0120725107995
 30
0.0
 10
878.072474499287
 20
26.01207251079967
 30
0.0
 10
876.6832612354237
 20
26.01207251079967
 30
0.0
 10
873.4417636197406
 20
26.01207251079967
 30
0.0
 10
866.9587683883769
 20
26.0120725107995
 30
0.0
 10
853.9927779256467
 20
26.01207251079967
 30
0.0
 10
828.0607970001886
 20
26.0120725107995
 30
0.0
 10
776.1968351492708
 20
26.01207251079967
 30
0.0
 10
702.1054610765316
 20
26.01207251079984
 30
0.0
 10
628.0140870037927
 20
26.01207251079955
 30
0.0
 10
576.1501251528756
 20
26.01207251079955
 30
0.0
 10
550.2181442274168
 20
26.01207251079955
 30
0.0
 10
537.252153764688
 20
26.01207251079955
 30
0.0
 10
530.769158533323
 20
26.01207251079955
 30
0.0
 10
527.5276609176406
 20
26.01207251079955
 30
0.0
 10
526.1384476537767
 20
26.01207251079955
 30
0.0
 10
525.2123054778678
 20
26.01207251079955
 30
0.0
 10
524.7492344047309
 20
26.01261650480916
 30
0.0
 10
524.2861635126538
 20
26.01980770722902
 30
0.0
  0
SPLINE
  5
581
330
1F
100
AcDbEntity
  8
HEWI
  6
Continuous
370
     5
100
AcDbSpline
210
0.0
220
0.0
230
1.0
 70
     8
 71
     3
 72
    38
 73
    34
 74
     0
 42
0.000000001
 43
0.0000000001
 40
0.0
 40
0.0
 40
0.0
 40
0.0
 40
0.124999999999999
 40
0.124999999999999
 40
0.1562499999999987
 40
0.1562499999999987
 40
0.1874999999999984
 40
0.1874999999999984
 40
0.2499999999999975
 40
0.2499999999999975
 40
0.3749999999999956
 40
0.3749999999999956
 40
0.4062499999999953
 40
0.4062499999999953
 40
0.4374999999999952
 40
0.4374999999999952
 40
0.4999999999999952
 40
0.4999999999999952
 40
0.5624999999999952
 40
0.5624999999999952
 40
0.5937499999999952
 40
0.5937499999999952
 40
0.6249999999999952
 40
0.6249999999999952
 40
0.7499999999999958
 40
0.7499999999999958
 40
0.8124999999999966
 40
0.8124999999999966
 40
0.8437499999999971
 40
0.8437499999999971
 40
0.8749999999999975
 40
0.8749999999999975
 40
1.0
 40
1.0
 40
1.0
 40
1.0
 10
461.3006914545008
 20
204.1679052605855
 30
0.0
 10
461.3618728381359
 20
208.3090535616914
 30
0.0
 10
461.8189898645495
 20
212.3878318229325
 30
0.0
 10
462.8738196443757
 20
217.4101514487865
 30
0.0
 10
463.1091039711239
 20
218.4107846055414
 30
0.0
 10
463.6289337305809
 20
220.4042910287791
 30
0.0
 10
463.9139418390366
 20
221.3986042961851
 30
0.0
 10
464.8413069426628
 20
224.3601119327137
 30
0.0
 10
465.5501404540657
 20
226.2887696647616
 30
0.0
 10
467.9395480481598
 20
231.9421701480362
 30
0.0
 10
469.8805905639958
 20
235.5355698808836
 30
0.0
 10
472.7502886906129
 20
239.8037345445526
 30
0.0
 10
473.3473218035376
 20
240.647090678668
 30
0.0
 10
474.5838930692556
 20
242.3065110351073
 30
0.0
 10
475.2198320667717
 20
243.1178491338874
 30
0.0
 10
477.1795349858757
 20
245.4978650914944
 30
0.0
 10
478.5550568248877
 20
247.0126778323094
 30
0.0
 10
481.4416192125316
 20
249.9012672821592
 30
0.0
 10
482.9527160954149
 20
251.2749853634294
 30
0.0
 10
485.3218989039397
 20
253.2288504311771
 30
0.0
 10
486.1287361438319
 20
253.8623325718369
 30
0.0
 10
487.7770901131027
 20
255.0932054706812
 30
0.0
 10
488.6195352316008
 20
255.6912208940914
 30
0.0
 10
492.9104009741626
 20
258.5825632487746
 30
0.0
 10
496.5105384924468
 20
260.5287137204156
 30
0.0
 10
502.1524142688158
 20
262.918367106942
 30
0.0
 10
504.0737232355466
 20
263.625767698656
 30
0.0
 10
507.0178796664507
 20
264.5505846060983
 30
0.0
 10
508.0105953854438
 20
264.8363709495932
 30
0.0
 10
510.0131105756307
 20
265.3605382354851
 30
0.0
 10
511.0178269419028
 20
265.5976399725936
 30
0.0
 10
516.0584381638289
 20
266.6601493009147
 30
0.0
 10
520.1448941012066
 20
267.1203658697678
 30
0.0
 10
524.2861635355918
 20
267.1846772022255
 30
0.0
  0
SPLINE
  5
582
330
1F
100
AcDbEntity
  8
HEWI
  6
Continuous
370
     5
100
AcDbSpline
210
0.0
220
0.0
230
1.0
 70
     8
 71
     3
 72
    21
 73
    17
 74
     0
 42
0.000000001
 43
0.0000000001
 40
0.0
 40
0.0
 40
0.0
 40
0.0
 40
0.0156249999999999
 40
0.0156249999999999
 40
0.0312499999999998
 40
0.0624999999999999
 40
0.1249999999999997
 40
0.2499999999999997
 40
0.4999999999999999
 40
0.7499999999999997
 40
0.8749999999999996
 40
0.9374999999999998
 40
0.96875
 40
0.984375
 40
0.984375
 40
1.0
 40
1.0
 40
1.0
 40
1.0
 10
461.3006914544978
 20
89.03657964872275
 30
0.0
 10
461.2918323430608
 20
89.63622110998825
 30
0.0
 10
461.2936612322086
 20
90.23586361982427
 30
0.0
 10
461.2936612322098
 20
91.43514828064178
 30
0.0
 10
461.2936612322086
 20
93.23407527186793
 30
0.0
 10
461.2936612322086
 20
97.43157158472888
 30
0.0
 10
461.2936612322098
 20
105.8265642104512
 30
0.0
 10
461.2936612322098
 20
122.616549461895
 30
0.0
 10
461.2936612322086
 20
146.6022426782435
 30
0.0
 10
461.2936612322086
 20
170.5879358945928
 30
0.0
 10
461.2936612322086
 20
187.3779211460365
 30
0.0
 10
461.2936612322086
 20
195.772913771759
 30
0.0
 10
461.2936612322086
 20
199.9704100846198
 30
0.0
 10
461.2936612322086
 20
201.769337075846
 30
0.0
 10
461.2936612322086
 20
202.9686217366635
 30
0.0
 10
461.2918323513867
 20
203.5682643628305
 30
0.0
 10
461.3006914545008
 20
204.1679052605855
 30
0.0
  0
SPLINE
  5
583
330
1F
100
AcDbEntity
  8
HEWI
  6
Continuous
370
     5
100
AcDbSpline
210
0.0
220
0.0
230
1.0
 70
     8
 71
     3
 72
   117
 73
   113
 74
     0
 42
0.000000001
 43
0.0000000001
 40
0.0
 40
0.0
 40
0.0
 40
0.0
 40
0.1249999999999948
 40
0.1874999999999922
 40
0.2187499999999909
 40
0.2343749999999903
 40
0.2382812499999901
 40
0.24023437499999
 40
0.24023437499999
 40
0.2421874999999899
 40
0.2421874999999899
 40
0.2499999999999896
 40
0.2499999999999896
 40
0.2519531249999895
 40
0.2519531249999895
 40
0.2539062499999894
 40
0.2539062499999894
 40
0.2578124999999893
 40
0.2578124999999893
 40
0.2656249999999889
 40
0.2656249999999889
 40
0.2734374999999887
 40
0.2734374999999887
 40
0.2773437499999886
 40
0.2773437499999886
 40
0.2812499999999885
 40
0.2812499999999885
 40
0.2890624999999881
 40
0.2890624999999881
 40
0.2968749999999877
 40
0.2968749999999877
 40
0.2988281249999877
 40
0.2988281249999877
 40
0.3007812499999876
 40
0.3007812499999876
 40
0.3046874999999876
 40
0.3046874999999876
 40
0.3124999999999873
 40
0.3124999999999873
 40
0.3164062499999872
 40
0.3164062499999872
 40
0.3183593749999872
 40
0.3183593749999872
 40
0.3203124999999871
 40
0.3203124999999871
 40
0.3281249999999871
 40
0.3281249999999871
 40
0.3359374999999869
 40
0.3359374999999869
 40
0.339843749999987
 40
0.339843749999987
 40
0.343749999999987
 40
0.343749999999987
 40
0.345703124999987
 40
0.345703124999987
 40
0.347656249999987
 40
0.351562499999987
 40
0.359374999999987
 40
0.3749999999999868
 40
0.4999999999999866
 40
0.6249999999999865
 40
0.6406249999999865
 40
0.6484374999999865
 40
0.6523437499999865
 40
0.6542968749999865
 40
0.6542968749999865
 40
0.6562499999999865
 40
0.6562499999999865
 40
0.6601562499999867
 40
0.6601562499999867
 40
0.6640624999999869
 40
0.6640624999999869
 40
0.6718749999999872
 40
0.6718749999999872
 40
0.6796874999999875
 40
0.6796874999999875
 40
0.6816406249999876
 40
0.6816406249999876
 40
0.6835937499999875
 40
0.6835937499999875
 40
0.6874999999999878
 40
0.6874999999999878
 40
0.7031249999999886
 40
0.7031249999999886
 40
0.7109374999999889
 40
0.7109374999999889
 40
0.7187499999999893
 40
0.7187499999999893
 40
0.7226562499999895
 40
0.7226562499999895
 40
0.7246093749999895
 40
0.7246093749999895
 40
0.7265624999999895
 40
0.7265624999999895
 40
0.7343749999999896
 40
0.7343749999999896
 40
0.7421874999999899
 40
0.7421874999999899
 40
0.7460937499999902
 40
0.7460937499999902
 40
0.7499999999999904
 40
0.7499999999999904
 40
0.7578124999999904
 40
0.7578124999999904
 40
0.7597656249999906
 40
0.7597656249999906
 40
0.7617187499999904
 40
0.7656249999999908
 40
0.7812499999999913
 40
0.8124999999999925
 40
0.8749999999999948
 40
1.0
 40
1.0
 40
1.0
 40
1.0
 10
452.0866259779968
 20
361.1022424545216
 30
0.0
 10
452.0866259779968
 20
314.52090640162
 30
0.0
 10
452.0866259779968
 20
244.6489023222676
 30
0.0
 10
452.0866259779968
 20
163.1315642296898
 30
0.0
 10
452.0866259779968
 20
122.3728951834008
 30
0.0
 10
452.0866259779968
 20
103.4492274119095
 30
0.0
 10
452.0866259779968
 20
95.44306027781738
 30
0.0
 10
452.0866259779968
 20
93.25956015033751
 30
0.0
 10
452.0866259779968
 20
91.8038933986843
 30
0.0
 10
452.0832677474897
 20
91.07600754339147
 30
0.0
 10
452.1288932967897
 20
87.43755366012633
 30
0.0
 10
452.3376457908876
 20
84.52948235679254
 30
0.0
 10
452.8175528835928
 20
80.89781504268932
 30
0.0
 10
452.9245341067198
 20
80.17165347511889
 30
0.0
 10
453.1607885341117
 20
78.71967869940998
 30
0.0
 10
453.2902854423099
 20
77.99286128910773
 30
0.0
 10
453.7100269166087
 20
75.82617599012611
 30
0.0
 10
454.0318035985897
 20
74.39684644143072
 30
0.0
 10
455.1193469847428
 20
70.15292937141622
 30
0.0
 10
456.0066937955768
 20
67.38218507466206
 30
0.0
 10
458.1047198084998
 20
61.95729396595528
 30
0.0
 10
459.3156631652507
 20
59.30324241129813
 30
0.0
 10
461.3785606356195
 20
55.41104956096262
 30
0.0
 10
462.1093071346466
 20
54.12604381651442
 30
0.0
 10
463.6355097351168
 20
51.61954485301691
 30
0.0
 10
464.4329543597548
 20
50.39428252538925
 30
0.0
 10
466.9263098143348
 20
46.80082032022039
 30
0.0
 10
468.7218782604566
 20
44.51383369479652
 30
0.0
 10
472.5765540058358
 20
40.15462423363725
 30
0.0
 10
474.6369362746717
 20
38.08344039953306
 30
0.0
 10
477.3847729537207
 20
35.63491973795607
 30
0.0
 10
477.9429654813568
 20
35.15225296491457
 30
0.0
 10
479.0689946891086
 20
34.2073491954846
 30
0.0
 10
479.6377539926917
 20
33.74427379693219
 30
0.0
 10
481.3610566313999
 20
32.38283532461708
 30
0.0
 10
482.5325936666547
 20
31.51220933064053
 30
0.0
 10
486.1146826053986
 20
29.01046851853806
 30
0.0
 10
488.5931867011926
 20
27.49026511848104
 30
0.0
 10
492.4447556561788
 20
25.42836899319104
 30
0.0
 10
493.7509462840028
 20
24.7775242953494
 30
0.0
 10
495.7443179443187
 20
23.85689188310369
 30
0.0
 10
496.4144633914126
 20
23.55929872387304
 30
0.0
 10
497.7663230330646
 20
22.98299488944684
 30
0.0
 10
498.4491792917436
 20
22.70385199406053
 30
0.0
 10
501.8776300372778
 20
21.36229151753003
 30
0.0
 10
504.6579805693489
 20
20.46323395694867
 30
0.0
 10
510.290464660327
 20
18.99775958493268
 30
0.0
 10
513.1427185784906
 20
18.43190051527955
 30
0.0
 10
517.4758713718959
 20
17.83692359896878
 30
0.0
 10
518.9293764665936
 20
17.68086365912785
 30
0.0
 10
521.8549551376788
 20
17.45478965869915
 30
0.0
 10
523.3298638179538
 20
17.38482504519356
 30
0.0
 10
525.5398626365948
 20
17.3465624730776
 30
0.0
 10
526.2765543623978
 20
17.34828537088356
 30
0.0
 10
527.7499317557706
 20
17.34828537088356
 30
0.0
 10
529.9599978458307
 20
17.34828537088373
 30
0.0
 10
535.1168187226368
 20
17.34828537088373
 30
0.0
 10
545.430460476249
 20
17.34828537088356
 30
0.0
 10
601.418801424428
 20
17.34828537088356
 30
0.0
 10
701.6084641738016
 20
17.34828537088384
 30
0.0
 10
801.7981269231757
 20
17.3482853708835
 30
0.0
 10
857.7864678713538
 20
17.34828537088367
 30
0.0
 10
868.1001096249667
 20
17.34828537088367
 30
0.0
 10
873.2569305017728
 20
17.34828537088367
 30
0.0
 10
875.4669965918319
 20
17.34828537088367
 30
0.0
 10
876.9403739852048
 20
17.34828537088367
 30
0.0
 10
877.6770667115227
 20
17.34601340709031
 30
0.0
 10
879.8871178766457
 20
17.35442830033378
 30
0.0
 10
881.363382658745
 20
17.40452293322778
 30
0.0
 10
884.2955763819171
 20
17.59157965356036
 30
0.0
 10
885.7524704932007
 20
17.72834713144647
 30
0.0
 10
890.0961068137727
 20
18.26572524504763
 30
0.0
 10
892.9557857243256
 20
18.79349277641501
 30
0.0
 10
898.6040259590019
 20
20.18317378363213
 30
0.0
 10
901.392757920049
 20
21.04428552197624
 30
0.0
 10
904.832659952137
 20
22.3368668729903
 30
0.0
 10
905.5194771572717
 20
22.60675229570864
 30
0.0
 10
906.8811207551448
 20
23.16559707662532
 30
0.0
 10
907.556136539682
 20
23.45455130993713
 30
0.0
 10
909.5640956370587
 20
24.34946812098611
 30
0.0
 10
910.8799805656326
 20
24.98343576846315
 30
0.0
 10
917.3480641037027
 20
28.33606478814926
 30
0.0
 10
922.1681940436909
 20
31.59988953005916
 30
0.0
 10
928.8507131861228
 20
37.39475623374865
 30
0.0
 10
930.9419386722115
 20
39.44042653963754
 30
0.0
 10
934.8562931851047
 20
43.74946033038293
 30
0.0
 10
936.6815779241436
 20
46.01217448492035
 30
0.0
 10
939.2210642177706
 20
49.56903548451872
 30
0.0
 10
940.0342349291859
 20
50.78199355768368
 30
0.0
 10
941.2026367800187
 20
52.64355879993047
 30
0.0
 10
941.583577096347
 20
53.27107559533725
 30
0.0
 10
942.3282819612566
 20
54.54019922727582
 30
0.0
 10
942.6922542316138
 20
55.18226593805628
 30
0.0
 10
944.4571823954477
 20
58.4064672573395
 30
0.0
 10
945.7042747380079
 20
61.04600988817138
 30
0.0
 10
947.8759793791015
 20
66.44282238607285
 30
0.0
 10
948.7999342836909
 20
69.20033224682197
 30
0.0
 10
949.9434471164518
 20
73.4250967175808
 30
0.0
 10
950.284063991133
 20
74.84815654574799
 30
0.0
 10
950.8820985844847
 20
77.72464957518173
 30
0.0
 10
951.1393247490396
 20
79.17971231345801
 30
0.0
 10
951.7755486112308
 20
83.537157363863
 30
0.0
 10
952.0241072385079
 20
86.44912566455047
 30
0.0
 10
952.1185845298948
 20
90.09771186438364
 30
0.0
 10
952.1242955529517
 20
90.82795507833635
 30
0.0
 10
952.1242955529517
 20
92.28889717226172
 30
0.0
 10
952.1242955529517
 20
94.48031031314995
 30
0.0
 10
952.1242955529517
 20
102.5154918297403
 30
0.0
 10
952.1242955529517
 20
121.5077390507714
 30
0.0
 10
952.1242955529517
 20
162.4141176806845
 30
0.0
 10
952.1242955529517
 20
244.2268749405125
 30
0.0
 10
952.1242955529517
 20
314.352095448935
 30
0.0
 10
952.1242955529517
 20
361.1022424545492
 30
0.0
  0
SPLINE
  5
584
330
1F
100
AcDbEntity
  8
HEWI
  6
Continuous
370
     5
100
AcDbSpline
210
0.0
220
0.0
230
1.0
 70
     8
 71
     3
 72
    38
 73
    34
 74
     0
 42
0.000000001
 43
0.0000000001
 40
0.0
 40
0.0
 40
0.0
 40
0.0
 40
0.1250000000000015
 40
0.1250000000000015
 40
0.1562500000000016
 40
0.1562500000000016
 40
0.1875000000000017
 40
0.1875000000000017
 40
0.2500000000000018
 40
0.2500000000000018
 40
0.3750000000000025
 40
0.3750000000000025
 40
0.4062500000000028
 40
0.4062500000000028
 40
0.4375000000000029
 40
0.4375000000000029
 40
0.5000000000000028
 40
0.5000000000000028
 40
0.5625000000000027
 40
0.5625000000000027
 40
0.5937500000000026
 40
0.5937500000000026
 40
0.6250000000000026
 40
0.6250000000000026
 40
0.7500000000000017
 40
0.7500000000000017
 40
0.8125000000000012
 40
0.8125000000000012
 40
0.8437500000000007
 40
0.8437500000000007
 40
0.8750000000000003
 40
0.8750000000000003
 40
1.0
 40
1.0
 40
1.0
 40
1.0
 10
942.9102300764482
 20
89.03657964851266
 30
0.0
 10
942.8490486928255
 20
84.89543134828579
 30
0.0
 10
942.3919316665919
 20
80.81665308789718
 30
0.0
 10
941.3371018871966
 20
75.79433346307644
 30
0.0
 10
941.1018175605445
 20
74.79370030652694
 30
0.0
 10
940.5819878013028
 20
72.80019388369578
 30
0.0
 10
940.296979692969
 20
71.80588061650417
 30
0.0
 10
939.3696145897136
 20
68.84437298051659
 30
0.0
 10
938.6607810785926
 20
66.91571524881135
 30
0.0
 10
936.2713734854526
 20
61.26231476651093
 30
0.0
 10
934.3303309703959
 20
57.66891503424186
 30
0.0
 10
931.4606328449567
 20
53.40075037119129
 30
0.0
 10
930.8635997323007
 20
52.55739423722332
 30
0.0
 10
929.6270284670399
 20
50.89797388093324
 30
0.0
 10
928.9910894697586
 20
50.08663578222138
 30
0.0
 10
927.0313865513788
 20
47.70661982479828
 30
0.0
 10
925.6558647128759
 20
46.19180708407895
 30
0.0
 10
922.7693023263048
 20
43.3032176343621
 30
0.0
 10
921.2582054439888
 20
41.92949955312871
 30
0.0
 10
918.8890226363588
 20
39.97563448538733
 30
0.0
 10
918.082185396773
 20
39.34215234472151
 30
0.0
 10
916.4338314281312
 20
38.11127944584717
 30
0.0
 10
915.5913863100048
 20
37.51326402244433
 30
0.0
 10
911.3005205688017
 20
34.62192166739146
 30
0.0
 10
907.7003830516575
 20
32.67577119533945
 30
0.0
 10
902.0585072771076
 20
30.28611780795718
 30
0.0
 10
900.1371983110017
 20
29.57871721591681
 30
0.0
 10
897.1930418810666
 20
28.65390030791764
 30
0.0
 10
896.2003261624648
 20
28.36811396424167
 30
0.0
 10
894.1978109727816
 20
27.84394667788769
 30
0.0
 10
893.1930946067589
 20
27.60684494053947
 30
0.0
 10
888.152483386062
 20
26.54433561097301
 30
0.0
 10
884.0660274496237
 20
26.08411904098057
 30
0.0
 10
879.9247580161377
 20
26.01980770719547
 30
0.0
  0
SPLINE
  5
585
330
1F
100
AcDbEntity
  8
HEWI
  6
Continuous
370
     5
100
AcDbSpline
210
0.0
220
0.0
230
1.0
 70
     8
 71
     3
 72
    21
 73
    17
 74
     0
 42
0.000000001
 43
0.0000000001
 40
0.0
 40
0.0
 40
0.0
 40
0.0
 40
0.0409002795697796
 40
0.0821053424982922
 40
0.1236393298416927
 40
0.1655294441392086
 40
0.2078073556686917
 40
0.2505105208266207
 40
0.3744383406012826
 40
0.4996833359543055
 40
0.5848912924066867
 40
0.6691166708887925
 40
0.7525463630671424
 40
0.8353803571533521
 40
0.9178035421192856
 40
1.0
 40
1.0
 40
1.0
 40
1.0
 10
879.8554607636049
 20
30.48214081160796
 30
0.0
 10
881.1082449875209
 20
30.51209607996219
 30
0.0
 10
883.6231490141686
 20
30.57222983928432
 30
0.0
 10
887.3934548763759
 20
30.96731964997218
 30
0.0
 10
891.1617945180529
 20
31.59067230488603
 30
0.0
 10
894.9137627574646
 20
32.4685972162133
 30
0.0
 10
898.6350490930968
 20
33.59946478279198
 30
0.0
 10
904.6239367678387
 20
35.86388909040284
 30
0.0
 10
912.5606422893538
 20
40.11374075317291
 30
0.0
 10
920.5336699054516
 20
46.65241685087379
 30
0.0
 10
926.4958284023816
 20
53.46415622600523
 30
0.0
 10
930.7943787249158
 20
59.93502614119313
 30
0.0
 10
934.1816566853786
 20
66.84643774000199
 30
0.0
 10
936.6087223856695
 20
74.08489736830893
 30
0.0
 10
938.1489222887255
 20
81.53875118147324
 30
0.0
 10
938.3602380089
 20
86.58339465668621
 30
0.0
 10
938.4657503486929
 20
89.10224245493997
 30
0.0
  0
SPLINE
  5
588
330
1F
100
AcDbEntity
  8
HEWI
  6
Continuous
370
     5
100
AcDbSpline
210
0.0
220
0.0
230
1.0
 70
     8
 71
     3
 72
    24
 73
    20
 74
     0
 42
0.000000001
 43
0.0000000001
 40
0.0
 40
0.0
 40
0.0
 40
0.0
 40
0.0410503888713977
 40
0.0821334440381619
 40
0.1232756872197079
 40
0.1644951816693644
 40
0.2058173733795071
 40
0.2472689702376719
 40
0.288868641464322
 40
0.3306391001401823
 40
0.3726100710005019
 40
0.4148049714529904
 40
0.4572451849942371
 40
0.4999531542926878
 40
0.6251753553049468
 40
0.7491061677518417
 40
0.8342100470556971
 40
0.9177616883002476
 40
1.0
 40
1.0
 40
1.0
 40
1.0
 10
938.4657503486947
 20
204.102242453963
 30
0.0
 10
938.4363034593647
 20
205.3598296741751
 30
0.0
 10
938.3773862480207
 20
207.8760048533675
 30
0.0
 10
937.9844142510956
 20
211.6358868026723
 30
0.0
 10
937.3682988655401
 20
215.3691273209453
 30
0.0
 10
936.5086307985578
 20
219.062357444193
 30
0.0
 10
935.4120469161777
 20
222.7020139853033
 30
0.0
 10
934.0783581827928
 20
226.274273117062
 30
0.0
 10
932.5105209350867
 20
229.7652603485657
 30
0.0
 10
930.7112516208007
 20
233.1609193530393
 30
0.0
 10
928.6838852635726
 20
236.4470843861344
 30
0.0
 10
926.4328309137395
 20
239.6094732350174
 30
0.0
 10
923.9628348777188
 20
242.6336554309786
 30
0.0
 10
919.5607530157596
 20
247.3461671550949
 30
0.0
 10
912.6021162043146
 20
253.0612646503751
 30
0.0
 10
903.5206849840387
 20
257.9414679522521
 30
0.0
 10
895.0143209931177
 20
260.8294469137685
 30
0.0
 10
887.4566450797768
 20
262.3992970295879
 30
0.0
 10
882.3757725766439
 20
262.615231928224
 30
0.0
 10
879.8554607652299
 20
262.7223440974812
 30
0.0
  0
SPLINE
  5
58B
330
1F
100
AcDbEntity
  8
HEWI
  6
Continuous
370
     5
100
AcDbSpline
210
0.0
220
0.0
230
1.0
 70
     8
 71
     3
 72
    13
 73
     9
 74
     0
 42
0.000000001
 43
0.0000000001
 40
0.0
 40
0.0
 40
0.0
 40
0.0
 40
0.1199337654900149
 40
0.2464581169052815
 40
0.4948017264139133
 40
0.7461628905697121
 40
0.8518482314853741
 40
1.0
 40
1.0
 40
1.0
 40
1.0
 10
505.9940919362648
 20
361.1022424545492
 30
0.0
 10
506.0985012895877
 20
361.1066338654308
 30
0.0
 10
506.3130574865184
 20
361.1156580034793
 30
0.0
 10
506.8908843508457
 20
361.20424415543
 30
0.0
 10
507.8078582317798
 20
361.4006150000674
 30
0.0
 10
508.8679275309738
 20
361.664388315515
 30
0.0
 10
509.7969531006858
 20
361.9050468436299
 30
0.0
 10
510.2750722354648
 20
362.0295666167236
 30
0.0
 10
510.5541259779887
 20
362.1022424545483
 30
0.0
  0
SPLINE
  5
58D
330
1F
100
AcDbEntity
  8
HEWI
  6
Continuous
370
     5
100
AcDbSpline
210
0.0
220
0.0
230
1.0
 70
    12
 71
     2
 72
     6
 73
     3
 74
     0
 42
0.000000001
 43
0.0000000001
 40
0.0
 40
0.0
 40
0.0
 40
1.0
 40
1.0
 40
1.0
 10
505.9940919362667
 20
361.1022424545492
 30
0.0
 41
1.0
 10
505.9940919362673
 20
362.1022424545492
 30
0.0
 41
0.7071067811865476
 10
506.9060987446126
 20
362.1022424545491
 30
0.0
 41
1.0
  0
ARC
  5
641
330
1F
100
AcDbEntity
  8
1
  6
Continuous
 62
   155
100
AcDbCircle
 10
833.3554615
 20
688.7942223277017
 30
0.0
 40
9.99999999999998
100
AcDbArc
 50
270.0
 51
90.0
  0
ARC
  5
642
330
1F
100
AcDbEntity
  8
1
  6
Continuous
 62
   155
100
AcDbCircle
 10
553.3554615
 20
688.7942223277017
 30
0.0
 40
10.00000000000001
100
AcDbArc
 50
270.0
 51
90.0
  0
ARC
  5
643
330
1F
100
AcDbEntity
  8
1
  6
Continuous
 62
   155
100
AcDbCircle
 10
553.3554615
 20
688.7942223277017
 30
0.0
 40
10.00000000000001
100
AcDbArc
 50
90.0
 51
270.0
  0
ARC
  5
644
330
1F
100
AcDbEntity
  8
1
  6
Continuous
 62
   155
100
AcDbCircle
 10
833.3554615
 20
688.7942223277017
 30
0.0
 40
9.99999999999998
100
AcDbArc
 50
90.0
 51
270.0
  0
SPLINE
  5
645
330
1F
100
AcDbEntity
  8
1
  6
Continuous
 62
   155
100
AcDbSpline
210
0.0
220
0.0
230
1.0
 70
    12
 71
     3
 72
     8
 73
     4
 74
     0
 42
0.000000001
 43
0.0000000001
 40
0.0
 40
0.0
 40
0.0
 40
0.0
 40
1.0
 40
1.0
 40
1.0
 40
1.0
 10
833.355461580086
 20
678.7942221567905
 30
0.0
 41
1.0
 10
853.3554615800857
 20
678.7942221567906
 30
0.0
 41
0.3333333333333332
 10
853.3554615800857
 20
698.7942221567905
 30
0.0
 41
0.3333333333333332
 10
833.355461580086
 20
698.7942221567905
 30
0.0
 41
1.0
  0
SPLINE
  5
646
330
1F
100
AcDbEntity
  8
1
  6
Continuous
 62
   155
100
AcDbSpline
210
0.0
220
0.0
230
1.0
 70
    12
 71
     3
 72
     8
 73
     4
 74
     0
 42
0.000000001
 43
0.0000000001
 40
0.0
 40
0.0
 40
0.0
 40
0.0
 40
1.0
 40
1.0
 40
1.0
 40
1.0
 10
553.3554615800858
 20
678.7942221567905
 30
0.0
 41
1.0
 10
573.3554615800859
 20
678.7942221567906
 30
0.0
 41
0.3333333333333332
 10
573.3554615800859
 20
698.7942221567905
 30
0.0
 41
0.3333333333333332
 10
553.3554615800858
 20
698.7942221567905
 30
0.0
 41
1.0
  0
SPLINE
  5
647
330
1F
100
AcDbEntity
  8
1
  6
Continuous
 62
   155
100
AcDbSpline
210
0.0
220
0.0
230
1.0
 70
    12
 71
     3
 72
     8
 73
     4
 74
     0
 42
0.000000001
 43
0.0000000001
 40
0.0
 40
0.0
 40
0.0
 40
0.0
 40
1.0
 40
1.0
 40
1.0
 40
1.0
 10
833.355461580086
 20
698.7942221567905
 30
0.0
 41
1.0
 10
813.3554615800859
 20
698.7942221567905
 30
0.0
 41
0.3333333333333335
 10
813.3554615800859
 20
678.7942221567902
 30
0.0
 41
0.3333333333333335
 10
833.355461580086
 20
678.7942221567905
 30
0.0
 41
1.0
  0
SPLINE
  5
648
330
1F
100
AcDbEntity
  8
1
  6
Continuous
 62
   155
100
AcDbSpline
210
0.0
220
0.0
230
1.0
 70
    12
 71
     3
 72
     8
 73
     4
 74
     0
 42
0.000000001
 43
0.0000000001
 40
0.0
 40
0.0
 40
0.0
 40
0.0
 40
1.0
 40
1.0
 40
1.0
 40
1.0
 10
553.3554615800858
 20
698.7942221567905
 30
0.0
 41
1.0
 10
533.3554615800858
 20
698.7942221567905
 30
0.0
 41
0.3333333333333335
 10
533.3554615800858
 20
678.7942221567902
 30
0.0
 41
0.3333333333333335
 10
553.3554615800858
 20
678.7942221567905
 30
0.0
 41
1.0
  0
SPLINE
  5
64D
330
1F
100
AcDbEntity
  8
HEWI
  6
Continuous
100
AcDbSpline
210
0.0
220
0.0
230
1.0
 70
     8
 71
     3
 72
    11
 73
     7
 74
     0
 42
0.000000001
 43
0.0000000001
 40
0.0
 40
0.0
 40
0.0
 40
0.0
 40
0.2447790444619012
 40
0.5000000000000011
 40
0.7552209555380968
 40
1.0
 40
1.0
 40
1.0
 40
1.0
 10
898.2168299204852
 20
595.7433473795126
 30
0.0
 10
898.0173465621597
 20
595.3061888011716
 30
0.0
 10
897.5122073377789
 20
594.5041343694112
 30
0.0
 10
896.4118983671736
 20
593.5341921867022
 30
0.0
 10
895.0759851925447
 20
592.9285490092072
 30
0.0
 10
894.1373105774095
 20
592.796841323727
 30
0.0
 10
893.6567958787557
 20
592.7942226897807
 30
0.0
  0
SPLINE
  5
64E
330
1F
100
AcDbEntity
  8
HEWI
  6
Continuous
370
     5
100
AcDbSpline
210
0.0
220
0.0
230
1.0
 70
     8
 71
     3
 72
    32
 73
    28
 74
     0
 42
0.000000001
 43
0.0000000001
 40
0.0
 40
0.0
 40
0.0
 40
0.0
 40
0.1250000000000679
 40
0.1875000000000951
 40
0.2187500000001056
 40
0.2343750000001143
 40
0.2421875000001187
 40
0.2421875000001187
 40
0.2500000000001231
 40
0.2500000000001231
 40
0.3750000000003789
 40
0.437500000000508
 40
0.4687500000005784
 40
0.4843750000006133
 40
0.4921875000006254
 40
0.4921875000006254
 40
0.5000000000006374
 40
0.5000000000006374
 40
0.6250000000006435
 40
0.6875000000006584
 40
0.7187500000006609
 40
0.7343750000006694
 40
0.7421875000006619
 40
0.7421875000006619
 40
0.7500000000006546
 40
0.7500000000006546
 40
1.0
 40
1.0
 40
1.0
 40
1.0
 10
893.6567958787566
 20
592.7942226897807
 30
0.0
 10
893.8875126334094
 20
592.8545066338113
 30
0.0
 10
894.2245009479165
 20
592.9693109389037
 30
0.0
 10
894.601752050932
 20
593.1459114756752
 30
0.0
 10
894.7864021197958
 20
593.2448772892683
 30
0.0
 10
894.8777332835668
 20
593.2970265823672
 30
0.0
 10
894.9166622386128
 20
593.3199476479026
 30
0.0
 10
894.9425675481357
 20
593.335355329036
 30
0.0
 10
894.9567613709657
 20
593.3438901409775
 30
0.0
 10
895.1546498017986
 20
593.4639666720332
 30
0.0
 10
895.4231274446298
 20
593.6514871953007
 30
0.0
 10
895.717286407104
 20
593.9017623898691
 30
0.0
 10
895.8595996498004
 20
594.0347752998426
 30
0.0
 10
895.9295647115139
 20
594.1032505830015
 30
0.0
 10
895.9592944037543
 20
594.1330190246778
 30
0.0
 10
895.9790574576468
 20
594.1529584061847
 30
0.0
 10
895.9900996899984
 20
594.1641929340693
 30
0.0
 10
896.1369067623522
 20
594.3145661655705
 30
0.0
 10
896.3352255679597
 20
594.5405635761432
 30
0.0
 10
896.5509555918329
 20
594.8282123536642
 30
0.0
 10
896.6549101247688
 20
594.9780330253878
 30
0.0
 10
896.7059097714866
 20
595.0544424319907
 30
0.0
 10
896.7275572729905
 20
595.0875105499791
 30
0.0
 10
896.7419423873382
 20
595.1096273462923
 30
0.0
 10
896.750062463051
 20
595.1222022843624
 30
0.0
 10
896.9545043486121
 20
595.4406171302784
 30
0.0
 10
897.1373594954242
 20
595.7811742044381
 30
0.0
 10
897.3048231121401
 20
596.1535224415662
 30
0.0
  0
SPLINE
  5
64F
330
1F
100
AcDbEntity
  8
HEWI
  6
Continuous
370
     5
100
AcDbSpline
210
0.0
220
0.0
230
1.0
 70
     8
 71
     3
 72
    13
 73
     9
 74
     0
 42
0.000000001
 43
0.0000000001
 40
0.0
 40
0.0
 40
0.0
 40
0.0
 40
0.1199337654900149
 40
0.2464581169052815
 40
0.4948017264139133
 40
0.7461628905697121
 40
0.8518482314853741
 40
1.0
 40
1.0
 40
1.0
 40
1.0
 10
898.2168299204879
 20
595.7433473795162
 30
0.0
 10
898.1124205671653
 20
595.5344436668781
 30
0.0
 10
897.897864370234
 20
595.1051565897901
 30
0.0
 10
897.3200375059073
 20
594.3349673388036
 30
0.0
 10
896.4030636249727
 20
593.531296675843
 30
0.0
 10
895.3429943257784
 20
593.0515119655511
 30
0.0
 10
894.4139687560669
 20
592.8302135118504
 30
0.0
 10
893.9358496212882
 20
592.8074869969107
 30
0.0
 10
893.6567958787634
 20
592.7942226897807
 30
0.0
  0
CIRCLE
  5
6A6
330
1F
100
AcDbEntity
  8
0
100
AcDbCircle
 10
702.105461
 20
157.1022422535282
 30
0.0
 40
25.0
  0
CIRCLE
  5
6A7
330
1F
100
AcDbEntity
  8
0
100
AcDbCircle
 10
702.105461
 20
157.1022422535282
 30
0.0
 40
37.0
  0
LWPOLYLINE
  5
CCF
330
1F
100
AcDbEntity
  8
0
100
AcDbPolyline
 90
        8
 70
     1
 43
0.0
 10
526.105461
 20
127.1022422535281
 42
0.4142135623730951
 10
562.1054609999999
 20
91.10224225352817
 10
842.105461
 20
91.10224225352817
 42
0.4142135623730951
 10
878.1054609999999
 20
127.1022422535281
 10
878.1054609999999
 20
167.1022422535282
 42
0.4142135623730951
 10
842.105461
 20
203.1022422535282
 10
562.1054609999999
 20
203.1022422535282
 42
0.4142135623730951
 10
526.105461
 20
167.1022422535282
  0
LWPOLYLINE
  5
D05
330
1F
100
AcDbEntity
  8
0
100
AcDbPolyline
 90
        8
 70
     1
 43
0.0
 10
522.605461
 20
127.1022422535281
 42
0.4142135623730951
 10
562.1054609999999
 20
87.60224225352818
 10
842.105461
 20
87.60224225352818
 42
0.4142135623730951
 10
881.605461
 20
127.1022422535281
 10
881.605461
 20
167.1022422535282
 42
0.4142135623730951
 10
842.105461
 20
206.6022422535282
 10
562.1054609999999
 20
206.6022422535282
 42
0.4142135623730951
 10
522.605461
 20
167.1022422535282
  0
ENDSEC
  0
SECTION
  2
OBJECTS
  0
DICTIONARY
  5
C
330
0
100
AcDbDictionary
281
     1
  3
ACAD_CIP_PREVIOUS_PRODUCT_INFO
350
5ED
  3
ACAD_COLOR
350
5D2
  3
ACAD_DETAILVIEWSTYLE
350
5E9
  3
ACAD_GROUP
350
D
  3
ACAD_LAYOUT
350
1A
  3
ACAD_MATERIAL
350
3B
  3
ACAD_MLEADERSTYLE
350
5C5
  3
ACAD_MLINESTYLE
350
17
  3
ACAD_PLOTSETTINGS
350
19
  3
ACAD_PLOTSTYLENAME
350
E
  3
ACAD_SCALELIST
350
5D4
  3
ACAD_SECTIONVIEWSTYLE
350
5E7
  3
ACAD_TABLESTYLE
350
5C4
  3
ACAD_VISUALSTYLE
350
2A
  3
ACDB_RECOMPOSE_DATA
350
D46
  3
AcDbVariableDictionary
350
5F2
  3
AcDsDecomposeData
350
D4C
  0
DICTIONARY
  5
653
330
2
100
AcDbDictionary
280
     1
281
     1
  3
ACAD_LAYERSTATES
360
654
  0
DICTIONARY
  5
5EE
330
10
100
AcDbDictionary
280
     1
281
     1
  3
ADSK_XREC_LAYER_RECONCILED
360
5EF
  0
DICTIONARY
  5
5F0
330
46
100
AcDbDictionary
280
     1
281
     1
  3
ADSK_XREC_LAYER_RECONCILED
360
5F1
  0
DICTIONARY
  5
6A4
330
1F
100
AcDbDictionary
280
     1
281
     1
  3
ACAD_SORTENTS
360
6A5
  0
XRECORD
  5
5ED
102
{ACAD_REACTORS
330
C
102
}
330
C
100
AcDbXrecord
280
     1
300
ACDLT
300
2016
300
ACDLT_F_S
  0
DICTIONARY
  5
5D2
102
{ACAD_REACTORS
330
C
102
}
330
C
100
AcDbDictionary
281
     1
  0
DICTIONARY
  5
5E9
102
{ACAD_REACTORS
330
C
102
}
330
C
100
AcDbDictionary
281
     1
  3
Metric50
350
5EA
  0
DICTIONARY
  5
D
102
{ACAD_REACTORS
330
C
102
}
330
C
100
AcDbDictionary
281
     1
  0
DICTIONARY
  5
1A
102
{ACAD_REACTORS
330
C
102
}
330
C
100
AcDbDictionary
281
     1
  3
Layout1
350
1E
  3
Layout2
350
26
  3
Model
350
22
  0
DICTIONARY
  5
3B
102
{ACAD_REACTORS
330
C
102
}
330
C
100
AcDbDictionary
281
     1
  3
BYBLOCK
350
3D
  3
BYLAYER
350
3C
  3
Global
350
3E
  0
DICTIONARY
  5
5C5
102
{ACAD_REACTORS
330
C
102
}
330
C
100
AcDbDictionary
281
     1
  3
Standard
350
5E6
  0
DICTIONARY
  5
17
102
{ACAD_REACTORS
330
C
102
}
330
C
100
AcDbDictionary
281
     1
  3
Standard
350
18
  0
DICTIONARY
  5
19
102
{ACAD_REACTORS
330
C
102
}
330
C
100
AcDbDictionary
281
     1
  0
ACDBDICTIONARYWDFLT
  5
E
102
{ACAD_REACTORS
330
C
102
}
330
C
100
AcDbDictionary
281
     1
  3
Normal
350
F
100
AcDbDictionaryWithDefault
340
F
  0
DICTIONARY
  5
5D4
102
{ACAD_REACTORS
330
C
102
}
330
C
100
AcDbDictionary
281
     1
  3
A0
350
5D5
  3
A1
350
5D6
  3
A2
350
5D7
  3
A3
350
5D8
  3
A4
350
5D9
  3
A5
350
5DA
  3
A6
350
5DB
  3
A7
350
5DC
  3
A8
350
5DD
  3
A9
350
5DE
  3
B0
350
5DF
  3
B1
350
5E0
  3
B2
350
5E1
  3
B3
350
5E2
  3
B4
350
5E3
  3
B5
350
5E4
  3
B6
350
5E5
  0
DICTIONARY
  5
5E7
102
{ACAD_REACTORS
330
C
102
}
330
C
100
AcDbDictionary
281
     1
  3
Metric50
350
5E8
  0
DICTIONARY
  5
5C4
102
{ACAD_REACTORS
330
C
102
}
330
C
100
AcDbDictionary
281
     1
  3
Standard
350
5D3
  0
DICTIONARY
  5
2A
102
{ACAD_REACTORS
330
C
102
}
330
C
100
AcDbDictionary
281
     1
  3
2dWireframe
350
2F
  3
3D Hidden
350
31
  3
3dWireframe
350
30
  3
Basic
350
32
  3
Brighten
350
36
  3
ColorChange
350
3A
  3
Conceptual
350
34
  3
Dim
350
35
  3
EdgeColorOff
350
5D1
  3
Facepattern
350
39
  3
Flat
350
2B
  3
FlatWithEdges
350
2C
  3
Gouraud
350
2D
  3
GouraudWithEdges
350
2E
  3
Hidden
350
5C9
  3
JitterOff
350
5CF
  3
Linepattern
350
38
  3
OverhangOff
350
5D0
  3
Realistic
350
33
  3
Shaded
350
5CE
  3
Shaded with edges
350
5CD
  3
Shades of Gray
350
5CA
  3
Sketchy
350
5CB
  3
Thicken
350
37
  3
Wireframe
350
5C8
  3
X-Ray
350
5CC
  0
XRECORD
  5
D46
102
{ACAD_REACTORS
330
C
102
}
330
C
100
AcDbXrecord
280
     1
 90
        1
330
5D3
  0
DICTIONARY
  5
5F2
102
{ACAD_REACTORS
330
C
102
}
330
C
100
AcDbDictionary
281
     1
  3
CANNOSCALE
350
5F8
  3
CMLEADERSTYLE
350
5F4
  3
CTABLESTYLE
350
5F3
  3
CVIEWDETAILSTYLE
350
5F5
  3
CVIEWSECTIONSTYLE
350
5F6
  3
LAYEREVAL
350
5FA
  3
LAYERNOTIFY
350
5FB
  3
LIGHTINGUNITS
350
5F9
  3
MSLTSCALE
350
5F7
  0
DICTIONARY
  5
D4C
102
{ACAD_REACTORS
330
C
102
}
330
C
100
AcDbDictionary
281
     1
  3
AcDsRecords
350
D4E
  3
AcDsSchemas
350
D4D
1001
ACAD
1070
     2
  0
DICTIONARY
  5
654
102
{ACAD_REACTORS
330
653
102
}
330
653
100
AcDbDictionary
281
     1
  0
XRECORD
  5
5EF
102
{ACAD_REACTORS
330
5EE
102
}
330
5EE
100
AcDbXrecord
280
     1
290
     1
  0
XRECORD
  5
5F1
102
{ACAD_REACTORS
330
5F0
102
}
330
5F0
100
AcDbXrecord
280
     1
290
     1
  0
SORTENTSTABLE
  5
6A5
102
{ACAD_REACTORS
330
6A4
102
}
330
6A4
100
AcDbSortentsTable
330
1F
331
646
  5
646
331
57C
  5
57C
331
362
  5
362
331
293
  5
293
331
35E
  5
35E
331
642
  5
642
331
578
  5
578
331
515
  5
515
331
194
  5
194
331
35A
  5
35A
331
511
  5
511
331
190
  5
190
331
570
  5
570
331
28F
  5
28F
331
18C
  5
18C
331
356
  5
356
331
50D
  5
50D
331
509
  5
509
331
352
  5
352
331
56C
  5
56C
331
213
  5
213
331
505
  5
505
331
184
  5
184
331
568
  5
568
331
34E
  5
34E
331
34A
  5
34A
331
150
  5
150
331
346
  5
346
331
1F3
  5
1F3
331
4F9
  5
4F9
331
1EF
  5
1EF
331
342
  5
342
331
33E
  5
33E
331
33A
  5
33A
331
170
  5
170
331
548
  5
548
331
B4
  5
B4
331
B0
  5
B0
331
AC
  5
AC
331
A8
  5
A8
331
1BB
  5
1BB
331
336
  5
336
331
16C
  5
16C
331
58B
  5
58B
331
29E
  5
29E
331
29A
  5
29A
331
583
  5
583
331
64D
  5
64D
331
51C
  5
51C
331
A4
  5
A4
331
57F
  5
57F
331
645
  5
645
331
57B
  5
57B
331
361
  5
361
331
35D
  5
35D
331
641
  5
641
331
577
  5
577
331
193
  5
193
331
573
  5
573
331
359
  5
359
331
510
  5
510
331
CCF
  5
CEA
331
18F
  5
18F
331
355
  5
355
331
50C
  5
50C
331
216
  5
216
331
351
  5
351
331
56B
  5
56B
331
34D
  5
34D
331
183
  5
183
331
567
  5
567
331
349
  5
349
331
14B
  5
14B
331
1F6
  5
1F6
331
17F
  5
17F
331
345
  5
345
331
1F2
  5
1F2
331
4F8
  5
4F8
331
33D
  5
33D
331
339
  5
339
331
B3
  5
B3
331
AF
  5
AF
331
AB
  5
AB
331
16F
  5
16F
331
16B
  5
16B
331
1BA
  5
1BA
331
299
  5
299
331
582
  5
582
331
648
  5
648
331
A7
  5
A7
331
A3
  5
A3
331
19E
  5
19E
331
57E
  5
57E
331
364
  5
364
331
644
  5
644
331
57A
  5
57A
331
360
  5
360
331
291
  5
291
331
35C
  5
35C
331
576
  5
576
331
513
  5
513
331
192
  5
192
331
572
  5
572
331
358
  5
358
331
D05
  5
D05
331
50F
  5
50F
331
18E
  5
18E
331
354
  5
354
331
507
  5
507
331
350
  5
350
331
56A
  5
56A
331
211
  5
211
331
6A7
  5
97F
331
34C
  5
34C
331
182
  5
182
331
348
  5
348
331
1F5
  5
1F5
331
1F1
  5
1F1
331
344
  5
344
331
55A
  5
55A
331
340
  5
340
331
4DB
  5
4DB
331
54A
  5
54A
331
338
  5
338
331
B2
  5
B2
331
AE
  5
AE
331
AA
  5
AA
331
1BD
  5
1BD
331
4CF
  5
4CF
331
16E
  5
16E
331
16A
  5
16A
331
526
  5
526
331
58D
  5
58D
331
1A1
  5
1A1
331
4C3
  5
4C3
331
162
  5
162
331
585
  5
585
331
64F
  5
64F
331
29C
  5
29C
331
581
  5
581
331
A6
  5
A6
331
A2
  5
A2
331
19D
  5
19D
331
647
  5
647
331
57D
  5
57D
331
363
  5
363
331
35F
  5
35F
331
579
  5
579
331
195
  5
195
331
643
  5
643
331
290
  5
290
331
575
  5
575
331
35B
  5
35B
331
512
  5
512
331
191
  5
191
331
159
  5
159
331
18D
  5
18D
331
357
  5
357
331
50E
  5
50E
331
50A
  5
50A
331
353
  5
353
331
506
  5
506
331
214
  5
214
331
34F
  5
34F
331
6A6
  5
6A7
331
34B
  5
34B
331
181
  5
181
331
14D
  5
14D
331
347
  5
347
331
1F4
  5
1F4
331
1F0
  5
1F0
331
4FA
  5
4FA
331
33F
  5
33F
331
33B
  5
33B
331
171
  5
171
331
B5
  5
B5
331
B1
  5
B1
331
AD
  5
AD
331
A9
  5
A9
331
1BC
  5
1BC
331
337
  5
337
331
16D
  5
16D
331
169
  5
169
331
588
  5
588
331
29B
  5
29B
331
584
  5
584
331
1A0
  5
1A0
331
64E
  5
64E
331
580
  5
580
331
A5
  5
A5
  0
ACDBDETAILVIEWSTYLE
  5
5EA
102
{ACAD_XDICTIONARY
360
6AA
102
}
102
{ACAD_REACTORS
330
5E9
102
}
330
5E9
100
AcDbModelDocViewStyle
 70
     0
  3
Metric50
290
     0
100
AcDbDetailViewStyle
 70
     0
 71
     0
 90
        3
 71
     1
340
11
 62
   256
 40
5.0
340
0
 62
   256
 40
5.0
300

 40
0.0
280
     1
 71
     2
340
16
 90
       25
 62
   256
 71
     3
340
11
 62
   256
 40
5.0
 90
        0
 40
15.0
 90
        1
300
%<\AcVar ViewDetailId>% (%<\AcVar ViewScale \f "%sn">%)
 71
     4
340
16
 90
       25
 62
   256
340
16
 90
       25
 62
   256
280
     0
  0
LAYOUT
  5
1E
102
{ACAD_REACTORS
330
1A
102
}
330
1A
100
AcDbPlotSettings
  1

  2
none_device
  4

  6

 40
0.0
 41
0.0
 42
0.0
 43
0.0
 44
0.0
 45
0.0
 46
0.0
 47
0.0
 48
0.0
 49
0.0
140
0.0
141
0.0
142
1.0
143
1.0
 70
   688
 72
     0
 73
     0
 74
     5
  7

 75
    16
147
1.0
 76
     0
 77
     2
 78
   300
148
0.0
149
0.0
100
AcDbLayout
  1
Layout1
 70
     1
 71
     1
 10
-0.5
 20
-0.5
 11
5.0
 21
5.0
 12
0.0
 22
0.0
 32
0.0
 14
-0.5
 24
-0.5
 34
-0.5
 15
5.0
 25
5.0
 35
5.0
146
0.0
 13
0.0
 23
0.0
 33
0.0
 16
1.0
 26
0.0
 36
0.0
 17
0.0
 27
1.0
 37
0.0
 76
     0
330
1B
  0
LAYOUT
  5
26
102
{ACAD_REACTORS
330
1A
102
}
330
1A
100
AcDbPlotSettings
  1

  2
none_device
  4

  6

 40
0.0
 41
0.0
 42
0.0
 43
0.0
 44
0.0
 45
0.0
 46
0.0
 47
0.0
 48
0.0
 49
0.0
140
0.0
141
0.0
142
1.0
143
1.0
 70
   688
 72
     0
 73
     0
 74
     5
  7

 75
    16
147
1.0
 76
     0
 77
     2
 78
   300
148
0.0
149
0.0
100
AcDbLayout
  1
Layout2
 70
     1
 71
     2
 10
0.0
 20
0.0
 11
0.0
 21
0.0
 12
0.0
 22
0.0
 32
0.0
 14
0.0
 24
0.0
 34
0.0
 15
0.0
 25
0.0
 35
0.0
146
0.0
 13
0.0
 23
0.0
 33
0.0
 16
1.0
 26
0.0
 36
0.0
 17
0.0
 27
1.0
 37
0.0
 76
     0
330
23
  0
LAYOUT
  5
22
102
{ACAD_REACTORS
330
1A
102
}
330
1A
100
AcDbPlotSettings
  1

  2
none_device
  4

  6

 40
0.0
 41
0.0
 42
0.0
 43
0.0
 44
0.0
 45
0.0
 46
0.0
 47
0.0
 48
0.0
 49
0.0
140
0.0
141
0.0
142
1.0
143
1.0
 70
  1712
 72
     0
 73
     0
 74
     0
  7

 75
     0
147
1.0
 76
     0
 77
     2
 78
   300
148
0.0
149
0.0
100
AcDbLayout
  1
Model
 70
     1
 71
     0
 10
-0.5
 20
-0.5
 11
5.0
 21
5.0
 12
0.0
 22
0.0
 32
0.0
 14
-0.5
 24
-0.5
 34
-0.5
 15
5.0
 25
5.0
 35
5.0
146
0.0
 13
0.0
 23
0.0
 33
0.0
 16
1.0
 26
0.0
 36
0.0
 17
0.0
 27
1.0
 37
0.0
 76
     0
330
1F
331
58E
  0
MATERIAL
  5
3D
102
{ACAD_XDICTIONARY
360
5C0
102
}
102
{ACAD_REACTORS
330
3B
102
}
330
3B
100
AcDbMaterial
  1
BYBLOCK
  0
MATERIAL
  5
3C
102
{ACAD_XDICTIONARY
360
5BE
102
}
102
{ACAD_REACTORS
330
3B
102
}
330
3B
100
AcDbMaterial
  1
BYLAYER
  0
MATERIAL
  5
3E
102
{ACAD_XDICTIONARY
360
5C2
102
}
102
{ACAD_REACTORS
330
3B
102
}
330
3B
100
AcDbMaterial
  1
Global
  0
MLEADERSTYLE
  5
5E6
102
{ACAD_REACTORS
330
5C5
102
}
330
5C5
100
AcDbMLeaderStyle
179
     2
170
     2
171
     1
172
     0
 90
        2
 40
0.0
 41
0.0
173
     1
 91
-1056964608
340
14
 92
       -2
290
     1
 42
2.0
291
     1
 43
0.36
  3
Standard
 44
4.0
300

342
11
174
     1
178
     6
175
     1
176
     0
 93
-1056964608
 45
4.0
292
     0
297
     0
 46
4.0
 94
-1056964608
 47
1.0
 49
1.0
140
1.0
293
     1
141
0.0
294
     1
177
     0
142
1.0
295
     0
296
     0
143
0.125
271
     0
272
     9
273
     9
1001
ACAD_MLEADERVER
1070
     2
  0
MLINESTYLE
  5
18
102
{ACAD_REACTORS
330
17
102
}
330
17
100
AcDbMlineStyle
  2
STANDARD
 70
     0
  3

 62
   256
 51
90.0
 52
90.0
 71
     2
 49
0.5
 62
   256
  6
BYLAYER
 49
-0.5
 62
   256
  6
BYLAYER
  0
ACDBPLACEHOLDER
  5
F
102
{ACAD_REACTORS
330
E
102
}
330
E
  0
SCALE
  5
5D5
102
{ACAD_REACTORS
330
5D4
102
}
330
5D4
100
AcDbScale
 70
     0
300
1:1
140
1.0
141
1.0
290
     1
  0
SCALE
  5
5D6
102
{ACAD_REACTORS
330
5D4
102
}
330
5D4
100
AcDbScale
 70
     0
300
1:2
140
1.0
141
2.0
290
     0
  0
SCALE
  5
5D7
102
{ACAD_REACTORS
330
5D4
102
}
330
5D4
100
AcDbScale
 70
     0
300
1:4
140
1.0
141
4.0
290
     0
  0
SCALE
  5
5D8
102
{ACAD_REACTORS
330
5D4
102
}
330
5D4
100
AcDbScale
 70
     0
300
1:5
140
1.0
141
5.0
290
     0
  0
SCALE
  5
5D9
102
{ACAD_REACTORS
330
5D4
102
}
330
5D4
100
AcDbScale
 70
     0
300
1:8
140
1.0
141
8.0
290
     0
  0
SCALE
  5
5DA
102
{ACAD_REACTORS
330
5D4
102
}
330
5D4
100
AcDbScale
 70
     0
300
1:10
140
1.0
141
10.0
290
     0
  0
SCALE
  5
5DB
102
{ACAD_REACTORS
330
5D4
102
}
330
5D4
100
AcDbScale
 70
     0
300
1:16
140
1.0
141
16.0
290
     0
  0
SCALE
  5
5DC
102
{ACAD_REACTORS
330
5D4
102
}
330
5D4
100
AcDbScale
 70
     0
300
1:20
140
1.0
141
20.0
290
     0
  0
SCALE
  5
5DD
102
{ACAD_REACTORS
330
5D4
102
}
330
5D4
100
AcDbScale
 70
     0
300
1:30
140
1.0
141
30.0
290
     0
  0
SCALE
  5
5DE
102
{ACAD_REACTORS
330
5D4
102
}
330
5D4
100
AcDbScale
 70
     0
300
1:40
140
1.0
141
40.0
290
     0
  0
SCALE
  5
5DF
102
{ACAD_REACTORS
330
5D4
102
}
330
5D4
100
AcDbScale
 70
     0
300
1:50
140
1.0
141
50.0
290
     0
  0
SCALE
  5
5E0
102
{ACAD_REACTORS
330
5D4
102
}
330
5D4
100
AcDbScale
 70
     0
300
1:100
140
1.0
141
100.0
290
     0
  0
SCALE
  5
5E1
102
{ACAD_REACTORS
330
5D4
102
}
330
5D4
100
AcDbScale
 70
     0
300
2:1
140
2.0
141
1.0
290
     0
  0
SCALE
  5
5E2
102
{ACAD_REACTORS
330
5D4
102
}
330
5D4
100
AcDbScale
 70
     0
300
4:1
140
4.0
141
1.0
290
     0
  0
SCALE
  5
5E3
102
{ACAD_REACTORS
330
5D4
102
}
330
5D4
100
AcDbScale
 70
     0
300
8:1
140
8.0
141
1.0
290
     0
  0
SCALE
  5
5E4
102
{ACAD_REACTORS
330
5D4
102
}
330
5D4
100
AcDbScale
 70
     0
300
10:1
140
10.0
141
1.0
290
     0
  0
SCALE
  5
5E5
102
{ACAD_REACTORS
330
5D4
102
}
330
5D4
100
AcDbScale
 70
     0
300
100:1
140
100.0
141
1.0
290
     0
  0
ACDBSECTIONVIEWSTYLE
  5
5E8
102
{ACAD_XDICTIONARY
360
6A8
102
}
102
{ACAD_REACTORS
330
5E7
102
}
330
5E7
100
AcDbModelDocViewStyle
 70
     0
  3
Metric50
290
     0
100
AcDbSectionViewStyle
 70
     0
 71
     0
 90
      102
 71
     1
340
11
 62
   256
 40
5.0
340
0
340
0
 62
   256
 40
5.0
300
I, O, Q, S, X, Z
 40
10.0
 90
        0
 40
2.5
 90
        0
 71
     2
340
16
 90
       25
 62
   256
340
16
 90
       50
 62
   256
 40
5.0
 40
2.5
 40
5.0
 71
     3
340
11
 62
   256
 40
5.0
 90
        0
 40
15.0
 90
        1
300
%<\AcVar ViewSectionStartId>%-%<\AcVar ViewSectionEndId>% (%<\AcVar ViewScale \f "%sn">%)
 71
     4
 62
   256
 62
   257
300
ANSI31
 40
1.0
 90
        0
290
     0
290
     0
 90
        6
 40
0.0
 40
1.570796326794896
 40
0.2617993877991494
 40
1.308996938995747
 40
-0.2617993877991494
 40
1.832595714594045
  0
TABLESTYLE
  5
5D3
102
{ACAD_XDICTIONARY
360
659
102
}
102
{ACAD_REACTORS
330
5C4
102
}
330
5C4
100
AcDbTableStyle
280
     0
  3
Standard
 70
     0
 71
     0
 40
1.5
 41
1.5
280
     0
281
     0
  7
Standard
140
4.5
170
     2
 62
     0
 63
     7
283
     0
 90
      512
 91
        0
  1

274
    -2
284
     1
 64
     0
275
    -2
285
     1
 65
     0
276
    -2
286
     1
 66
     0
277
    -2
287
     1
 67
     0
278
    -2
288
     1
 68
     0
279
    -2
289
     1
 69
     0
  7
Standard
140
6.0
170
     5
 62
     0
 63
     7
283
     0
 90
      512
 91
        0
  1

274
    -2
284
     1
 64
     0
275
    -2
285
     1
 65
     0
276
    -2
286
     1
 66
     0
277
    -2
287
     1
 67
     0
278
    -2
288
     1
 68
     0
279
    -2
289
     1
 69
     0
  7
Standard
140
4.5
170
     5
 62
     0
 63
     7
283
     0
 90
      512
 91
        0
  1

274
    -2
284
     1
 64
     0
275
    -2
285
     1
 65
     0
276
    -2
286
     1
 66
     0
277
    -2
287
     1
 67
     0
278
    -2
288
     1
 68
     0
279
    -2
289
     1
 69
     0
  0
VISUALSTYLE
  5
2F
102
{ACAD_XDICTIONARY
360
D57
102
}
102
{ACAD_REACTORS
330
2A
102
}
330
2A
100
AcDbVisualStyle
  2

 70
     4
177
     2
291
     0
 71
     0
176
     1
 72
     2
176
     1
 73
     0
176
     1
 90
        0
176
     1
 40
0.6
176
     1
 41
30.0
176
     1
 63
     7
421
 16777215
176
     1
 74
     1
176
     1
 91
        4
176
     1
 64
     7
176
     1
 65
   257
176
     1
 75
     1
176
     1
175
     1
176
     1
 42
1.0
176
     1
 92
        0
176
     1
 66
   257
176
     1
 43
1.0
176
     1
 76
     1
176
     1
 77
     6
176
     1
 78
     2
176
     1
 67
     7
176
     1
 79
     5
176
     1
170
     0
176
     1
171
     0
176
     1
290
     0
176
     1
 93
        1
176
     1
 44
0.0
176
     1
173
     0
176
     1
1001
ACAD
1000
AcDbSavedByObjectVersion
1070
     0
  0
VISUALSTYLE
  5
31
102
{ACAD_XDICTIONARY
360
D5B
102
}
102
{ACAD_REACTORS
330
2A
102
}
330
2A
100
AcDbVisualStyle
  2

 70
     6
177
     2
291
     0
 71
     1
176
     1
 72
     2
176
     1
 73
     2
176
     1
 90
        0
176
     1
 40
0.6
176
     1
 41
30.0
176
     1
 63
     7
421
 16777215
176
     1
 74
     2
176
     1
 91
        2
176
     1
 64
     7
176
     1
 65
   257
176
     1
 75
     2
176
     1
175
     1
176
     1
 42
40.0
176
     1
 92
        0
176
     1
 66
   257
176
     1
 43
1.0
176
     1
 76
     1
176
     1
 77
     6
176
     1
 78
     2
176
     1
 67
     7
176
     1
 79
     3
176
     1
170
     0
176
     1
171
     0
176
     1
290
     0
176
     1
 93
        1
176
     1
 44
0.0
176
     1
173
     0
176
     1
1001
ACAD
1000
AcDbSavedByObjectVersion
1070
     0
  0
VISUALSTYLE
  5
30
102
{ACAD_XDICTIONARY
360
D59
102
}
102
{ACAD_REACTORS
330
2A
102
}
330
2A
100
AcDbVisualStyle
  2

 70
     5
177
     2
291
     0
 71
     0
176
     1
 72
     2
176
     1
 73
     0
176
     1
 90
        0
176
     1
 40
0.6
176
     1
 41
30.0
176
     1
 63
     7
421
 16777215
176
     1
 74
     1
176
     1
 91
        4
176
     1
 64
     7
176
     1
 65
   257
176
     1
 75
     1
176
     1
175
     1
176
     1
 42
1.0
176
     1
 92
        0
176
     1
 66
   257
176
     1
 43
1.0
176
     1
 76
     1
176
     1
 77
     6
176
     1
 78
     2
176
     1
 67
     7
176
     1
 79
     5
176
     1
170
     0
176
     1
171
     0
176
     1
290
     0
176
     1
 93
        1
176
     1
 44
0.0
176
     1
173
     0
176
     1
1001
ACAD
1000
AcDbSavedByObjectVersion
1070
     0
  0
VISUALSTYLE
  5
32
102
{ACAD_XDICTIONARY
360
D5D
102
}
102
{ACAD_REACTORS
330
2A
102
}
330
2A
100
AcDbVisualStyle
  2

 70
     7
177
     2
291
     1
 71
     1
176
     1
 72
     0
176
     1
 73
     1
176
     1
 90
        0
176
     1
 40
0.6
176
     1
 41
30.0
176
     1
 63
     7
421
 16777215
176
     1
 74
     0
176
     1
 91
        4
176
     1
 64
     7
176
     1
 65
   257
176
     1
 75
     1
176
     1
175
     1
176
     1
 42
1.0
176
     1
 92
        8
176
     1
 66
     7
176
     1
 43
1.0
176
     1
 76
     1
176
     1
 77
     6
176
     1
 78
     2
176
     1
 67
     7
176
     1
 79
     5
176
     1
170
     0
176
     1
171
     0
176
     1
290
     0
176
     1
 93
        1
176
     1
 44
0.0
176
     1
173
     0
176
     1
1001
ACAD
1000
AcDbSavedByObjectVersion
1070
     0
  0
VISUALSTYLE
  5
36
102
{ACAD_XDICTIONARY
360
D65
102
}
102
{ACAD_REACTORS
330
2A
102
}
330
2A
100
AcDbVisualStyle
  2

 70
    12
177
     2
291
     1
 71
     2
176
     1
 72
     2
176
     1
 73
     0
176
     1
 90
        0
176
     1
 40
0.6
176
     1
 41
30.0
176
     1
 63
     7
421
 16777215
176
     1
 74
     1
176
     1
 91
        4
176
     1
 64
     7
176
     1
 65
   257
176
     1
 75
     1
176
     1
175
     1
176
     1
 42
1.0
176
     1
 92
        8
176
     1
 66
     7
176
     1
 43
1.0
176
     1
 76
     1
176
     1
 77
     6
176
     1
 78
     2
176
     1
 67
     7
176
     1
 79
     5
176
     1
170
     0
176
     1
171
     0
176
     1
290
     0
176
     1
 93
        1
176
     1
 44
50.0
176
     1
173
     0
176
     1
1001
ACAD
1000
AcDbSavedByObjectVersion
1070
     0
  0
VISUALSTYLE
  5
3A
102
{ACAD_XDICTIONARY
360
D6D
102
}
102
{ACAD_REACTORS
330
2A
102
}
330
2A
100
AcDbVisualStyle
  2

 70
    16
177
     2
291
     1
 71
     2
176
     1
 72
     2
176
     1
 73
     3
176
     1
 90
        0
176
     1
 40
0.6
176
     1
 41
30.0
176
     1
 63
     8
421
  8421504
176
     1
 74
     1
176
     1
 91
        4
176
     1
 64
     7
176
     1
 65
   257
176
     1
 75
     1
176
     1
175
     1
176
     1
 42
1.0
176
     1
 92
        8
176
     1
 66
     8
424
  8421504
176
     1
 43
1.0
176
     1
 76
     1
176
     1
 77
     6
176
     1
 78
     2
176
     1
 67
     7
176
     1
 79
     5
176
     1
170
     0
176
     1
171
     0
176
     1
290
     0
176
     1
 93
        1
176
     1
 44
0.0
176
     1
173
     0
176
     1
1001
ACAD
1000
AcDbSavedByObjectVersion
1070
     0
  0
VISUALSTYLE
  5
34
102
{ACAD_XDICTIONARY
360
D61
102
}
102
{ACAD_REACTORS
330
2A
102
}
330
2A
100
AcDbVisualStyle
  2

 70
     9
177
     2
291
     0
 71
     3
176
     1
 72
     2
176
     1
 73
     0
176
     1
 90
        0
176
     1
 40
0.6
176
     1
 41
30.0
176
     1
 63
     7
421
 16777215
176
     1
 74
     2
176
     1
 91
        2
176
     1
 64
     7
176
     1
 65
   257
176
     1
 75
     1
176
     1
175
     1
176
     1
 42
40.0
176
     1
 92
        8
176
     1
 66
     7
176
     1
 43
1.0
176
     1
 76
     1
176
     1
 77
     6
176
     1
 78
     2
176
     1
 67
     7
176
     1
 79
     3
176
     1
170
     0
176
     1
171
     0
176
     1
290
     0
176
     1
 93
        1
176
     1
 44
0.0
176
     1
173
     0
176
     1
1001
ACAD
1000
AcDbSavedByObjectVersion
1070
     0
  0
VISUALSTYLE
  5
35
102
{ACAD_XDICTIONARY
360
D63
102
}
102
{ACAD_REACTORS
330
2A
102
}
330
2A
100
AcDbVisualStyle
  2

 70
    11
177
     2
291
     1
 71
     2
176
     1
 72
     2
176
     1
 73
     0
176
     1
 90
        0
176
     1
 40
0.6
176
     1
 41
30.0
176
     1
 63
     7
421
 16777215
176
     1
 74
     1
176
     1
 91
        4
176
     1
 64
     7
176
     1
 65
   257
176
     1
 75
     1
176
     1
175
     1
176
     1
 42
1.0
176
     1
 92
        8
176
     1
 66
     7
176
     1
 43
1.0
176
     1
 76
     1
176
     1
 77
     6
176
     1
 78
     2
176
     1
 67
     7
176
     1
 79
     5
176
     1
170
     0
176
     1
171
     0
176
     1
290
     0
176
     1
 93
        1
176
     1
 44
-50.0
176
     1
173
     0
176
     1
1001
ACAD
1000
AcDbSavedByObjectVersion
1070
     0
  0
VISUALSTYLE
  5
5D1
102
{ACAD_XDICTIONARY
360
D81
102
}
102
{ACAD_REACTORS
330
2A
102
}
330
2A
100
AcDbVisualStyle
  2

 70
    22
177
     2
291
     1
 71
     2
176
     0
 72
     2
176
     0
 73
     0
176
     0
 90
        0
176
     0
 40
0.6
176
     0
 41
30.0
176
     0
 63
     7
421
 16777215
176
     0
 74
     1
176
     0
 91
        4
176
     0
 64
     7
176
     0
 65
   257
176
     0
 75
     1
176
     0
175
     1
176
     0
 42
1.0
176
     0
 92
        8
176
     2
 66
     7
176
     0
 43
1.0
176
     0
 76
     1
176
     0
 77
     6
176
     0
 78
     2
176
     0
 67
     7
176
     0
 79
     5
176
     0
170
     0
176
     0
171
     0
176
     0
290
     0
176
     0
 93
        1
176
     0
 44
0.0
176
     0
173
     0
176
     0
1001
ACAD
1000
AcDbSavedByObjectVersion
1070
     0
  0
VISUALSTYLE
  5
39
102
{ACAD_XDICTIONARY
360
D6B
102
}
102
{ACAD_REACTORS
330
2A
102
}
330
2A
100
AcDbVisualStyle
  2

 70
    15
177
     2
291
     1
 71
     2
176
     1
 72
     2
176
     1
 73
     0
176
     1
 90
        0
176
     1
 40
0.6
176
     1
 41
30.0
176
     1
 63
     7
421
 16777215
176
     1
 74
     1
176
     1
 91
        4
176
     1
 64
     7
176
     1
 65
   257
176
     1
 75
     1
176
     1
175
     1
176
     1
 42
1.0
176
     1
 92
        8
176
     1
 66
     7
176
     1
 43
1.0
176
     1
 76
     1
176
     1
 77
     6
176
     1
 78
     2
176
     1
 67
     7
176
     1
 79
     5
176
     1
170
     0
176
     1
171
     0
176
     1
290
     0
176
     1
 93
        1
176
     1
 44
0.0
176
     1
173
     0
176
     1
1001
ACAD
1000
AcDbSavedByObjectVersion
1070
     0
  0
VISUALSTYLE
  5
2B
102
{ACAD_XDICTIONARY
360
D4F
102
}
102
{ACAD_REACTORS
330
2A
102
}
330
2A
100
AcDbVisualStyle
  2

 70
     0
177
     2
291
     1
 71
     2
176
     1
 72
     1
176
     1
 73
     1
176
     1
 90
        2
176
     1
 40
0.6
176
     1
 41
30.0
176
     1
 63
     7
421
 16777215
176
     1
 74
     0
176
     1
 91
        4
176
     1
 64
     7
176
     1
 65
   257
176
     1
 75
     1
176
     1
175
     1
176
     1
 42
1.0
176
     1
 92
        8
176
     1
 66
     7
176
     1
 43
1.0
176
     1
 76
     1
176
     1
 77
     6
176
     1
 78
     2
176
     1
 67
     7
176
     1
 79
     5
176
     1
170
     0
176
     1
171
     0
176
     1
290
     0
176
     1
 93
       13
176
     1
 44
0.0
176
     1
173
     0
176
     1
1001
ACAD
1000
AcDbSavedByObjectVersion
1070
     0
  0
VISUALSTYLE
  5
2C
102
{ACAD_XDICTIONARY
360
D51
102
}
102
{ACAD_REACTORS
330
2A
102
}
330
2A
100
AcDbVisualStyle
  2

 70
     1
177
     2
291
     1
 71
     2
176
     1
 72
     1
176
     1
 73
     1
176
     1
 90
        2
176
     1
 40
0.6
176
     1
 41
30.0
176
     1
 63
     7
421
 16777215
176
     1
 74
     1
176
     1
 91
        4
176
     1
 64
     7
176
     1
 65
   257
176
     1
 75
     1
176
     1
175
     1
176
     1
 42
1.0
176
     1
 92
        0
176
     1
 66
   257
176
     1
 43
1.0
176
     1
 76
     1
176
     1
 77
     6
176
     1
 78
     2
176
     1
 67
     7
176
     1
 79
     5
176
     1
170
     0
176
     1
171
     0
176
     1
290
     0
176
     1
 93
       13
176
     1
 44
0.0
176
     1
173
     0
176
     1
1001
ACAD
1000
AcDbSavedByObjectVersion
1070
     0
  0
VISUALSTYLE
  5
2D
102
{ACAD_XDICTIONARY
360
D53
102
}
102
{ACAD_REACTORS
330
2A
102
}
330
2A
100
AcDbVisualStyle
  2

 70
     2
177
     2
291
     1
 71
     2
176
     1
 72
     2
176
     1
 73
     1
176
     1
 90
        2
176
     1
 40
0.6
176
     1
 41
30.0
176
     1
 63
     7
421
 16777215
176
     1
 74
     0
176
     1
 91
        4
176
     1
 64
     7
176
     1
 65
   257
176
     1
 75
     1
176
     1
175
     1
176
     1
 42
1.0
176
     1
 92
        0
176
     1
 66
     7
176
     1
 43
1.0
176
     1
 76
     1
176
     1
 77
     6
176
     1
 78
     2
176
     1
 67
     7
176
     1
 79
     5
176
     1
170
     0
176
     1
171
     0
176
     1
290
     0
176
     1
 93
       13
176
     1
 44
0.0
176
     1
173
     0
176
     1
1001
ACAD
1000
AcDbSavedByObjectVersion
1070
     0
  0
VISUALSTYLE
  5
2E
102
{ACAD_XDICTIONARY
360
D55
102
}
102
{ACAD_REACTORS
330
2A
102
}
330
2A
100
AcDbVisualStyle
  2

 70
     3
177
     2
291
     1
 71
     2
176
     1
 72
     2
176
     1
 73
     1
176
     1
 90
        2
176
     1
 40
0.6
176
     1
 41
30.0
176
     1
 63
     7
421
 16777215
176
     1
 74
     1
176
     1
 91
        4
176
     1
 64
     7
176
     1
 65
   257
176
     1
 75
     1
176
     1
175
     1
176
     1
 42
1.0
176
     1
 92
        0
176
     1
 66
   257
176
     1
 43
1.0
176
     1
 76
     1
176
     1
 77
     6
176
     1
 78
     2
176
     1
 67
     7
176
     1
 79
     5
176
     1
170
     0
176
     1
171
     0
176
     1
290
     0
176
     1
 93
       13
176
     1
 44
0.0
176
     1
173
     0
176
     1
1001
ACAD
1000
AcDbSavedByObjectVersion
1070
     0
  0
VISUALSTYLE
  5
5C9
102
{ACAD_XDICTIONARY
360
D71
102
}
102
{ACAD_REACTORS
330
2A
102
}
330
2A
100
AcDbVisualStyle
  2

 70
     6
177
     2
291
     0
 71
     1
176
     1
 72
     2
176
     1
 73
     2
176
     1
 90
        0
176
     1
 40
0.6
176
     1
 41
30.0
176
     1
 63
     7
421
 16777215
176
     1
 74
     2
176
     1
 91
        2
176
     1
 64
     7
176
     1
 65
   257
176
     1
 75
     2
176
     1
175
     1
176
     1
 42
40.0
176
     1
 92
        0
176
     1
 66
   257
176
     1
 43
1.0
176
     1
 76
     1
176
     1
 77
     6
176
     1
 78
     2
176
     1
 67
     7
176
     1
 79
     3
176
     1
170
     0
176
     1
171
     0
176
     1
290
     0
176
     1
 93
        1
176
     1
 44
0.0
176
     1
173
     0
176
     1
1001
ACAD
1000
AcDbSavedByObjectVersion
1070
     0
  0
VISUALSTYLE
  5
5CF
102
{ACAD_XDICTIONARY
360
D7D
102
}
102
{ACAD_REACTORS
330
2A
102
}
330
2A
100
AcDbVisualStyle
  2

 70
    20
177
     2
291
     1
 71
     2
176
     0
 72
     2
176
     0
 73
     0
176
     0
 90
        0
176
     0
 40
0.6
176
     0
 41
30.0
176
     0
 63
     7
421
 16777215
176
     0
 74
     1
176
     0
 91
        4
176
     0
 64
     7
176
     0
 65
   257
176
     0
 75
     1
176
     0
175
     1
176
     0
 42
1.0
176
     0
 92
       10
176
     2
 66
     7
176
     0
 43
1.0
176
     0
 76
     1
176
     0
 77
     6
176
     0
 78
     2
176
     0
 67
     7
176
     0
 79
     5
176
     0
170
     0
176
     0
171
     0
176
     0
290
     0
176
     0
 93
        1
176
     0
 44
0.0
176
     0
173
     0
176
     0
1001
ACAD
1000
AcDbSavedByObjectVersion
1070
     0
  0
VISUALSTYLE
  5
38
102
{ACAD_XDICTIONARY
360
D69
102
}
102
{ACAD_REACTORS
330
2A
102
}
330
2A
100
AcDbVisualStyle
  2

 70
    14
177
     2
291
     1
 71
     2
176
     1
 72
     2
176
     1
 73
     0
176
     1
 90
        0
176
     1
 40
0.6
176
     1
 41
30.0
176
     1
 63
     7
421
 16777215
176
     1
 74
     1
176
     1
 91
        4
176
     1
 64
     7
176
     1
 65
   257
176
     1
 75
     7
176
     1
175
     7
176
     1
 42
1.0
176
     1
 92
        8
176
     1
 66
     7
176
     1
 43
1.0
176
     1
 76
     1
176
     1
 77
     6
176
     1
 78
     2
176
     1
 67
     7
176
     1
 79
     5
176
     1
170
     0
176
     1
171
     0
176
     1
290
     0
176
     1
 93
        1
176
     1
 44
0.0
176
     1
173
     0
176
     1
1001
ACAD
1000
AcDbSavedByObjectVersion
1070
     0
  0
VISUALSTYLE
  5
5D0
102
{ACAD_XDICTIONARY
360
D7F
102
}
102
{ACAD_REACTORS
330
2A
102
}
330
2A
100
AcDbVisualStyle
  2

 70
    21
177
     2
291
     1
 71
     2
176
     0
 72
     2
176
     0
 73
     0
176
     0
 90
        0
176
     0
 40
0.6
176
     0
 41
30.0
176
     0
 63
     7
421
 16777215
176
     0
 74
     1
176
     0
 91
        4
176
     0
 64
     7
176
     0
 65
   257
176
     0
 75
     1
176
     0
175
     1
176
     0
 42
1.0
176
     0
 92
        9
176
     2
 66
     7
176
     0
 43
1.0
176
     0
 76
     1
176
     0
 77
     6
176
     0
 78
     2
176
     0
 67
     7
176
     0
 79
     5
176
     0
170
     0
176
     0
171
     0
176
     0
290
     0
176
     0
 93
        1
176
     0
 44
0.0
176
     0
173
     0
176
     0
1001
ACAD
1000
AcDbSavedByObjectVersion
1070
     0
  0
VISUALSTYLE
  5
33
102
{ACAD_XDICTIONARY
360
D5F
102
}
102
{ACAD_REACTORS
330
2A
102
}
330
2A
100
AcDbVisualStyle
  2

 70
     8
177
     2
291
     0
 71
     2
176
     1
 72
     2
176
     1
 73
     0
176
     1
 90
        0
176
     1
 40
0.6
176
     1
 41
30.0
176
     1
 63
     7
421
 16777215
176
     1
 74
     1
176
     1
 91
        0
176
     1
 64
     7
176
     1
 65
   257
176
     1
 75
     1
176
     1
175
     1
176
     1
 42
1.0
176
     1
 92
        8
176
     1
 66
     8
424
  7895160
176
     1
 43
1.0
176
     1
 76
     1
176
     1
 77
     6
176
     1
 78
     2
176
     1
 67
     7
176
     1
 79
     5
176
     1
170
     0
176
     1
171
     0
176
     1
290
     0
176
     1
 93
       13
176
     1
 44
0.0
176
     1
173
     0
176
     1
1001
ACAD
1000
AcDbSavedByObjectVersion
1070
     0
  0
VISUALSTYLE
  5
5CE
102
{ACAD_XDICTIONARY
360
D7B
102
}
102
{ACAD_REACTORS
330
2A
102
}
330
2A
100
AcDbVisualStyle
  2

 70
    27
177
     2
291
     0
 71
     2
176
     1
 72
     2
176
     1
 73
     1
176
     1
 90
        2
176
     1
 40
0.6
176
     1
 41
30.0
176
     1
 63
     7
421
 16777215
176
     1
 74
     0
176
     1
 91
        4
176
     1
 64
     7
176
     1
 65
   257
176
     1
 75
     1
176
     1
175
     1
176
     1
 42
1.0
176
     1
 92
        8
176
     1
 66
   257
176
     1
 43
1.0
176
     1
 76
     1
176
     1
 77
     6
176
     1
 78
     2
176
     1
 67
     8
425
  7895160
176
     1
 79
     3
176
     1
170
     0
176
     1
171
     0
176
     1
290
     0
176
     1
 93
        5
176
     1
 44
0.0
176
     1
173
     0
176
     1
1001
ACAD
1000
AcDbSavedByObjectVersion
1070
     0
  0
VISUALSTYLE
  5
5CD
102
{ACAD_XDICTIONARY
360
D79
102
}
102
{ACAD_REACTORS
330
2A
102
}
330
2A
100
AcDbVisualStyle
  2

 70
    26
177
     2
291
     0
 71
     2
176
     1
 72
     2
176
     1
 73
     1
176
     1
 90
        2
176
     1
 40
0.6
176
     1
 41
30.0
176
     1
 63
     7
421
 16777215
176
     1
 74
     1
176
     1
 91
        2
176
     1
 64
     7
176
     1
 65
   257
176
     1
 75
     2
176
     1
175
     1
176
     1
 42
1.0
176
     1
 92
        8
176
     1
 66
   257
176
     1
 43
1.0
176
     1
 76
     1
176
     1
 77
     6
176
     1
 78
     2
176
     1
 67
     7
176
     1
 79
     3
176
     1
170
     0
176
     1
171
     0
176
     1
290
     0
176
     1
 93
        5
176
     1
 44
0.0
176
     1
173
     0
176
     1
1001
ACAD
1000
AcDbSavedByObjectVersion
1070
     0
  0
VISUALSTYLE
  5
5CA
102
{ACAD_XDICTIONARY
360
D73
102
}
102
{ACAD_REACTORS
330
2A
102
}
330
2A
100
AcDbVisualStyle
  2

 70
    23
177
     2
291
     0
 71
     2
176
     1
 72
     2
176
     1
 73
     3
176
     1
 90
        0
176
     1
 40
0.6
176
     1
 41
30.0
176
     1
 63
     7
421
 16777215
176
     1
 74
     2
176
     1
 91
        2
176
     1
 64
     7
176
     1
 65
     7
176
     1
 75
     1
176
     1
175
     1
176
     1
 42
40.0
176
     1
 92
        8
176
     1
 66
     7
176
     1
 43
1.0
176
     1
 76
     1
176
     1
 77
     6
176
     1
 78
     2
176
     1
 67
     7
176
     1
 79
     3
176
     1
170
     0
176
     1
171
     0
176
     1
290
     0
176
     1
 93
        1
176
     1
 44
0.0
176
     1
173
     0
176
     1
1001
ACAD
1000
AcDbSavedByObjectVersion
1070
     0
  0
VISUALSTYLE
  5
5CB
102
{ACAD_XDICTIONARY
360
D75
102
}
102
{ACAD_REACTORS
330
2A
102
}
330
2A
100
AcDbVisualStyle
  2

 70
    24
177
     2
291
     0
 71
     1
176
     1
 72
     2
176
     1
 73
     2
176
     1
 90
        0
176
     1
 40
0.6
176
     1
 41
30.0
176
     1
 63
     7
421
 16777215
176
     1
 74
     2
176
     1
 91
        2
176
     1
 64
     7
176
     1
 65
     7
176
     1
 75
     1
176
     1
175
     1
176
     1
 42
40.0
176
     1
 92
       11
176
     1
 66
     7
176
     1
 43
1.0
176
     1
 76
     1
176
     1
 77
     6
176
     1
 78
     2
176
     1
 67
     7
176
     1
 79
     6
176
     1
170
     0
176
     1
171
     0
176
     1
290
     0
176
     1
 93
        1
176
     1
 44
0.0
176
     1
173
     0
176
     1
1001
ACAD
1000
AcDbSavedByObjectVersion
1070
     0
  0
VISUALSTYLE
  5
37
102
{ACAD_XDICTIONARY
360
D67
102
}
102
{ACAD_REACTORS
330
2A
102
}
330
2A
100
AcDbVisualStyle
  2

 70
    13
177
     2
291
     1
 71
     2
176
     1
 72
     2
176
     1
 73
     0
176
     1
 90
        0
176
     1
 40
0.6
176
     1
 41
30.0
176
     1
 63
     7
421
 16777215
176
     1
 74
     1
176
     1
 91
        4
176
     1
 64
     7
176
     1
 65
   257
176
     1
 75
     1
176
     1
175
     1
176
     1
 42
1.0
176
     1
 92
       12
176
     1
 66
     7
176
     1
 43
1.0
176
     1
 76
     1
176
     1
 77
     6
176
     1
 78
     2
176
     1
 67
     7
176
     1
 79
     5
176
     1
170
     0
176
     1
171
     0
176
     1
290
     0
176
     1
 93
        1
176
     1
 44
0.0
176
     1
173
     0
176
     1
1001
ACAD
1000
AcDbSavedByObjectVersion
1070
     0
  0
VISUALSTYLE
  5
5C8
102
{ACAD_XDICTIONARY
360
D6F
102
}
102
{ACAD_REACTORS
330
2A
102
}
330
2A
100
AcDbVisualStyle
  2

 70
     5
177
     2
291
     0
 71
     0
176
     1
 72
     2
176
     1
 73
     0
176
     1
 90
        0
176
     1
 40
0.6
176
     1
 41
30.0
176
     1
 63
     7
421
 16777215
176
     1
 74
     1
176
     1
 91
        4
176
     1
 64
     7
176
     1
 65
   257
176
     1
 75
     1
176
     1
175
     1
176
     1
 42
1.0
176
     1
 92
        0
176
     1
 66
   257
176
     1
 43
1.0
176
     1
 76
     1
176
     1
 77
     6
176
     1
 78
     2
176
     1
 67
     7
176
     1
 79
     3
176
     1
170
     0
176
     1
171
     0
176
     1
290
     0
176
     1
 93
        1
176
     1
 44
0.0
176
     1
173
     0
176
     1
1001
ACAD
1000
AcDbSavedByObjectVersion
1070
     0
  0
VISUALSTYLE
  5
5CC
102
{ACAD_XDICTIONARY
360
D77
102
}
102
{ACAD_REACTORS
330
2A
102
}
330
2A
100
AcDbVisualStyle
  2

 70
    25
177
     2
291
     0
 71
     2
176
     1
 72
     2
176
     1
 73
     1
176
     1
 90
        1
176
     1
 40
0.5
176
     1
 41
30.0
176
     1
 63
     7
421
 16777215
176
     1
 74
     1
176
     1
 91
        0
176
     1
 64
     7
176
     1
 65
   257
176
     1
 75
     1
176
     1
175
     1
176
     1
 42
1.0
176
     1
 92
        8
176
     1
 66
     7
176
     1
 43
1.0
176
     1
 76
     1
176
     1
 77
     6
176
     1
 78
     2
176
     1
 67
     7
176
     1
 79
     3
176
     1
170
     0
176
     1
171
     0
176
     1
290
     0
176
     1
 93
       13
176
     1
 44
0.0
176
     1
173
     0
176
     1
1001
ACAD
1000
AcDbSavedByObjectVersion
1070
     0
  0
DICTIONARYVAR
  5
5F8
102
{ACAD_REACTORS
330
5F2
102
}
330
5F2
100
DictionaryVariables
280
     0
  1
1:1
  0
DICTIONARYVAR
  5
5F4
102
{ACAD_REACTORS
330
5F2
102
}
330
5F2
100
DictionaryVariables
280
     0
  1
STANDARD
  0
DICTIONARYVAR
  5
5F3
102
{ACAD_REACTORS
330
5F2
102
}
330
5F2
100
DictionaryVariables
280
     0
  1
STANDARD
  0
DICTIONARYVAR
  5
5F5
102
{ACAD_REACTORS
330
5F2
102
}
330
5F2
100
DictionaryVariables
280
     0
  1
Metric50
  0
DICTIONARYVAR
  5
5F6
102
{ACAD_REACTORS
330
5F2
102
}
330
5F2
100
DictionaryVariables
280
     0
  1
Metric50
  0
DICTIONARYVAR
  5
5FA
102
{ACAD_REACTORS
330
5F2
102
}
330
5F2
100
DictionaryVariables
280
     0
  1
1
  0
DICTIONARYVAR
  5
5FB
102
{ACAD_REACTORS
330
5F2
102
}
330
5F2
100
DictionaryVariables
280
     0
  1
15
  0
DICTIONARYVAR
  5
5F9
102
{ACAD_REACTORS
330
5F2
102
}
330
5F2
100
DictionaryVariables
280
     0
  1
0
  0
DICTIONARYVAR
  5
5F7
102
{ACAD_REACTORS
330
5F2
102
}
330
5F2
100
DictionaryVariables
280
     0
  1
0
  0
DICTIONARY
  5
D4E
102
{ACAD_REACTORS
330
D4C
102
}
330
D4C
100
AcDbDictionary
281
     1
  0
DICTIONARY
  5
D4D
102
{ACAD_REACTORS
330
D4C
102
}
330
D4C
100
AcDbDictionary
281
     1
  3
8796087820288
350
D48
  3
8796087820304
350
D49
  3
8796087820320
350
D4A
  3
8796087820336
350
D4B
  3
8796088037232
350
D47
  0
DICTIONARY
  5
6AA
330
5EA
100
AcDbDictionary
280
     1
281
     1
  3
ACAD_XREC_ROUNDTRIP
360
D84
  0
DICTIONARY
  5
5C0
330
3D
100
AcDbDictionary
280
     1
281
     1
  3
ACAD_XREC_ROUNDTRIP
360
5C1
  0
DICTIONARY
  5
5BE
330
3C
100
AcDbDictionary
280
     1
281
     1
  3
ACAD_XREC_ROUNDTRIP
360
5BF
  0
DICTIONARY
  5
5C2
330
3E
100
AcDbDictionary
280
     1
281
     1
  3
ACAD_XREC_ROUNDTRIP
360
5C3
  0
DICTIONARY
  5
6A8
330
5E8
100
AcDbDictionary
280
     1
281
     1
  3
ACAD_XREC_ROUNDTRIP
360
D83
  0
DICTIONARY
  5
659
330
5D3
100
AcDbDictionary
280
     1
281
     1
  3
ACAD_ROUNDTRIP_2008_TABLESTYLE_CELLSTYLEMAP
360
D45
  0
DICTIONARY
  5
D57
330
2F
100
AcDbDictionary
280
     1
281
     1
  3
ACAD_XREC_ROUNDTRIP
360
D58
  0
DICTIONARY
  5
D5B
330
31
100
AcDbDictionary
280
     1
281
     1
  3
ACAD_XREC_ROUNDTRIP
360
D5C
  0
DICTIONARY
  5
D59
330
30
100
AcDbDictionary
280
     1
281
     1
  3
ACAD_XREC_ROUNDTRIP
360
D5A
  0
DICTIONARY
  5
D5D
330
32
100
AcDbDictionary
280
     1
281
     1
  3
ACAD_XREC_ROUNDTRIP
360
D5E
  0
DICTIONARY
  5
D65
330
36
100
AcDbDictionary
280
     1
281
     1
  3
ACAD_XREC_ROUNDTRIP
360
D66
  0
DICTIONARY
  5
D6D
330
3A
100
AcDbDictionary
280
     1
281
     1
  3
ACAD_XREC_ROUNDTRIP
360
D6E
  0
DICTIONARY
  5
D61
330
34
100
AcDbDictionary
280
     1
281
     1
  3
ACAD_XREC_ROUNDTRIP
360
D62
  0
DICTIONARY
  5
D63
330
35
100
AcDbDictionary
280
     1
281
     1
  3
ACAD_XREC_ROUNDTRIP
360
D64
  0
DICTIONARY
  5
D81
330
5D1
100
AcDbDictionary
280
     1
281
     1
  3
ACAD_XREC_ROUNDTRIP
360
D82
  0
DICTIONARY
  5
D6B
330
39
100
AcDbDictionary
280
     1
281
     1
  3
ACAD_XREC_ROUNDTRIP
360
D6C
  0
DICTIONARY
  5
D4F
330
2B
100
AcDbDictionary
280
     1
281
     1
  3
ACAD_XREC_ROUNDTRIP
360
D50
  0
DICTIONARY
  5
D51
330
2C
100
AcDbDictionary
280
     1
281
     1
  3
ACAD_XREC_ROUNDTRIP
360
D52
  0
DICTIONARY
  5
D53
330
2D
100
AcDbDictionary
280
     1
281
     1
  3
ACAD_XREC_ROUNDTRIP
360
D54
  0
DICTIONARY
  5
D55
330
2E
100
AcDbDictionary
280
     1
281
     1
  3
ACAD_XREC_ROUNDTRIP
360
D56
  0
DICTIONARY
  5
D71
330
5C9
100
AcDbDictionary
280
     1
281
     1
  3
ACAD_XREC_ROUNDTRIP
360
D72
  0
DICTIONARY
  5
D7D
330
5CF
100
AcDbDictionary
280
     1
281
     1
  3
ACAD_XREC_ROUNDTRIP
360
D7E
  0
DICTIONARY
  5
D69
330
38
100
AcDbDictionary
280
     1
281
     1
  3
ACAD_XREC_ROUNDTRIP
360
D6A
  0
DICTIONARY
  5
D7F
330
5D0
100
AcDbDictionary
280
     1
281
     1
  3
ACAD_XREC_ROUNDTRIP
360
D80
  0
DICTIONARY
  5
D5F
330
33
100
AcDbDictionary
280
     1
281
     1
  3
ACAD_XREC_ROUNDTRIP
360
D60
  0
DICTIONARY
  5
D7B
330
5CE
100
AcDbDictionary
280
     1
281
     1
  3
ACAD_XREC_ROUNDTRIP
360
D7C
  0
DICTIONARY
  5
D79
330
5CD
100
AcDbDictionary
280
     1
281
     1
  3
ACAD_XREC_ROUNDTRIP
360
D7A
  0
DICTIONARY
  5
D73
330
5CA
100
AcDbDictionary
280
     1
281
     1
  3
ACAD_XREC_ROUNDTRIP
360
D74
  0
DICTIONARY
  5
D75
330
5CB
100
AcDbDictionary
280
     1
281
     1
  3
ACAD_XREC_ROUNDTRIP
360
D76
  0
DICTIONARY
  5
D67
330
37
100
AcDbDictionary
280
     1
281
     1
  3
ACAD_XREC_ROUNDTRIP
360
D68
  0
DICTIONARY
  5
D6F
330
5C8
100
AcDbDictionary
280
     1
281
     1
  3
ACAD_XREC_ROUNDTRIP
360
D70
  0
DICTIONARY
  5
D77
330
5CC
100
AcDbDictionary
280
     1
281
     1
  3
ACAD_XREC_ROUNDTRIP
360
D78
  0
XRECORD
  5
D48
102
{ACAD_REACTORS
330
D4D
102
}
330
D4D
100
AcDbXrecord
280
     1
  1
AcDbDs::TreatedAsObjectDataSchema
  2
AcDbDs::TreatedAsObjectData
280
     1
 91
        0
  0
XRECORD
  5
D49
102
{ACAD_REACTORS
330
D4D
102
}
330
D4D
100
AcDbXrecord
280
     1
  1
AcDbDs::LegacySchema
  2
AcDbDs::Legacy
280
     1
 91
        0
  0
XRECORD
  5
D4A
102
{ACAD_REACTORS
330
D4D
102
}
330
D4D
100
AcDbXrecord
280
     1
  1
AcDbDs::IndexedPropertySchema
  2
AcDs:Indexable
280
     1
 91
        0
  0
XRECORD
  5
D4B
102
{ACAD_REACTORS
330
D4D
102
}
330
D4D
100
AcDbXrecord
280
     1
  1
AcDbDs::HandleAttributeSchema
  2
AcDbDs::HandleAttribute
280
     7
 91
        1
284
     1
  0
XRECORD
  5
D47
102
{ACAD_REACTORS
330
D4D
102
}
330
D4D
100
AcDbXrecord
280
     1
  1
AcDb_Thumbnail_Schema
102
{ATTRRECORD
341
D48
  2
AcDbDs::TreatedAsObjectData
280
     1
291
     1
102
ATTRRECORD}
102
{ATTRRECORD
341
D49
  2
AcDbDs::Legacy
280
     1
291
     1
102
ATTRRECORD}
  2
AcDbDs::ID
280
    10
 91
        8
102
{ATTRRECORD
341
D4A
  2
AcDs:Indexable
280
     1
291
     1
102
ATTRRECORD}
102
{ATTRRECORD
341
D4B
  2
AcDbDs::HandleAttribute
280
     7
282
     1
102
ATTRRECORD}
  2
Thumbnail_Data
280
    15
 91
        0
  0
XRECORD
  5
D84
102
{ACAD_REACTORS
330
6AA
102
}
330
6AA
100
AcDbXrecord
280
     1
102
DISPLAYNAME
  1
Metric50
102
FLAGS
 90
        0
  0
XRECORD
  5
5C1
102
{ACAD_REACTORS
330
5C0
102
}
330
5C0
100
AcDbXrecord
280
     1
102
MATERIAL
148
0.0
149
0.0
149
0.0
 93
        0
 94
      127
282
     0
 72
     1
 77
     1
171
     1
175
     1
179
     1
273
     0
  0
XRECORD
  5
5BF
102
{ACAD_REACTORS
330
5BE
102
}
330
5BE
100
AcDbXrecord
280
     1
102
MATERIAL
148
0.0
149
0.0
149
0.0
 93
        0
 94
      127
282
     0
 72
     1
 77
     1
171
     1
175
     1
179
     1
273
     0
  0
XRECORD
  5
5C3
102
{ACAD_REACTORS
330
5C2
102
}
330
5C2
100
AcDbXrecord
280
     1
102
MATERIAL
148
0.0
149
0.0
149
0.0
 93
        0
 94
      127
282
     0
 72
     1
 77
     1
171
     1
175
     1
179
     1
273
     0
  0
XRECORD
  5
D83
102
{ACAD_REACTORS
330
6A8
102
}
330
6A8
100
AcDbXrecord
280
     1
102
DISPLAYNAME
  1
Metric50
102
FLAGS
 90
        0
  0
CELLSTYLEMAP
  5
D45
102
{ACAD_REACTORS
330
659
102
}
330
659
100
AcDbCellStyleMap
 90
        3
300
CELLSTYLE
  1
TABLEFORMAT_BEGIN
 90
        5
170
     1
 91
        0
 92
    32768
 62
   257
 93
        1
300
CONTENTFORMAT
  1
CONTENTFORMAT_BEGIN
 90
        0
 91
        0
 92
      512
 93
        0
300

 40
0.0
140
1.0
 94
        5
 62
     0
340
11
144
6.0
309
CONTENTFORMAT_END
171
     1
301
MARGIN
  1
CELLMARGIN_BEGIN
 40
1.5
 40
1.5
 40
1.5
 40
1.5
 40
0.18
 40
0.18
309
CELLMARGIN_END
 94
        6
 95
        1
302
GRIDFORMAT
  1
GRIDFORMAT_BEGIN
 90
        0
 91
        1
 62
     0
 92
       -2
340
0
 93
        0
 40
1.125
309
GRIDFORMAT_END
 95
        2
302
GRIDFORMAT
  1
GRIDFORMAT_BEGIN
 90
        0
 91
        1
 62
     0
 92
       -2
340
0
 93
        0
 40
1.125
309
GRIDFORMAT_END
 95
        4
302
GRIDFORMAT
  1
GRIDFORMAT_BEGIN
 90
        0
 91
        1
 62
     0
 92
       -2
340
0
 93
        0
 40
1.125
309
GRIDFORMAT_END
 95
        8
302
GRIDFORMAT
  1
GRIDFORMAT_BEGIN
 90
        0
 91
        1
 62
     0
 92
       -2
340
0
 93
        0
 40
1.125
309
GRIDFORMAT_END
 95
       16
302
GRIDFORMAT
  1
GRIDFORMAT_BEGIN
 90
        0
 91
        1
 62
     0
 92
       -2
340
0
 93
        0
 40
1.125
309
GRIDFORMAT_END
 95
       32
302
GRIDFORMAT
  1
GRIDFORMAT_BEGIN
 90
        0
 91
        1
 62
     0
 92
       -2
340
0
 93
        0
 40
1.125
309
GRIDFORMAT_END
309
TABLEFORMAT_END
  1
CELLSTYLE_BEGIN
 90
        1
 91
        1
300
_TITLE
309
CELLSTYLE_END
300
CELLSTYLE
  1
TABLEFORMAT_BEGIN
 90
        5
170
     1
 91
        0
 92
        0
 62
   257
 93
        1
300
CONTENTFORMAT
  1
CONTENTFORMAT_BEGIN
 90
        0
 91
        0
 92
      512
 93
        0
300

 40
0.0
140
1.0
 94
        5
 62
     0
340
11
144
4.5
309
CONTENTFORMAT_END
171
     1
301
MARGIN
  1
CELLMARGIN_BEGIN
 40
1.5
 40
1.5
 40
1.5
 40
1.5
 40
0.18
 40
0.18
309
CELLMARGIN_END
 94
        6
 95
        1
302
GRIDFORMAT
  1
GRIDFORMAT_BEGIN
 90
        0
 91
        1
 62
     0
 92
       -2
340
0
 93
        0
 40
1.125
309
GRIDFORMAT_END
 95
        2
302
GRIDFORMAT
  1
GRIDFORMAT_BEGIN
 90
        0
 91
        1
 62
     0
 92
       -2
340
0
 93
        0
 40
1.125
309
GRIDFORMAT_END
 95
        4
302
GRIDFORMAT
  1
GRIDFORMAT_BEGIN
 90
        0
 91
        1
 62
     0
 92
       -2
340
0
 93
        0
 40
1.125
309
GRIDFORMAT_END
 95
        8
302
GRIDFORMAT
  1
GRIDFORMAT_BEGIN
 90
        0
 91
        1
 62
     0
 92
       -2
340
0
 93
        0
 40
1.125
309
GRIDFORMAT_END
 95
       16
302
GRIDFORMAT
  1
GRIDFORMAT_BEGIN
 90
        0
 91
        1
 62
     0
 92
       -2
340
0
 93
        0
 40
1.125
309
GRIDFORMAT_END
 95
       32
302
GRIDFORMAT
  1
GRIDFORMAT_BEGIN
 90
        0
 91
        1
 62
     0
 92
       -2
340
0
 93
        0
 40
1.125
309
GRIDFORMAT_END
309
TABLEFORMAT_END
  1
CELLSTYLE_BEGIN
 90
        2
 91
        1
300
_HEADER
309
CELLSTYLE_END
300
CELLSTYLE
  1
TABLEFORMAT_BEGIN
 90
        5
170
     1
 91
        0
 92
        0
 62
   257
 93
        1
300
CONTENTFORMAT
  1
CONTENTFORMAT_BEGIN
 90
        0
 91
        0
 92
      512
 93
        0
300

 40
0.0
140
1.0
 94
        2
 62
     0
340
11
144
4.5
309
CONTENTFORMAT_END
171
     1
301
MARGIN
  1
CELLMARGIN_BEGIN
 40
1.5
 40
1.5
 40
1.5
 40
1.5
 40
0.18
 40
0.18
309
CELLMARGIN_END
 94
        6
 95
        1
302
GRIDFORMAT
  1
GRIDFORMAT_BEGIN
 90
        0
 91
        1
 62
     0
 92
       -2
340
0
 93
        0
 40
1.125
309
GRIDFORMAT_END
 95
        2
302
GRIDFORMAT
  1
GRIDFORMAT_BEGIN
 90
        0
 91
        1
 62
     0
 92
       -2
340
0
 93
        0
 40
1.125
309
GRIDFORMAT_END
 95
        4
302
GRIDFORMAT
  1
GRIDFORMAT_BEGIN
 90
        0
 91
        1
 62
     0
 92
       -2
340
0
 93
        0
 40
1.125
309
GRIDFORMAT_END
 95
        8
302
GRIDFORMAT
  1
GRIDFORMAT_BEGIN
 90
        0
 91
        1
 62
     0
 92
       -2
340
0
 93
        0
 40
1.125
309
GRIDFORMAT_END
 95
       16
302
GRIDFORMAT
  1
GRIDFORMAT_BEGIN
 90
        0
 91
        1
 62
     0
 92
       -2
340
0
 93
        0
 40
1.125
309
GRIDFORMAT_END
 95
       32
302
GRIDFORMAT
  1
GRIDFORMAT_BEGIN
 90
        0
 91
        1
 62
     0
 92
       -2
340
0
 93
        0
 40
1.125
309
GRIDFORMAT_END
309
TABLEFORMAT_END
  1
CELLSTYLE_BEGIN
 90
        3
 91
        2
300
_DATA
309
CELLSTYLE_END
  0
XRECORD
  5
D58
102
{ACAD_REACTORS
330
D57
102
}
330
D57
100
AcDbXrecord
280
     1
102
RTVSPost2010Prop28
280
     1
102
RTVSPost2010PropOp28
 70
     1
102
RTVSPost2010Prop29
280
     1
102
RTVSPost2010PropOp29
 70
     1
102
RTVSPost2010Prop30
280
     0
102
RTVSPost2010PropOp30
 70
     1
102
RTVSPost2010Prop31
280
     0
102
RTVSPost2010PropOp31
 70
     1
102
RTVSPost2010Prop32
280
     0
102
RTVSPost2010PropOp32
 70
     1
102
RTVSPost2010Prop33
280
     0
102
RTVSPost2010PropOp33
 70
     1
102
RTVSPost2010Prop34
280
     0
102
RTVSPost2010PropOp34
 70
     1
102
RTVSPost2010Prop35
280
     0
102
RTVSPost2010PropOp35
 70
     1
102
RTVSPost2010Prop36
280
     0
102
RTVSPost2010PropOp36
 70
     1
102
RTVSPost2010Prop37
 90
       50
102
RTVSPost2010PropOp37
 70
     1
102
RTVSPost2010Prop38
140
0.0
102
RTVSPost2010PropOp38
 70
     1
102
RTVSPost2010Prop39
140
1.0
102
RTVSPost2010PropOp39
 70
     1
102
RTVSPost2010Prop40
 90
        0
102
RTVSPost2010PropOp40
 70
     1
102
RTVSPost2010Prop41ColorIndex
 90
       18
102
RTVSPost2010Prop41ColorRGB
 90
        0
102
RTVSPost2010PropOp41
 70
     1
102
RTVSPost2010Prop42
 90
       50
102
RTVSPost2010PropOp42
 70
     1
102
RTVSPost2010Prop43
 90
        3
102
RTVSPost2010PropOp43
 70
     1
102
RTVSPost2010Prop44ColorIndex
 90
        5
102
RTVSPost2010Prop44ColorRGB
 90
      255
102
RTVSPost2010PropOp44
 70
     1
102
RTVSPost2010Prop45
280
     0
102
RTVSPost2010PropOp45
 70
     1
102
RTVSPost2010Prop46
 90
       50
102
RTVSPost2010PropOp46
 70
     1
102
RTVSPost2010Prop47
 90
       50
102
RTVSPost2010PropOp47
 70
     1
102
RTVSPost2010Prop48
 90
       50
102
RTVSPost2010PropOp48
 70
     1
102
RTVSPost2010Prop49
280
     0
102
RTVSPost2010PropOp49
 70
     1
102
RTVSPost2010Prop50
 90
       50
102
RTVSPost2010PropOp50
 70
     1
102
RTVSPost2010Prop51ColorIndex
 90
      256
102
RTVSPost2010Prop51ColorRGB
 90
-16777216
102
RTVSPost2010PropOp51
 70
     0
102
RTVSPost2010Prop52
140
1.0
102
RTVSPost2010PropOp52
 70
     0
102
RTVSPost2010Prop53
 90
        2
102
RTVSPost2010PropOp53
 70
     1
102
RTVSPost2010Prop54
  1
strokes_ogs.tif
102
RTVSPost2010PropOp54
 70
     1
102
RTVSPost2010Prop55
280
     0
102
RTVSPost2010PropOp55
 70
     1
102
RTVSPost2010Prop56
140
1.0
102
RTVSPost2010PropOp56
 70
     1
102
RTVSPost2010Prop57
140
1.0
102
RTVSPost2010PropOp57
 70
     1
  0
XRECORD
  5
D5C
102
{ACAD_REACTORS
330
D5B
102
}
330
D5B
100
AcDbXrecord
280
     1
102
RTVSPost2010Prop28
280
     0
102
RTVSPost2010PropOp28
 70
     1
102
RTVSPost2010Prop29
280
     1
102
RTVSPost2010PropOp29
 70
     1
102
RTVSPost2010Prop30
280
     1
102
RTVSPost2010PropOp30
 70
     1
102
RTVSPost2010Prop31
280
     0
102
RTVSPost2010PropOp31
 70
     1
102
RTVSPost2010Prop32
280
     0
102
RTVSPost2010PropOp32
 70
     1
102
RTVSPost2010Prop33
280
     0
102
RTVSPost2010PropOp33
 70
     1
102
RTVSPost2010Prop34
280
     0
102
RTVSPost2010PropOp34
 70
     1
102
RTVSPost2010Prop35
280
     0
102
RTVSPost2010PropOp35
 70
     1
102
RTVSPost2010Prop36
280
     0
102
RTVSPost2010PropOp36
 70
     1
102
RTVSPost2010Prop37
 90
       50
102
RTVSPost2010PropOp37
 70
     1
102
RTVSPost2010Prop38
140
0.0
102
RTVSPost2010PropOp38
 70
     1
102
RTVSPost2010Prop39
140
1.0
102
RTVSPost2010PropOp39
 70
     1
102
RTVSPost2010Prop40
 90
        0
102
RTVSPost2010PropOp40
 70
     1
102
RTVSPost2010Prop41ColorIndex
 90
       18
102
RTVSPost2010Prop41ColorRGB
 90
        0
102
RTVSPost2010PropOp41
 70
     1
102
RTVSPost2010Prop42
 90
       50
102
RTVSPost2010PropOp42
 70
     1
102
RTVSPost2010Prop43
 90
        3
102
RTVSPost2010PropOp43
 70
     1
102
RTVSPost2010Prop44ColorIndex
 90
        5
102
RTVSPost2010Prop44ColorRGB
 90
      255
102
RTVSPost2010PropOp44
 70
     1
102
RTVSPost2010Prop45
280
     0
102
RTVSPost2010PropOp45
 70
     1
102
RTVSPost2010Prop46
 90
       50
102
RTVSPost2010PropOp46
 70
     1
102
RTVSPost2010Prop47
 90
       50
102
RTVSPost2010PropOp47
 70
     1
102
RTVSPost2010Prop48
 90
       50
102
RTVSPost2010PropOp48
 70
     1
102
RTVSPost2010Prop49
280
     0
102
RTVSPost2010PropOp49
 70
     1
102
RTVSPost2010Prop50
 90
       50
102
RTVSPost2010PropOp50
 70
     1
102
RTVSPost2010Prop51ColorIndex
 90
      256
102
RTVSPost2010Prop51ColorRGB
 90
-16777216
102
RTVSPost2010PropOp51
 70
     0
102
RTVSPost2010Prop52
140
1.0
102
RTVSPost2010PropOp52
 70
     0
102
RTVSPost2010Prop53
 90
        2
102
RTVSPost2010PropOp53
 70
     1
102
RTVSPost2010Prop54
  1
strokes_ogs.tif
102
RTVSPost2010PropOp54
 70
     1
102
RTVSPost2010Prop55
280
     0
102
RTVSPost2010PropOp55
 70
     1
102
RTVSPost2010Prop56
140
1.0
102
RTVSPost2010PropOp56
 70
     1
102
RTVSPost2010Prop57
140
1.0
102
RTVSPost2010PropOp57
 70
     1
  0
XRECORD
  5
D5A
102
{ACAD_REACTORS
330
D59
102
}
330
D59
100
AcDbXrecord
280
     1
102
RTVSPost2010Prop28
280
     0
102
RTVSPost2010PropOp28
 70
     1
102
RTVSPost2010Prop29
280
     1
102
RTVSPost2010PropOp29
 70
     1
102
RTVSPost2010Prop30
280
     1
102
RTVSPost2010PropOp30
 70
     1
102
RTVSPost2010Prop31
280
     0
102
RTVSPost2010PropOp31
 70
     1
102
RTVSPost2010Prop32
280
     0
102
RTVSPost2010PropOp32
 70
     1
102
RTVSPost2010Prop33
280
     0
102
RTVSPost2010PropOp33
 70
     1
102
RTVSPost2010Prop34
280
     0
102
RTVSPost2010PropOp34
 70
     1
102
RTVSPost2010Prop35
280
     0
102
RTVSPost2010PropOp35
 70
     1
102
RTVSPost2010Prop36
280
     0
102
RTVSPost2010PropOp36
 70
     1
102
RTVSPost2010Prop37
 90
       50
102
RTVSPost2010PropOp37
 70
     1
102
RTVSPost2010Prop38
140
0.0
102
RTVSPost2010PropOp38
 70
     1
102
RTVSPost2010Prop39
140
1.0
102
RTVSPost2010PropOp39
 70
     1
102
RTVSPost2010Prop40
 90
        0
102
RTVSPost2010PropOp40
 70
     1
102
RTVSPost2010Prop41ColorIndex
 90
       18
102
RTVSPost2010Prop41ColorRGB
 90
        0
102
RTVSPost2010PropOp41
 70
     1
102
RTVSPost2010Prop42
 90
       50
102
RTVSPost2010PropOp42
 70
     1
102
RTVSPost2010Prop43
 90
        3
102
RTVSPost2010PropOp43
 70
     1
102
RTVSPost2010Prop44ColorIndex
 90
        5
102
RTVSPost2010Prop44ColorRGB
 90
      255
102
RTVSPost2010PropOp44
 70
     1
102
RTVSPost2010Prop45
280
     0
102
RTVSPost2010PropOp45
 70
     1
102
RTVSPost2010Prop46
 90
       50
102
RTVSPost2010PropOp46
 70
     1
102
RTVSPost2010Prop47
 90
       50
102
RTVSPost2010PropOp47
 70
     1
102
RTVSPost2010Prop48
 90
       50
102
RTVSPost2010PropOp48
 70
     1
102
RTVSPost2010Prop49
280
     0
102
RTVSPost2010PropOp49
 70
     1
102
RTVSPost2010Prop50
 90
       50
102
RTVSPost2010PropOp50
 70
     1
102
RTVSPost2010Prop51ColorIndex
 90
      256
102
RTVSPost2010Prop51ColorRGB
 90
-16777216
102
RTVSPost2010PropOp51
 70
     0
102
RTVSPost2010Prop52
140
1.0
102
RTVSPost2010PropOp52
 70
     0
102
RTVSPost2010Prop53
 90
        2
102
RTVSPost2010PropOp53
 70
     1
102
RTVSPost2010Prop54
  1
strokes_ogs.tif
102
RTVSPost2010PropOp54
 70
     1
102
RTVSPost2010Prop55
280
     0
102
RTVSPost2010PropOp55
 70
     1
102
RTVSPost2010Prop56
140
1.0
102
RTVSPost2010PropOp56
 70
     1
102
RTVSPost2010Prop57
140
1.0
102
RTVSPost2010PropOp57
 70
     1
  0
XRECORD
  5
D5E
102
{ACAD_REACTORS
330
D5D
102
}
330
D5D
100
AcDbXrecord
280
     1
102
RTVSPost2010Prop28
280
     0
102
RTVSPost2010PropOp28
 70
     1
102
RTVSPost2010Prop29
280
     1
102
RTVSPost2010PropOp29
 70
     1
102
RTVSPost2010Prop30
280
     1
102
RTVSPost2010PropOp30
 70
     1
102
RTVSPost2010Prop31
280
     0
102
RTVSPost2010PropOp31
 70
     1
102
RTVSPost2010Prop32
280
     0
102
RTVSPost2010PropOp32
 70
     1
102
RTVSPost2010Prop33
280
     0
102
RTVSPost2010PropOp33
 70
     1
102
RTVSPost2010Prop34
280
     0
102
RTVSPost2010PropOp34
 70
     1
102
RTVSPost2010Prop35
280
     0
102
RTVSPost2010PropOp35
 70
     1
102
RTVSPost2010Prop36
280
     0
102
RTVSPost2010PropOp36
 70
     1
102
RTVSPost2010Prop37
 90
       50
102
RTVSPost2010PropOp37
 70
     1
102
RTVSPost2010Prop38
140
0.0
102
RTVSPost2010PropOp38
 70
     1
102
RTVSPost2010Prop39
140
1.0
102
RTVSPost2010PropOp39
 70
     1
102
RTVSPost2010Prop40
 90
        0
102
RTVSPost2010PropOp40
 70
     1
102
RTVSPost2010Prop41ColorIndex
 90
       18
102
RTVSPost2010Prop41ColorRGB
 90
        0
102
RTVSPost2010PropOp41
 70
     1
102
RTVSPost2010Prop42
 90
       50
102
RTVSPost2010PropOp42
 70
     1
102
RTVSPost2010Prop43
 90
        3
102
RTVSPost2010PropOp43
 70
     1
102
RTVSPost2010Prop44ColorIndex
 90
        5
102
RTVSPost2010Prop44ColorRGB
 90
      255
102
RTVSPost2010PropOp44
 70
     1
102
RTVSPost2010Prop45
280
     0
102
RTVSPost2010PropOp45
 70
     1
102
RTVSPost2010Prop46
 90
       50
102
RTVSPost2010PropOp46
 70
     1
102
RTVSPost2010Prop47
 90
       50
102
RTVSPost2010PropOp47
 70
     1
102
RTVSPost2010Prop48
 90
       50
102
RTVSPost2010PropOp48
 70
     1
102
RTVSPost2010Prop49
280
     0
102
RTVSPost2010PropOp49
 70
     1
102
RTVSPost2010Prop50
 90
       50
102
RTVSPost2010PropOp50
 70
     1
102
RTVSPost2010Prop51ColorIndex
 90
      256
102
RTVSPost2010Prop51ColorRGB
 90
-16777216
102
RTVSPost2010PropOp51
 70
     0
102
RTVSPost2010Prop52
140
1.0
102
RTVSPost2010PropOp52
 70
     0
102
RTVSPost2010Prop53
 90
        2
102
RTVSPost2010PropOp53
 70
     1
102
RTVSPost2010Prop54
  1
strokes_ogs.tif
102
RTVSPost2010PropOp54
 70
     1
102
RTVSPost2010Prop55
280
     0
102
RTVSPost2010PropOp55
 70
     1
102
RTVSPost2010Prop56
140
1.0
102
RTVSPost2010PropOp56
 70
     1
102
RTVSPost2010Prop57
140
1.0
102
RTVSPost2010PropOp57
 70
     1
  0
XRECORD
  5
D66
102
{ACAD_REACTORS
330
D65
102
}
330
D65
100
AcDbXrecord
280
     1
102
RTVSPost2010Prop28
280
     0
102
RTVSPost2010PropOp28
 70
     1
102
RTVSPost2010Prop29
280
     1
102
RTVSPost2010PropOp29
 70
     1
102
RTVSPost2010Prop30
280
     1
102
RTVSPost2010PropOp30
 70
     1
102
RTVSPost2010Prop31
280
     0
102
RTVSPost2010PropOp31
 70
     1
102
RTVSPost2010Prop32
280
     0
102
RTVSPost2010PropOp32
 70
     1
102
RTVSPost2010Prop33
280
     0
102
RTVSPost2010PropOp33
 70
     1
102
RTVSPost2010Prop34
280
     0
102
RTVSPost2010PropOp34
 70
     1
102
RTVSPost2010Prop35
280
     0
102
RTVSPost2010PropOp35
 70
     1
102
RTVSPost2010Prop36
280
     0
102
RTVSPost2010PropOp36
 70
     1
102
RTVSPost2010Prop37
 90
       50
102
RTVSPost2010PropOp37
 70
     1
102
RTVSPost2010Prop38
140
0.0
102
RTVSPost2010PropOp38
 70
     1
102
RTVSPost2010Prop39
140
1.0
102
RTVSPost2010PropOp39
 70
     1
102
RTVSPost2010Prop40
 90
        0
102
RTVSPost2010PropOp40
 70
     1
102
RTVSPost2010Prop41ColorIndex
 90
       18
102
RTVSPost2010Prop41ColorRGB
 90
        0
102
RTVSPost2010PropOp41
 70
     1
102
RTVSPost2010Prop42
 90
       50
102
RTVSPost2010PropOp42
 70
     1
102
RTVSPost2010Prop43
 90
        3
102
RTVSPost2010PropOp43
 70
     1
102
RTVSPost2010Prop44ColorIndex
 90
        5
102
RTVSPost2010Prop44ColorRGB
 90
      255
102
RTVSPost2010PropOp44
 70
     1
102
RTVSPost2010Prop45
280
     0
102
RTVSPost2010PropOp45
 70
     1
102
RTVSPost2010Prop46
 90
       50
102
RTVSPost2010PropOp46
 70
     1
102
RTVSPost2010Prop47
 90
       50
102
RTVSPost2010PropOp47
 70
     1
102
RTVSPost2010Prop48
 90
       50
102
RTVSPost2010PropOp48
 70
     1
102
RTVSPost2010Prop49
280
     0
102
RTVSPost2010PropOp49
 70
     1
102
RTVSPost2010Prop50
 90
       50
102
RTVSPost2010PropOp50
 70
     1
102
RTVSPost2010Prop51ColorIndex
 90
      256
102
RTVSPost2010Prop51ColorRGB
 90
-16777216
102
RTVSPost2010PropOp51
 70
     0
102
RTVSPost2010Prop52
140
1.0
102
RTVSPost2010PropOp52
 70
     0
102
RTVSPost2010Prop53
 90
        2
102
RTVSPost2010PropOp53
 70
     1
102
RTVSPost2010Prop54
  1
strokes_ogs.tif
102
RTVSPost2010PropOp54
 70
     1
102
RTVSPost2010Prop55
280
     0
102
RTVSPost2010PropOp55
 70
     1
102
RTVSPost2010Prop56
140
1.0
102
RTVSPost2010PropOp56
 70
     1
102
RTVSPost2010Prop57
140
1.0
102
RTVSPost2010PropOp57
 70
     1
  0
XRECORD
  5
D6E
102
{ACAD_REACTORS
330
D6D
102
}
330
D6D
100
AcDbXrecord
280
     1
102
RTVSPost2010Prop28
280
     0
102
RTVSPost2010PropOp28
 70
     1
102
RTVSPost2010Prop29
280
     1
102
RTVSPost2010PropOp29
 70
     1
102
RTVSPost2010Prop30
280
     1
102
RTVSPost2010PropOp30
 70
     1
102
RTVSPost2010Prop31
280
     0
102
RTVSPost2010PropOp31
 70
     1
102
RTVSPost2010Prop32
280
     0
102
RTVSPost2010PropOp32
 70
     1
102
RTVSPost2010Prop33
280
     0
102
RTVSPost2010PropOp33
 70
     1
102
RTVSPost2010Prop34
280
     0
102
RTVSPost2010PropOp34
 70
     1
102
RTVSPost2010Prop35
280
     0
102
RTVSPost2010PropOp35
 70
     1
102
RTVSPost2010Prop36
280
     0
102
RTVSPost2010PropOp36
 70
     1
102
RTVSPost2010Prop37
 90
       50
102
RTVSPost2010PropOp37
 70
     1
102
RTVSPost2010Prop38
140
0.0
102
RTVSPost2010PropOp38
 70
     1
102
RTVSPost2010Prop39
140
1.0
102
RTVSPost2010PropOp39
 70
     1
102
RTVSPost2010Prop40
 90
        0
102
RTVSPost2010PropOp40
 70
     1
102
RTVSPost2010Prop41ColorIndex
 90
       18
102
RTVSPost2010Prop41ColorRGB
 90
        0
102
RTVSPost2010PropOp41
 70
     1
102
RTVSPost2010Prop42
 90
       50
102
RTVSPost2010PropOp42
 70
     1
102
RTVSPost2010Prop43
 90
        3
102
RTVSPost2010PropOp43
 70
     1
102
RTVSPost2010Prop44ColorIndex
 90
        5
102
RTVSPost2010Prop44ColorRGB
 90
      255
102
RTVSPost2010PropOp44
 70
     1
102
RTVSPost2010Prop45
280
     0
102
RTVSPost2010PropOp45
 70
     1
102
RTVSPost2010Prop46
 90
       50
102
RTVSPost2010PropOp46
 70
     1
102
RTVSPost2010Prop47
 90
       50
102
RTVSPost2010PropOp47
 70
     1
102
RTVSPost2010Prop48
 90
       50
102
RTVSPost2010PropOp48
 70
     1
102
RTVSPost2010Prop49
280
     0
102
RTVSPost2010PropOp49
 70
     1
102
RTVSPost2010Prop50
 90
       50
102
RTVSPost2010PropOp50
 70
     1
102
RTVSPost2010Prop51ColorIndex
 90
      256
102
RTVSPost2010Prop51ColorRGB
 90
-16777216
102
RTVSPost2010PropOp51
 70
     0
102
RTVSPost2010Prop52
140
1.0
102
RTVSPost2010PropOp52
 70
     0
102
RTVSPost2010Prop53
 90
        2
102
RTVSPost2010PropOp53
 70
     1
102
RTVSPost2010Prop54
  1
strokes_ogs.tif
102
RTVSPost2010PropOp54
 70
     1
102
RTVSPost2010Prop55
280
     0
102
RTVSPost2010PropOp55
 70
     1
102
RTVSPost2010Prop56
140
1.0
102
RTVSPost2010PropOp56
 70
     1
102
RTVSPost2010Prop57
140
1.0
102
RTVSPost2010PropOp57
 70
     1
  0
XRECORD
  5
D62
102
{ACAD_REACTORS
330
D61
102
}
330
D61
100
AcDbXrecord
280
     1
102
RTVSPost2010Prop28
280
     0
102
RTVSPost2010PropOp28
 70
     1
102
RTVSPost2010Prop29
280
     1
102
RTVSPost2010PropOp29
 70
     1
102
RTVSPost2010Prop30
280
     1
102
RTVSPost2010PropOp30
 70
     1
102
RTVSPost2010Prop31
280
     0
102
RTVSPost2010PropOp31
 70
     1
102
RTVSPost2010Prop32
280
     0
102
RTVSPost2010PropOp32
 70
     1
102
RTVSPost2010Prop33
280
     0
102
RTVSPost2010PropOp33
 70
     1
102
RTVSPost2010Prop34
280
     0
102
RTVSPost2010PropOp34
 70
     1
102
RTVSPost2010Prop35
280
     0
102
RTVSPost2010PropOp35
 70
     1
102
RTVSPost2010Prop36
280
     0
102
RTVSPost2010PropOp36
 70
     1
102
RTVSPost2010Prop37
 90
       50
102
RTVSPost2010PropOp37
 70
     1
102
RTVSPost2010Prop38
140
0.0
102
RTVSPost2010PropOp38
 70
     1
102
RTVSPost2010Prop39
140
1.0
102
RTVSPost2010PropOp39
 70
     1
102
RTVSPost2010Prop40
 90
        0
102
RTVSPost2010PropOp40
 70
     1
102
RTVSPost2010Prop41ColorIndex
 90
       18
102
RTVSPost2010Prop41ColorRGB
 90
        0
102
RTVSPost2010PropOp41
 70
     1
102
RTVSPost2010Prop42
 90
       50
102
RTVSPost2010PropOp42
 70
     1
102
RTVSPost2010Prop43
 90
        3
102
RTVSPost2010PropOp43
 70
     1
102
RTVSPost2010Prop44ColorIndex
 90
        5
102
RTVSPost2010Prop44ColorRGB
 90
      255
102
RTVSPost2010PropOp44
 70
     1
102
RTVSPost2010Prop45
280
     0
102
RTVSPost2010PropOp45
 70
     1
102
RTVSPost2010Prop46
 90
       50
102
RTVSPost2010PropOp46
 70
     1
102
RTVSPost2010Prop47
 90
       50
102
RTVSPost2010PropOp47
 70
     1
102
RTVSPost2010Prop48
 90
       50
102
RTVSPost2010PropOp48
 70
     1
102
RTVSPost2010Prop49
280
     0
102
RTVSPost2010PropOp49
 70
     1
102
RTVSPost2010Prop50
 90
       50
102
RTVSPost2010PropOp50
 70
     1
102
RTVSPost2010Prop51ColorIndex
 90
      256
102
RTVSPost2010Prop51ColorRGB
 90
-16777216
102
RTVSPost2010PropOp51
 70
     0
102
RTVSPost2010Prop52
140
1.0
102
RTVSPost2010PropOp52
 70
     0
102
RTVSPost2010Prop53
 90
        2
102
RTVSPost2010PropOp53
 70
     1
102
RTVSPost2010Prop54
  1
strokes_ogs.tif
102
RTVSPost2010PropOp54
 70
     1
102
RTVSPost2010Prop55
280
     0
102
RTVSPost2010PropOp55
 70
     1
102
RTVSPost2010Prop56
140
1.0
102
RTVSPost2010PropOp56
 70
     1
102
RTVSPost2010Prop57
140
1.0
102
RTVSPost2010PropOp57
 70
     1
  0
XRECORD
  5
D64
102
{ACAD_REACTORS
330
D63
102
}
330
D63
100
AcDbXrecord
280
     1
102
RTVSPost2010Prop28
280
     0
102
RTVSPost2010PropOp28
 70
     1
102
RTVSPost2010Prop29
280
     1
102
RTVSPost2010PropOp29
 70
     1
102
RTVSPost2010Prop30
280
     1
102
RTVSPost2010PropOp30
 70
     1
102
RTVSPost2010Prop31
280
     0
102
RTVSPost2010PropOp31
 70
     1
102
RTVSPost2010Prop32
280
     0
102
RTVSPost2010PropOp32
 70
     1
102
RTVSPost2010Prop33
280
     0
102
RTVSPost2010PropOp33
 70
     1
102
RTVSPost2010Prop34
280
     0
102
RTVSPost2010PropOp34
 70
     1
102
RTVSPost2010Prop35
280
     0
102
RTVSPost2010PropOp35
 70
     1
102
RTVSPost2010Prop36
280
     0
102
RTVSPost2010PropOp36
 70
     1
102
RTVSPost2010Prop37
 90
       50
102
RTVSPost2010PropOp37
 70
     1
102
RTVSPost2010Prop38
140
0.0
102
RTVSPost2010PropOp38
 70
     1
102
RTVSPost2010Prop39
140
1.0
102
RTVSPost2010PropOp39
 70
     1
102
RTVSPost2010Prop40
 90
        0
102
RTVSPost2010PropOp40
 70
     1
102
RTVSPost2010Prop41ColorIndex
 90
       18
102
RTVSPost2010Prop41ColorRGB
 90
        0
102
RTVSPost2010PropOp41
 70
     1
102
RTVSPost2010Prop42
 90
       50
102
RTVSPost2010PropOp42
 70
     1
102
RTVSPost2010Prop43
 90
        3
102
RTVSPost2010PropOp43
 70
     1
102
RTVSPost2010Prop44ColorIndex
 90
        5
102
RTVSPost2010Prop44ColorRGB
 90
      255
102
RTVSPost2010PropOp44
 70
     1
102
RTVSPost2010Prop45
280
     0
102
RTVSPost2010PropOp45
 70
     1
102
RTVSPost2010Prop46
 90
       50
102
RTVSPost2010PropOp46
 70
     1
102
RTVSPost2010Prop47
 90
       50
102
RTVSPost2010PropOp47
 70
     1
102
RTVSPost2010Prop48
 90
       50
102
RTVSPost2010PropOp48
 70
     1
102
RTVSPost2010Prop49
280
     0
102
RTVSPost2010PropOp49
 70
     1
102
RTVSPost2010Prop50
 90
       50
102
RTVSPost2010PropOp50
 70
     1
102
RTVSPost2010Prop51ColorIndex
 90
      256
102
RTVSPost2010Prop51ColorRGB
 90
-16777216
102
RTVSPost2010PropOp51
 70
     0
102
RTVSPost2010Prop52
140
1.0
102
RTVSPost2010PropOp52
 70
     0
102
RTVSPost2010Prop53
 90
        2
102
RTVSPost2010PropOp53
 70
     1
102
RTVSPost2010Prop54
  1
strokes_ogs.tif
102
RTVSPost2010PropOp54
 70
     1
102
RTVSPost2010Prop55
280
     0
102
RTVSPost2010PropOp55
 70
     1
102
RTVSPost2010Prop56
140
1.0
102
RTVSPost2010PropOp56
 70
     1
102
RTVSPost2010Prop57
140
1.0
102
RTVSPost2010PropOp57
 70
     1
  0
XRECORD
  5
D82
102
{ACAD_REACTORS
330
D81
102
}
330
D81
100
AcDbXrecord
280
     1
102
RTVSPost2010Prop28
280
     0
102
RTVSPost2010PropOp28
 70
     1
102
RTVSPost2010Prop29
280
     1
102
RTVSPost2010PropOp29
 70
     1
102
RTVSPost2010Prop30
280
     1
102
RTVSPost2010PropOp30
 70
     1
102
RTVSPost2010Prop31
280
     0
102
RTVSPost2010PropOp31
 70
     1
102
RTVSPost2010Prop32
280
     0
102
RTVSPost2010PropOp32
 70
     1
102
RTVSPost2010Prop33
280
     0
102
RTVSPost2010PropOp33
 70
     1
102
RTVSPost2010Prop34
280
     0
102
RTVSPost2010PropOp34
 70
     1
102
RTVSPost2010Prop35
280
     0
102
RTVSPost2010PropOp35
 70
     1
102
RTVSPost2010Prop36
280
     0
102
RTVSPost2010PropOp36
 70
     1
102
RTVSPost2010Prop37
 90
       50
102
RTVSPost2010PropOp37
 70
     0
102
RTVSPost2010Prop38
140
0.0
102
RTVSPost2010PropOp38
 70
     0
102
RTVSPost2010Prop39
140
1.0
102
RTVSPost2010PropOp39
 70
     0
102
RTVSPost2010Prop40
 90
        0
102
RTVSPost2010PropOp40
 70
     0
102
RTVSPost2010Prop41ColorIndex
 90
       18
102
RTVSPost2010Prop41ColorRGB
 90
        0
102
RTVSPost2010PropOp41
 70
     0
102
RTVSPost2010Prop42
 90
       50
102
RTVSPost2010PropOp42
 70
     0
102
RTVSPost2010Prop43
 90
        3
102
RTVSPost2010PropOp43
 70
     0
102
RTVSPost2010Prop44ColorIndex
 90
        5
102
RTVSPost2010Prop44ColorRGB
 90
      255
102
RTVSPost2010PropOp44
 70
     0
102
RTVSPost2010Prop45
280
     0
102
RTVSPost2010PropOp45
 70
     1
102
RTVSPost2010Prop46
 90
       50
102
RTVSPost2010PropOp46
 70
     0
102
RTVSPost2010Prop47
 90
       50
102
RTVSPost2010PropOp47
 70
     0
102
RTVSPost2010Prop48
 90
       50
102
RTVSPost2010PropOp48
 70
     0
102
RTVSPost2010Prop49
280
     0
102
RTVSPost2010PropOp49
 70
     1
102
RTVSPost2010Prop50
 90
       50
102
RTVSPost2010PropOp50
 70
     0
102
RTVSPost2010Prop51ColorIndex
 90
      256
102
RTVSPost2010Prop51ColorRGB
 90
-16777216
102
RTVSPost2010PropOp51
 70
     0
102
RTVSPost2010Prop52
140
1.0
102
RTVSPost2010PropOp52
 70
     0
102
RTVSPost2010Prop53
 90
        2
102
RTVSPost2010PropOp53
 70
     0
102
RTVSPost2010Prop54
  1
strokes_ogs.tif
102
RTVSPost2010PropOp54
 70
     0
102
RTVSPost2010Prop55
280
     0
102
RTVSPost2010PropOp55
 70
     1
102
RTVSPost2010Prop56
140
1.0
102
RTVSPost2010PropOp56
 70
     0
102
RTVSPost2010Prop57
140
1.0
102
RTVSPost2010PropOp57
 70
     0
  0
XRECORD
  5
D6C
102
{ACAD_REACTORS
330
D6B
102
}
330
D6B
100
AcDbXrecord
280
     1
102
RTVSPost2010Prop28
280
     0
102
RTVSPost2010PropOp28
 70
     1
102
RTVSPost2010Prop29
280
     1
102
RTVSPost2010PropOp29
 70
     1
102
RTVSPost2010Prop30
280
     1
102
RTVSPost2010PropOp30
 70
     1
102
RTVSPost2010Prop31
280
     0
102
RTVSPost2010PropOp31
 70
     1
102
RTVSPost2010Prop32
280
     0
102
RTVSPost2010PropOp32
 70
     1
102
RTVSPost2010Prop33
280
     0
102
RTVSPost2010PropOp33
 70
     1
102
RTVSPost2010Prop34
280
     0
102
RTVSPost2010PropOp34
 70
     1
102
RTVSPost2010Prop35
280
     0
102
RTVSPost2010PropOp35
 70
     1
102
RTVSPost2010Prop36
280
     0
102
RTVSPost2010PropOp36
 70
     1
102
RTVSPost2010Prop37
 90
       50
102
RTVSPost2010PropOp37
 70
     1
102
RTVSPost2010Prop38
140
0.0
102
RTVSPost2010PropOp38
 70
     1
102
RTVSPost2010Prop39
140
1.0
102
RTVSPost2010PropOp39
 70
     1
102
RTVSPost2010Prop40
 90
        0
102
RTVSPost2010PropOp40
 70
     1
102
RTVSPost2010Prop41ColorIndex
 90
       18
102
RTVSPost2010Prop41ColorRGB
 90
        0
102
RTVSPost2010PropOp41
 70
     1
102
RTVSPost2010Prop42
 90
       50
102
RTVSPost2010PropOp42
 70
     1
102
RTVSPost2010Prop43
 90
        3
102
RTVSPost2010PropOp43
 70
     1
102
RTVSPost2010Prop44ColorIndex
 90
        5
102
RTVSPost2010Prop44ColorRGB
 90
      255
102
RTVSPost2010PropOp44
 70
     1
102
RTVSPost2010Prop45
280
     0
102
RTVSPost2010PropOp45
 70
     1
102
RTVSPost2010Prop46
 90
       50
102
RTVSPost2010PropOp46
 70
     1
102
RTVSPost2010Prop47
 90
       50
102
RTVSPost2010PropOp47
 70
     1
102
RTVSPost2010Prop48
 90
       50
102
RTVSPost2010PropOp48
 70
     1
102
RTVSPost2010Prop49
280
     0
102
RTVSPost2010PropOp49
 70
     1
102
RTVSPost2010Prop50
 90
       50
102
RTVSPost2010PropOp50
 70
     1
102
RTVSPost2010Prop51ColorIndex
 90
      256
102
RTVSPost2010Prop51ColorRGB
 90
-16777216
102
RTVSPost2010PropOp51
 70
     0
102
RTVSPost2010Prop52
140
1.0
102
RTVSPost2010PropOp52
 70
     0
102
RTVSPost2010Prop53
 90
        2
102
RTVSPost2010PropOp53
 70
     1
102
RTVSPost2010Prop54
  1
strokes_ogs.tif
102
RTVSPost2010PropOp54
 70
     1
102
RTVSPost2010Prop55
280
     0
102
RTVSPost2010PropOp55
 70
     1
102
RTVSPost2010Prop56
140
1.0
102
RTVSPost2010PropOp56
 70
     1
102
RTVSPost2010Prop57
140
1.0
102
RTVSPost2010PropOp57
 70
     1
  0
XRECORD
  5
D50
102
{ACAD_REACTORS
330
D4F
102
}
330
D4F
100
AcDbXrecord
280
     1
102
RTVSPost2010Prop28
280
     0
102
RTVSPost2010PropOp28
 70
     1
102
RTVSPost2010Prop29
280
     1
102
RTVSPost2010PropOp29
 70
     1
102
RTVSPost2010Prop30
280
     1
102
RTVSPost2010PropOp30
 70
     1
102
RTVSPost2010Prop31
280
     0
102
RTVSPost2010PropOp31
 70
     1
102
RTVSPost2010Prop32
280
     0
102
RTVSPost2010PropOp32
 70
     1
102
RTVSPost2010Prop33
280
     0
102
RTVSPost2010PropOp33
 70
     1
102
RTVSPost2010Prop34
280
     0
102
RTVSPost2010PropOp34
 70
     1
102
RTVSPost2010Prop35
280
     0
102
RTVSPost2010PropOp35
 70
     1
102
RTVSPost2010Prop36
280
     0
102
RTVSPost2010PropOp36
 70
     1
102
RTVSPost2010Prop37
 90
       50
102
RTVSPost2010PropOp37
 70
     1
102
RTVSPost2010Prop38
140
0.0
102
RTVSPost2010PropOp38
 70
     1
102
RTVSPost2010Prop39
140
1.0
102
RTVSPost2010PropOp39
 70
     1
102
RTVSPost2010Prop40
 90
        0
102
RTVSPost2010PropOp40
 70
     1
102
RTVSPost2010Prop41ColorIndex
 90
       18
102
RTVSPost2010Prop41ColorRGB
 90
        0
102
RTVSPost2010PropOp41
 70
     1
102
RTVSPost2010Prop42
 90
       50
102
RTVSPost2010PropOp42
 70
     1
102
RTVSPost2010Prop43
 90
        3
102
RTVSPost2010PropOp43
 70
     1
102
RTVSPost2010Prop44ColorIndex
 90
        5
102
RTVSPost2010Prop44ColorRGB
 90
      255
102
RTVSPost2010PropOp44
 70
     1
102
RTVSPost2010Prop45
280
     0
102
RTVSPost2010PropOp45
 70
     1
102
RTVSPost2010Prop46
 90
       50
102
RTVSPost2010PropOp46
 70
     1
102
RTVSPost2010Prop47
 90
       50
102
RTVSPost2010PropOp47
 70
     1
102
RTVSPost2010Prop48
 90
       50
102
RTVSPost2010PropOp48
 70
     1
102
RTVSPost2010Prop49
280
     0
102
RTVSPost2010PropOp49
 70
     1
102
RTVSPost2010Prop50
 90
       50
102
RTVSPost2010PropOp50
 70
     1
102
RTVSPost2010Prop51ColorIndex
 90
      256
102
RTVSPost2010Prop51ColorRGB
 90
-16777216
102
RTVSPost2010PropOp51
 70
     0
102
RTVSPost2010Prop52
140
1.0
102
RTVSPost2010PropOp52
 70
     0
102
RTVSPost2010Prop53
 90
        2
102
RTVSPost2010PropOp53
 70
     1
102
RTVSPost2010Prop54
  1
strokes_ogs.tif
102
RTVSPost2010PropOp54
 70
     1
102
RTVSPost2010Prop55
280
     0
102
RTVSPost2010PropOp55
 70
     1
102
RTVSPost2010Prop56
140
1.0
102
RTVSPost2010PropOp56
 70
     1
102
RTVSPost2010Prop57
140
1.0
102
RTVSPost2010PropOp57
 70
     1
  0
XRECORD
  5
D52
102
{ACAD_REACTORS
330
D51
102
}
330
D51
100
AcDbXrecord
280
     1
102
RTVSPost2010Prop28
280
     0
102
RTVSPost2010PropOp28
 70
     1
102
RTVSPost2010Prop29
280
     1
102
RTVSPost2010PropOp29
 70
     1
102
RTVSPost2010Prop30
280
     1
102
RTVSPost2010PropOp30
 70
     1
102
RTVSPost2010Prop31
280
     0
102
RTVSPost2010PropOp31
 70
     1
102
RTVSPost2010Prop32
280
     0
102
RTVSPost2010PropOp32
 70
     1
102
RTVSPost2010Prop33
280
     0
102
RTVSPost2010PropOp33
 70
     1
102
RTVSPost2010Prop34
280
     0
102
RTVSPost2010PropOp34
 70
     1
102
RTVSPost2010Prop35
280
     0
102
RTVSPost2010PropOp35
 70
     1
102
RTVSPost2010Prop36
280
     0
102
RTVSPost2010PropOp36
 70
     1
102
RTVSPost2010Prop37
 90
       50
102
RTVSPost2010PropOp37
 70
     1
102
RTVSPost2010Prop38
140
0.0
102
RTVSPost2010PropOp38
 70
     1
102
RTVSPost2010Prop39
140
1.0
102
RTVSPost2010PropOp39
 70
     1
102
RTVSPost2010Prop40
 90
        0
102
RTVSPost2010PropOp40
 70
     1
102
RTVSPost2010Prop41ColorIndex
 90
       18
102
RTVSPost2010Prop41ColorRGB
 90
        0
102
RTVSPost2010PropOp41
 70
     1
102
RTVSPost2010Prop42
 90
       50
102
RTVSPost2010PropOp42
 70
     1
102
RTVSPost2010Prop43
 90
        3
102
RTVSPost2010PropOp43
 70
     1
102
RTVSPost2010Prop44ColorIndex
 90
        5
102
RTVSPost2010Prop44ColorRGB
 90
      255
102
RTVSPost2010PropOp44
 70
     1
102
RTVSPost2010Prop45
280
     0
102
RTVSPost2010PropOp45
 70
     1
102
RTVSPost2010Prop46
 90
       50
102
RTVSPost2010PropOp46
 70
     1
102
RTVSPost2010Prop47
 90
       50
102
RTVSPost2010PropOp47
 70
     1
102
RTVSPost2010Prop48
 90
       50
102
RTVSPost2010PropOp48
 70
     1
102
RTVSPost2010Prop49
280
     0
102
RTVSPost2010PropOp49
 70
     1
102
RTVSPost2010Prop50
 90
       50
102
RTVSPost2010PropOp50
 70
     1
102
RTVSPost2010Prop51ColorIndex
 90
      256
102
RTVSPost2010Prop51ColorRGB
 90
-16777216
102
RTVSPost2010PropOp51
 70
     0
102
RTVSPost2010Prop52
140
1.0
102
RTVSPost2010PropOp52
 70
     0
102
RTVSPost2010Prop53
 90
        2
102
RTVSPost2010PropOp53
 70
     1
102
RTVSPost2010Prop54
  1
strokes_ogs.tif
102
RTVSPost2010PropOp54
 70
     1
102
RTVSPost2010Prop55
280
     0
102
RTVSPost2010PropOp55
 70
     1
102
RTVSPost2010Prop56
140
1.0
102
RTVSPost2010PropOp56
 70
     1
102
RTVSPost2010Prop57
140
1.0
102
RTVSPost2010PropOp57
 70
     1
  0
XRECORD
  5
D54
102
{ACAD_REACTORS
330
D53
102
}
330
D53
100
AcDbXrecord
280
     1
102
RTVSPost2010Prop28
280
     0
102
RTVSPost2010PropOp28
 70
     1
102
RTVSPost2010Prop29
280
     1
102
RTVSPost2010PropOp29
 70
     1
102
RTVSPost2010Prop30
280
     1
102
RTVSPost2010PropOp30
 70
     1
102
RTVSPost2010Prop31
280
     0
102
RTVSPost2010PropOp31
 70
     1
102
RTVSPost2010Prop32
280
     0
102
RTVSPost2010PropOp32
 70
     1
102
RTVSPost2010Prop33
280
     0
102
RTVSPost2010PropOp33
 70
     1
102
RTVSPost2010Prop34
280
     0
102
RTVSPost2010PropOp34
 70
     1
102
RTVSPost2010Prop35
280
     0
102
RTVSPost2010PropOp35
 70
     1
102
RTVSPost2010Prop36
280
     0
102
RTVSPost2010PropOp36
 70
     1
102
RTVSPost2010Prop37
 90
       50
102
RTVSPost2010PropOp37
 70
     1
102
RTVSPost2010Prop38
140
0.0
102
RTVSPost2010PropOp38
 70
     1
102
RTVSPost2010Prop39
140
1.0
102
RTVSPost2010PropOp39
 70
     1
102
RTVSPost2010Prop40
 90
        0
102
RTVSPost2010PropOp40
 70
     1
102
RTVSPost2010Prop41ColorIndex
 90
       18
102
RTVSPost2010Prop41ColorRGB
 90
        0
102
RTVSPost2010PropOp41
 70
     1
102
RTVSPost2010Prop42
 90
       50
102
RTVSPost2010PropOp42
 70
     1
102
RTVSPost2010Prop43
 90
        3
102
RTVSPost2010PropOp43
 70
     1
102
RTVSPost2010Prop44ColorIndex
 90
        5
102
RTVSPost2010Prop44ColorRGB
 90
      255
102
RTVSPost2010PropOp44
 70
     1
102
RTVSPost2010Prop45
280
     0
102
RTVSPost2010PropOp45
 70
     1
102
RTVSPost2010Prop46
 90
       50
102
RTVSPost2010PropOp46
 70
     1
102
RTVSPost2010Prop47
 90
       50
102
RTVSPost2010PropOp47
 70
     1
102
RTVSPost2010Prop48
 90
       50
102
RTVSPost2010PropOp48
 70
     1
102
RTVSPost2010Prop49
280
     0
102
RTVSPost2010PropOp49
 70
     1
102
RTVSPost2010Prop50
 90
       50
102
RTVSPost2010PropOp50
 70
     1
102
RTVSPost2010Prop51ColorIndex
 90
      256
102
RTVSPost2010Prop51ColorRGB
 90
-16777216
102
RTVSPost2010PropOp51
 70
     0
102
RTVSPost2010Prop52
140
1.0
102
RTVSPost2010PropOp52
 70
     0
102
RTVSPost2010Prop53
 90
        2
102
RTVSPost2010PropOp53
 70
     1
102
RTVSPost2010Prop54
  1
strokes_ogs.tif
102
RTVSPost2010PropOp54
 70
     1
102
RTVSPost2010Prop55
280
     0
102
RTVSPost2010PropOp55
 70
     1
102
RTVSPost2010Prop56
140
1.0
102
RTVSPost2010PropOp56
 70
     1
102
RTVSPost2010Prop57
140
1.0
102
RTVSPost2010PropOp57
 70
     1
  0
XRECORD
  5
D56
102
{ACAD_REACTORS
330
D55
102
}
330
D55
100
AcDbXrecord
280
     1
102
RTVSPost2010Prop28
280
     0
102
RTVSPost2010PropOp28
 70
     1
102
RTVSPost2010Prop29
280
     1
102
RTVSPost2010PropOp29
 70
     1
102
RTVSPost2010Prop30
280
     1
102
RTVSPost2010PropOp30
 70
     1
102
RTVSPost2010Prop31
280
     0
102
RTVSPost2010PropOp31
 70
     1
102
RTVSPost2010Prop32
280
     0
102
RTVSPost2010PropOp32
 70
     1
102
RTVSPost2010Prop33
280
     0
102
RTVSPost2010PropOp33
 70
     1
102
RTVSPost2010Prop34
280
     0
102
RTVSPost2010PropOp34
 70
     1
102
RTVSPost2010Prop35
280
     0
102
RTVSPost2010PropOp35
 70
     1
102
RTVSPost2010Prop36
280
     0
102
RTVSPost2010PropOp36
 70
     1
102
RTVSPost2010Prop37
 90
       50
102
RTVSPost2010PropOp37
 70
     1
102
RTVSPost2010Prop38
140
0.0
102
RTVSPost2010PropOp38
 70
     1
102
RTVSPost2010Prop39
140
1.0
102
RTVSPost2010PropOp39
 70
     1
102
RTVSPost2010Prop40
 90
        0
102
RTVSPost2010PropOp40
 70
     1
102
RTVSPost2010Prop41ColorIndex
 90
       18
102
RTVSPost2010Prop41ColorRGB
 90
        0
102
RTVSPost2010PropOp41
 70
     1
102
RTVSPost2010Prop42
 90
       50
102
RTVSPost2010PropOp42
 70
     1
102
RTVSPost2010Prop43
 90
        3
102
RTVSPost2010PropOp43
 70
     1
102
RTVSPost2010Prop44ColorIndex
 90
        5
102
RTVSPost2010Prop44ColorRGB
 90
      255
102
RTVSPost2010PropOp44
 70
     1
102
RTVSPost2010Prop45
280
     0
102
RTVSPost2010PropOp45
 70
     1
102
RTVSPost2010Prop46
 90
       50
102
RTVSPost2010PropOp46
 70
     1
102
RTVSPost2010Prop47
 90
       50
102
RTVSPost2010PropOp47
 70
     1
102
RTVSPost2010Prop48
 90
       50
102
RTVSPost2010PropOp48
 70
     1
102
RTVSPost2010Prop49
280
     0
102
RTVSPost2010PropOp49
 70
     1
102
RTVSPost2010Prop50
 90
       50
102
RTVSPost2010PropOp50
 70
     1
102
RTVSPost2010Prop51ColorIndex
 90
      256
102
RTVSPost2010Prop51ColorRGB
 90
-16777216
102
RTVSPost2010PropOp51
 70
     0
102
RTVSPost2010Prop52
140
1.0
102
RTVSPost2010PropOp52
 70
     0
102
RTVSPost2010Prop53
 90
        2
102
RTVSPost2010PropOp53
 70
     1
102
RTVSPost2010Prop54
  1
strokes_ogs.tif
102
RTVSPost2010PropOp54
 70
     1
102
RTVSPost2010Prop55
280
     0
102
RTVSPost2010PropOp55
 70
     1
102
RTVSPost2010Prop56
140
1.0
102
RTVSPost2010PropOp56
 70
     1
102
RTVSPost2010Prop57
140
1.0
102
RTVSPost2010PropOp57
 70
     1
  0
XRECORD
  5
D72
102
{ACAD_REACTORS
330
D71
102
}
330
D71
100
AcDbXrecord
280
     1
102
RTVSPost2010Prop28
280
     0
102
RTVSPost2010PropOp28
 70
     1
102
RTVSPost2010Prop29
280
     1
102
RTVSPost2010PropOp29
 70
     1
102
RTVSPost2010Prop30
280
     1
102
RTVSPost2010PropOp30
 70
     1
102
RTVSPost2010Prop31
280
     0
102
RTVSPost2010PropOp31
 70
     1
102
RTVSPost2010Prop32
280
     0
102
RTVSPost2010PropOp32
 70
     1
102
RTVSPost2010Prop33
280
     0
102
RTVSPost2010PropOp33
 70
     1
102
RTVSPost2010Prop34
280
     0
102
RTVSPost2010PropOp34
 70
     1
102
RTVSPost2010Prop35
280
     0
102
RTVSPost2010PropOp35
 70
     1
102
RTVSPost2010Prop36
280
     0
102
RTVSPost2010PropOp36
 70
     1
102
RTVSPost2010Prop37
 90
       50
102
RTVSPost2010PropOp37
 70
     1
102
RTVSPost2010Prop38
140
0.0
102
RTVSPost2010PropOp38
 70
     1
102
RTVSPost2010Prop39
140
1.0
102
RTVSPost2010PropOp39
 70
     1
102
RTVSPost2010Prop40
 90
        0
102
RTVSPost2010PropOp40
 70
     1
102
RTVSPost2010Prop41ColorIndex
 90
       18
102
RTVSPost2010Prop41ColorRGB
 90
        0
102
RTVSPost2010PropOp41
 70
     1
102
RTVSPost2010Prop42
 90
       50
102
RTVSPost2010PropOp42
 70
     1
102
RTVSPost2010Prop43
 90
        3
102
RTVSPost2010PropOp43
 70
     1
102
RTVSPost2010Prop44ColorIndex
 90
        5
102
RTVSPost2010Prop44ColorRGB
 90
      255
102
RTVSPost2010PropOp44
 70
     1
102
RTVSPost2010Prop45
280
     0
102
RTVSPost2010PropOp45
 70
     1
102
RTVSPost2010Prop46
 90
       50
102
RTVSPost2010PropOp46
 70
     1
102
RTVSPost2010Prop47
 90
       50
102
RTVSPost2010PropOp47
 70
     1
102
RTVSPost2010Prop48
 90
       50
102
RTVSPost2010PropOp48
 70
     1
102
RTVSPost2010Prop49
280
     0
102
RTVSPost2010PropOp49
 70
     1
102
RTVSPost2010Prop50
 90
       50
102
RTVSPost2010PropOp50
 70
     1
102
RTVSPost2010Prop51ColorIndex
 90
      256
102
RTVSPost2010Prop51ColorRGB
 90
-16777216
102
RTVSPost2010PropOp51
 70
     0
102
RTVSPost2010Prop52
140
1.0
102
RTVSPost2010PropOp52
 70
     0
102
RTVSPost2010Prop53
 90
        2
102
RTVSPost2010PropOp53
 70
     1
102
RTVSPost2010Prop54
  1
strokes_ogs.tif
102
RTVSPost2010PropOp54
 70
     1
102
RTVSPost2010Prop55
280
     0
102
RTVSPost2010PropOp55
 70
     1
102
RTVSPost2010Prop56
140
1.0
102
RTVSPost2010PropOp56
 70
     1
102
RTVSPost2010Prop57
140
1.0
102
RTVSPost2010PropOp57
 70
     1
  0
XRECORD
  5
D7E
102
{ACAD_REACTORS
330
D7D
102
}
330
D7D
100
AcDbXrecord
280
     1
102
RTVSPost2010Prop28
280
     0
102
RTVSPost2010PropOp28
 70
     1
102
RTVSPost2010Prop29
280
     1
102
RTVSPost2010PropOp29
 70
     1
102
RTVSPost2010Prop30
280
     1
102
RTVSPost2010PropOp30
 70
     1
102
RTVSPost2010Prop31
280
     0
102
RTVSPost2010PropOp31
 70
     1
102
RTVSPost2010Prop32
280
     0
102
RTVSPost2010PropOp32
 70
     1
102
RTVSPost2010Prop33
280
     0
102
RTVSPost2010PropOp33
 70
     1
102
RTVSPost2010Prop34
280
     0
102
RTVSPost2010PropOp34
 70
     1
102
RTVSPost2010Prop35
280
     0
102
RTVSPost2010PropOp35
 70
     1
102
RTVSPost2010Prop36
280
     0
102
RTVSPost2010PropOp36
 70
     1
102
RTVSPost2010Prop37
 90
       50
102
RTVSPost2010PropOp37
 70
     0
102
RTVSPost2010Prop38
140
0.0
102
RTVSPost2010PropOp38
 70
     0
102
RTVSPost2010Prop39
140
1.0
102
RTVSPost2010PropOp39
 70
     0
102
RTVSPost2010Prop40
 90
        0
102
RTVSPost2010PropOp40
 70
     0
102
RTVSPost2010Prop41ColorIndex
 90
       18
102
RTVSPost2010Prop41ColorRGB
 90
        0
102
RTVSPost2010PropOp41
 70
     0
102
RTVSPost2010Prop42
 90
       50
102
RTVSPost2010PropOp42
 70
     0
102
RTVSPost2010Prop43
 90
        3
102
RTVSPost2010PropOp43
 70
     0
102
RTVSPost2010Prop44ColorIndex
 90
        5
102
RTVSPost2010Prop44ColorRGB
 90
      255
102
RTVSPost2010PropOp44
 70
     0
102
RTVSPost2010Prop45
280
     0
102
RTVSPost2010PropOp45
 70
     1
102
RTVSPost2010Prop46
 90
       50
102
RTVSPost2010PropOp46
 70
     0
102
RTVSPost2010Prop47
 90
       50
102
RTVSPost2010PropOp47
 70
     0
102
RTVSPost2010Prop48
 90
       50
102
RTVSPost2010PropOp48
 70
     0
102
RTVSPost2010Prop49
280
     0
102
RTVSPost2010PropOp49
 70
     1
102
RTVSPost2010Prop50
 90
       50
102
RTVSPost2010PropOp50
 70
     0
102
RTVSPost2010Prop51ColorIndex
 90
      256
102
RTVSPost2010Prop51ColorRGB
 90
-16777216
102
RTVSPost2010PropOp51
 70
     0
102
RTVSPost2010Prop52
140
1.0
102
RTVSPost2010PropOp52
 70
     0
102
RTVSPost2010Prop53
 90
        2
102
RTVSPost2010PropOp53
 70
     0
102
RTVSPost2010Prop54
  1
strokes_ogs.tif
102
RTVSPost2010PropOp54
 70
     0
102
RTVSPost2010Prop55
280
     0
102
RTVSPost2010PropOp55
 70
     1
102
RTVSPost2010Prop56
140
1.0
102
RTVSPost2010PropOp56
 70
     0
102
RTVSPost2010Prop57
140
1.0
102
RTVSPost2010PropOp57
 70
     0
  0
XRECORD
  5
D6A
102
{ACAD_REACTORS
330
D69
102
}
330
D69
100
AcDbXrecord
280
     1
102
RTVSPost2010Prop28
280
     0
102
RTVSPost2010PropOp28
 70
     1
102
RTVSPost2010Prop29
280
     1
102
RTVSPost2010PropOp29
 70
     1
102
RTVSPost2010Prop30
280
     1
102
RTVSPost2010PropOp30
 70
     1
102
RTVSPost2010Prop31
280
     0
102
RTVSPost2010PropOp31
 70
     1
102
RTVSPost2010Prop32
280
     0
102
RTVSPost2010PropOp32
 70
     1
102
RTVSPost2010Prop33
280
     0
102
RTVSPost2010PropOp33
 70
     1
102
RTVSPost2010Prop34
280
     0
102
RTVSPost2010PropOp34
 70
     1
102
RTVSPost2010Prop35
280
     0
102
RTVSPost2010PropOp35
 70
     1
102
RTVSPost2010Prop36
280
     0
102
RTVSPost2010PropOp36
 70
     1
102
RTVSPost2010Prop37
 90
       50
102
RTVSPost2010PropOp37
 70
     1
102
RTVSPost2010Prop38
140
0.0
102
RTVSPost2010PropOp38
 70
     1
102
RTVSPost2010Prop39
140
1.0
102
RTVSPost2010PropOp39
 70
     1
102
RTVSPost2010Prop40
 90
        0
102
RTVSPost2010PropOp40
 70
     1
102
RTVSPost2010Prop41ColorIndex
 90
       18
102
RTVSPost2010Prop41ColorRGB
 90
        0
102
RTVSPost2010PropOp41
 70
     1
102
RTVSPost2010Prop42
 90
       50
102
RTVSPost2010PropOp42
 70
     1
102
RTVSPost2010Prop43
 90
        3
102
RTVSPost2010PropOp43
 70
     1
102
RTVSPost2010Prop44ColorIndex
 90
        5
102
RTVSPost2010Prop44ColorRGB
 90
      255
102
RTVSPost2010PropOp44
 70
     1
102
RTVSPost2010Prop45
280
     0
102
RTVSPost2010PropOp45
 70
     1
102
RTVSPost2010Prop46
 90
       50
102
RTVSPost2010PropOp46
 70
     1
102
RTVSPost2010Prop47
 90
       50
102
RTVSPost2010PropOp47
 70
     1
102
RTVSPost2010Prop48
 90
       50
102
RTVSPost2010PropOp48
 70
     1
102
RTVSPost2010Prop49
280
     0
102
RTVSPost2010PropOp49
 70
     1
102
RTVSPost2010Prop50
 90
       50
102
RTVSPost2010PropOp50
 70
     1
102
RTVSPost2010Prop51ColorIndex
 90
      256
102
RTVSPost2010Prop51ColorRGB
 90
-16777216
102
RTVSPost2010PropOp51
 70
     0
102
RTVSPost2010Prop52
140
1.0
102
RTVSPost2010PropOp52
 70
     0
102
RTVSPost2010Prop53
 90
        2
102
RTVSPost2010PropOp53
 70
     1
102
RTVSPost2010Prop54
  1
strokes_ogs.tif
102
RTVSPost2010PropOp54
 70
     1
102
RTVSPost2010Prop55
280
     0
102
RTVSPost2010PropOp55
 70
     1
102
RTVSPost2010Prop56
140
1.0
102
RTVSPost2010PropOp56
 70
     1
102
RTVSPost2010Prop57
140
1.0
102
RTVSPost2010PropOp57
 70
     1
  0
XRECORD
  5
D80
102
{ACAD_REACTORS
330
D7F
102
}
330
D7F
100
AcDbXrecord
280
     1
102
RTVSPost2010Prop28
280
     0
102
RTVSPost2010PropOp28
 70
     1
102
RTVSPost2010Prop29
280
     1
102
RTVSPost2010PropOp29
 70
     1
102
RTVSPost2010Prop30
280
     1
102
RTVSPost2010PropOp30
 70
     1
102
RTVSPost2010Prop31
280
     0
102
RTVSPost2010PropOp31
 70
     1
102
RTVSPost2010Prop32
280
     0
102
RTVSPost2010PropOp32
 70
     1
102
RTVSPost2010Prop33
280
     0
102
RTVSPost2010PropOp33
 70
     1
102
RTVSPost2010Prop34
280
     0
102
RTVSPost2010PropOp34
 70
     1
102
RTVSPost2010Prop35
280
     0
102
RTVSPost2010PropOp35
 70
     1
102
RTVSPost2010Prop36
280
     0
102
RTVSPost2010PropOp36
 70
     1
102
RTVSPost2010Prop37
 90
       50
102
RTVSPost2010PropOp37
 70
     0
102
RTVSPost2010Prop38
140
0.0
102
RTVSPost2010PropOp38
 70
     0
102
RTVSPost2010Prop39
140
1.0
102
RTVSPost2010PropOp39
 70
     0
102
RTVSPost2010Prop40
 90
        0
102
RTVSPost2010PropOp40
 70
     0
102
RTVSPost2010Prop41ColorIndex
 90
       18
102
RTVSPost2010Prop41ColorRGB
 90
        0
102
RTVSPost2010PropOp41
 70
     0
102
RTVSPost2010Prop42
 90
       50
102
RTVSPost2010PropOp42
 70
     0
102
RTVSPost2010Prop43
 90
        3
102
RTVSPost2010PropOp43
 70
     0
102
RTVSPost2010Prop44ColorIndex
 90
        5
102
RTVSPost2010Prop44ColorRGB
 90
      255
102
RTVSPost2010PropOp44
 70
     0
102
RTVSPost2010Prop45
280
     0
102
RTVSPost2010PropOp45
 70
     1
102
RTVSPost2010Prop46
 90
       50
102
RTVSPost2010PropOp46
 70
     0
102
RTVSPost2010Prop47
 90
       50
102
RTVSPost2010PropOp47
 70
     0
102
RTVSPost2010Prop48
 90
       50
102
RTVSPost2010PropOp48
 70
     0
102
RTVSPost2010Prop49
280
     0
102
RTVSPost2010PropOp49
 70
     1
102
RTVSPost2010Prop50
 90
       50
102
RTVSPost2010PropOp50
 70
     0
102
RTVSPost2010Prop51ColorIndex
 90
      256
102
RTVSPost2010Prop51ColorRGB
 90
-16777216
102
RTVSPost2010PropOp51
 70
     0
102
RTVSPost2010Prop52
140
1.0
102
RTVSPost2010PropOp52
 70
     0
102
RTVSPost2010Prop53
 90
        2
102
RTVSPost2010PropOp53
 70
     0
102
RTVSPost2010Prop54
  1
strokes_ogs.tif
102
RTVSPost2010PropOp54
 70
     0
102
RTVSPost2010Prop55
280
     0
102
RTVSPost2010PropOp55
 70
     1
102
RTVSPost2010Prop56
140
1.0
102
RTVSPost2010PropOp56
 70
     0
102
RTVSPost2010Prop57
140
1.0
102
RTVSPost2010PropOp57
 70
     0
  0
XRECORD
  5
D60
102
{ACAD_REACTORS
330
D5F
102
}
330
D5F
100
AcDbXrecord
280
     1
102
RTVSPost2010Prop28
280
     0
102
RTVSPost2010PropOp28
 70
     1
102
RTVSPost2010Prop29
280
     1
102
RTVSPost2010PropOp29
 70
     1
102
RTVSPost2010Prop30
280
     1
102
RTVSPost2010PropOp30
 70
     1
102
RTVSPost2010Prop31
280
     0
102
RTVSPost2010PropOp31
 70
     1
102
RTVSPost2010Prop32
280
     0
102
RTVSPost2010PropOp32
 70
     1
102
RTVSPost2010Prop33
280
     0
102
RTVSPost2010PropOp33
 70
     1
102
RTVSPost2010Prop34
280
     0
102
RTVSPost2010PropOp34
 70
     1
102
RTVSPost2010Prop35
280
     0
102
RTVSPost2010PropOp35
 70
     1
102
RTVSPost2010Prop36
280
     0
102
RTVSPost2010PropOp36
 70
     1
102
RTVSPost2010Prop37
 90
       50
102
RTVSPost2010PropOp37
 70
     1
102
RTVSPost2010Prop38
140
0.0
102
RTVSPost2010PropOp38
 70
     1
102
RTVSPost2010Prop39
140
1.0
102
RTVSPost2010PropOp39
 70
     1
102
RTVSPost2010Prop40
 90
        0
102
RTVSPost2010PropOp40
 70
     1
102
RTVSPost2010Prop41ColorIndex
 90
       18
102
RTVSPost2010Prop41ColorRGB
 90
        0
102
RTVSPost2010PropOp41
 70
     1
102
RTVSPost2010Prop42
 90
       50
102
RTVSPost2010PropOp42
 70
     1
102
RTVSPost2010Prop43
 90
        3
102
RTVSPost2010PropOp43
 70
     1
102
RTVSPost2010Prop44ColorIndex
 90
        5
102
RTVSPost2010Prop44ColorRGB
 90
      255
102
RTVSPost2010PropOp44
 70
     1
102
RTVSPost2010Prop45
280
     0
102
RTVSPost2010PropOp45
 70
     1
102
RTVSPost2010Prop46
 90
       50
102
RTVSPost2010PropOp46
 70
     1
102
RTVSPost2010Prop47
 90
       50
102
RTVSPost2010PropOp47
 70
     1
102
RTVSPost2010Prop48
 90
       50
102
RTVSPost2010PropOp48
 70
     1
102
RTVSPost2010Prop49
280
     0
102
RTVSPost2010PropOp49
 70
     1
102
RTVSPost2010Prop50
 90
       50
102
RTVSPost2010PropOp50
 70
     1
102
RTVSPost2010Prop51ColorIndex
 90
      256
102
RTVSPost2010Prop51ColorRGB
 90
-16777216
102
RTVSPost2010PropOp51
 70
     0
102
RTVSPost2010Prop52
140
1.0
102
RTVSPost2010PropOp52
 70
     0
102
RTVSPost2010Prop53
 90
        2
102
RTVSPost2010PropOp53
 70
     1
102
RTVSPost2010Prop54
  1
strokes_ogs.tif
102
RTVSPost2010PropOp54
 70
     1
102
RTVSPost2010Prop55
280
     0
102
RTVSPost2010PropOp55
 70
     1
102
RTVSPost2010Prop56
140
1.0
102
RTVSPost2010PropOp56
 70
     1
102
RTVSPost2010Prop57
140
1.0
102
RTVSPost2010PropOp57
 70
     1
  0
XRECORD
  5
D7C
102
{ACAD_REACTORS
330
D7B
102
}
330
D7B
100
AcDbXrecord
280
     1
102
RTVSPost2010Prop28
280
     0
102
RTVSPost2010PropOp28
 70
     1
102
RTVSPost2010Prop29
280
     1
102
RTVSPost2010PropOp29
 70
     1
102
RTVSPost2010Prop30
280
     1
102
RTVSPost2010PropOp30
 70
     1
102
RTVSPost2010Prop31
280
     0
102
RTVSPost2010PropOp31
 70
     1
102
RTVSPost2010Prop32
280
     0
102
RTVSPost2010PropOp32
 70
     1
102
RTVSPost2010Prop33
280
     0
102
RTVSPost2010PropOp33
 70
     1
102
RTVSPost2010Prop34
280
     0
102
RTVSPost2010PropOp34
 70
     1
102
RTVSPost2010Prop35
280
     0
102
RTVSPost2010PropOp35
 70
     1
102
RTVSPost2010Prop36
280
     0
102
RTVSPost2010PropOp36
 70
     1
102
RTVSPost2010Prop37
 90
       50
102
RTVSPost2010PropOp37
 70
     1
102
RTVSPost2010Prop38
140
0.0
102
RTVSPost2010PropOp38
 70
     1
102
RTVSPost2010Prop39
140
1.0
102
RTVSPost2010PropOp39
 70
     1
102
RTVSPost2010Prop40
 90
        0
102
RTVSPost2010PropOp40
 70
     1
102
RTVSPost2010Prop41ColorIndex
 90
       18
102
RTVSPost2010Prop41ColorRGB
 90
        0
102
RTVSPost2010PropOp41
 70
     1
102
RTVSPost2010Prop42
 90
       50
102
RTVSPost2010PropOp42
 70
     1
102
RTVSPost2010Prop43
 90
        3
102
RTVSPost2010PropOp43
 70
     1
102
RTVSPost2010Prop44ColorIndex
 90
        5
102
RTVSPost2010Prop44ColorRGB
 90
      255
102
RTVSPost2010PropOp44
 70
     1
102
RTVSPost2010Prop45
280
     0
102
RTVSPost2010PropOp45
 70
     1
102
RTVSPost2010Prop46
 90
       50
102
RTVSPost2010PropOp46
 70
     1
102
RTVSPost2010Prop47
 90
       50
102
RTVSPost2010PropOp47
 70
     1
102
RTVSPost2010Prop48
 90
       50
102
RTVSPost2010PropOp48
 70
     1
102
RTVSPost2010Prop49
280
     0
102
RTVSPost2010PropOp49
 70
     1
102
RTVSPost2010Prop50
 90
       50
102
RTVSPost2010PropOp50
 70
     1
102
RTVSPost2010Prop51ColorIndex
 90
      256
102
RTVSPost2010Prop51ColorRGB
 90
-16777216
102
RTVSPost2010PropOp51
 70
     0
102
RTVSPost2010Prop52
140
1.0
102
RTVSPost2010PropOp52
 70
     0
102
RTVSPost2010Prop53
 90
        2
102
RTVSPost2010PropOp53
 70
     1
102
RTVSPost2010Prop54
  1
strokes_ogs.tif
102
RTVSPost2010PropOp54
 70
     1
102
RTVSPost2010Prop55
280
     0
102
RTVSPost2010PropOp55
 70
     1
102
RTVSPost2010Prop56
140
1.0
102
RTVSPost2010PropOp56
 70
     1
102
RTVSPost2010Prop57
140
1.0
102
RTVSPost2010PropOp57
 70
     1
  0
XRECORD
  5
D7A
102
{ACAD_REACTORS
330
D79
102
}
330
D79
100
AcDbXrecord
280
     1
102
RTVSPost2010Prop28
280
     0
102
RTVSPost2010PropOp28
 70
     1
102
RTVSPost2010Prop29
280
     1
102
RTVSPost2010PropOp29
 70
     1
102
RTVSPost2010Prop30
280
     1
102
RTVSPost2010PropOp30
 70
     1
102
RTVSPost2010Prop31
280
     0
102
RTVSPost2010PropOp31
 70
     1
102
RTVSPost2010Prop32
280
     0
102
RTVSPost2010PropOp32
 70
     1
102
RTVSPost2010Prop33
280
     0
102
RTVSPost2010PropOp33
 70
     1
102
RTVSPost2010Prop34
280
     0
102
RTVSPost2010PropOp34
 70
     1
102
RTVSPost2010Prop35
280
     0
102
RTVSPost2010PropOp35
 70
     1
102
RTVSPost2010Prop36
280
     0
102
RTVSPost2010PropOp36
 70
     1
102
RTVSPost2010Prop37
 90
       50
102
RTVSPost2010PropOp37
 70
     1
102
RTVSPost2010Prop38
140
0.0
102
RTVSPost2010PropOp38
 70
     1
102
RTVSPost2010Prop39
140
1.0
102
RTVSPost2010PropOp39
 70
     1
102
RTVSPost2010Prop40
 90
        0
102
RTVSPost2010PropOp40
 70
     1
102
RTVSPost2010Prop41ColorIndex
 90
       18
102
RTVSPost2010Prop41ColorRGB
 90
        0
102
RTVSPost2010PropOp41
 70
     1
102
RTVSPost2010Prop42
 90
       50
102
RTVSPost2010PropOp42
 70
     1
102
RTVSPost2010Prop43
 90
        3
102
RTVSPost2010PropOp43
 70
     1
102
RTVSPost2010Prop44ColorIndex
 90
        5
102
RTVSPost2010Prop44ColorRGB
 90
      255
102
RTVSPost2010PropOp44
 70
     1
102
RTVSPost2010Prop45
280
     0
102
RTVSPost2010PropOp45
 70
     1
102
RTVSPost2010Prop46
 90
       50
102
RTVSPost2010PropOp46
 70
     1
102
RTVSPost2010Prop47
 90
       50
102
RTVSPost2010PropOp47
 70
     1
102
RTVSPost2010Prop48
 90
       50
102
RTVSPost2010PropOp48
 70
     1
102
RTVSPost2010Prop49
280
     0
102
RTVSPost2010PropOp49
 70
     1
102
RTVSPost2010Prop50
 90
       50
102
RTVSPost2010PropOp50
 70
     1
102
RTVSPost2010Prop51ColorIndex
 90
      256
102
RTVSPost2010Prop51ColorRGB
 90
-16777216
102
RTVSPost2010PropOp51
 70
     0
102
RTVSPost2010Prop52
140
1.0
102
RTVSPost2010PropOp52
 70
     0
102
RTVSPost2010Prop53
 90
        2
102
RTVSPost2010PropOp53
 70
     1
102
RTVSPost2010Prop54
  1
strokes_ogs.tif
102
RTVSPost2010PropOp54
 70
     1
102
RTVSPost2010Prop55
280
     0
102
RTVSPost2010PropOp55
 70
     1
102
RTVSPost2010Prop56
140
1.0
102
RTVSPost2010PropOp56
 70
     1
102
RTVSPost2010Prop57
140
1.0
102
RTVSPost2010PropOp57
 70
     1
  0
XRECORD
  5
D74
102
{ACAD_REACTORS
330
D73
102
}
330
D73
100
AcDbXrecord
280
     1
102
RTVSPost2010Prop28
280
     0
102
RTVSPost2010PropOp28
 70
     1
102
RTVSPost2010Prop29
280
     1
102
RTVSPost2010PropOp29
 70
     1
102
RTVSPost2010Prop30
280
     1
102
RTVSPost2010PropOp30
 70
     1
102
RTVSPost2010Prop31
280
     0
102
RTVSPost2010PropOp31
 70
     1
102
RTVSPost2010Prop32
280
     0
102
RTVSPost2010PropOp32
 70
     1
102
RTVSPost2010Prop33
280
     0
102
RTVSPost2010PropOp33
 70
     1
102
RTVSPost2010Prop34
280
     0
102
RTVSPost2010PropOp34
 70
     1
102
RTVSPost2010Prop35
280
     0
102
RTVSPost2010PropOp35
 70
     1
102
RTVSPost2010Prop36
280
     0
102
RTVSPost2010PropOp36
 70
     1
102
RTVSPost2010Prop37
 90
       50
102
RTVSPost2010PropOp37
 70
     1
102
RTVSPost2010Prop38
140
0.0
102
RTVSPost2010PropOp38
 70
     1
102
RTVSPost2010Prop39
140
1.0
102
RTVSPost2010PropOp39
 70
     1
102
RTVSPost2010Prop40
 90
        0
102
RTVSPost2010PropOp40
 70
     1
102
RTVSPost2010Prop41ColorIndex
 90
       18
102
RTVSPost2010Prop41ColorRGB
 90
        0
102
RTVSPost2010PropOp41
 70
     1
102
RTVSPost2010Prop42
 90
       50
102
RTVSPost2010PropOp42
 70
     1
102
RTVSPost2010Prop43
 90
        3
102
RTVSPost2010PropOp43
 70
     1
102
RTVSPost2010Prop44ColorIndex
 90
        5
102
RTVSPost2010Prop44ColorRGB
 90
      255
102
RTVSPost2010PropOp44
 70
     1
102
RTVSPost2010Prop45
280
     0
102
RTVSPost2010PropOp45
 70
     1
102
RTVSPost2010Prop46
 90
       50
102
RTVSPost2010PropOp46
 70
     1
102
RTVSPost2010Prop47
 90
       50
102
RTVSPost2010PropOp47
 70
     1
102
RTVSPost2010Prop48
 90
       50
102
RTVSPost2010PropOp48
 70
     1
102
RTVSPost2010Prop49
280
     0
102
RTVSPost2010PropOp49
 70
     1
102
RTVSPost2010Prop50
 90
       50
102
RTVSPost2010PropOp50
 70
     1
102
RTVSPost2010Prop51ColorIndex
 90
      256
102
RTVSPost2010Prop51ColorRGB
 90
-16777216
102
RTVSPost2010PropOp51
 70
     0
102
RTVSPost2010Prop52
140
1.0
102
RTVSPost2010PropOp52
 70
     0
102
RTVSPost2010Prop53
 90
        2
102
RTVSPost2010PropOp53
 70
     1
102
RTVSPost2010Prop54
  1
strokes_ogs.tif
102
RTVSPost2010PropOp54
 70
     1
102
RTVSPost2010Prop55
280
     0
102
RTVSPost2010PropOp55
 70
     1
102
RTVSPost2010Prop56
140
1.0
102
RTVSPost2010PropOp56
 70
     1
102
RTVSPost2010Prop57
140
1.0
102
RTVSPost2010PropOp57
 70
     1
  0
XRECORD
  5
D76
102
{ACAD_REACTORS
330
D75
102
}
330
D75
100
AcDbXrecord
280
     1
102
RTVSPost2010Prop28
280
     0
102
RTVSPost2010PropOp28
 70
     1
102
RTVSPost2010Prop29
280
     1
102
RTVSPost2010PropOp29
 70
     1
102
RTVSPost2010Prop30
280
     1
102
RTVSPost2010PropOp30
 70
     1
102
RTVSPost2010Prop31
280
     0
102
RTVSPost2010PropOp31
 70
     1
102
RTVSPost2010Prop32
280
     0
102
RTVSPost2010PropOp32
 70
     1
102
RTVSPost2010Prop33
280
     0
102
RTVSPost2010PropOp33
 70
     1
102
RTVSPost2010Prop34
280
     0
102
RTVSPost2010PropOp34
 70
     1
102
RTVSPost2010Prop35
280
     0
102
RTVSPost2010PropOp35
 70
     1
102
RTVSPost2010Prop36
280
     0
102
RTVSPost2010PropOp36
 70
     1
102
RTVSPost2010Prop37
 90
       50
102
RTVSPost2010PropOp37
 70
     1
102
RTVSPost2010Prop38
140
0.0
102
RTVSPost2010PropOp38
 70
     1
102
RTVSPost2010Prop39
140
1.0
102
RTVSPost2010PropOp39
 70
     1
102
RTVSPost2010Prop40
 90
        0
102
RTVSPost2010PropOp40
 70
     1
102
RTVSPost2010Prop41ColorIndex
 90
       18
102
RTVSPost2010Prop41ColorRGB
 90
        0
102
RTVSPost2010PropOp41
 70
     1
102
RTVSPost2010Prop42
 90
       50
102
RTVSPost2010PropOp42
 70
     1
102
RTVSPost2010Prop43
 90
        3
102
RTVSPost2010PropOp43
 70
     1
102
RTVSPost2010Prop44ColorIndex
 90
        5
102
RTVSPost2010Prop44ColorRGB
 90
      255
102
RTVSPost2010PropOp44
 70
     1
102
RTVSPost2010Prop45
280
     0
102
RTVSPost2010PropOp45
 70
     1
102
RTVSPost2010Prop46
 90
       50
102
RTVSPost2010PropOp46
 70
     1
102
RTVSPost2010Prop47
 90
       50
102
RTVSPost2010PropOp47
 70
     1
102
RTVSPost2010Prop48
 90
       50
102
RTVSPost2010PropOp48
 70
     1
102
RTVSPost2010Prop49
280
     0
102
RTVSPost2010PropOp49
 70
     1
102
RTVSPost2010Prop50
 90
       50
102
RTVSPost2010PropOp50
 70
     1
102
RTVSPost2010Prop51ColorIndex
 90
      256
102
RTVSPost2010Prop51ColorRGB
 90
-16777216
102
RTVSPost2010PropOp51
 70
     0
102
RTVSPost2010Prop52
140
1.0
102
RTVSPost2010PropOp52
 70
     0
102
RTVSPost2010Prop53
 90
        2
102
RTVSPost2010PropOp53
 70
     1
102
RTVSPost2010Prop54
  1
strokes_ogs.tif
102
RTVSPost2010PropOp54
 70
     1
102
RTVSPost2010Prop55
280
     0
102
RTVSPost2010PropOp55
 70
     1
102
RTVSPost2010Prop56
140
1.0
102
RTVSPost2010PropOp56
 70
     1
102
RTVSPost2010Prop57
140
1.0
102
RTVSPost2010PropOp57
 70
     1
  0
XRECORD
  5
D68
102
{ACAD_REACTORS
330
D67
102
}
330
D67
100
AcDbXrecord
280
     1
102
RTVSPost2010Prop28
280
     0
102
RTVSPost2010PropOp28
 70
     1
102
RTVSPost2010Prop29
280
     1
102
RTVSPost2010PropOp29
 70
     1
102
RTVSPost2010Prop30
280
     1
102
RTVSPost2010PropOp30
 70
     1
102
RTVSPost2010Prop31
280
     0
102
RTVSPost2010PropOp31
 70
     1
102
RTVSPost2010Prop32
280
     0
102
RTVSPost2010PropOp32
 70
     1
102
RTVSPost2010Prop33
280
     0
102
RTVSPost2010PropOp33
 70
     1
102
RTVSPost2010Prop34
280
     0
102
RTVSPost2010PropOp34
 70
     1
102
RTVSPost2010Prop35
280
     0
102
RTVSPost2010PropOp35
 70
     1
102
RTVSPost2010Prop36
280
     0
102
RTVSPost2010PropOp36
 70
     1
102
RTVSPost2010Prop37
 90
       50
102
RTVSPost2010PropOp37
 70
     1
102
RTVSPost2010Prop38
140
0.0
102
RTVSPost2010PropOp38
 70
     1
102
RTVSPost2010Prop39
140
1.0
102
RTVSPost2010PropOp39
 70
     1
102
RTVSPost2010Prop40
 90
        0
102
RTVSPost2010PropOp40
 70
     1
102
RTVSPost2010Prop41ColorIndex
 90
       18
102
RTVSPost2010Prop41ColorRGB
 90
        0
102
RTVSPost2010PropOp41
 70
     1
102
RTVSPost2010Prop42
 90
       50
102
RTVSPost2010PropOp42
 70
     1
102
RTVSPost2010Prop43
 90
        3
102
RTVSPost2010PropOp43
 70
     1
102
RTVSPost2010Prop44ColorIndex
 90
        5
102
RTVSPost2010Prop44ColorRGB
 90
      255
102
RTVSPost2010PropOp44
 70
     1
102
RTVSPost2010Prop45
280
     0
102
RTVSPost2010PropOp45
 70
     1
102
RTVSPost2010Prop46
 90
       50
102
RTVSPost2010PropOp46
 70
     1
102
RTVSPost2010Prop47
 90
       50
102
RTVSPost2010PropOp47
 70
     1
102
RTVSPost2010Prop48
 90
       50
102
RTVSPost2010PropOp48
 70
     1
102
RTVSPost2010Prop49
280
     0
102
RTVSPost2010PropOp49
 70
     1
102
RTVSPost2010Prop50
 90
       50
102
RTVSPost2010PropOp50
 70
     1
102
RTVSPost2010Prop51ColorIndex
 90
      256
102
RTVSPost2010Prop51ColorRGB
 90
-16777216
102
RTVSPost2010PropOp51
 70
     0
102
RTVSPost2010Prop52
140
1.0
102
RTVSPost2010PropOp52
 70
     0
102
RTVSPost2010Prop53
 90
        2
102
RTVSPost2010PropOp53
 70
     1
102
RTVSPost2010Prop54
  1
strokes_ogs.tif
102
RTVSPost2010PropOp54
 70
     1
102
RTVSPost2010Prop55
280
     0
102
RTVSPost2010PropOp55
 70
     1
102
RTVSPost2010Prop56
140
1.0
102
RTVSPost2010PropOp56
 70
     1
102
RTVSPost2010Prop57
140
1.0
102
RTVSPost2010PropOp57
 70
     1
  0
XRECORD
  5
D70
102
{ACAD_REACTORS
330
D6F
102
}
330
D6F
100
AcDbXrecord
280
     1
102
RTVSPost2010Prop28
280
     0
102
RTVSPost2010PropOp28
 70
     1
102
RTVSPost2010Prop29
280
     1
102
RTVSPost2010PropOp29
 70
     1
102
RTVSPost2010Prop30
280
     1
102
RTVSPost2010PropOp30
 70
     1
102
RTVSPost2010Prop31
280
     0
102
RTVSPost2010PropOp31
 70
     1
102
RTVSPost2010Prop32
280
     0
102
RTVSPost2010PropOp32
 70
     1
102
RTVSPost2010Prop33
280
     0
102
RTVSPost2010PropOp33
 70
     1
102
RTVSPost2010Prop34
280
     0
102
RTVSPost2010PropOp34
 70
     1
102
RTVSPost2010Prop35
280
     0
102
RTVSPost2010PropOp35
 70
     1
102
RTVSPost2010Prop36
280
     0
102
RTVSPost2010PropOp36
 70
     1
102
RTVSPost2010Prop37
 90
       50
102
RTVSPost2010PropOp37
 70
     1
102
RTVSPost2010Prop38
140
0.0
102
RTVSPost2010PropOp38
 70
     1
102
RTVSPost2010Prop39
140
1.0
102
RTVSPost2010PropOp39
 70
     1
102
RTVSPost2010Prop40
 90
        0
102
RTVSPost2010PropOp40
 70
     1
102
RTVSPost2010Prop41ColorIndex
 90
       18
102
RTVSPost2010Prop41ColorRGB
 90
        0
102
RTVSPost2010PropOp41
 70
     1
102
RTVSPost2010Prop42
 90
       50
102
RTVSPost2010PropOp42
 70
     1
102
RTVSPost2010Prop43
 90
        3
102
RTVSPost2010PropOp43
 70
     1
102
RTVSPost2010Prop44ColorIndex
 90
        5
102
RTVSPost2010Prop44ColorRGB
 90
      255
102
RTVSPost2010PropOp44
 70
     1
102
RTVSPost2010Prop45
280
     0
102
RTVSPost2010PropOp45
 70
     1
102
RTVSPost2010Prop46
 90
       50
102
RTVSPost2010PropOp46
 70
     1
102
RTVSPost2010Prop47
 90
       50
102
RTVSPost2010PropOp47
 70
     1
102
RTVSPost2010Prop48
 90
       50
102
RTVSPost2010PropOp48
 70
     1
102
RTVSPost2010Prop49
280
     0
102
RTVSPost2010PropOp49
 70
     1
102
RTVSPost2010Prop50
 90
       50
102
RTVSPost2010PropOp50
 70
     1
102
RTVSPost2010Prop51ColorIndex
 90
      256
102
RTVSPost2010Prop51ColorRGB
 90
-16777216
102
RTVSPost2010PropOp51
 70
     0
102
RTVSPost2010Prop52
140
1.0
102
RTVSPost2010PropOp52
 70
     0
102
RTVSPost2010Prop53
 90
        2
102
RTVSPost2010PropOp53
 70
     1
102
RTVSPost2010Prop54
  1
strokes_ogs.tif
102
RTVSPost2010PropOp54
 70
     1
102
RTVSPost2010Prop55
280
     0
102
RTVSPost2010PropOp55
 70
     1
102
RTVSPost2010Prop56
140
1.0
102
RTVSPost2010PropOp56
 70
     1
102
RTVSPost2010Prop57
140
1.0
102
RTVSPost2010PropOp57
 70
     1
  0
XRECORD
  5
D78
102
{ACAD_REACTORS
330
D77
102
}
330
D77
100
AcDbXrecord
280
     1
102
RTVSPost2010Prop28
280
     0
102
RTVSPost2010PropOp28
 70
     1
102
RTVSPost2010Prop29
280
     1
102
RTVSPost2010PropOp29
 70
     1
102
RTVSPost2010Prop30
280
     1
102
RTVSPost2010PropOp30
 70
     1
102
RTVSPost2010Prop31
280
     0
102
RTVSPost2010PropOp31
 70
     1
102
RTVSPost2010Prop32
280
     0
102
RTVSPost2010PropOp32
 70
     1
102
RTVSPost2010Prop33
280
     0
102
RTVSPost2010PropOp33
 70
     1
102
RTVSPost2010Prop34
280
     0
102
RTVSPost2010PropOp34
 70
     1
102
RTVSPost2010Prop35
280
     0
102
RTVSPost2010PropOp35
 70
     1
102
RTVSPost2010Prop36
280
     0
102
RTVSPost2010PropOp36
 70
     1
102
RTVSPost2010Prop37
 90
       50
102
RTVSPost2010PropOp37
 70
     1
102
RTVSPost2010Prop38
140
0.0
102
RTVSPost2010PropOp38
 70
     1
102
RTVSPost2010Prop39
140
1.0
102
RTVSPost2010PropOp39
 70
     1
102
RTVSPost2010Prop40
 90
        0
102
RTVSPost2010PropOp40
 70
     1
102
RTVSPost2010Prop41ColorIndex
 90
       18
102
RTVSPost2010Prop41ColorRGB
 90
        0
102
RTVSPost2010PropOp41
 70
     1
102
RTVSPost2010Prop42
 90
       50
102
RTVSPost2010PropOp42
 70
     1
102
RTVSPost2010Prop43
 90
        3
102
RTVSPost2010PropOp43
 70
     1
102
RTVSPost2010Prop44ColorIndex
 90
        5
102
RTVSPost2010Prop44ColorRGB
 90
      255
102
RTVSPost2010PropOp44
 70
     1
102
RTVSPost2010Prop45
280
     0
102
RTVSPost2010PropOp45
 70
     1
102
RTVSPost2010Prop46
 90
       50
102
RTVSPost2010PropOp46
 70
     1
102
RTVSPost2010Prop47
 90
       50
102
RTVSPost2010PropOp47
 70
     1
102
RTVSPost2010Prop48
 90
       50
102
RTVSPost2010PropOp48
 70
     1
102
RTVSPost2010Prop49
280
     0
102
RTVSPost2010PropOp49
 70
     1
102
RTVSPost2010Prop50
 90
       50
102
RTVSPost2010PropOp50
 70
     1
102
RTVSPost2010Prop51ColorIndex
 90
      256
102
RTVSPost2010Prop51ColorRGB
 90
-16777216
102
RTVSPost2010PropOp51
 70
     0
102
RTVSPost2010Prop52
140
1.0
102
RTVSPost2010PropOp52
 70
     0
102
RTVSPost2010Prop53
 90
        2
102
RTVSPost2010PropOp53
 70
     1
102
RTVSPost2010Prop54
  1
strokes_ogs.tif
102
RTVSPost2010PropOp54
 70
     1
102
RTVSPost2010Prop55
280
     0
102
RTVSPost2010PropOp55
 70
     1
102
RTVSPost2010Prop56
140
1.0
102
RTVSPost2010PropOp56
 70
     1
102
RTVSPost2010Prop57
140
1.0
102
RTVSPost2010PropOp57
 70
     1
  0
ENDSEC
  0
EOF
