  0
SECTION
  2
HEADER
  9
$ACADVER
  1
AC1027
  9
$ACADMAINTVER
 70
   125
  9
$DWGCODEPAGE
  3
ANSI_1252
  9
$LASTSAVEDBY
  1
kaschu
  9
$REQUIREDVERSIONS
160
                 0
  9
$INSBASE
 10
0.0
 20
0.0
 30
0.0
  9
$EXTMIN
 10
-63.45844605618681
 20
0.5589413384317368
 30
0.0
  9
$EXTMAX
 10
660.7508424494682
 20
383.4592269079916
 30
0.0
  9
$LIMMIN
 10
0.0
 20
0.0
  9
$LIMMAX
 10
420.0
 20
297.0
  9
$ORTHOMODE
 70
     1
  9
$REGENMODE
 70
     1
  9
$FILLMODE
 70
     1
  9
$QTEXTMODE
 70
     0
  9
$MIRRTEXT
 70
     1
  9
$LTSCALE
 40
1.0
  9
$ATTMODE
 70
     1
  9
$TEXTSIZE
 40
2.5
  9
$TRACEWID
 40
1.0
  9
$TEXTSTYLE
  7
Standard
  9
$CLAYER
  8
0
  9
$CELTYPE
  6
ByLayer
  9
$CECOLOR
 62
   256
  9
$CELTSCALE
 40
1.0
  9
$DISPSILH
 70
     0
  9
$DIMSCALE
 40
1.0
  9
$DIMASZ
 40
2.5
  9
$DIMEXO
 40
0.625
  9
$DIMDLI
 40
3.75
  9
$DIMRND
 40
0.0
  9
$DIMDLE
 40
0.0
  9
$DIMEXE
 40
1.25
  9
$DIMTP
 40
0.0
  9
$DIMTM
 40
0.0
  9
$DIMTXT
 40
2.5
  9
$DIMCEN
 40
2.5
  9
$DIMTSZ
 40
0.0
  9
$DIMTOL
 70
     0
  9
$DIMLIM
 70
     0
  9
$DIMTIH
 70
     0
  9
$DIMTOH
 70
     0
  9
$DIMSE1
 70
     0
  9
$DIMSE2
 70
     0
  9
$DIMTAD
 70
     1
  9
$DIMZIN
 70
     8
  9
$DIMBLK
  1

  9
$DIMASO
 70
     1
  9
$DIMSHO
 70
     1
  9
$DIMPOST
  1

  9
$DIMAPOST
  1

  9
$DIMALT
 70
     0
  9
$DIMALTD
 70
     3
  9
$DIMALTF
 40
0.03937007874016
  9
$DIMLFAC
 40
1.0
  9
$DIMTOFL
 70
     1
  9
$DIMTVP
 40
0.0
  9
$DIMTIX
 70
     0
  9
$DIMSOXD
 70
     0
  9
$DIMSAH
 70
     0
  9
$DIMBLK1
  1

  9
$DIMBLK2
  1

  9
$DIMSTYLE
  2
ISO-25
  9
$DIMCLRD
 70
     0
  9
$DIMCLRE
 70
     0
  9
$DIMCLRT
 70
     0
  9
$DIMTFAC
 40
1.0
  9
$DIMGAP
 40
0.625
  9
$DIMJUST
 70
     0
  9
$DIMSD1
 70
     0
  9
$DIMSD2
 70
     0
  9
$DIMTOLJ
 70
     0
  9
$DIMTZIN
 70
     8
  9
$DIMALTZ
 70
     0
  9
$DIMALTTZ
 70
     0
  9
$DIMUPT
 70
     0
  9
$DIMDEC
 70
     2
  9
$DIMTDEC
 70
     2
  9
$DIMALTU
 70
     2
  9
$DIMALTTD
 70
     3
  9
$DIMTXSTY
  7
Standard
  9
$DIMAUNIT
 70
     0
  9
$DIMADEC
 70
     0
  9
$DIMALTRND
 40
0.0
  9
$DIMAZIN
 70
     0
  9
$DIMDSEP
 70
    44
  9
$DIMATFIT
 70
     3
  9
$DIMFRAC
 70
     0
  9
$DIMLDRBLK
  1

  9
$DIMLUNIT
 70
     2
  9
$DIMLWD
 70
    -2
  9
$DIMLWE
 70
    -2
  9
$DIMTMOVE
 70
     0
  9
$DIMFXL
 40
1.0
  9
$DIMFXLON
 70
     0
  9
$DIMJOGANG
 40
0.7853981633974483
  9
$DIMTFILL
 70
     0
  9
$DIMTFILLCLR
 70
     0
  9
$DIMARCSYM
 70
     0
  9
$DIMLTYPE
  6

  9
$DIMLTEX1
  6

  9
$DIMLTEX2
  6

  9
$DIMTXTDIRECTION
 70
     0
  9
$LUNITS
 70
     2
  9
$LUPREC
 70
     4
  9
$SKETCHINC
 40
1.0
  9
$FILLETRAD
 40
10.0
  9
$AUNITS
 70
     0
  9
$AUPREC
 70
     0
  9
$MENU
  1
.
  9
$ELEVATION
 40
0.0
  9
$PELEVATION
 40
0.0
  9
$THICKNESS
 40
0.0
  9
$LIMCHECK
 70
     0
  9
$CHAMFERA
 40
0.0
  9
$CHAMFERB
 40
0.0
  9
$CHAMFERC
 40
0.0
  9
$CHAMFERD
 40
0.0
  9
$SKPOLY
 70
     0
  9
$TDCREATE
 40
2459124.616724537
  9
$TDUCREATE
 40
2459124.533392615
  9
$TDUPDATE
 40
2459124.617418982
  9
$TDUUPDATE
 40
2459124.534085648
  9
$TDINDWG
 40
0.0006365856
  9
$TDUSRTIMER
 40
0.0006365856
  9
$USRTIMER
 70
     1
  9
$ANGBASE
 50
0.0
  9
$ANGDIR
 70
     0
  9
$PDMODE
 70
     0
  9
$PDSIZE
 40
0.0
  9
$PLINEWID
 40
0.0
  9
$SPLFRAME
 70
     0
  9
$SPLINETYPE
 70
     6
  9
$SPLINESEGS
 70
     8
  9
$HANDSEED
  5
160
  9
$SURFTAB1
 70
     6
  9
$SURFTAB2
 70
     6
  9
$SURFTYPE
 70
     6
  9
$SURFU
 70
     6
  9
$SURFV
 70
     6
  9
$UCSBASE
  2

  9
$UCSNAME
  2

  9
$UCSORG
 10
0.0
 20
0.0
 30
0.0
  9
$UCSXDIR
 10
1.0
 20
0.0
 30
0.0
  9
$UCSYDIR
 10
0.0
 20
1.0
 30
0.0
  9
$UCSORTHOREF
  2

  9
$UCSORTHOVIEW
 70
     0
  9
$UCSORGTOP
 10
0.0
 20
0.0
 30
0.0
  9
$UCSORGBOTTOM
 10
0.0
 20
0.0
 30
0.0
  9
$UCSORGLEFT
 10
0.0
 20
0.0
 30
0.0
  9
$UCSORGRIGHT
 10
0.0
 20
0.0
 30
0.0
  9
$UCSORGFRONT
 10
0.0
 20
0.0
 30
0.0
  9
$UCSORGBACK
 10
0.0
 20
0.0
 30
0.0
  9
$PUCSBASE
  2

  9
$PUCSNAME
  2

  9
$PUCSORG
 10
0.0
 20
0.0
 30
0.0
  9
$PUCSXDIR
 10
1.0
 20
0.0
 30
0.0
  9
$PUCSYDIR
 10
0.0
 20
1.0
 30
0.0
  9
$PUCSORTHOREF
  2

  9
$PUCSORTHOVIEW
 70
     0
  9
$PUCSORGTOP
 10
0.0
 20
0.0
 30
0.0
  9
$PUCSORGBOTTOM
 10
0.0
 20
0.0
 30
0.0
  9
$PUCSORGLEFT
 10
0.0
 20
0.0
 30
0.0
  9
$PUCSORGRIGHT
 10
0.0
 20
0.0
 30
0.0
  9
$PUCSORGFRONT
 10
0.0
 20
0.0
 30
0.0
  9
$PUCSORGBACK
 10
0.0
 20
0.0
 30
0.0
  9
$USERI1
 70
     0
  9
$USERI2
 70
     0
  9
$USERI3
 70
     0
  9
$USERI4
 70
     0
  9
$USERI5
 70
     0
  9
$USERR1
 40
0.0
  9
$USERR2
 40
0.0
  9
$USERR3
 40
0.0
  9
$USERR4
 40
0.0
  9
$USERR5
 40
0.0
  9
$WORLDVIEW
 70
     1
  9
$SHADEDGE
 70
     3
  9
$SHADEDIF
 70
    70
  9
$TILEMODE
 70
     1
  9
$MAXACTVP
 70
    64
  9
$PINSBASE
 10
0.0
 20
0.0
 30
0.0
  9
$PLIMCHECK
 70
     0
  9
$PEXTMIN
 10
1.000000000000000E+20
 20
1.000000000000000E+20
 30
1.000000000000000E+20
  9
$PEXTMAX
 10
-1.000000000000000E+20
 20
-1.000000000000000E+20
 30
-1.000000000000000E+20
  9
$PLIMMIN
 10
0.0
 20
0.0
  9
$PLIMMAX
 10
420.0
 20
297.0
  9
$UNITMODE
 70
     0
  9
$VISRETAIN
 70
     1
  9
$PLINEGEN
 70
     0
  9
$PSLTSCALE
 70
     1
  9
$TREEDEPTH
 70
  3020
  9
$CMLSTYLE
  2
Standard
  9
$CMLJUST
 70
     0
  9
$CMLSCALE
 40
20.0
  9
$PROXYGRAPHICS
 70
     1
  9
$MEASUREMENT
 70
     1
  9
$CELWEIGHT
370
    -1
  9
$ENDCAPS
280
     0
  9
$JOINSTYLE
280
     0
  9
$LWDISPLAY
290
     0
  9
$INSUNITS
 70
     5
  9
$HYPERLINKBASE
  1

  9
$STYLESHEET
  1

  9
$XEDIT
290
     1
  9
$CEPSNTYPE
380
     0
  9
$PSTYLEMODE
290
     1
  9
$FINGERPRINTGUID
  2
{4CD33961-F251-4F71-9D4E-8B0F5597E555}
  9
$VERSIONGUID
  2
{EC936742-4AE6-8E41-AA0A-6F0A42C69B27}
  9
$EXTNAMES
290
     1
  9
$PSVPSCALE
 40
0.0
  9
$OLESTARTUP
290
     0
  9
$SORTENTS
280
   127
  9
$INDEXCTL
280
     0
  9
$HIDETEXT
280
     1
  9
$XCLIPFRAME
280
     2
  9
$HALOGAP
280
     0
  9
$OBSCOLOR
 70
   257
  9
$OBSLTYPE
280
     0
  9
$INTERSECTIONDISPLAY
280
     0
  9
$INTERSECTIONCOLOR
 70
   257
  9
$DIMASSOC
280
     2
  9
$PROJECTNAME
  1

  9
$CAMERADISPLAY
290
     0
  9
$LENSLENGTH
 40
50.0
  9
$CAMERAHEIGHT
 40
0.0
  9
$STEPSPERSEC
 40
2.0
  9
$STEPSIZE
 40
6.0
  9
$3DDWFPREC
 40
2.0
  9
$PSOLWIDTH
 40
5.0
  9
$PSOLHEIGHT
 40
80.0
  9
$LOFTANG1
 40
1.570796326794897
  9
$LOFTANG2
 40
1.570796326794897
  9
$LOFTMAG1
 40
0.0
  9
$LOFTMAG2
 40
0.0
  9
$LOFTPARAM
 70
     7
  9
$LOFTNORMALS
280
     1
  9
$LATITUDE
 40
37.795
  9
$LONGITUDE
 40
-122.394
  9
$NORTHDIRECTION
 40
0.0
  9
$TIMEZONE
 70
 -8000
  9
$LIGHTGLYPHDISPLAY
280
     1
  9
$TILEMODELIGHTSYNCH
280
     1
  9
$CMATERIAL
347
44
  9
$SOLIDHIST
280
     0
  9
$SHOWHIST
280
     1
  9
$DWFFRAME
280
     2
  9
$DGNFRAME
280
     2
  9
$REALWORLDSCALE
290
     1
  9
$INTERFERECOLOR
 62
   256
  9
$INTERFEREOBJVS
345
33
  9
$INTERFEREVPVS
346
30
  9
$CSHADOW
280
     0
  9
$SHADOWPLANELOCATION
 40
0.0
  0
ENDSEC
  0
SECTION
  2
CLASSES
  0
CLASS
  1
ACDBDICTIONARYWDFLT
  2
AcDbDictionaryWithDefault
  3
ObjectDBX Classes
 90
        0
 91
        1
280
     0
281
     0
  0
CLASS
  1
VISUALSTYLE
  2
AcDbVisualStyle
  3
ObjectDBX Classes
 90
     4095
 91
       24
280
     0
281
     0
  0
CLASS
  1
MATERIAL
  2
AcDbMaterial
  3
ObjectDBX Classes
 90
     1153
 91
        3
280
     0
281
     0
  0
CLASS
  1
SCALE
  2
AcDbScale
  3
ObjectDBX Classes
 90
     1153
 91
       33
280
     0
281
     0
  0
CLASS
  1
TABLESTYLE
  2
AcDbTableStyle
  3
ObjectDBX Classes
 90
     4095
 91
        1
280
     0
281
     0
  0
CLASS
  1
MLEADERSTYLE
  2
AcDbMLeaderStyle
  3
ACDB_MLEADERSTYLE_CLASS
 90
     4095
 91
        1
280
     0
281
     0
  0
CLASS
  1
SUN
  2
AcDbSun
  3
SCENEOE
 90
     1153
 91
        1
280
     0
281
     0
  0
CLASS
  1
DICTIONARYVAR
  2
AcDbDictionaryVar
  3
ObjectDBX Classes
 90
        0
 91
        7
280
     0
281
     0
  0
CLASS
  1
CELLSTYLEMAP
  2
AcDbCellStyleMap
  3
ObjectDBX Classes
 90
     1152
 91
        2
280
     0
281
     0
  0
CLASS
  1
ACDBSECTIONVIEWSTYLE
  2
AcDbSectionViewStyle
  3
ObjectDBX Classes
 90
     1025
 91
        1
280
     0
281
     0
  0
CLASS
  1
ACDBDETAILVIEWSTYLE
  2
AcDbDetailViewStyle
  3
ObjectDBX Classes
 90
     1025
 91
        1
280
     0
281
     0
  0
CLASS
  1
SORTENTSTABLE
  2
AcDbSortentsTable
  3
ObjectDBX Classes
 90
        0
 91
        1
280
     0
281
     0
  0
ENDSEC
  0
SECTION
  2
TABLES
  0
TABLE
  2
VPORT
  5
8
330
0
100
AcDbSymbolTable
 70
     1
1001
ACAD
1000
DbSaveVer
1071
      224
  0
VPORT
  5
29
330
8
100
AcDbSymbolTableRecord
100
AcDbViewportTableRecord
  2
*Active
 70
     0
 10
0.0
 20
0.0
 11
1.0
 21
1.0
 12
461.3407819145281
 22
242.9276665584117
 13
0.0
 23
0.0
 14
10.0
 24
10.0
 15
10.0
 25
10.0
 16
0.0
 26
0.0
 36
1.0
 17
0.0
 27
0.0
 37
0.0
 40
775.4330727189958
 41
2.046436285097192
 42
50.0
 43
0.0
 44
0.0
 50
0.0
 51
0.0
 71
     0
 72
   100
 73
     1
 74
     3
 75
     0
 76
     0
 77
     0
 78
     0
281
     0
 65
     1
110
0.0
120
0.0
130
0.0
111
1.0
121
0.0
131
0.0
112
0.0
122
1.0
132
0.0
 79
     0
146
0.0
348
2F
 60
     3
 61
     5
292
     1
282
     1
141
0.0
142
0.0
361
6D
1001
ACAD_NAV_VCDISPLAY
1070
     3
  0
ENDTAB
  0
TABLE
  2
LTYPE
  5
5
330
0
100
AcDbSymbolTable
 70
    11
  0
LTYPE
  5
14
330
5
100
AcDbSymbolTableRecord
100
AcDbLinetypeTableRecord
  2
ByBlock
 70
     0
  3

 72
    65
 73
     0
 40
0.0
  0
LTYPE
  5
15
330
5
100
AcDbSymbolTableRecord
100
AcDbLinetypeTableRecord
  2
ByLayer
 70
     0
  3

 72
    65
 73
     0
 40
0.0
  0
LTYPE
  5
16
330
5
100
AcDbSymbolTableRecord
100
AcDbLinetypeTableRecord
  2
Continuous
 70
     0
  3
Solid line
 72
    65
 73
     0
 40
0.0
  0
LTYPE
  5
6F
330
5
100
AcDbSymbolTableRecord
100
AcDbLinetypeTableRecord
  2
CUSTOM
 70
     0
  3

 72
    65
 73
     0
 40
0.0
  0
LTYPE
  5
70
330
5
100
AcDbSymbolTableRecord
100
AcDbLinetypeTableRecord
  2
SOLID
 70
     0
  3

 72
    65
 73
     0
 40
0.0
  0
LTYPE
  5
71
330
5
100
AcDbSymbolTableRecord
100
AcDbLinetypeTableRecord
  2
DASHED
 70
     0
  3

 72
    65
 73
     2
 40
2.349999963925518
 49
1.174999981962759
 74
     0
 49
-1.174999981962759
 74
     0
  0
LTYPE
  5
72
330
5
100
AcDbSymbolTableRecord
100
AcDbLinetypeTableRecord
  2
LONG_DASH
 70
     0
  3

 72
    65
 73
     2
 40
2.349999963925518
 49
1.762499972944139
 74
     0
 49
-0.5874999909813797
 74
     0
  0
LTYPE
  5
73
330
5
100
AcDbSymbolTableRecord
100
AcDbLinetypeTableRecord
  2
SHORT_DASH
 70
     0
  3

 72
    65
 73
     4
 40
2.349999963925518
 49
0.4699999927851037
 74
     0
 49
-0.7049999891776555
 74
     0
 49
0.4699999927851037
 74
     0
 49
-0.7049999891776555
 74
     0
  0
LTYPE
  5
74
330
5
100
AcDbSymbolTableRecord
100
AcDbLinetypeTableRecord
  2
DOTTED
 70
     0
  3

 72
    65
 73
     8
 40
2.349999963925518
 49
0.1174999981962759
 74
     0
 49
-0.4699999927851037
 74
     0
 49
0.1174999981962759
 74
     0
 49
-0.4699999927851037
 74
     0
 49
0.1174999981962759
 74
     0
 49
-0.4699999927851037
 74
     0
 49
0.1174999981962759
 74
     0
 49
-0.4699999927851037
 74
     0
  0
LTYPE
  5
75
330
5
100
AcDbSymbolTableRecord
100
AcDbLinetypeTableRecord
  2
DOTDASH
 70
     0
  3

 72
    65
 73
     4
 40
2.349999963925518
 49
0.1174999981962759
 74
     0
 49
-0.5874999909813797
 74
     0
 49
1.057499983766482
 74
     0
 49
-0.5874999909813797
 74
     0
  0
LTYPE
  5
76
330
5
100
AcDbSymbolTableRecord
100
AcDbLinetypeTableRecord
  2
DOTDOTDASH
 70
     0
  3

 72
    65
 73
     6
 40
2.349999963925518
 49
0.1174999981962759
 74
     0
 49
-0.3524999945888277
 74
     0
 49
0.1174999981962759
 74
     0
 49
-0.3524999945888277
 74
     0
 49
1.057499983766482
 74
     0
 49
-0.3524999945888277
 74
     0
  0
LTYPE
  5
77
330
5
100
AcDbSymbolTableRecord
100
AcDbLinetypeTableRecord
  2
DASHDASHDOT
 70
     0
  3

 72
    65
 73
     6
 40
2.349999963925518
 49
0.1174999981962759
 74
     0
 49
-0.3524999945888277
 74
     0
 49
0.1174999981962759
 74
     0
 49
-0.3524999945888277
 74
     0
 49
1.057499983766482
 74
     0
 49
-0.3524999945888277
 74
     0
  0
ENDTAB
  0
TABLE
  2
LAYER
  5
2
102
{ACAD_XDICTIONARY
360
9A
102
}
330
0
100
AcDbSymbolTable
 70
     2
  0
LAYER
  5
10
330
2
100
AcDbSymbolTableRecord
100
AcDbLayerTableRecord
  2
0
 70
     0
 62
     7
  6
Continuous
370
    -3
390
F
347
46
348
0
  0
LAYER
  5
96
330
2
100
AcDbSymbolTableRecord
100
AcDbLayerTableRecord
  2
HEWI
 70
     0
 62
     7
  6
Continuous
370
     9
390
F
347
46
348
0
1001
AcAecLayerStandard
1000

1000

1001
AcCmTransparency
1071
        0
  0
ENDTAB
  0
TABLE
  2
STYLE
  5
3
330
0
100
AcDbSymbolTable
 70
     1
  0
STYLE
  5
11
330
3
100
AcDbSymbolTableRecord
100
AcDbTextStyleTableRecord
  2
Standard
 70
     0
 40
0.0
 41
1.0
 50
0.0
 71
     0
 42
2.5
  3
txt
  4

  0
ENDTAB
  0
TABLE
  2
VIEW
  5
6
330
0
100
AcDbSymbolTable
 70
     0
  0
ENDTAB
  0
TABLE
  2
UCS
  5
7
330
0
100
AcDbSymbolTable
 70
     0
  0
ENDTAB
  0
TABLE
  2
APPID
  5
9
330
0
100
AcDbSymbolTable
 70
     5
  0
APPID
  5
12
330
9
100
AcDbSymbolTableRecord
100
AcDbRegAppTableRecord
  2
ACAD
 70
     0
  0
APPID
  5
97
330
9
100
AcDbSymbolTableRecord
100
AcDbRegAppTableRecord
  2
ACAD_NAV_VCDISPLAY
 70
     0
  0
APPID
  5
98
330
9
100
AcDbSymbolTableRecord
100
AcDbRegAppTableRecord
  2
AcAecLayerStandard
 70
     0
  0
APPID
  5
99
330
9
100
AcDbSymbolTableRecord
100
AcDbRegAppTableRecord
  2
AcCmTransparency
 70
     0
  0
APPID
  5
150
330
9
100
AcDbSymbolTableRecord
100
AcDbRegAppTableRecord
  2
ACAD_EXEMPT_FROM_CAD_STANDARDS
 70
     0
  0
ENDTAB
  0
TABLE
  2
DIMSTYLE
  5
A
330
0
100
AcDbSymbolTable
 70
     2
100
AcDbDimStyleTable
 71
     1
340
27
  0
DIMSTYLE
105
27
330
A
100
AcDbSymbolTableRecord
100
AcDbDimStyleTableRecord
  2
ISO-25
 70
     0
 41
2.5
 42
0.625
 43
3.75
 44
1.25
 73
     0
 74
     0
 77
     1
 78
     8
140
2.5
141
2.5
143
0.03937007874016
147
0.625
171
     3
172
     1
271
     2
272
     2
274
     3
278
    44
283
     0
284
     8
340
11
  0
ENDTAB
  0
TABLE
  2
BLOCK_RECORD
  5
1
330
0
100
AcDbSymbolTable
 70
     3
  0
BLOCK_RECORD
  5
1F
330
1
100
AcDbSymbolTableRecord
100
AcDbBlockTableRecord
  2
*Model_Space
340
22
 70
     0
280
     1
281
     0
  0
BLOCK_RECORD
  5
1B
330
1
100
AcDbSymbolTableRecord
100
AcDbBlockTableRecord
  2
*Paper_Space
340
1E
 70
     0
280
     1
281
     0
  0
BLOCK_RECORD
  5
23
330
1
100
AcDbSymbolTableRecord
100
AcDbBlockTableRecord
  2
*Paper_Space0
340
26
 70
     0
280
     1
281
     0
  0
ENDTAB
  0
ENDSEC
  0
SECTION
  2
BLOCKS
  0
BLOCK
  5
20
330
1F
100
AcDbEntity
  8
0
100
AcDbBlockBegin
  2
*Model_Space
 70
     0
 10
0.0
 20
0.0
 30
0.0
  3
*Model_Space
  1

  0
ENDBLK
  5
21
330
1F
100
AcDbEntity
  8
0
100
AcDbBlockEnd
  0
BLOCK
  5
1C
330
1B
100
AcDbEntity
 67
     1
  8
0
100
AcDbBlockBegin
  2
*Paper_Space
 70
     0
 10
0.0
 20
0.0
 30
0.0
  3
*Paper_Space
  1

  0
ENDBLK
  5
1D
330
1B
100
AcDbEntity
 67
     1
  8
0
100
AcDbBlockEnd
  0
BLOCK
  5
24
330
23
100
AcDbEntity
 67
     1
  8
0
100
AcDbBlockBegin
  2
*Paper_Space0
 70
     0
 10
0.0
 20
0.0
 30
0.0
  3
*Paper_Space0
  1

  0
ENDBLK
  5
25
330
23
100
AcDbEntity
 67
     1
  8
0
100
AcDbBlockEnd
  0
ENDSEC
  0
SECTION
  2
ENTITIES
  0
LWPOLYLINE
  5
78
330
1F
100
AcDbEntity
  8
HEWI
  6
CUSTOM
 62
    18
420
        0
370
     9
100
AcDbPolyline
 90
       18
 70
     0
 43
0.0
 10
471.0351089809613
 20
108.1589435591606
 10
471.0351089809613
 20
109.6589435901187
 10
471.0100368935277
 20
109.6589435901187
 10
470.9360778503837
 20
109.6589435901187
 10
470.8169404667782
 20
109.6589435901187
 10
470.6585987885995
 20
109.6589435901187
 10
470.468992728769
 20
109.6589435901187
 10
470.2576299268524
 20
109.6589435901187
 10
470.035108996312
 20
109.6589435901187
 10
2.035116180506847
 20
109.6589435901187
 10
1.812595249966705
 20
109.6589435901187
 10
1.601232448050012
 20
109.6589435901187
 10
1.411626388219403
 20
109.6589435901187
 10
1.253284710040688
 20
109.6589435901187
 10
1.13414732643514
 20
109.6589435901187
 10
1.060188283291211
 20
109.6589435901187
 10
1.035116195857611
 20
109.6589435901187
 10
1.035116195857611
 20
108.1589435591606
  0
LWPOLYLINE
  5
79
330
1F
100
AcDbEntity
  8
HEWI
  6
CUSTOM
 62
    18
420
        0
370
     9
100
AcDbPolyline
 90
       16
 70
     0
 43
0.0
 10
1.035116195857611
 20
108.1589435591606
 10
1.060188283291211
 20
108.1589435591606
 10
1.13414732643514
 20
108.1589435591606
 10
1.253284710040688
 20
108.1589435591606
 10
1.411626388219403
 20
108.1589435591606
 10
1.601232448050012
 20
108.1589435591606
 10
1.812595249966705
 20
108.1589435591606
 10
2.035116180506847
 20
108.1589435591606
 10
470.035108996312
 20
108.1589435591606
 10
470.2576299268524
 20
108.1589435591606
 10
470.468992728769
 20
108.1589435591606
 10
470.6585987885995
 20
108.1589435591606
 10
470.8169404667782
 20
108.1589435591606
 10
470.9360778503837
 20
108.1589435591606
 10
471.0100368935277
 20
108.1589435591606
 10
471.0351089809613
 20
108.1589435591606
  0
LWPOLYLINE
  5
7A
330
1F
100
AcDbEntity
  8
HEWI
  6
CUSTOM
 62
    18
420
        0
370
     9
100
AcDbPolyline
 90
       34
 70
     1
 43
0.0
 10
256.026490310173
 20
24.06756379497173
 10
261.1253663076569
 20
30.28056239804462
 10
264.9141729780544
 20
37.36892137117471
 10
267.2473086058083
 20
45.06023905422174
 10
268.0351120971823
 20
53.05894242196578
 10
267.2473086058083
 20
61.05764578971068
 10
264.9141729780544
 20
68.74896347275657
 10
261.1253663076569
 20
75.83732244588666
 10
256.026490310173
 20
82.05032104895954
 10
249.8134919307032
 20
87.14919722994954
 10
242.7251332126803
 20
90.93800403670575
 10
235.0338158064412
 20
93.27113974842779
 10
227.0351127265672
 20
94.05894326815461
 10
72.03511510594781
 20
94.05894326815461
 10
64.03641202607284
 20
93.27113974842779
 10
56.34509461983371
 20
90.93800403670575
 10
49.25673590181128
 20
87.14919722994954
 10
43.04373752234143
 20
82.05032104895954
 10
37.94486152485719
 20
75.83732244588666
 10
34.1560548544601
 20
68.74896347275657
 10
31.82291922670581
 20
61.05764578971068
 10
31.03511573533227
 20
53.05894242196578
 10
31.82291922670581
 20
45.06023905422174
 10
34.1560548544601
 20
37.36892137117471
 10
37.94486152485719
 20
30.28056239804462
 10
43.04373752234143
 20
24.06756379497173
 10
49.25673590181128
 20
18.96868761398073
 10
56.34509461983371
 20
15.17988080722665
 10
64.03641202607284
 20
12.84674509550362
 10
72.03511510594781
 20
12.05894157577666
 10
227.0351127265672
 20
12.05894157577666
 10
235.0338158064412
 20
12.84674509550362
 10
242.7251332126803
 20
15.17988080722665
 10
249.8134919307032
 20
18.96868761398073
  0
LINE
  5
7B
330
1F
100
AcDbEntity
  8
HEWI
  6
CUSTOM
 62
    18
420
        0
370
     9
100
AcDbLine
 10
1.035116195857611
 20
104.0589434745418
 30
0.0
 11
471.0351089809613
 21
104.0589434745418
 31
0.0
  0
LWPOLYLINE
  5
7C
330
1F
100
AcDbEntity
  8
HEWI
  6
CUSTOM
 62
    18
420
        0
370
     9
100
AcDbPolyline
 90
       26
 70
     1
 43
0.0
 10
434.0521843023139
 20
85.58549397704572
 10
426.0351096717492
 20
86.55894311336373
 10
418.0180350411847
 20
85.58549397704572
 10
410.4668836472682
 20
82.72171989355078
 10
403.8205009616954
 20
78.13405300321654
 10
398.4651505875333
 20
72.08911183021775
 10
394.7120660226233
 20
64.9382063830638
 10
392.7793628999686
 20
57.09692129385778
 10
392.7793628999686
 20
49.02096355007365
 10
394.7120660226233
 20
41.17967846086776
 10
398.4651505875343
 20
34.02877301371268
 10
403.8205009616954
 20
27.98383184071474
 10
410.4668836472682
 20
23.39616495038078
 10
418.0180350411847
 20
20.53239086688583
 10
426.0351096717492
 20
19.55894173056782
 10
434.0521843023139
 20
20.53239086688583
 10
441.60333569623
 20
23.39616495038078
 10
448.2497183818026
 20
27.98383184071588
 10
453.6050687559648
 20
34.02877301371268
 10
457.3581533208754
 20
41.17967846086776
 10
459.2908564435306
 20
49.02096355007365
 10
459.2908564435306
 20
57.09692129385778
 10
457.3581533208754
 20
64.9382063830638
 10
453.6050687559648
 20
72.08911183021775
 10
448.2497183818026
 20
78.13405300321654
 10
441.60333569623
 20
82.72171989355078
  0
LWPOLYLINE
  5
7D
330
1F
100
AcDbEntity
  8
HEWI
  6
CUSTOM
 62
    18
420
        0
370
     9
100
AcDbPolyline
 90
       16
 70
     0
 43
0.0
 10
471.0351089809613
 20
108.1589435591606
 10
471.0351089809613
 20
108.1388858884928
 10
471.0351089809613
 20
108.0797186518477
 10
471.0351089809613
 20
107.9844087415326
 10
471.0351089809613
 20
107.8577353944307
 10
471.0351089809613
 20
107.7060505411076
 10
471.0351089809613
 20
107.5369602934886
 10
471.0351089809613
 20
107.3589435426497
 10
471.0351089809613
 20
106.3589435220108
 10
471.0351089809613
 20
105.8471453633489
 10
471.0351089809613
 20
105.3610109014447
 10
471.0351089809613
 20
104.9249169481395
 10
471.0351089809613
 20
104.5607310752216
 10
471.0351089809613
 20
104.2867150830678
 10
471.0351089809613
 20
104.1166092777145
 10
471.0351089809613
 20
104.0589434745418
  0
LWPOLYLINE
  5
7E
330
1F
100
AcDbEntity
  8
HEWI
  6
CUSTOM
 62
    18
420
        0
370
     9
100
AcDbPolyline
 90
       16
 70
     0
 43
0.0
 10
1.035116195857611
 20
104.0589434745418
 10
1.035116195857611
 20
104.1166092777137
 10
1.035116195857611
 20
104.2867150830667
 10
1.035116195857611
 20
104.5607310752216
 10
1.035116195857611
 20
104.9249169481395
 10
1.035116195857611
 20
105.3610109014447
 10
1.035116195857611
 20
105.8471453633489
 10
1.035116195857611
 20
106.3589435220108
 10
1.035116195857611
 20
107.3589435426497
 10
1.035116195857611
 20
107.5369602934886
 10
1.035116195857611
 20
107.7060505411076
 10
1.035116195857611
 20
107.8577353944307
 10
1.035116195857611
 20
107.9844087415326
 10
1.035116195857611
 20
108.0797186518477
 10
1.035116195857611
 20
108.1388858884928
 10
1.035116195857611
 20
108.1589435591606
  0
LWPOLYLINE
  5
7F
330
1F
100
AcDbEntity
  8
HEWI
  6
CUSTOM
 62
    18
420
        0
370
     9
100
AcDbPolyline
 90
       16
 70
     0
 43
0.0
 10
471.0351089809613
 20
104.0589434745418
 10
471.0351089809613
 20
104.0388858038738
 10
471.0351089809613
 20
103.9797185672286
 10
471.0351089809613
 20
103.8844086569147
 10
471.0351089809613
 20
103.7577353098117
 10
471.0351089809613
 20
103.6060504564886
 10
471.0351089809613
 20
103.4369602088696
 10
471.0351089809613
 20
103.2589434580318
 10
471.0351089809613
 20
2.85894138590072
 10
471.0351089809613
 20
2.6809246350617
 10
471.0351089809613
 20
2.511834387442831
 10
471.0351089809613
 20
2.360149534118733
 10
471.0351089809613
 20
2.233476187016719
 10
471.0351089809613
 20
2.138166276702747
 10
471.0351089809613
 20
2.078999040057766
 10
471.0351089809613
 20
2.058941369389572
  0
LWPOLYLINE
  5
80
330
1F
100
AcDbEntity
  8
HEWI
  6
CUSTOM
 62
    18
420
        0
370
     9
100
AcDbPolyline
 90
       16
 70
     0
 43
0.0
 10
471.0351089809613
 20
2.058941369389572
 10
470.9598927186612
 20
2.058941369389572
 10
470.7380155892289
 20
2.058941369389572
 10
470.3806034384125
 20
2.058941369389572
 10
469.9055784038767
 20
2.058941369389572
 10
469.3367602243848
 20
2.058941369389572
 10
468.7026718186347
 20
2.058941369389572
 10
468.0351090270137
 20
2.058941369389572
 10
4.035116149804821
 20
2.058941369389572
 10
3.367553358183897
 20
2.058941369389572
 10
2.733464952433536
 20
2.058941369389572
 10
2.164646772942205
 20
2.058941369389572
 10
1.689621738405847
 20
2.058941369389572
 10
1.332209587589417
 20
2.058941369389572
 10
1.110332458157202
 20
2.058941369389572
 10
1.035116195857611
 20
2.058941369389572
  0
LWPOLYLINE
  5
81
330
1F
100
AcDbEntity
  8
HEWI
  6
CUSTOM
 62
    18
420
        0
370
     9
100
AcDbPolyline
 90
       18
 70
     0
 43
0.0
 10
471.0351089809613
 20
2.058941369389572
 10
471.0351089809613
 20
0.5589413384317368
 10
470.9598927186612
 20
0.5589413384317368
 10
470.7380155892289
 20
0.5589413384317368
 10
470.3806034384125
 20
0.5589413384317368
 10
469.9055784038767
 20
0.5589413384317368
 10
469.3367602243848
 20
0.5589413384317368
 10
468.7026718186347
 20
0.5589413384317368
 10
468.0351090270137
 20
0.5589413384317368
 10
4.035116149804821
 20
0.5589413384317368
 10
3.367553358183897
 20
0.5589413384317368
 10
2.733464952433536
 20
0.5589413384317368
 10
2.164646772942205
 20
0.5589413384317368
 10
1.689621738405847
 20
0.5589413384317368
 10
1.332209587589417
 20
0.5589413384317368
 10
1.110332458157202
 20
0.5589413384317368
 10
1.035116195857611
 20
0.5589413384317368
 10
1.035116195857611
 20
2.058941369389572
  0
LWPOLYLINE
  5
82
330
1F
100
AcDbEntity
  8
HEWI
  6
CUSTOM
 62
    18
420
        0
370
     9
100
AcDbPolyline
 90
       16
 70
     0
 43
0.0
 10
1.035116195857611
 20
2.058941369389572
 10
1.035116195857611
 20
2.078999040057766
 10
1.035116195857611
 20
2.138166276702747
 10
1.035116195857611
 20
2.233476187016719
 10
1.035116195857611
 20
2.360149534118733
 10
1.035116195857611
 20
2.511834387442831
 10
1.035116195857611
 20
2.6809246350617
 10
1.035116195857611
 20
2.85894138590072
 10
1.035116195857611
 20
103.2589434580318
 10
1.035116195857611
 20
103.4369602088696
 10
1.035116195857611
 20
103.6060504564886
 10
1.035116195857611
 20
103.7577353098117
 10
1.035116195857611
 20
103.8844086569138
 10
1.035116195857611
 20
103.9797185672286
 10
1.035116195857611
 20
104.0388858038738
 10
1.035116195857611
 20
104.0589434745418
  0
LWPOLYLINE
  5
F9
330
1F
100
AcDbEntity
  8
HEWI
  6
CUSTOM
 62
    18
420
        0
370
     9
100
AcDbPolyline
 90
       96
 70
     1
 43
0.0
 10
539.5367520088245
 20
209.8117870866043
 10
539.5367520088245
 20
209.6926497007645
 10
539.5367520088245
 20
209.5343080196177
 10
539.5367520088245
 20
209.3447019562315
 10
539.5367520088245
 20
209.1333391503515
 10
539.5367520088245
 20
208.9108182156396
 10
539.5367520088245
 20
204.710818201362
 10
539.5944178122056
 20
204.1990200515233
 10
539.7645236181813
 20
203.7128855979997
 10
540.0385396113358
 20
203.276791652212
 10
540.4027254855839
 20
202.912605785573
 10
540.838819440479
 20
202.6385897981432
 10
541.3249539041578
 20
202.4684839957225
 10
541.8367520646905
 20
202.4108181935448
 10
542.8367520889776
 20
202.4108181935448
 10
543.0147688404679
 20
202.3907605232217
 10
543.1838590887048
 20
202.3315932875972
 10
543.3355439425816
 20
202.2362833789255
 10
543.4622172901447
 20
202.1096100340072
 10
543.5575272008088
 20
201.9579251832984
 10
543.616694437668
 20
201.7888349385954
 10
543.6367521084105
 20
201.6108181908255
 10
543.6367521084105
 20
196.7108181741697
 10
543.6944179117915
 20
196.1990200243293
 10
543.8645237177673
 20
195.7128855708062
 10
544.1385397109217
 20
195.2767916250196
 10
544.5027255851676
 20
194.9126057583806
 10
544.938819540065
 20
194.6385897709497
 10
545.4249540037437
 20
194.4684839685283
 10
545.9367521642741
 20
194.4108181663513
 10
646.3367546029087
 20
194.4108181663513
 10
646.8485527634391
 20
194.4684839685283
 10
647.3346872271202
 20
194.6385897709497
 10
647.7707811820155
 20
194.9126057583806
 10
648.1349670562633
 20
195.2767916250196
 10
648.4089830494179
 20
195.7128855708062
 10
648.5790888553935
 20
196.1990200243293
 10
648.6367546587746
 20
196.7108181741697
 10
648.6367546587746
 20
203.4108181969431
 10
648.6367546587746
 20
204.0783810010818
 10
648.6367546587746
 20
204.7124694187205
 10
648.6367546587746
 20
205.2812876088775
 10
648.6367546587746
 20
205.7563126523202
 10
648.6367546587746
 20
206.1137248098386
 10
648.6367546587746
 20
206.3356019434305
 10
648.6367546587746
 20
206.4108182071414
 10
647.1367546223413
 20
206.4108182071414
 10
647.1367546223413
 20
206.3356019434305
 10
647.1367546223413
 20
206.1137248098386
 10
647.1367546223413
 20
205.7563126523202
 10
647.1367546223413
 20
205.2812876088775
 10
647.1367546223413
 20
204.7124694187205
 10
647.1367546223413
 20
204.0783810010818
 10
647.1367546223413
 20
203.4108181969431
 10
647.1367546223413
 20
196.7108181741697
 10
647.1166969515991
 20
196.5328014263992
 10
647.0575297147377
 20
196.3637111816957
 10
646.9622198040759
 20
196.2120263309863
 10
646.8355464565104
 20
196.0853529860686
 10
646.6838616026336
 20
195.9900430773974
 10
646.514771354399
 20
195.9308758417723
 10
646.3367546029087
 20
195.9108181714493
 10
545.9367521642741
 20
195.9108181714493
 10
545.7587354127861
 20
195.9308758417723
 10
545.5896451645492
 20
195.9900430773974
 10
545.4379603106724
 20
196.0853529860686
 10
545.3112869631093
 20
196.2120263309863
 10
545.2159770524452
 20
196.3637111816957
 10
545.156809815586
 20
196.5328014263992
 10
545.1367521448434
 20
196.7108181741697
 10
545.1367521448434
 20
201.6108181908255
 10
545.0790863414624
 20
202.1226163406642
 10
544.9089805354867
 20
202.6087507941873
 10
544.6349645423319
 20
203.044844739975
 10
544.2707786680841
 20
203.4090306066146
 10
543.8346847131867
 20
203.6830465940444
 10
543.3485502495102
 20
203.8531523964651
 10
542.8367520889776
 20
203.9108181986434
 10
541.8367520646905
 20
203.9108181986434
 10
541.6587353132001
 20
203.9308758689653
 10
541.4896450649632
 20
203.9900431045904
 10
541.3379602110865
 20
204.0853530132621
 10
541.2112868635233
 20
204.2120263581808
 10
541.1159769528592
 20
204.363711208888
 10
541.0568097160001
 20
204.5328014535927
 10
541.0367520452576
 20
204.710818201362
 10
541.0367520452576
 20
208.9108182156396
 10
541.0367520452576
 20
209.1333391503515
 10
541.0367520452576
 20
209.3447019562315
 10
541.0367520452576
 20
209.5343080196177
 10
541.0367520452576
 20
209.6926497007645
 10
541.0367520452576
 20
209.8117870866043
 10
541.0367520452576
 20
209.8857461311344
 10
541.0367520452576
 20
209.9108182190379
 10
539.5367520088245
 20
209.9108182190379
 10
539.5367520088245
 20
209.8857461311344
  0
LINE
  5
FA
330
1F
100
AcDbEntity
  8
HEWI
  6
CUSTOM
 62
    18
420
        0
370
     9
100
AcDbLine
 10
1.03511619585771
 20
203.4108181737645
 30
0.0
 11
1.110332457505876
 21
204.0783809761833
 31
0.0
  0
LINE
  5
FB
330
1F
100
AcDbEntity
  8
HEWI
  6
CUSTOM
 62
    18
420
        0
370
     9
100
AcDbLine
 10
1.110332457505876
 20
204.0783809761833
 30
0.0
 11
1.332209585013799
 21
204.7124693921894
 31
0.0
  0
LINE
  5
FC
330
1F
100
AcDbEntity
  8
HEWI
  6
CUSTOM
 62
    18
420
        0
370
     9
100
AcDbLine
 10
1.332209585013799
 20
204.7124693921894
 30
0.0
 11
1.689621732730131
 21
205.2812875808815
 31
0.0
  0
LINE
  5
FD
330
1F
100
AcDbEntity
  8
HEWI
  6
CUSTOM
 62
    18
420
        0
370
     9
100
AcDbLine
 10
1.689621732730131
 20
205.2812875808815
 30
0.0
 11
2.164646763146549
 21
205.7563126231004
 31
0.0
  0
LINE
  5
FE
330
1F
100
AcDbEntity
  8
HEWI
  6
CUSTOM
 62
    18
420
        0
370
     9
100
AcDbLine
 10
2.164646763146549
 20
205.7563126231004
 30
0.0
 11
2.73346493770515
 21
206.1137247796974
 31
0.0
  0
LINE
  5
FF
330
1F
100
AcDbEntity
  8
HEWI
  6
CUSTOM
 62
    18
420
        0
370
     9
100
AcDbLine
 10
2.73346493770515
 20
206.1137247796974
 30
0.0
 11
3.36755333795719
 21
206.3356019127185
 31
0.0
  0
LINE
  5
100
330
1F
100
AcDbEntity
  8
HEWI
  6
CUSTOM
 62
    18
420
        0
370
     9
100
AcDbLine
 10
3.36755333795719
 20
206.3356019127185
 30
0.0
 11
4.035116123788895
 21
206.4108181762357
 31
0.0
  0
LINE
  5
101
330
1F
100
AcDbEntity
  8
HEWI
  6
CUSTOM
 62
    18
420
        0
370
     9
100
AcDbLine
 10
4.035116123788895
 20
206.4108181762357
 30
0.0
 11
468.0351090530298
 21
206.4108181762358
 31
0.0
  0
LINE
  5
102
330
1F
100
AcDbEntity
  8
HEWI
  6
CUSTOM
 62
    18
420
        0
370
     9
100
AcDbLine
 10
468.0351090530301
 20
206.4108181762357
 30
0.0
 11
468.7026718388619
 21
206.3356019127185
 31
0.0
  0
LINE
  5
103
330
1F
100
AcDbEntity
  8
HEWI
  6
CUSTOM
 62
    18
420
        0
370
     9
100
AcDbLine
 10
468.7026718388619
 20
206.3356019127185
 30
0.0
 11
469.336760239114
 21
206.1137247796974
 31
0.0
  0
LINE
  5
104
330
1F
100
AcDbEntity
  8
HEWI
  6
CUSTOM
 62
    18
420
        0
370
     9
100
AcDbLine
 10
469.336760239114
 20
206.1137247796974
 30
0.0
 11
469.9055784136724
 21
205.7563126231004
 31
0.0
  0
LINE
  5
105
330
1F
100
AcDbEntity
  8
HEWI
  6
CUSTOM
 62
    18
420
        0
370
     9
100
AcDbLine
 10
469.9055784136724
 20
205.7563126231004
 30
0.0
 11
470.3806034440888
 21
205.2812875808815
 31
0.0
  0
LINE
  5
106
330
1F
100
AcDbEntity
  8
HEWI
  6
CUSTOM
 62
    18
420
        0
370
     9
100
AcDbLine
 10
470.3806034440888
 20
205.2812875808815
 30
0.0
 11
470.7380155918052
 21
204.7124693921894
 31
0.0
  0
LINE
  5
107
330
1F
100
AcDbEntity
  8
HEWI
  6
CUSTOM
 62
    18
420
        0
370
     9
100
AcDbLine
 10
470.7380155918052
 20
204.7124693921894
 30
0.0
 11
470.9598927193131
 21
204.0783809761833
 31
0.0
  0
LINE
  5
108
330
1F
100
AcDbEntity
  8
HEWI
  6
CUSTOM
 62
    18
420
        0
370
     9
100
AcDbLine
 10
470.9598927193131
 20
204.0783809761833
 30
0.0
 11
471.0351089809614
 21
203.4108181737645
 31
0.0
  0
LWPOLYLINE
  5
109
330
1F
100
AcDbEntity
  8
HEWI
  6
CUSTOM
 62
    18
420
        0
370
     9
100
AcDbPolyline
 90
       17
 70
     0
 43
0.0
 10
12.44550473630835
 20
206.4108181757486
 10
12.52417923100421
 20
206.7300131561156
 10
12.52417923100421
 20
207.0916231971785
 10
12.43764028596598
 20
207.4427255076484
 10
12.26959172481412
 20
207.7629152974454
 10
12.02979991909598
 20
208.0335842998285
 10
11.73220069694917
 20
208.2390022162202
 10
11.39408944343796
 20
208.3672309039857
 10
11.03511595562832
 20
208.4108181778823
 10
10.67614246782096
 20
208.3672309039857
 10
10.33803121430975
 20
208.2390022162202
 10
10.04043199216295
 20
208.0335842998285
 10
9.800640186444809
 20
207.7629152974454
 10
9.632591625292945
 20
207.4427255076484
 10
9.546052680254717
 20
207.0916231971785
 10
9.546052680254717
 20
206.7300131561156
 10
9.624727174304837
 20
206.4108181783644
  0
LINE
  5
10A
330
1F
100
AcDbEntity
  8
HEWI
  6
CUSTOM
 62
    18
420
        0
370
     9
100
AcDbLine
 10
462.4454980018684
 20
206.4108181757486
 30
0.0
 11
462.5241724965642
 21
206.7300131561156
 31
0.0
  0
LINE
  5
10B
330
1F
100
AcDbEntity
  8
HEWI
  6
CUSTOM
 62
    18
420
        0
370
     9
100
AcDbLine
 10
462.5241724965642
 20
206.7300131561156
 30
0.0
 11
462.5241724965642
 21
207.0916231971785
 31
0.0
  0
LINE
  5
10C
330
1F
100
AcDbEntity
  8
HEWI
  6
CUSTOM
 62
    18
420
        0
370
     9
100
AcDbLine
 10
462.5241724965642
 20
207.0916231971785
 30
0.0
 11
462.4376335515261
 21
207.4427255076484
 31
0.0
  0
LINE
  5
10D
330
1F
100
AcDbEntity
  8
HEWI
  6
CUSTOM
 62
    18
420
        0
370
     9
100
AcDbLine
 10
462.4376335515261
 20
207.4427255076484
 30
0.0
 11
462.2695849903743
 21
207.7629152974454
 31
0.0
  0
LINE
  5
10E
330
1F
100
AcDbEntity
  8
HEWI
  6
CUSTOM
 62
    18
420
        0
370
     9
100
AcDbLine
 10
462.2695849903743
 20
207.7629152974454
 30
0.0
 11
462.029793184656
 21
208.0335842998285
 31
0.0
  0
LINE
  5
10F
330
1F
100
AcDbEntity
  8
HEWI
  6
CUSTOM
 62
    18
420
        0
370
     9
100
AcDbLine
 10
462.029793184656
 20
208.0335842998285
 30
0.0
 11
461.7321939625092
 21
208.2390022162202
 31
0.0
  0
LINE
  5
110
330
1F
100
AcDbEntity
  8
HEWI
  6
CUSTOM
 62
    18
420
        0
370
     9
100
AcDbLine
 10
461.7321939625092
 20
208.2390022162202
 30
0.0
 11
461.394082708998
 21
208.3672309039857
 31
0.0
  0
LINE
  5
111
330
1F
100
AcDbEntity
  8
HEWI
  6
CUSTOM
 62
    18
420
        0
370
     9
100
AcDbLine
 10
461.394082708998
 20
208.3672309039857
 30
0.0
 11
461.0351092211883
 21
208.4108181778823
 31
0.0
  0
LINE
  5
112
330
1F
100
AcDbEntity
  8
HEWI
  6
CUSTOM
 62
    18
420
        0
370
     9
100
AcDbLine
 10
461.0351092211883
 20
208.4108181778823
 30
0.0
 11
460.6761357333811
 21
208.3672309039857
 31
0.0
  0
LINE
  5
113
330
1F
100
AcDbEntity
  8
HEWI
  6
CUSTOM
 62
    18
420
        0
370
     9
100
AcDbLine
 10
460.6761357333811
 20
208.3672309039857
 30
0.0
 11
460.3380244798699
 21
208.2390022162202
 31
0.0
  0
LINE
  5
114
330
1F
100
AcDbEntity
  8
HEWI
  6
CUSTOM
 62
    18
420
        0
370
     9
100
AcDbLine
 10
460.3380244798699
 20
208.2390022162202
 30
0.0
 11
460.0404252577231
 21
208.0335842998285
 31
0.0
  0
LINE
  5
115
330
1F
100
AcDbEntity
  8
HEWI
  6
CUSTOM
 62
    18
420
        0
370
     9
100
AcDbLine
 10
460.0404252577231
 20
208.0335842998285
 30
0.0
 11
459.8006334520049
 21
207.7629152974454
 31
0.0
  0
LINE
  5
116
330
1F
100
AcDbEntity
  8
HEWI
  6
CUSTOM
 62
    18
420
        0
370
     9
100
AcDbLine
 10
459.8006334520049
 20
207.7629152974454
 30
0.0
 11
459.6325848908531
 21
207.4427255076484
 31
0.0
  0
LINE
  5
117
330
1F
100
AcDbEntity
  8
HEWI
  6
CUSTOM
 62
    18
420
        0
370
     9
100
AcDbLine
 10
459.6325848908531
 20
207.4427255076484
 30
0.0
 11
459.5460459458148
 21
207.0916231971785
 31
0.0
  0
LINE
  5
118
330
1F
100
AcDbEntity
  8
HEWI
  6
CUSTOM
 62
    18
420
        0
370
     9
100
AcDbLine
 10
459.5460459458148
 20
207.0916231971785
 30
0.0
 11
459.5460459458148
 21
206.7300131561156
 31
0.0
  0
LINE
  5
119
330
1F
100
AcDbEntity
  8
HEWI
  6
CUSTOM
 62
    18
420
        0
370
     9
100
AcDbLine
 10
459.5460459458148
 20
206.7300131561156
 30
0.0
 11
459.6247204398649
 21
206.4108181783644
 31
0.0
  0
LINE
  5
11A
330
1F
100
AcDbEntity
  8
HEWI
  6
CUSTOM
 62
    18
420
        0
370
     9
100
AcDbLine
 10
1.03511619585771
 20
203.4108181737645
 30
0.0
 11
1.03511619585771
 21
196.7108181682466
 31
0.0
  0
LINE
  5
11B
330
1F
100
AcDbEntity
  8
HEWI
  6
CUSTOM
 62
    18
420
        0
370
     9
100
AcDbLine
 10
1.03511619585771
 20
196.7108181682466
 30
0.0
 11
1.03511619585771
 21
196.1990200197257
 31
0.0
  0
LINE
  5
11C
330
1F
100
AcDbEntity
  8
HEWI
  6
CUSTOM
 62
    18
420
        0
370
     9
100
AcDbLine
 10
1.03511619585771
 20
196.1990200197257
 30
0.0
 11
1.03511619585771
 21
195.7128855674535
 31
0.0
  0
LINE
  5
11D
330
1F
100
AcDbEntity
  8
HEWI
  6
CUSTOM
 62
    18
420
        0
370
     9
100
AcDbLine
 10
1.03511619585771
 20
195.7128855674535
 30
0.0
 11
1.03511619585771
 21
195.2767916227902
 31
0.0
  0
LINE
  5
11E
330
1F
100
AcDbEntity
  8
HEWI
  6
CUSTOM
 62
    18
420
        0
370
     9
100
AcDbLine
 10
1.03511619585771
 20
195.2767916227902
 30
0.0
 11
1.03511619585771
 21
194.9126057570886
 31
0.0
  0
LINE
  5
11F
330
1F
100
AcDbEntity
  8
HEWI
  6
CUSTOM
 62
    18
420
        0
370
     9
100
AcDbLine
 10
1.03511619585771
 20
194.9126057570886
 30
0.0
 11
1.03511619585771
 21
194.6385897703636
 31
0.0
  0
LINE
  5
120
330
1F
100
AcDbEntity
  8
HEWI
  6
CUSTOM
 62
    18
420
        0
370
     9
100
AcDbLine
 10
1.03511619585771
 20
194.6385897703636
 30
0.0
 11
1.03511619585771
 21
194.4684839683817
 31
0.0
  0
LINE
  5
121
330
1F
100
AcDbEntity
  8
HEWI
  6
CUSTOM
 62
    18
420
        0
370
     9
100
AcDbLine
 10
1.03511619585771
 20
194.4684839683817
 30
0.0
 11
1.03511619585771
 21
194.4108181663513
 31
0.0
  0
LINE
  5
122
330
1F
100
AcDbEntity
  8
HEWI
  6
CUSTOM
 62
    18
420
        0
370
     9
100
AcDbLine
 10
1.03511619585771
 20
194.4108181663513
 30
0.0
 11
471.0351089809613
 21
194.4108181663513
 31
0.0
  0
LINE
  5
123
330
1F
100
AcDbEntity
  8
HEWI
  6
CUSTOM
 62
    18
420
        0
370
     9
100
AcDbLine
 10
471.0351089809614
 20
194.4108181663513
 30
0.0
 11
471.0351089809614
 21
194.4684839683817
 31
0.0
  0
LINE
  5
124
330
1F
100
AcDbEntity
  8
HEWI
  6
CUSTOM
 62
    18
420
        0
370
     9
100
AcDbLine
 10
471.0351089809614
 20
194.4684839683817
 30
0.0
 11
471.0351089809614
 21
194.6385897703636
 31
0.0
  0
LINE
  5
125
330
1F
100
AcDbEntity
  8
HEWI
  6
CUSTOM
 62
    18
420
        0
370
     9
100
AcDbLine
 10
471.0351089809614
 20
194.6385897703636
 30
0.0
 11
471.0351089809614
 21
194.9126057570886
 31
0.0
  0
LINE
  5
126
330
1F
100
AcDbEntity
  8
HEWI
  6
CUSTOM
 62
    18
420
        0
370
     9
100
AcDbLine
 10
471.0351089809614
 20
194.9126057570886
 30
0.0
 11
471.0351089809614
 21
195.2767916227902
 31
0.0
  0
LINE
  5
127
330
1F
100
AcDbEntity
  8
HEWI
  6
CUSTOM
 62
    18
420
        0
370
     9
100
AcDbLine
 10
471.0351089809614
 20
195.2767916227902
 30
0.0
 11
471.0351089809614
 21
195.7128855674535
 31
0.0
  0
LINE
  5
128
330
1F
100
AcDbEntity
  8
HEWI
  6
CUSTOM
 62
    18
420
        0
370
     9
100
AcDbLine
 10
471.0351089809614
 20
195.7128855674535
 30
0.0
 11
471.0351089809614
 21
196.1990200197257
 31
0.0
  0
LINE
  5
129
330
1F
100
AcDbEntity
  8
HEWI
  6
CUSTOM
 62
    18
420
        0
370
     9
100
AcDbLine
 10
471.0351089809614
 20
196.1990200197257
 30
0.0
 11
471.0351089809614
 21
196.7108181682466
 31
0.0
  0
LINE
  5
12A
330
1F
100
AcDbEntity
  8
HEWI
  6
CUSTOM
 62
    18
420
        0
370
     9
100
AcDbLine
 10
471.0351089809614
 20
196.7108181682466
 30
0.0
 11
471.0351089809614
 21
203.4108181737645
 31
0.0
  0
LINE
  5
12B
330
1F
100
AcDbEntity
  8
HEWI
  6
CUSTOM
 62
    18
420
        0
370
     9
100
AcDbLine
 10
1.03511619585771
 20
203.9108181741763
 30
0.0
 11
1.03511619585771
 21
203.9308758444475
 31
0.0
  0
LINE
  5
12C
330
1F
100
AcDbEntity
  8
HEWI
  6
CUSTOM
 62
    18
420
        0
370
     9
100
AcDbLine
 10
1.03511619585771
 20
203.9308758444475
 30
0.0
 11
1.03511619585771
 21
203.9900430799197
 31
0.0
  0
LINE
  5
12D
330
1F
100
AcDbEntity
  8
HEWI
  6
CUSTOM
 62
    18
420
        0
370
     9
100
AcDbLine
 10
1.03511619585771
 20
203.9900430799197
 30
0.0
 11
1.03511619585771
 21
204.0853529883453
 31
0.0
  0
LINE
  5
12E
330
1F
100
AcDbEntity
  8
HEWI
  6
CUSTOM
 62
    18
420
        0
370
     9
100
AcDbLine
 10
1.03511619585771
 20
204.0853529883453
 30
0.0
 11
1.03511619585771
 21
204.2120263329373
 31
0.0
  0
LINE
  5
12F
330
1F
100
AcDbEntity
  8
HEWI
  6
CUSTOM
 62
    18
420
        0
370
     9
100
AcDbLine
 10
1.03511619585771
 20
204.2120263329373
 30
0.0
 11
1.03511619585771
 21
204.363711183255
 31
0.0
  0
LINE
  5
130
330
1F
100
AcDbEntity
  8
HEWI
  6
CUSTOM
 62
    18
420
        0
370
     9
100
AcDbLine
 10
1.03511619585771
 20
204.363711183255
 30
0.0
 11
1.03511619585771
 21
204.5328014275232
 31
0.0
  0
LINE
  5
131
330
1F
100
AcDbEntity
  8
HEWI
  6
CUSTOM
 62
    18
420
        0
370
     9
100
AcDbLine
 10
1.03511619585771
 20
204.5328014275232
 30
0.0
 11
1.03511619585771
 21
204.7108181748344
 31
0.0
  0
LINE
  5
132
330
1F
100
AcDbEntity
  8
HEWI
  6
CUSTOM
 62
    18
420
        0
370
     9
100
AcDbLine
 10
1.03511619585771
 20
204.7108181748344
 30
0.0
 11
1.03511619585771
 21
208.9108181782945
 31
0.0
  0
LINE
  5
133
330
1F
100
AcDbEntity
  8
HEWI
  6
CUSTOM
 62
    18
420
        0
370
     9
100
AcDbLine
 10
1.03511619585771
 20
208.9108181782945
 30
0.0
 11
1.06018828307225
 21
209.1333391124335
 31
0.0
  0
LINE
  5
134
330
1F
100
AcDbEntity
  8
HEWI
  6
CUSTOM
 62
    18
420
        0
370
     9
100
AcDbLine
 10
1.06018828307225
 20
209.1333391124335
 30
0.0
 11
1.134147325576407
 21
209.3447019177689
 31
0.0
  0
LINE
  5
135
330
1F
100
AcDbEntity
  8
HEWI
  6
CUSTOM
 62
    18
420
        0
370
     9
100
AcDbLine
 10
1.134147325576407
 20
209.3447019177689
 30
0.0
 11
1.253284708147759
 21
209.5343079806663
 31
0.0
  0
LINE
  5
136
330
1F
100
AcDbEntity
  8
HEWI
  6
CUSTOM
 62
    18
420
        0
370
     9
100
AcDbLine
 10
1.253284708147759
 20
209.5343079806663
 30
0.0
 11
1.41162638495399
 21
209.6926496614062
 31
0.0
  0
LINE
  5
137
330
1F
100
AcDbEntity
  8
HEWI
  6
CUSTOM
 62
    18
420
        0
370
     9
100
AcDbLine
 10
1.41162638495399
 20
209.6926496614062
 30
0.0
 11
1.60123244314019
 21
209.811787046939
 31
0.0
  0
LINE
  5
138
330
1F
100
AcDbEntity
  8
HEWI
  6
CUSTOM
 62
    18
420
        0
370
     9
100
AcDbLine
 10
1.60123244314019
 20
209.811787046939
 30
0.0
 11
1.812595243224961
 21
209.8857460912786
 31
0.0
  0
LINE
  5
139
330
1F
100
AcDbEntity
  8
HEWI
  6
CUSTOM
 62
    18
420
        0
370
     9
100
AcDbLine
 10
1.812595243224961
 20
209.8857460912786
 30
0.0
 11
2.035116171834772
 21
209.9108181791173
 31
0.0
  0
LINE
  5
13A
330
1F
100
AcDbEntity
  8
HEWI
  6
CUSTOM
 62
    18
420
        0
370
     9
100
AcDbLine
 10
2.035116171834772
 20
209.9108181791173
 30
0.0
 11
470.0351090049838
 21
209.9108181791173
 31
0.0
  0
LINE
  5
13B
330
1F
100
AcDbEntity
  8
HEWI
  6
CUSTOM
 62
    18
420
        0
370
     9
100
AcDbLine
 10
470.0351090049842
 20
209.9108181791173
 30
0.0
 11
470.257629933594
 21
209.8857460912786
 31
0.0
  0
LINE
  5
13C
330
1F
100
AcDbEntity
  8
HEWI
  6
CUSTOM
 62
    18
420
        0
370
     9
100
AcDbLine
 10
470.257629933594
 20
209.8857460912786
 30
0.0
 11
470.4689927336788
 21
209.811787046939
 31
0.0
  0
LINE
  5
13D
330
1F
100
AcDbEntity
  8
HEWI
  6
CUSTOM
 62
    18
420
        0
370
     9
100
AcDbLine
 10
470.4689927336788
 20
209.811787046939
 30
0.0
 11
470.658598791865
 21
209.6926496614062
 31
0.0
  0
LINE
  5
13E
330
1F
100
AcDbEntity
  8
HEWI
  6
CUSTOM
 62
    18
420
        0
370
     9
100
AcDbLine
 10
470.658598791865
 20
209.6926496614062
 30
0.0
 11
470.816940468669
 21
209.5343079806663
 31
0.0
  0
LINE
  5
13F
330
1F
100
AcDbEntity
  8
HEWI
  6
CUSTOM
 62
    18
420
        0
370
     9
100
AcDbLine
 10
470.816940468669
 20
209.5343079806663
 30
0.0
 11
470.9360778512426
 21
209.3447019177689
 31
0.0
  0
LINE
  5
140
330
1F
100
AcDbEntity
  8
HEWI
  6
CUSTOM
 62
    18
420
        0
370
     9
100
AcDbLine
 10
470.9360778512426
 20
209.3447019177689
 30
0.0
 11
471.0100368937445
 21
209.1333391124335
 31
0.0
  0
LINE
  5
141
330
1F
100
AcDbEntity
  8
HEWI
  6
CUSTOM
 62
    18
420
        0
370
     9
100
AcDbLine
 10
471.0100368937445
 20
209.1333391124335
 30
0.0
 11
471.0351089809614
 21
208.9108181782945
 31
0.0
  0
LINE
  5
142
330
1F
100
AcDbEntity
  8
HEWI
  6
CUSTOM
 62
    18
420
        0
370
     9
100
AcDbLine
 10
471.0351089809614
 20
208.9108181782945
 30
0.0
 11
471.0351089809614
 21
204.7108181748344
 31
0.0
  0
LINE
  5
143
330
1F
100
AcDbEntity
  8
HEWI
  6
CUSTOM
 62
    18
420
        0
370
     9
100
AcDbLine
 10
471.0351089809614
 20
204.7108181748344
 30
0.0
 11
471.0351089809614
 21
204.5328014275232
 31
0.0
  0
LINE
  5
144
330
1F
100
AcDbEntity
  8
HEWI
  6
CUSTOM
 62
    18
420
        0
370
     9
100
AcDbLine
 10
471.0351089809614
 20
204.5328014275232
 30
0.0
 11
471.0351089809614
 21
204.363711183255
 31
0.0
  0
LINE
  5
145
330
1F
100
AcDbEntity
  8
HEWI
  6
CUSTOM
 62
    18
420
        0
370
     9
100
AcDbLine
 10
471.0351089809614
 20
204.363711183255
 30
0.0
 11
471.0351089809614
 21
204.2120263329373
 31
0.0
  0
LINE
  5
146
330
1F
100
AcDbEntity
  8
HEWI
  6
CUSTOM
 62
    18
420
        0
370
     9
100
AcDbLine
 10
471.0351089809614
 20
204.2120263329373
 30
0.0
 11
471.0351089809614
 21
204.0853529883453
 31
0.0
  0
LINE
  5
147
330
1F
100
AcDbEntity
  8
HEWI
  6
CUSTOM
 62
    18
420
        0
370
     9
100
AcDbLine
 10
471.0351089809614
 20
204.0853529883453
 30
0.0
 11
471.0351089809614
 21
203.9900430799197
 31
0.0
  0
LINE
  5
148
330
1F
100
AcDbEntity
  8
HEWI
  6
CUSTOM
 62
    18
420
        0
370
     9
100
AcDbLine
 10
471.0351089809614
 20
203.9900430799197
 30
0.0
 11
471.0351089809614
 21
203.9308758444475
 31
0.0
  0
LINE
  5
149
330
1F
100
AcDbEntity
  8
HEWI
  6
CUSTOM
 62
    18
420
        0
370
     9
100
AcDbLine
 10
471.0351089809614
 20
203.9308758444475
 30
0.0
 11
471.0351089809614
 21
203.9108181741763
 31
0.0
  0
LWPOLYLINE
  5
14A
330
1F
100
AcDbEntity
  8
HEWI
  6
CUSTOM
 62
    18
420
        0
370
     9
100
AcDbPolyline
 90
        4
 70
     0
 43
0.0
 10
1.03511619585771
 20
203.9108181741763
 10
1.03511619585771
 20
203.8531523721475
 10
1.03511619585771
 20
203.6830465701644
 10
1.03511619585771
 20
203.4108181729733
  0
LINE
  5
14B
330
1F
100
AcDbEntity
  8
HEWI
  6
CUSTOM
 62
    18
420
        0
370
     9
100
AcDbLine
 10
471.0351089809614
 20
203.4108181737395
 30
0.0
 11
471.0351089809614
 21
203.6830465701644
 31
0.0
  0
LINE
  5
14C
330
1F
100
AcDbEntity
  8
HEWI
  6
CUSTOM
 62
    18
420
        0
370
     9
100
AcDbLine
 10
471.0351089809614
 20
203.6830465701644
 30
0.0
 11
471.0351089809614
 21
203.8531523721475
 31
0.0
  0
LINE
  5
14D
330
1F
100
AcDbEntity
  8
HEWI
  6
CUSTOM
 62
    18
420
        0
370
     9
100
AcDbLine
 10
471.0351089809614
 20
203.8531523721475
 30
0.0
 11
471.0351089809614
 21
203.9108181741763
 31
0.0
  0
LINE
  5
14E
330
1F
100
AcDbEntity
  8
HEWI
  6
CUSTOM
 62
    18
420
        0
370
     9
100
AcDbLine
 10
471.0351089809614
 20
203.9108181741763
 30
0.0
 11
470.9787725137629
 21
203.9108181741763
 31
0.0
  0
LINE
  5
14F
330
1F
100
AcDbEntity
  8
HEWI
  6
CUSTOM
 62
    18
420
        0
370
     9
100
AcDbLine
 10
1.091442583817581
 20
203.9108181741763
 30
0.0
 11
1.03511619585771
 21
203.9108181741763
 31
0.0
  0
ENDSEC
  0
SECTION
  2
OBJECTS
  0
DICTIONARY
  5
C
330
0
100
AcDbDictionary
281
     1
  3
ACAD_CIP_PREVIOUS_PRODUCT_INFO
350
95
  3
ACAD_COLOR
350
90
  3
ACAD_DETAILVIEWSTYLE
350
8A
  3
ACAD_GROUP
350
D
  3
ACAD_IMAGE_DICT
350
6E
  3
ACAD_LAYOUT
350
1A
  3
ACAD_MATERIAL
350
43
  3
ACAD_MLEADERSTYLE
350
6B
  3
ACAD_MLINESTYLE
350
17
  3
ACAD_PLOTSETTINGS
350
19
  3
ACAD_PLOTSTYLENAME
350
E
  3
ACAD_SCALELIST
350
47
  3
ACAD_SECTIONVIEWSTYLE
350
8B
  3
ACAD_TABLESTYLE
350
69
  3
ACAD_VISUALSTYLE
350
2A
  3
ACDB_RECOMPOSE_DATA
350
15B
  3
AcDbVariableDictionary
350
83
  0
SUN
  5
6D
330
29
100
AcDbSun
 90
        1
290
     1
 63
     7
421
 16777215
 40
1.0
291
     1
 91
  2455826
 92
 54000000
292
     0
 70
     0
 71
   256
280
     1
1001
ACAD
1000
AcDbSavedByObjectVersion
1070
     0
  0
DICTIONARY
  5
9A
330
2
100
AcDbDictionary
280
     1
281
     1
  3
ACAD_LAYERSTATES
360
9B
  0
XRECORD
  5
95
102
{ACAD_REACTORS
330
C
102
}
330
C
100
AcDbXrecord
280
     1
300
ACDLT
300
2021
300
ACDLT_F_S
  0
DICTIONARY
  5
90
102
{ACAD_REACTORS
330
C
102
}
330
C
100
AcDbDictionary
281
     1
  0
DICTIONARY
  5
8A
102
{ACAD_REACTORS
330
C
102
}
330
C
100
AcDbDictionary
281
     1
  3
Metric50
350
92
  0
DICTIONARY
  5
D
102
{ACAD_REACTORS
330
C
102
}
330
C
100
AcDbDictionary
281
     1
  0
DICTIONARY
  5
6E
102
{ACAD_REACTORS
330
C
102
}
330
C
100
AcDbDictionary
281
     1
  0
DICTIONARY
  5
1A
102
{ACAD_REACTORS
330
C
102
}
330
C
100
AcDbDictionary
281
     1
  3
Layout1
350
1E
  3
Layout2
350
26
  3
Model
350
22
  0
DICTIONARY
  5
43
102
{ACAD_REACTORS
330
C
102
}
330
C
100
AcDbDictionary
281
     1
  3
ByBlock
350
45
  3
ByLayer
350
44
  3
Global
350
46
  0
DICTIONARY
  5
6B
102
{ACAD_REACTORS
330
C
102
}
330
C
100
AcDbDictionary
281
     1
  3
Standard
350
6C
  0
DICTIONARY
  5
17
102
{ACAD_REACTORS
330
C
102
}
330
C
100
AcDbDictionary
281
     1
  3
Standard
350
18
  0
DICTIONARY
  5
19
102
{ACAD_REACTORS
330
C
102
}
330
C
100
AcDbDictionary
281
     1
  0
ACDBDICTIONARYWDFLT
  5
E
102
{ACAD_REACTORS
330
C
102
}
330
C
100
AcDbDictionary
281
     1
  3
Normal
350
F
100
AcDbDictionaryWithDefault
340
F
  0
DICTIONARY
  5
47
102
{ACAD_REACTORS
330
C
102
}
330
C
100
AcDbDictionary
281
     1
  3
A0
350
48
  3
A1
350
49
  3
A2
350
4A
  3
A3
350
4B
  3
A4
350
4C
  3
A5
350
4D
  3
A6
350
4E
  3
A7
350
4F
  3
A8
350
50
  3
A9
350
51
  3
B0
350
52
  3
B1
350
53
  3
B2
350
54
  3
B3
350
55
  3
B4
350
56
  3
B5
350
57
  3
B6
350
58
  3
B7
350
59
  3
B8
350
5A
  3
B9
350
5B
  3
C0
350
5C
  3
C1
350
5D
  3
C2
350
5E
  3
C3
350
5F
  3
C4
350
60
  3
C5
350
61
  3
C6
350
62
  3
C7
350
63
  3
C8
350
64
  3
C9
350
65
  3
D0
350
66
  3
D1
350
67
  3
D2
350
68
  0
DICTIONARY
  5
8B
102
{ACAD_REACTORS
330
C
102
}
330
C
100
AcDbDictionary
281
     1
  3
Metric50
350
91
  0
DICTIONARY
  5
69
102
{ACAD_REACTORS
330
C
102
}
330
C
100
AcDbDictionary
281
     1
  3
Standard
350
6A
  0
DICTIONARY
  5
2A
102
{ACAD_REACTORS
330
C
102
}
330
C
100
AcDbDictionary
281
     1
  3
2dWireframe
350
2F
  3
Basic
350
32
  3
Brighten
350
36
  3
ColorChange
350
3A
  3
Conceptual
350
34
  3
Dim
350
35
  3
EdgeColorOff
350
3D
  3
Facepattern
350
39
  3
Flat
350
2B
  3
FlatWithEdges
350
2C
  3
Gouraud
350
2D
  3
GouraudWithEdges
350
2E
  3
Hidden
350
31
  3
JitterOff
350
3B
  3
Linepattern
350
38
  3
OverhangOff
350
3C
  3
Realistic
350
33
  3
Shaded
350
42
  3
Shaded with edges
350
41
  3
Shades of Gray
350
3E
  3
Sketchy
350
3F
  3
Thicken
350
37
  3
Wireframe
350
30
  3
X-Ray
350
40
  0
XRECORD
  5
15B
102
{ACAD_REACTORS
330
C
102
}
330
C
100
AcDbXrecord
280
     1
 90
        1
330
6A
  0
DICTIONARY
  5
83
102
{ACAD_REACTORS
330
C
102
}
330
C
100
AcDbDictionary
281
     1
  3
CANNOSCALE
350
84
  3
CENTEREXE
350
8C
  3
CENTERLTYPEFILE
350
8D
  3
CMLEADERSTYLE
350
89
  3
CTABLESTYLE
350
88
  3
CVIEWDETAILSTYLE
350
158
  3
CVIEWSECTIONSTYLE
350
159
  0
DICTIONARY
  5
9B
102
{ACAD_REACTORS
330
9A
102
}
330
9A
100
AcDbDictionary
281
     1
  0
ACDBDETAILVIEWSTYLE
  5
92
102
{ACAD_XDICTIONARY
360
15E
102
}
102
{ACAD_REACTORS
330
8A
102
}
330
8A
100
AcDbModelDocViewStyle
 70
     0
  3
Metric50
290
     0
100
AcDbDetailViewStyle
 70
     0
 71
     0
 90
        3
 71
     1
340
11
 62
   256
 40
5.0
340
0
 62
   256
 40
5.0
300

 40
0.0
280
     1
 71
     2
340
16
 90
       25
 62
   256
 71
     3
340
11
 62
   256
 40
5.0
 90
        0
 40
15.0
 90
        1
300
%<\AcVar ViewDetailId>% (%<\AcVar ViewScale \f "%sn">%)
 71
     4
340
16
 90
       25
 62
   256
340
16
 90
       25
 62
   256
280
     0
  0
LAYOUT
  5
1E
102
{ACAD_REACTORS
330
1A
102
}
330
1A
100
AcDbPlotSettings
  1

  2
none_device
  4

  6

 40
0.0
 41
0.0
 42
0.0
 43
0.0
 44
0.0
 45
0.0
 46
0.0
 47
0.0
 48
0.0
 49
0.0
140
0.0
141
0.0
142
1.0
143
1.0
 70
   688
 72
     1
 73
     0
 74
     5
  7

 75
    16
147
1.0
 76
     0
 77
     2
 78
   300
148
0.0
149
0.0
100
AcDbLayout
  1
Layout1
 70
     1
 71
     1
 10
0.0
 20
0.0
 11
420.0
 21
297.0
 12
0.0
 22
0.0
 32
0.0
 14
1.000000000000000E+20
 24
1.000000000000000E+20
 34
1.000000000000000E+20
 15
-1.000000000000000E+20
 25
-1.000000000000000E+20
 35
-1.000000000000000E+20
146
0.0
 13
0.0
 23
0.0
 33
0.0
 16
1.0
 26
0.0
 36
0.0
 17
0.0
 27
1.0
 37
0.0
 76
     0
330
1B
  0
LAYOUT
  5
26
102
{ACAD_REACTORS
330
1A
102
}
330
1A
100
AcDbPlotSettings
  1

  2
none_device
  4

  6

 40
0.0
 41
0.0
 42
0.0
 43
0.0
 44
0.0
 45
0.0
 46
0.0
 47
0.0
 48
0.0
 49
0.0
140
0.0
141
0.0
142
1.0
143
1.0
 70
   688
 72
     1
 73
     0
 74
     5
  7

 75
    16
147
1.0
 76
     0
 77
     2
 78
   300
148
0.0
149
0.0
100
AcDbLayout
  1
Layout2
 70
     1
 71
     2
 10
0.0
 20
0.0
 11
0.0
 21
0.0
 12
0.0
 22
0.0
 32
0.0
 14
0.0
 24
0.0
 34
0.0
 15
0.0
 25
0.0
 35
0.0
146
0.0
 13
0.0
 23
0.0
 33
0.0
 16
1.0
 26
0.0
 36
0.0
 17
0.0
 27
1.0
 37
0.0
 76
     0
330
23
  0
LAYOUT
  5
22
102
{ACAD_REACTORS
330
1A
102
}
330
1A
100
AcDbPlotSettings
  1

  2
none_device
  4
Letter_(8.50_x_11.00_Inches)
  6

 40
6.349999999999999
 41
6.349999999999999
 42
6.350005079999999
 43
6.350005079999999
 44
215.9
 45
279.4
 46
0.0
 47
0.0
 48
0.0
 49
0.0
140
0.0
141
0.0
142
1.0
143
1.0
 70
  1712
 72
     1
 73
     0
 74
     0
  7

 75
     0
147
1.0
 76
     0
 77
     2
 78
   300
148
0.0
149
0.0
100
AcDbLayout
  1
Model
 70
     1
 71
     0
 10
0.0
 20
0.0
 11
420.0
 21
297.0
 12
0.0
 22
0.0
 32
0.0
 14
-63.45844605618681
 24
118.2998603469358
 34
0.0
 15
-16.45844677767644
 25
129.2098605721045
 35
0.0
146
0.0
 13
0.0
 23
0.0
 33
0.0
 16
1.0
 26
0.0
 36
0.0
 17
0.0
 27
1.0
 37
0.0
 76
     0
330
1F
331
29
  0
MATERIAL
  5
45
102
{ACAD_REACTORS
330
43
102
}
330
43
100
AcDbMaterial
  1
ByBlock
  0
MATERIAL
  5
44
102
{ACAD_REACTORS
330
43
102
}
330
43
100
AcDbMaterial
  1
ByLayer
  0
MATERIAL
  5
46
102
{ACAD_REACTORS
330
43
102
}
330
43
100
AcDbMaterial
  1
Global
  0
MLEADERSTYLE
  5
6C
102
{ACAD_REACTORS
330
6B
102
}
330
6B
100
AcDbMLeaderStyle
179
     2
170
     2
171
     1
172
     0
 90
        2
 40
0.0
 41
0.0
173
     1
 91
-1056964608
340
14
 92
       -2
290
     1
 42
2.0
291
     1
 43
8.0
  3
Standard
 44
4.0
300

342
11
174
     1
178
     6
175
     1
176
     0
 93
-1056964608
 45
4.0
292
     0
297
     0
 46
4.0
 94
-1056964608
 47
1.0
 49
1.0
140
1.0
293
     1
141
0.0
294
     1
177
     0
142
1.0
295
     0
296
     0
143
3.75
271
     0
272
     9
273
     9
298
     0
  0
MLINESTYLE
  5
18
102
{ACAD_REACTORS
330
17
102
}
330
17
100
AcDbMlineStyle
  2
STANDARD
 70
     0
  3

 62
   256
 51
90.0
 52
90.0
 71
     2
 49
0.5
 62
   256
  6
BYLAYER
 49
-0.5
 62
   256
  6
BYLAYER
  0
ACDBPLACEHOLDER
  5
F
102
{ACAD_REACTORS
330
E
102
}
330
E
  0
SCALE
  5
48
102
{ACAD_REACTORS
330
47
102
}
330
47
100
AcDbScale
 70
     0
300
1:1
140
1.0
141
1.0
290
     1
  0
SCALE
  5
49
102
{ACAD_REACTORS
330
47
102
}
330
47
100
AcDbScale
 70
     0
300
1:2
140
1.0
141
2.0
290
     0
  0
SCALE
  5
4A
102
{ACAD_REACTORS
330
47
102
}
330
47
100
AcDbScale
 70
     0
300
1:4
140
1.0
141
4.0
290
     0
  0
SCALE
  5
4B
102
{ACAD_REACTORS
330
47
102
}
330
47
100
AcDbScale
 70
     0
300
1:5
140
1.0
141
5.0
290
     0
  0
SCALE
  5
4C
102
{ACAD_REACTORS
330
47
102
}
330
47
100
AcDbScale
 70
     0
300
1:8
140
1.0
141
8.0
290
     0
  0
SCALE
  5
4D
102
{ACAD_REACTORS
330
47
102
}
330
47
100
AcDbScale
 70
     0
300
1:10
140
1.0
141
10.0
290
     0
  0
SCALE
  5
4E
102
{ACAD_REACTORS
330
47
102
}
330
47
100
AcDbScale
 70
     0
300
1:16
140
1.0
141
16.0
290
     0
  0
SCALE
  5
4F
102
{ACAD_REACTORS
330
47
102
}
330
47
100
AcDbScale
 70
     0
300
1:20
140
1.0
141
20.0
290
     0
  0
SCALE
  5
50
102
{ACAD_REACTORS
330
47
102
}
330
47
100
AcDbScale
 70
     0
300
1:30
140
1.0
141
30.0
290
     0
  0
SCALE
  5
51
102
{ACAD_REACTORS
330
47
102
}
330
47
100
AcDbScale
 70
     0
300
1:40
140
1.0
141
40.0
290
     0
  0
SCALE
  5
52
102
{ACAD_REACTORS
330
47
102
}
330
47
100
AcDbScale
 70
     0
300
1:50
140
1.0
141
50.0
290
     0
  0
SCALE
  5
53
102
{ACAD_REACTORS
330
47
102
}
330
47
100
AcDbScale
 70
     0
300
1:100
140
1.0
141
100.0
290
     0
  0
SCALE
  5
54
102
{ACAD_REACTORS
330
47
102
}
330
47
100
AcDbScale
 70
     0
300
2:1
140
2.0
141
1.0
290
     0
  0
SCALE
  5
55
102
{ACAD_REACTORS
330
47
102
}
330
47
100
AcDbScale
 70
     0
300
4:1
140
4.0
141
1.0
290
     0
  0
SCALE
  5
56
102
{ACAD_REACTORS
330
47
102
}
330
47
100
AcDbScale
 70
     0
300
8:1
140
8.0
141
1.0
290
     0
  0
SCALE
  5
57
102
{ACAD_REACTORS
330
47
102
}
330
47
100
AcDbScale
 70
     0
300
10:1
140
10.0
141
1.0
290
     0
  0
SCALE
  5
58
102
{ACAD_REACTORS
330
47
102
}
330
47
100
AcDbScale
 70
     0
300
100:1
140
100.0
141
1.0
290
     0
  0
SCALE
  5
59
102
{ACAD_REACTORS
330
47
102
}
330
47
100
AcDbScale
 70
     0
300
1/128" = 1'-0"
140
0.0078125
141
12.0
290
     0
  0
SCALE
  5
5A
102
{ACAD_REACTORS
330
47
102
}
330
47
100
AcDbScale
 70
     0
300
1/64" = 1'-0"
140
0.015625
141
12.0
290
     0
  0
SCALE
  5
5B
102
{ACAD_REACTORS
330
47
102
}
330
47
100
AcDbScale
 70
     0
300
1/32" = 1'-0"
140
0.03125
141
12.0
290
     0
  0
SCALE
  5
5C
102
{ACAD_REACTORS
330
47
102
}
330
47
100
AcDbScale
 70
     0
300
1/16" = 1'-0"
140
0.0625
141
12.0
290
     0
  0
SCALE
  5
5D
102
{ACAD_REACTORS
330
47
102
}
330
47
100
AcDbScale
 70
     0
300
3/32" = 1'-0"
140
0.09375
141
12.0
290
     0
  0
SCALE
  5
5E
102
{ACAD_REACTORS
330
47
102
}
330
47
100
AcDbScale
 70
     0
300
1/8" = 1'-0"
140
0.125
141
12.0
290
     0
  0
SCALE
  5
5F
102
{ACAD_REACTORS
330
47
102
}
330
47
100
AcDbScale
 70
     0
300
3/16" = 1'-0"
140
0.1875
141
12.0
290
     0
  0
SCALE
  5
60
102
{ACAD_REACTORS
330
47
102
}
330
47
100
AcDbScale
 70
     0
300
1/4" = 1'-0"
140
0.25
141
12.0
290
     0
  0
SCALE
  5
61
102
{ACAD_REACTORS
330
47
102
}
330
47
100
AcDbScale
 70
     0
300
3/8" = 1'-0"
140
0.375
141
12.0
290
     0
  0
SCALE
  5
62
102
{ACAD_REACTORS
330
47
102
}
330
47
100
AcDbScale
 70
     0
300
1/2" = 1'-0"
140
0.5
141
12.0
290
     0
  0
SCALE
  5
63
102
{ACAD_REACTORS
330
47
102
}
330
47
100
AcDbScale
 70
     0
300
3/4" = 1'-0"
140
0.75
141
12.0
290
     0
  0
SCALE
  5
64
102
{ACAD_REACTORS
330
47
102
}
330
47
100
AcDbScale
 70
     0
300
1" = 1'-0"
140
1.0
141
12.0
290
     0
  0
SCALE
  5
65
102
{ACAD_REACTORS
330
47
102
}
330
47
100
AcDbScale
 70
     0
300
1-1/2" = 1'-0"
140
1.5
141
12.0
290
     0
  0
SCALE
  5
66
102
{ACAD_REACTORS
330
47
102
}
330
47
100
AcDbScale
 70
     0
300
3" = 1'-0"
140
3.0
141
12.0
290
     0
  0
SCALE
  5
67
102
{ACAD_REACTORS
330
47
102
}
330
47
100
AcDbScale
 70
     0
300
6" = 1'-0"
140
6.0
141
12.0
290
     0
  0
SCALE
  5
68
102
{ACAD_REACTORS
330
47
102
}
330
47
100
AcDbScale
 70
     0
300
1'-0" = 1'-0"
140
12.0
141
12.0
290
     0
  0
ACDBSECTIONVIEWSTYLE
  5
91
102
{ACAD_XDICTIONARY
360
15C
102
}
102
{ACAD_REACTORS
330
8B
102
}
330
8B
100
AcDbModelDocViewStyle
 70
     0
  3
Metric50
290
     0
100
AcDbSectionViewStyle
 70
     0
 71
     0
 90
      102
 71
     1
340
11
 62
   256
 40
5.0
340
0
340
0
 62
   256
 40
5.0
300
I, O, Q, S, X, Z
 40
10.0
 90
        0
 40
2.5
 90
        0
 71
     2
340
16
 90
       25
 62
   256
340
16
 90
       50
 62
   256
 40
5.0
 40
2.5
 40
5.0
 71
     3
340
11
 62
   256
 40
5.0
 90
        0
 40
15.0
 90
        1
300
%<\AcVar ViewSectionStartId>%-%<\AcVar ViewSectionEndId>% (%<\AcVar ViewScale \f "%sn">%)
 71
     4
 62
   256
 62
   257
300
ANSI31
 40
1.0
 90
        0
290
     0
290
     0
 90
        6
 40
0.0
 40
1.570796326794896
 40
0.2617993877991494
 40
1.308996938995747
 40
-0.2617993877991494
 40
1.832595714594046
  0
TABLESTYLE
  5
6A
102
{ACAD_XDICTIONARY
360
85
102
}
102
{ACAD_REACTORS
330
69
102
}
330
69
100
AcDbTableStyle
280
     0
  3
Standard
 70
     0
 71
     0
 40
1.5
 41
1.5
280
     0
281
     0
  7
Standard
140
4.5
170
     2
 62
     0
 63
     7
283
     0
 90
        4
 91
        0
  1

274
    -2
284
     1
 64
     0
275
    -2
285
     1
 65
     0
276
    -2
286
     1
 66
     0
277
    -2
287
     1
 67
     0
278
    -2
288
     1
 68
     0
279
    -2
289
     1
 69
     0
  7
Standard
140
6.0
170
     5
 62
     0
 63
     7
283
     0
 90
        4
 91
        0
  1

274
    -2
284
     1
 64
     0
275
    -2
285
     1
 65
     0
276
    -2
286
     1
 66
     0
277
    -2
287
     1
 67
     0
278
    -2
288
     1
 68
     0
279
    -2
289
     1
 69
     0
  7
Standard
140
4.5
170
     5
 62
     0
 63
     7
283
     0
 90
        4
 91
        0
  1

274
    -2
284
     1
 64
     0
275
    -2
285
     1
 65
     0
276
    -2
286
     1
 66
     0
277
    -2
287
     1
 67
     0
278
    -2
288
     1
 68
     0
279
    -2
289
     1
 69
     0
  0
VISUALSTYLE
  5
2F
102
{ACAD_REACTORS
330
2A
102
}
330
2A
100
AcDbVisualStyle
  2
2dWireframe
 70
     4
177
     3
291
     0
 70
    58
 90
        0
176
     1
 90
        2
176
     1
 90
        0
176
     1
 90
        0
176
     1
 40
0.6
176
     1
 40
30.0
176
     1
 62
     7
420
 16777215
176
     1
 90
        1
176
     1
 90
        4
176
     1
 62
     7
176
     1
 62
   257
176
     1
 90
        1
176
     1
 90
        1
176
     1
 40
1.0
176
     1
 90
        0
176
     1
 62
   257
176
     1
 40
1.0
176
     1
 90
        1
176
     1
 90
        6
176
     1
 90
        2
176
     1
 62
     7
176
     1
 90
        5
176
     1
 90
        0
176
     1
 90
        0
176
     1
290
     0
176
     1
 90
        1
176
     1
 40
0.0
176
     1
 90
        0
176
     1
290
     1
176
     1
290
     1
176
     1
290
     0
176
     1
290
     0
176
     1
290
     0
176
     1
290
     0
176
     1
290
     0
176
     1
290
     0
176
     1
290
     0
176
     1
 90
       50
176
     1
 40
0.0
176
     1
 40
1.0
176
     1
 90
        0
176
     1
 62
    18
176
     1
 90
       50
176
     1
 90
        3
176
     1
 62
     5
420
      255
176
     1
290
     0
176
     1
 90
       50
176
     1
 90
       50
176
     1
 90
       50
176
     1
290
     0
176
     1
 90
       50
176
     1
 62
   256
176
     0
 40
1.0
176
     0
 90
        2
176
     1
  1
strokes_ogs.tif
176
     1
290
     0
176
     1
 40
1.0
176
     1
 40
1.0
176
     1
1001
ACAD
1000
AcDbSavedByObjectVersion
1070
     0
  0
VISUALSTYLE
  5
32
102
{ACAD_REACTORS
330
2A
102
}
330
2A
100
AcDbVisualStyle
  2
Basic
 70
     7
177
     3
291
     1
 70
    58
 90
        1
176
     1
 90
        0
176
     1
 90
        1
176
     1
 90
        0
176
     1
 40
0.6
176
     1
 40
30.0
176
     1
 62
     7
420
 16777215
176
     1
 90
        0
176
     1
 90
        4
176
     1
 62
     7
176
     1
 62
   257
176
     1
 90
        1
176
     1
 90
        1
176
     1
 40
1.0
176
     1
 90
        8
176
     1
 62
     7
176
     1
 40
1.0
176
     1
 90
        1
176
     1
 90
        6
176
     1
 90
        2
176
     1
 62
     7
176
     1
 90
        5
176
     1
 90
        0
176
     1
 90
        0
176
     1
290
     0
176
     1
 90
        1
176
     1
 40
0.0
176
     1
 90
        0
176
     1
290
     0
176
     1
290
     1
176
     1
290
     1
176
     1
290
     0
176
     1
290
     0
176
     1
290
     0
176
     1
290
     0
176
     1
290
     0
176
     1
290
     0
176
     1
 90
       50
176
     1
 40
0.0
176
     1
 40
1.0
176
     1
 90
        0
176
     1
 62
    18
176
     1
 90
       50
176
     1
 90
        3
176
     1
 62
     5
420
      255
176
     1
290
     0
176
     1
 90
       50
176
     1
 90
       50
176
     1
 90
       50
176
     1
290
     0
176
     1
 90
       50
176
     1
 62
   256
176
     0
 40
1.0
176
     0
 90
        2
176
     1
  1
strokes_ogs.tif
176
     1
290
     0
176
     1
 40
1.0
176
     1
 40
1.0
176
     1
1001
ACAD
1000
AcDbSavedByObjectVersion
1070
     0
  0
VISUALSTYLE
  5
36
102
{ACAD_REACTORS
330
2A
102
}
330
2A
100
AcDbVisualStyle
  2
Brighten
 70
    12
177
     3
291
     1
 70
    58
 90
        2
176
     1
 90
        2
176
     1
 90
        0
176
     1
 90
        0
176
     1
 40
0.6
176
     1
 40
30.0
176
     1
 62
     7
420
 16777215
176
     1
 90
        1
176
     1
 90
        4
176
     1
 62
     7
176
     1
 62
   257
176
     1
 90
        1
176
     1
 90
        1
176
     1
 40
1.0
176
     1
 90
        8
176
     1
 62
     7
176
     1
 40
1.0
176
     1
 90
        1
176
     1
 90
        6
176
     1
 90
        2
176
     1
 62
     7
176
     1
 90
        5
176
     1
 90
        0
176
     1
 90
        0
176
     1
290
     0
176
     1
 90
        1
176
     1
 40
50.0
176
     1
 90
        0
176
     1
290
     0
176
     1
290
     1
176
     1
290
     1
176
     1
290
     0
176
     1
290
     0
176
     1
290
     0
176
     1
290
     0
176
     1
290
     0
176
     1
290
     0
176
     1
 90
       50
176
     1
 40
0.0
176
     1
 40
1.0
176
     1
 90
        0
176
     1
 62
    18
176
     1
 90
       50
176
     1
 90
        3
176
     1
 62
     5
420
      255
176
     1
290
     0
176
     1
 90
       50
176
     1
 90
       50
176
     1
 90
       50
176
     1
290
     0
176
     1
 90
       50
176
     1
 62
   256
176
     0
 40
1.0
176
     0
 90
        2
176
     1
  1
strokes_ogs.tif
176
     1
290
     0
176
     1
 40
1.0
176
     1
 40
1.0
176
     1
1001
ACAD
1000
AcDbSavedByObjectVersion
1070
     0
  0
VISUALSTYLE
  5
3A
102
{ACAD_REACTORS
330
2A
102
}
330
2A
100
AcDbVisualStyle
  2
ColorChange
 70
    16
177
     3
291
     1
 70
    58
 90
        2
176
     1
 90
        2
176
     1
 90
        3
176
     1
 90
        0
176
     1
 40
0.6
176
     1
 40
30.0
176
     1
 62
     8
420
  8421504
176
     1
 90
        1
176
     1
 90
        4
176
     1
 62
     7
176
     1
 62
   257
176
     1
 90
        1
176
     1
 90
        1
176
     1
 40
1.0
176
     1
 90
        8
176
     1
 62
     8
420
  8421504
176
     1
 40
1.0
176
     1
 90
        1
176
     1
 90
        6
176
     1
 90
        2
176
     1
 62
     7
176
     1
 90
        5
176
     1
 90
        0
176
     1
 90
        0
176
     1
290
     0
176
     1
 90
        1
176
     1
 40
0.0
176
     1
 90
        0
176
     1
290
     0
176
     1
290
     1
176
     1
290
     1
176
     1
290
     0
176
     1
290
     0
176
     1
290
     0
176
     1
290
     0
176
     1
290
     0
176
     1
290
     0
176
     1
 90
       50
176
     1
 40
0.0
176
     1
 40
1.0
176
     1
 90
        0
176
     1
 62
    18
176
     1
 90
       50
176
     1
 90
        3
176
     1
 62
     5
420
      255
176
     1
290
     0
176
     1
 90
       50
176
     1
 90
       50
176
     1
 90
       50
176
     1
290
     0
176
     1
 90
       50
176
     1
 62
   256
176
     0
 40
1.0
176
     0
 90
        2
176
     1
  1
strokes_ogs.tif
176
     1
290
     0
176
     1
 40
1.0
176
     1
 40
1.0
176
     1
1001
ACAD
1000
AcDbSavedByObjectVersion
1070
     0
  0
VISUALSTYLE
  5
34
102
{ACAD_REACTORS
330
2A
102
}
330
2A
100
AcDbVisualStyle
  2
Conceptual
 70
     9
177
     3
291
     0
 70
    58
 90
        3
176
     1
 90
        2
176
     1
 90
        0
176
     1
 90
        0
176
     1
 40
0.6
176
     1
 40
30.0
176
     1
 62
     7
420
 16777215
176
     1
 90
        2
176
     1
 90
        2
176
     1
 62
     7
176
     1
 62
   257
176
     1
 90
        1
176
     1
 90
        1
176
     1
 40
179.0
176
     1
 90
        8
176
     1
 62
     7
176
     1
 40
1.0
176
     1
 90
        1
176
     1
 90
        6
176
     1
 90
        2
176
     1
 62
     7
176
     1
 90
        3
176
     1
 90
        0
176
     1
 90
        0
176
     1
290
     0
176
     1
 90
        1
176
     1
 40
0.0
176
     1
 90
        0
176
     1
290
     0
176
     1
290
     1
176
     1
290
     1
176
     1
290
     0
176
     1
290
     0
176
     1
290
     0
176
     1
290
     0
176
     1
290
     0
176
     1
290
     0
176
     1
 90
       50
176
     1
 40
0.0
176
     1
 40
1.0
176
     1
 90
        0
176
     1
 62
    18
176
     1
 90
       50
176
     1
 90
        3
176
     1
 62
     5
420
      255
176
     1
290
     0
176
     1
 90
       50
176
     1
 90
       50
176
     1
 90
       50
176
     1
290
     0
176
     1
 90
       50
176
     1
 62
   256
176
     0
 40
1.0
176
     0
 90
        2
176
     1
  1
strokes_ogs.tif
176
     1
290
     0
176
     1
 40
1.0
176
     1
 40
1.0
176
     1
1001
ACAD
1000
AcDbSavedByObjectVersion
1070
     0
  0
VISUALSTYLE
  5
35
102
{ACAD_REACTORS
330
2A
102
}
330
2A
100
AcDbVisualStyle
  2
Dim
 70
    11
177
     3
291
     1
 70
    58
 90
        2
176
     1
 90
        2
176
     1
 90
        0
176
     1
 90
        0
176
     1
 40
0.6
176
     1
 40
30.0
176
     1
 62
     7
420
 16777215
176
     1
 90
        1
176
     1
 90
        4
176
     1
 62
     7
176
     1
 62
   257
176
     1
 90
        1
176
     1
 90
        1
176
     1
 40
1.0
176
     1
 90
        8
176
     1
 62
     7
176
     1
 40
1.0
176
     1
 90
        1
176
     1
 90
        6
176
     1
 90
        2
176
     1
 62
     7
176
     1
 90
        5
176
     1
 90
        0
176
     1
 90
        0
176
     1
290
     0
176
     1
 90
        1
176
     1
 40
-50.0
176
     1
 90
        0
176
     1
290
     0
176
     1
290
     1
176
     1
290
     1
176
     1
290
     0
176
     1
290
     0
176
     1
290
     0
176
     1
290
     0
176
     1
290
     0
176
     1
290
     0
176
     1
 90
       50
176
     1
 40
0.0
176
     1
 40
1.0
176
     1
 90
        0
176
     1
 62
    18
176
     1
 90
       50
176
     1
 90
        3
176
     1
 62
     5
420
      255
176
     1
290
     0
176
     1
 90
       50
176
     1
 90
       50
176
     1
 90
       50
176
     1
290
     0
176
     1
 90
       50
176
     1
 62
   256
176
     0
 40
1.0
176
     0
 90
        2
176
     1
  1
strokes_ogs.tif
176
     1
290
     0
176
     1
 40
1.0
176
     1
 40
1.0
176
     1
1001
ACAD
1000
AcDbSavedByObjectVersion
1070
     0
  0
VISUALSTYLE
  5
3D
102
{ACAD_REACTORS
330
2A
102
}
330
2A
100
AcDbVisualStyle
  2
EdgeColorOff
 70
    22
177
     3
291
     1
 70
    58
 90
        2
176
     0
 90
        2
176
     0
 90
        0
176
     0
 90
        0
176
     0
 40
0.6
176
     0
 40
30.0
176
     0
 62
     7
420
 16777215
176
     0
 90
        1
176
     0
 90
        4
176
     0
 62
     7
176
     0
 62
   257
176
     0
 90
        1
176
     0
 90
        1
176
     0
 40
1.0
176
     0
 90
        8
176
     2
 62
     7
176
     0
 40
1.0
176
     0
 90
        1
176
     0
 90
        6
176
     0
 90
        2
176
     0
 62
     7
176
     0
 90
        5
176
     0
 90
        0
176
     0
 90
        0
176
     0
290
     0
176
     0
 90
        1
176
     0
 40
0.0
176
     0
 90
        0
176
     0
290
     0
176
     0
290
     1
176
     0
290
     1
176
     0
290
     0
176
     0
290
     0
176
     0
290
     0
176
     0
290
     0
176
     0
290
     0
176
     0
290
     0
176
     0
 90
       50
176
     0
 40
0.0
176
     0
 40
1.0
176
     0
 90
        0
176
     0
 62
    18
176
     0
 90
       50
176
     0
 90
        3
176
     0
 62
     5
420
      255
176
     0
290
     0
176
     0
 90
       50
176
     0
 90
       50
176
     0
 90
       50
176
     0
290
     0
176
     0
 90
       50
176
     0
 62
   256
176
     0
 40
1.0
176
     0
 90
        2
176
     0
  1
strokes_ogs.tif
176
     0
290
     0
176
     0
 40
1.0
176
     0
 40
1.0
176
     0
1001
ACAD
1000
AcDbSavedByObjectVersion
1070
     0
  0
VISUALSTYLE
  5
39
102
{ACAD_REACTORS
330
2A
102
}
330
2A
100
AcDbVisualStyle
  2
Facepattern
 70
    15
177
     3
291
     1
 70
    58
 90
        2
176
     1
 90
        2
176
     1
 90
        0
176
     1
 90
        0
176
     1
 40
0.6
176
     1
 40
30.0
176
     1
 62
     7
420
 16777215
176
     1
 90
        1
176
     1
 90
        4
176
     1
 62
     7
176
     1
 62
   257
176
     1
 90
        1
176
     1
 90
        1
176
     1
 40
1.0
176
     1
 90
        8
176
     1
 62
     7
176
     1
 40
1.0
176
     1
 90
        1
176
     1
 90
        6
176
     1
 90
        2
176
     1
 62
     7
176
     1
 90
        5
176
     1
 90
        0
176
     1
 90
        0
176
     1
290
     0
176
     1
 90
        1
176
     1
 40
0.0
176
     1
 90
        0
176
     1
290
     0
176
     1
290
     1
176
     1
290
     1
176
     1
290
     0
176
     1
290
     0
176
     1
290
     0
176
     1
290
     0
176
     1
290
     0
176
     1
290
     0
176
     1
 90
       50
176
     1
 40
0.0
176
     1
 40
1.0
176
     1
 90
        0
176
     1
 62
    18
176
     1
 90
       50
176
     1
 90
        3
176
     1
 62
     5
420
      255
176
     1
290
     0
176
     1
 90
       50
176
     1
 90
       50
176
     1
 90
       50
176
     1
290
     0
176
     1
 90
       50
176
     1
 62
   256
176
     0
 40
1.0
176
     0
 90
        2
176
     1
  1
strokes_ogs.tif
176
     1
290
     0
176
     1
 40
1.0
176
     1
 40
1.0
176
     1
1001
ACAD
1000
AcDbSavedByObjectVersion
1070
     0
  0
VISUALSTYLE
  5
2B
102
{ACAD_REACTORS
330
2A
102
}
330
2A
100
AcDbVisualStyle
  2
Flat
 70
     0
177
     3
291
     1
 70
    58
 90
        2
176
     1
 90
        1
176
     1
 90
        1
176
     1
 90
        2
176
     1
 40
0.6
176
     1
 40
30.0
176
     1
 62
     7
420
 16777215
176
     1
 90
        0
176
     1
 90
        0
176
     1
 62
     7
176
     1
 62
   257
176
     1
 90
        1
176
     1
 90
        1
176
     1
 40
1.0
176
     1
 90
        8
176
     1
 62
     7
176
     1
 40
1.0
176
     1
 90
        1
176
     1
 90
        6
176
     1
 90
        2
176
     1
 62
     7
176
     1
 90
        5
176
     1
 90
        0
176
     1
 90
        0
176
     1
290
     0
176
     1
 90
       13
176
     1
 40
0.0
176
     1
 90
        0
176
     1
290
     0
176
     1
290
     1
176
     1
290
     1
176
     1
290
     0
176
     1
290
     0
176
     1
290
     0
176
     1
290
     0
176
     1
290
     0
176
     1
290
     0
176
     1
 90
       50
176
     1
 40
0.0
176
     1
 40
1.0
176
     1
 90
        0
176
     1
 62
    18
176
     1
 90
       50
176
     1
 90
        3
176
     1
 62
     5
420
      255
176
     1
290
     0
176
     1
 90
       50
176
     1
 90
       50
176
     1
 90
       50
176
     1
290
     0
176
     1
 90
       50
176
     1
 62
   256
176
     0
 40
1.0
176
     0
 90
        2
176
     1
  1
strokes_ogs.tif
176
     1
290
     0
176
     1
 40
1.0
176
     1
 40
1.0
176
     1
1001
ACAD
1000
AcDbSavedByObjectVersion
1070
     0
  0
VISUALSTYLE
  5
2C
102
{ACAD_REACTORS
330
2A
102
}
330
2A
100
AcDbVisualStyle
  2
FlatWithEdges
 70
     1
177
     3
291
     1
 70
    58
 90
        2
176
     1
 90
        1
176
     1
 90
        1
176
     1
 90
        2
176
     1
 40
0.6
176
     1
 40
30.0
176
     1
 62
     7
420
 16777215
176
     1
 90
        1
176
     1
 90
        0
176
     1
 62
     7
176
     1
 62
   257
176
     1
 90
        1
176
     1
 90
        1
176
     1
 40
1.0
176
     1
 90
        0
176
     1
 62
   257
176
     1
 40
1.0
176
     1
 90
        1
176
     1
 90
        6
176
     1
 90
        2
176
     1
 62
     7
176
     1
 90
        5
176
     1
 90
        0
176
     1
 90
        0
176
     1
290
     0
176
     1
 90
       13
176
     1
 40
0.0
176
     1
 90
        0
176
     1
290
     0
176
     1
290
     1
176
     1
290
     1
176
     1
290
     0
176
     1
290
     0
176
     1
290
     0
176
     1
290
     0
176
     1
290
     0
176
     1
290
     0
176
     1
 90
       50
176
     1
 40
0.0
176
     1
 40
1.0
176
     1
 90
        0
176
     1
 62
    18
176
     1
 90
       50
176
     1
 90
        3
176
     1
 62
     5
420
      255
176
     1
290
     0
176
     1
 90
       50
176
     1
 90
       50
176
     1
 90
       50
176
     1
290
     0
176
     1
 90
       50
176
     1
 62
   256
176
     0
 40
1.0
176
     0
 90
        2
176
     1
  1
strokes_ogs.tif
176
     1
290
     0
176
     1
 40
1.0
176
     1
 40
1.0
176
     1
1001
ACAD
1000
AcDbSavedByObjectVersion
1070
     0
  0
VISUALSTYLE
  5
2D
102
{ACAD_REACTORS
330
2A
102
}
330
2A
100
AcDbVisualStyle
  2
Gouraud
 70
     2
177
     3
291
     1
 70
    58
 90
        2
176
     1
 90
        2
176
     1
 90
        1
176
     1
 90
        2
176
     1
 40
0.6
176
     1
 40
30.0
176
     1
 62
     7
420
 16777215
176
     1
 90
        0
176
     1
 90
        0
176
     1
 62
     7
176
     1
 62
   257
176
     1
 90
        1
176
     1
 90
        1
176
     1
 40
1.0
176
     1
 90
        0
176
     1
 62
     7
176
     1
 40
1.0
176
     1
 90
        1
176
     1
 90
        6
176
     1
 90
        2
176
     1
 62
     7
176
     1
 90
        5
176
     1
 90
        0
176
     1
 90
        0
176
     1
290
     0
176
     1
 90
       13
176
     1
 40
0.0
176
     1
 90
        0
176
     1
290
     0
176
     1
290
     1
176
     1
290
     1
176
     1
290
     0
176
     1
290
     0
176
     1
290
     0
176
     1
290
     0
176
     1
290
     0
176
     1
290
     0
176
     1
 90
       50
176
     1
 40
0.0
176
     1
 40
1.0
176
     1
 90
        0
176
     1
 62
    18
176
     1
 90
       50
176
     1
 90
        3
176
     1
 62
     5
420
      255
176
     1
290
     0
176
     1
 90
       50
176
     1
 90
       50
176
     1
 90
       50
176
     1
290
     0
176
     1
 90
       50
176
     1
 62
   256
176
     0
 40
1.0
176
     0
 90
        2
176
     1
  1
strokes_ogs.tif
176
     1
290
     0
176
     1
 40
1.0
176
     1
 40
1.0
176
     1
1001
ACAD
1000
AcDbSavedByObjectVersion
1070
     0
  0
VISUALSTYLE
  5
2E
102
{ACAD_REACTORS
330
2A
102
}
330
2A
100
AcDbVisualStyle
  2
GouraudWithEdges
 70
     3
177
     3
291
     1
 70
    58
 90
        2
176
     1
 90
        2
176
     1
 90
        1
176
     1
 90
        2
176
     1
 40
0.6
176
     1
 40
30.0
176
     1
 62
     7
420
 16777215
176
     1
 90
        1
176
     1
 90
        0
176
     1
 62
     7
176
     1
 62
   257
176
     1
 90
        1
176
     1
 90
        1
176
     1
 40
1.0
176
     1
 90
        0
176
     1
 62
   257
176
     1
 40
1.0
176
     1
 90
        1
176
     1
 90
        6
176
     1
 90
        2
176
     1
 62
     7
176
     1
 90
        5
176
     1
 90
        0
176
     1
 90
        0
176
     1
290
     0
176
     1
 90
       13
176
     1
 40
0.0
176
     1
 90
        0
176
     1
290
     0
176
     1
290
     1
176
     1
290
     1
176
     1
290
     0
176
     1
290
     0
176
     1
290
     0
176
     1
290
     0
176
     1
290
     0
176
     1
290
     0
176
     1
 90
       50
176
     1
 40
0.0
176
     1
 40
1.0
176
     1
 90
        0
176
     1
 62
    18
176
     1
 90
       50
176
     1
 90
        3
176
     1
 62
     5
420
      255
176
     1
290
     0
176
     1
 90
       50
176
     1
 90
       50
176
     1
 90
       50
176
     1
290
     0
176
     1
 90
       50
176
     1
 62
   256
176
     0
 40
1.0
176
     0
 90
        2
176
     1
  1
strokes_ogs.tif
176
     1
290
     0
176
     1
 40
1.0
176
     1
 40
1.0
176
     1
1001
ACAD
1000
AcDbSavedByObjectVersion
1070
     0
  0
VISUALSTYLE
  5
31
102
{ACAD_REACTORS
330
2A
102
}
330
2A
100
AcDbVisualStyle
  2
Hidden
 70
     6
177
     3
291
     0
 70
    58
 90
        1
176
     1
 90
        2
176
     1
 90
        2
176
     1
 90
        0
176
     1
 40
0.6
176
     1
 40
30.0
176
     1
 62
     7
420
 16777215
176
     1
 90
        2
176
     1
 90
        2
176
     1
 62
     7
176
     1
 62
   257
176
     1
 90
        2
176
     1
 90
        1
176
     1
 40
40.0
176
     1
 90
        0
176
     1
 62
   257
176
     1
 40
1.0
176
     1
 90
        1
176
     1
 90
        6
176
     1
 90
        2
176
     1
 62
     7
176
     1
 90
        3
176
     1
 90
        0
176
     1
 90
        0
176
     1
290
     0
176
     1
 90
        1
176
     1
 40
0.0
176
     1
 90
        0
176
     1
290
     0
176
     1
290
     1
176
     1
290
     1
176
     1
290
     0
176
     1
290
     0
176
     1
290
     0
176
     1
290
     0
176
     1
290
     0
176
     1
290
     0
176
     1
 90
       50
176
     1
 40
0.0
176
     1
 40
1.0
176
     1
 90
        0
176
     1
 62
    18
176
     1
 90
       50
176
     1
 90
        3
176
     1
 62
     5
420
      255
176
     1
290
     0
176
     1
 90
       50
176
     1
 90
       50
176
     1
 90
       50
176
     1
290
     0
176
     1
 90
       50
176
     1
 62
   256
176
     0
 40
1.0
176
     0
 90
        2
176
     1
  1
strokes_ogs.tif
176
     1
290
     0
176
     1
 40
1.0
176
     1
 40
1.0
176
     1
1001
ACAD
1000
AcDbSavedByObjectVersion
1070
     0
  0
VISUALSTYLE
  5
3B
102
{ACAD_REACTORS
330
2A
102
}
330
2A
100
AcDbVisualStyle
  2
JitterOff
 70
    20
177
     3
291
     1
 70
    58
 90
        2
176
     0
 90
        2
176
     0
 90
        0
176
     0
 90
        0
176
     0
 40
0.6
176
     0
 40
30.0
176
     0
 62
     7
420
 16777215
176
     0
 90
        1
176
     0
 90
        4
176
     0
 62
     7
176
     0
 62
   257
176
     0
 90
        1
176
     0
 90
        1
176
     0
 40
1.0
176
     0
 90
       10
176
     2
 62
     7
176
     0
 40
1.0
176
     0
 90
        1
176
     0
 90
        6
176
     0
 90
        2
176
     0
 62
     7
176
     0
 90
        5
176
     0
 90
        0
176
     0
 90
        0
176
     0
290
     0
176
     0
 90
        1
176
     0
 40
0.0
176
     0
 90
        0
176
     0
290
     0
176
     0
290
     1
176
     0
290
     1
176
     0
290
     0
176
     0
290
     0
176
     0
290
     0
176
     0
290
     0
176
     0
290
     0
176
     0
290
     0
176
     0
 90
       50
176
     0
 40
0.0
176
     0
 40
1.0
176
     0
 90
        0
176
     0
 62
    18
176
     0
 90
       50
176
     0
 90
        3
176
     0
 62
     5
420
      255
176
     0
290
     0
176
     0
 90
       50
176
     0
 90
       50
176
     0
 90
       50
176
     0
290
     0
176
     0
 90
       50
176
     0
 62
   256
176
     0
 40
1.0
176
     0
 90
        2
176
     0
  1
strokes_ogs.tif
176
     0
290
     0
176
     0
 40
1.0
176
     0
 40
1.0
176
     0
1001
ACAD
1000
AcDbSavedByObjectVersion
1070
     0
  0
VISUALSTYLE
  5
38
102
{ACAD_REACTORS
330
2A
102
}
330
2A
100
AcDbVisualStyle
  2
Linepattern
 70
    14
177
     3
291
     1
 70
    58
 90
        2
176
     1
 90
        2
176
     1
 90
        0
176
     1
 90
        0
176
     1
 40
0.6
176
     1
 40
30.0
176
     1
 62
     7
420
 16777215
176
     1
 90
        1
176
     1
 90
        4
176
     1
 62
     7
176
     1
 62
   257
176
     1
 90
        7
176
     1
 90
        7
176
     1
 40
1.0
176
     1
 90
        8
176
     1
 62
     7
176
     1
 40
1.0
176
     1
 90
        1
176
     1
 90
        6
176
     1
 90
        2
176
     1
 62
     7
176
     1
 90
        5
176
     1
 90
        0
176
     1
 90
        0
176
     1
290
     0
176
     1
 90
        1
176
     1
 40
0.0
176
     1
 90
        0
176
     1
290
     0
176
     1
290
     1
176
     1
290
     1
176
     1
290
     0
176
     1
290
     0
176
     1
290
     0
176
     1
290
     0
176
     1
290
     0
176
     1
290
     0
176
     1
 90
       50
176
     1
 40
0.0
176
     1
 40
1.0
176
     1
 90
        0
176
     1
 62
    18
176
     1
 90
       50
176
     1
 90
        3
176
     1
 62
     5
420
      255
176
     1
290
     0
176
     1
 90
       50
176
     1
 90
       50
176
     1
 90
       50
176
     1
290
     0
176
     1
 90
       50
176
     1
 62
   256
176
     0
 40
1.0
176
     0
 90
        2
176
     1
  1
strokes_ogs.tif
176
     1
290
     0
176
     1
 40
1.0
176
     1
 40
1.0
176
     1
1001
ACAD
1000
AcDbSavedByObjectVersion
1070
     0
  0
VISUALSTYLE
  5
3C
102
{ACAD_REACTORS
330
2A
102
}
330
2A
100
AcDbVisualStyle
  2
OverhangOff
 70
    21
177
     3
291
     1
 70
    58
 90
        2
176
     0
 90
        2
176
     0
 90
        0
176
     0
 90
        0
176
     0
 40
0.6
176
     0
 40
30.0
176
     0
 62
     7
420
 16777215
176
     0
 90
        1
176
     0
 90
        4
176
     0
 62
     7
176
     0
 62
   257
176
     0
 90
        1
176
     0
 90
        1
176
     0
 40
1.0
176
     0
 90
        9
176
     2
 62
     7
176
     0
 40
1.0
176
     0
 90
        1
176
     0
 90
        6
176
     0
 90
        2
176
     0
 62
     7
176
     0
 90
        5
176
     0
 90
        0
176
     0
 90
        0
176
     0
290
     0
176
     0
 90
        1
176
     0
 40
0.0
176
     0
 90
        0
176
     0
290
     0
176
     0
290
     1
176
     0
290
     1
176
     0
290
     0
176
     0
290
     0
176
     0
290
     0
176
     0
290
     0
176
     0
290
     0
176
     0
290
     0
176
     0
 90
       50
176
     0
 40
0.0
176
     0
 40
1.0
176
     0
 90
        0
176
     0
 62
    18
176
     0
 90
       50
176
     0
 90
        3
176
     0
 62
     5
420
      255
176
     0
290
     0
176
     0
 90
       50
176
     0
 90
       50
176
     0
 90
       50
176
     0
290
     0
176
     0
 90
       50
176
     0
 62
   256
176
     0
 40
1.0
176
     0
 90
        2
176
     0
  1
strokes_ogs.tif
176
     0
290
     0
176
     0
 40
1.0
176
     0
 40
1.0
176
     0
1001
ACAD
1000
AcDbSavedByObjectVersion
1070
     0
  0
VISUALSTYLE
  5
33
102
{ACAD_REACTORS
330
2A
102
}
330
2A
100
AcDbVisualStyle
  2
Realistic
 70
     8
177
     3
291
     0
 70
    58
 90
        2
176
     1
 90
        3
176
     1
 90
        0
176
     1
 90
        2
176
     1
 40
0.6
176
     1
 40
30.0
176
     1
 62
     7
420
 16777215
176
     1
 90
        0
176
     1
 90
        0
176
     1
 62
     7
176
     1
 62
   257
176
     1
 90
        1
176
     1
 90
        1
176
     1
 40
1.0
176
     1
 90
        8
176
     1
 62
   257
176
     1
 40
1.0
176
     1
 90
        1
176
     1
 90
        6
176
     1
 90
        2
176
     1
 62
     7
176
     1
 90
        3
176
     1
 90
        0
176
     1
 90
        0
176
     1
290
     0
176
     1
 90
       13
176
     1
 40
0.0
176
     1
 90
        0
176
     1
290
     0
176
     1
290
     1
176
     1
290
     1
176
     1
290
     0
176
     1
290
     0
176
     1
290
     0
176
     1
290
     0
176
     1
290
     0
176
     1
290
     0
176
     1
 90
       50
176
     1
 40
0.0
176
     1
 40
1.0
176
     1
 90
        0
176
     1
 62
    18
176
     1
 90
       50
176
     1
 90
        3
176
     1
 62
     5
420
      255
176
     1
290
     0
176
     1
 90
       50
176
     1
 90
       50
176
     1
 90
       50
176
     1
290
     0
176
     1
 90
       50
176
     1
 62
   256
176
     0
 40
1.0
176
     0
 90
        2
176
     1
  1
strokes_ogs.tif
176
     1
290
     0
176
     1
 40
1.0
176
     1
 40
1.0
176
     1
1001
ACAD
1000
AcDbSavedByObjectVersion
1070
     0
  0
VISUALSTYLE
  5
42
102
{ACAD_REACTORS
330
2A
102
}
330
2A
100
AcDbVisualStyle
  2
Shaded
 70
    27
177
     3
291
     0
 70
    58
 90
        2
176
     1
 90
        2
176
     1
 90
        1
176
     1
 90
        2
176
     1
 40
0.6
176
     1
 40
30.0
176
     1
 62
     7
420
 16777215
176
     1
 90
        0
176
     1
 90
        4
176
     1
 62
     7
176
     1
 62
   257
176
     1
 90
        1
176
     1
 90
        1
176
     1
 40
1.0
176
     1
 90
        8
176
     1
 62
   257
176
     1
 40
1.0
176
     1
 90
        1
176
     1
 90
        6
176
     1
 90
        2
176
     1
 62
     8
420
  7895160
176
     1
 90
        3
176
     1
 90
        0
176
     1
 90
        0
176
     1
290
     0
176
     1
 90
        5
176
     1
 40
0.0
176
     1
 90
        0
176
     1
290
     0
176
     1
290
     1
176
     1
290
     1
176
     1
290
     0
176
     1
290
     0
176
     1
290
     0
176
     1
290
     0
176
     1
290
     0
176
     1
290
     0
176
     1
 90
       50
176
     1
 40
0.0
176
     1
 40
1.0
176
     1
 90
        0
176
     1
 62
    18
176
     1
 90
       50
176
     1
 90
        3
176
     1
 62
     5
420
      255
176
     1
290
     0
176
     1
 90
       50
176
     1
 90
       50
176
     1
 90
       50
176
     1
290
     0
176
     1
 90
       50
176
     1
 62
   256
176
     0
 40
1.0
176
     0
 90
        2
176
     1
  1
strokes_ogs.tif
176
     1
290
     0
176
     1
 40
1.0
176
     1
 40
1.0
176
     1
1001
ACAD
1000
AcDbSavedByObjectVersion
1070
     0
  0
VISUALSTYLE
  5
41
102
{ACAD_REACTORS
330
2A
102
}
330
2A
100
AcDbVisualStyle
  2
Shaded with edges
 70
    26
177
     3
291
     0
 70
    58
 90
        2
176
     1
 90
        2
176
     1
 90
        1
176
     1
 90
        2
176
     1
 40
0.6
176
     1
 40
30.0
176
     1
 62
     7
420
 16777215
176
     1
 90
        1
176
     1
 90
       10
176
     1
 62
     7
176
     1
 62
   257
176
     1
 90
        2
176
     1
 90
        1
176
     1
 40
1.0
176
     1
 90
        8
176
     1
 62
   257
176
     1
 40
1.0
176
     1
 90
        1
176
     1
 90
        6
176
     1
 90
        2
176
     1
 62
     7
176
     1
 90
        3
176
     1
 90
        0
176
     1
 90
        0
176
     1
290
     0
176
     1
 90
        5
176
     1
 40
0.0
176
     1
 90
        0
176
     1
290
     0
176
     1
290
     1
176
     1
290
     1
176
     1
290
     0
176
     1
290
     0
176
     1
290
     0
176
     1
290
     0
176
     1
290
     0
176
     1
290
     0
176
     1
 90
       50
176
     1
 40
0.0
176
     1
 40
1.0
176
     1
 90
        0
176
     1
 62
    18
176
     1
 90
       50
176
     1
 90
        3
176
     1
 62
     5
420
      255
176
     1
290
     0
176
     1
 90
       50
176
     1
 90
       50
176
     1
 90
       50
176
     1
290
     0
176
     1
 90
       50
176
     1
 62
   256
176
     0
 40
1.0
176
     0
 90
        2
176
     1
  1
strokes_ogs.tif
176
     1
290
     0
176
     1
 40
1.0
176
     1
 40
1.0
176
     1
1001
ACAD
1000
AcDbSavedByObjectVersion
1070
     0
  0
VISUALSTYLE
  5
3E
102
{ACAD_REACTORS
330
2A
102
}
330
2A
100
AcDbVisualStyle
  2
Shades of Gray
 70
    23
177
     3
291
     0
 70
    58
 90
        2
176
     1
 90
        2
176
     1
 90
        3
176
     1
 90
        0
176
     1
 40
0.6
176
     1
 40
30.0
176
     1
 62
     7
420
 16777215
176
     1
 90
        2
176
     1
 90
        2
176
     1
 62
     7
176
     1
 62
     7
176
     1
 90
        1
176
     1
 90
        1
176
     1
 40
40.0
176
     1
 90
        8
176
     1
 62
     7
176
     1
 40
1.0
176
     1
 90
        1
176
     1
 90
        6
176
     1
 90
        2
176
     1
 62
     7
176
     1
 90
        3
176
     1
 90
        0
176
     1
 90
        0
176
     1
290
     0
176
     1
 90
        1
176
     1
 40
0.0
176
     1
 90
        0
176
     1
290
     0
176
     1
290
     1
176
     1
290
     1
176
     1
290
     0
176
     1
290
     0
176
     1
290
     0
176
     1
290
     0
176
     1
290
     0
176
     1
290
     0
176
     1
 90
       50
176
     1
 40
0.0
176
     1
 40
1.0
176
     1
 90
        0
176
     1
 62
    18
176
     1
 90
       50
176
     1
 90
        3
176
     1
 62
     5
420
      255
176
     1
290
     0
176
     1
 90
       50
176
     1
 90
       50
176
     1
 90
       50
176
     1
290
     0
176
     1
 90
       50
176
     1
 62
   256
176
     0
 40
1.0
176
     0
 90
        2
176
     1
  1
strokes_ogs.tif
176
     1
290
     0
176
     1
 40
1.0
176
     1
 40
1.0
176
     1
1001
ACAD
1000
AcDbSavedByObjectVersion
1070
     0
  0
VISUALSTYLE
  5
3F
102
{ACAD_REACTORS
330
2A
102
}
330
2A
100
AcDbVisualStyle
  2
Sketchy
 70
    24
177
     3
291
     0
 70
    58
 90
        1
176
     1
 90
        2
176
     1
 90
        2
176
     1
 90
        0
176
     1
 40
0.6
176
     1
 40
30.0
176
     1
 62
     7
420
 16777215
176
     1
 90
        2
176
     1
 90
        2
176
     1
 62
     7
176
     1
 62
     7
176
     1
 90
        1
176
     1
 90
        1
176
     1
 40
40.0
176
     1
 90
       11
176
     1
 62
     7
176
     1
 40
1.0
176
     1
 90
        1
176
     1
 90
        6
176
     1
 90
        2
176
     1
 62
     7
176
     1
 90
        6
176
     1
 90
        0
176
     1
 90
        0
176
     1
290
     0
176
     1
 90
        1
176
     1
 40
0.0
176
     1
 90
        0
176
     1
290
     0
176
     1
290
     1
176
     1
290
     1
176
     1
290
     0
176
     1
290
     0
176
     1
290
     0
176
     1
290
     0
176
     1
290
     0
176
     1
290
     0
176
     1
 90
       50
176
     1
 40
0.0
176
     1
 40
1.0
176
     1
 90
        0
176
     1
 62
    18
176
     1
 90
       50
176
     1
 90
        3
176
     1
 62
     5
420
      255
176
     1
290
     0
176
     1
 90
       50
176
     1
 90
       50
176
     1
 90
       50
176
     1
290
     0
176
     1
 90
       50
176
     1
 62
   256
176
     0
 40
1.0
176
     0
 90
        2
176
     1
  1
strokes_ogs.tif
176
     1
290
     0
176
     1
 40
1.0
176
     1
 40
1.0
176
     1
1001
ACAD
1000
AcDbSavedByObjectVersion
1070
     0
  0
VISUALSTYLE
  5
37
102
{ACAD_REACTORS
330
2A
102
}
330
2A
100
AcDbVisualStyle
  2
Thicken
 70
    13
177
     3
291
     1
 70
    58
 90
        2
176
     1
 90
        2
176
     1
 90
        0
176
     1
 90
        0
176
     1
 40
0.6
176
     1
 40
30.0
176
     1
 62
     7
420
 16777215
176
     1
 90
        1
176
     1
 90
        4
176
     1
 62
     7
176
     1
 62
   257
176
     1
 90
        1
176
     1
 90
        1
176
     1
 40
1.0
176
     1
 90
       12
176
     1
 62
     7
176
     1
 40
1.0
176
     1
 90
        1
176
     1
 90
        6
176
     1
 90
        2
176
     1
 62
     7
176
     1
 90
        5
176
     1
 90
        0
176
     1
 90
        0
176
     1
290
     0
176
     1
 90
        1
176
     1
 40
0.0
176
     1
 90
        0
176
     1
290
     0
176
     1
290
     1
176
     1
290
     1
176
     1
290
     0
176
     1
290
     0
176
     1
290
     0
176
     1
290
     0
176
     1
290
     0
176
     1
290
     0
176
     1
 90
       50
176
     1
 40
0.0
176
     1
 40
1.0
176
     1
 90
        0
176
     1
 62
    18
176
     1
 90
       50
176
     1
 90
        3
176
     1
 62
     5
420
      255
176
     1
290
     0
176
     1
 90
       50
176
     1
 90
       50
176
     1
 90
       50
176
     1
290
     0
176
     1
 90
       50
176
     1
 62
   256
176
     0
 40
1.0
176
     0
 90
        2
176
     1
  1
strokes_ogs.tif
176
     1
290
     0
176
     1
 40
1.0
176
     1
 40
1.0
176
     1
1001
ACAD
1000
AcDbSavedByObjectVersion
1070
     0
  0
VISUALSTYLE
  5
30
102
{ACAD_REACTORS
330
2A
102
}
330
2A
100
AcDbVisualStyle
  2
Wireframe
 70
     5
177
     3
291
     0
 70
    58
 90
        0
176
     1
 90
        2
176
     1
 90
        0
176
     1
 90
        0
176
     1
 40
0.6
176
     1
 40
30.0
176
     1
 62
     7
420
 16777215
176
     1
 90
        1
176
     1
 90
        4
176
     1
 62
     7
176
     1
 62
   257
176
     1
 90
        1
176
     1
 90
        1
176
     1
 40
1.0
176
     1
 90
        0
176
     1
 62
   257
176
     1
 40
1.0
176
     1
 90
        1
176
     1
 90
        6
176
     1
 90
        2
176
     1
 62
     7
176
     1
 90
        3
176
     1
 90
        0
176
     1
 90
        0
176
     1
290
     0
176
     1
 90
        1
176
     1
 40
0.0
176
     1
 90
        0
176
     1
290
     0
176
     1
290
     1
176
     1
290
     1
176
     1
290
     0
176
     1
290
     0
176
     1
290
     0
176
     1
290
     0
176
     1
290
     0
176
     1
290
     0
176
     1
 90
       50
176
     1
 40
0.0
176
     1
 40
1.0
176
     1
 90
        0
176
     1
 62
    18
176
     1
 90
       50
176
     1
 90
        3
176
     1
 62
     5
420
      255
176
     1
290
     0
176
     1
 90
       50
176
     1
 90
       50
176
     1
 90
       50
176
     1
290
     0
176
     1
 90
       50
176
     1
 62
   256
176
     0
 40
1.0
176
     0
 90
        2
176
     1
  1
strokes_ogs.tif
176
     1
290
     0
176
     1
 40
1.0
176
     1
 40
1.0
176
     1
1001
ACAD
1000
AcDbSavedByObjectVersion
1070
     0
  0
VISUALSTYLE
  5
40
102
{ACAD_REACTORS
330
2A
102
}
330
2A
100
AcDbVisualStyle
  2
X-Ray
 70
    25
177
     3
291
     0
 70
    58
 90
        2
176
     1
 90
        2
176
     1
 90
        1
176
     1
 90
        1
176
     1
 40
0.5
176
     1
 40
30.0
176
     1
 62
     7
420
 16777215
176
     1
 90
        1
176
     1
 90
        0
176
     1
 62
     7
176
     1
 62
   257
176
     1
 90
        1
176
     1
 90
        1
176
     1
 40
1.0
176
     1
 90
        8
176
     1
 62
     7
176
     1
 40
1.0
176
     1
 90
        1
176
     1
 90
        6
176
     1
 90
        2
176
     1
 62
     7
176
     1
 90
        3
176
     1
 90
        0
176
     1
 90
        0
176
     1
290
     0
176
     1
 90
       13
176
     1
 40
0.0
176
     1
 90
        0
176
     1
290
     0
176
     1
290
     1
176
     1
290
     1
176
     1
290
     0
176
     1
290
     0
176
     1
290
     0
176
     1
290
     0
176
     1
290
     0
176
     1
290
     0
176
     1
 90
       50
176
     1
 40
0.0
176
     1
 40
1.0
176
     1
 90
        0
176
     1
 62
    18
176
     1
 90
       50
176
     1
 90
        3
176
     1
 62
     5
420
      255
176
     1
290
     0
176
     1
 90
       50
176
     1
 90
       50
176
     1
 90
       50
176
     1
290
     0
176
     1
 90
       50
176
     1
 62
   256
176
     0
 40
1.0
176
     0
 90
        2
176
     1
  1
strokes_ogs.tif
176
     1
290
     0
176
     1
 40
1.0
176
     1
 40
1.0
176
     1
1001
ACAD
1000
AcDbSavedByObjectVersion
1070
     0
  0
DICTIONARYVAR
  5
84
102
{ACAD_REACTORS
330
83
102
}
330
83
100
DictionaryVariables
280
     0
  1
1:1
  0
DICTIONARYVAR
  5
8C
102
{ACAD_REACTORS
330
83
102
}
330
83
100
DictionaryVariables
280
     0
  1
3.500000
  0
DICTIONARYVAR
  5
8D
102
{ACAD_REACTORS
330
83
102
}
330
83
100
DictionaryVariables
280
     0
  1
acadiso.lin
  0
DICTIONARYVAR
  5
89
102
{ACAD_REACTORS
330
83
102
}
330
83
100
DictionaryVariables
280
     0
  1
STANDARD
  0
DICTIONARYVAR
  5
88
102
{ACAD_REACTORS
330
83
102
}
330
83
100
DictionaryVariables
280
     0
  1
STANDARD
  0
DICTIONARYVAR
  5
158
102
{ACAD_REACTORS
330
83
102
}
330
83
100
DictionaryVariables
280
     0
  1
Metric50
  0
DICTIONARYVAR
  5
159
102
{ACAD_REACTORS
330
83
102
}
330
83
100
DictionaryVariables
280
     0
  1
Metric50
  0
DICTIONARY
  5
15E
330
92
100
AcDbDictionary
280
     1
281
     1
  3
ACAD_XREC_ROUNDTRIP
360
15F
  0
DICTIONARY
  5
15C
330
91
100
AcDbDictionary
280
     1
281
     1
  3
ACAD_XREC_ROUNDTRIP
360
15D
  0
DICTIONARY
  5
85
330
6A
100
AcDbDictionary
280
     1
281
     1
  3
ACAD_ROUNDTRIP_2008_TABLESTYLE_CELLSTYLEMAP
360
15A
  0
XRECORD
  5
15F
102
{ACAD_REACTORS
330
15E
102
}
330
15E
100
AcDbXrecord
280
     1
102
DISPLAYNAME
  1
Metric50
102
FLAGS
 90
        0
  0
XRECORD
  5
15D
102
{ACAD_REACTORS
330
15C
102
}
330
15C
100
AcDbXrecord
280
     1
102
DISPLAYNAME
  1
Metric50
102
FLAGS
 90
        0
  0
CELLSTYLEMAP
  5
15A
102
{ACAD_REACTORS
330
85
102
}
330
85
100
AcDbCellStyleMap
 90
        3
300
CELLSTYLE
  1
TABLEFORMAT_BEGIN
 90
        5
170
     1
 91
        0
 92
    32768
 62
   257
 93
        1
300
CONTENTFORMAT
  1
CONTENTFORMAT_BEGIN
 90
        0
 91
        0
 92
        4
 93
        0
300

 40
0.0
140
1.0
 94
        5
 62
     0
340
11
144
6.0
309
CONTENTFORMAT_END
171
     1
301
MARGIN
  1
CELLMARGIN_BEGIN
 40
1.5
 40
1.5
 40
1.5
 40
1.5
 40
0.18
 40
0.18
309
CELLMARGIN_END
 94
        6
 95
        1
302
GRIDFORMAT
  1
GRIDFORMAT_BEGIN
 90
        0
 91
        1
 62
     0
 92
       -2
340
14
 93
        0
 40
0.045
309
GRIDFORMAT_END
 95
        2
302
GRIDFORMAT
  1
GRIDFORMAT_BEGIN
 90
        0
 91
        1
 62
     0
 92
       -2
340
14
 93
        0
 40
0.045
309
GRIDFORMAT_END
 95
        4
302
GRIDFORMAT
  1
GRIDFORMAT_BEGIN
 90
        0
 91
        1
 62
     0
 92
       -2
340
14
 93
        0
 40
0.045
309
GRIDFORMAT_END
 95
        8
302
GRIDFORMAT
  1
GRIDFORMAT_BEGIN
 90
        0
 91
        1
 62
     0
 92
       -2
340
14
 93
        0
 40
0.045
309
GRIDFORMAT_END
 95
       16
302
GRIDFORMAT
  1
GRIDFORMAT_BEGIN
 90
        0
 91
        1
 62
     0
 92
       -2
340
14
 93
        0
 40
0.045
309
GRIDFORMAT_END
 95
       32
302
GRIDFORMAT
  1
GRIDFORMAT_BEGIN
 90
        0
 91
        1
 62
     0
 92
       -2
340
14
 93
        0
 40
0.045
309
GRIDFORMAT_END
309
TABLEFORMAT_END
  1
CELLSTYLE_BEGIN
 90
        1
 91
        1
300
_TITLE
309
CELLSTYLE_END
300
CELLSTYLE
  1
TABLEFORMAT_BEGIN
 90
        5
170
     1
 91
        0
 92
        0
 62
   257
 93
        1
300
CONTENTFORMAT
  1
CONTENTFORMAT_BEGIN
 90
        0
 91
        0
 92
        4
 93
        0
300

 40
0.0
140
1.0
 94
        5
 62
     0
340
11
144
4.5
309
CONTENTFORMAT_END
171
     1
301
MARGIN
  1
CELLMARGIN_BEGIN
 40
1.5
 40
1.5
 40
1.5
 40
1.5
 40
0.18
 40
0.18
309
CELLMARGIN_END
 94
        6
 95
        1
302
GRIDFORMAT
  1
GRIDFORMAT_BEGIN
 90
        0
 91
        1
 62
     0
 92
       -2
340
14
 93
        0
 40
0.045
309
GRIDFORMAT_END
 95
        2
302
GRIDFORMAT
  1
GRIDFORMAT_BEGIN
 90
        0
 91
        1
 62
     0
 92
       -2
340
14
 93
        0
 40
0.045
309
GRIDFORMAT_END
 95
        4
302
GRIDFORMAT
  1
GRIDFORMAT_BEGIN
 90
        0
 91
        1
 62
     0
 92
       -2
340
14
 93
        0
 40
0.045
309
GRIDFORMAT_END
 95
        8
302
GRIDFORMAT
  1
GRIDFORMAT_BEGIN
 90
        0
 91
        1
 62
     0
 92
       -2
340
14
 93
        0
 40
0.045
309
GRIDFORMAT_END
 95
       16
302
GRIDFORMAT
  1
GRIDFORMAT_BEGIN
 90
        0
 91
        1
 62
     0
 92
       -2
340
14
 93
        0
 40
0.045
309
GRIDFORMAT_END
 95
       32
302
GRIDFORMAT
  1
GRIDFORMAT_BEGIN
 90
        0
 91
        1
 62
     0
 92
       -2
340
14
 93
        0
 40
0.045
309
GRIDFORMAT_END
309
TABLEFORMAT_END
  1
CELLSTYLE_BEGIN
 90
        2
 91
        1
300
_HEADER
309
CELLSTYLE_END
300
CELLSTYLE
  1
TABLEFORMAT_BEGIN
 90
        5
170
     1
 91
        0
 92
        0
 62
   257
 93
        1
300
CONTENTFORMAT
  1
CONTENTFORMAT_BEGIN
 90
        0
 91
        0
 92
        4
 93
        0
300

 40
0.0
140
1.0
 94
        2
 62
     0
340
11
144
4.5
309
CONTENTFORMAT_END
171
     1
301
MARGIN
  1
CELLMARGIN_BEGIN
 40
1.5
 40
1.5
 40
1.5
 40
1.5
 40
0.18
 40
0.18
309
CELLMARGIN_END
 94
        6
 95
        1
302
GRIDFORMAT
  1
GRIDFORMAT_BEGIN
 90
        0
 91
        1
 62
     0
 92
       -2
340
14
 93
        0
 40
0.045
309
GRIDFORMAT_END
 95
        2
302
GRIDFORMAT
  1
GRIDFORMAT_BEGIN
 90
        0
 91
        1
 62
     0
 92
       -2
340
14
 93
        0
 40
0.045
309
GRIDFORMAT_END
 95
        4
302
GRIDFORMAT
  1
GRIDFORMAT_BEGIN
 90
        0
 91
        1
 62
     0
 92
       -2
340
14
 93
        0
 40
0.045
309
GRIDFORMAT_END
 95
        8
302
GRIDFORMAT
  1
GRIDFORMAT_BEGIN
 90
        0
 91
        1
 62
     0
 92
       -2
340
14
 93
        0
 40
0.045
309
GRIDFORMAT_END
 95
       16
302
GRIDFORMAT
  1
GRIDFORMAT_BEGIN
 90
        0
 91
        1
 62
     0
 92
       -2
340
14
 93
        0
 40
0.045
309
GRIDFORMAT_END
 95
       32
302
GRIDFORMAT
  1
GRIDFORMAT_BEGIN
 90
        0
 91
        1
 62
     0
 92
       -2
340
14
 93
        0
 40
0.045
309
GRIDFORMAT_END
309
TABLEFORMAT_END
  1
CELLSTYLE_BEGIN
 90
        3
 91
        2
300
_DATA
309
CELLSTYLE_END
  0
ENDSEC
  0
EOF
