  0
SECTION
  2
HEADER
  9
$ACADVER
  1
AC1015
  9
$ACADMAINTVER
 70
    20
  9
$DWGCODEPAGE
  3
ANSI_1252
  9
$INSBASE
 10
0.0
 20
0.0
 30
0.0
  9
$EXTMIN
 10
308.3008069030379
 20
140.6667863746142
 30
0.0
  9
$EXTMAX
 10
839.8972048499958
 20
1033.724755813115
 30
0.0000000000001005
  9
$LIMMIN
 10
0.0
 20
0.0
  9
$LIMMAX
 10
420.0
 20
297.0
  9
$ORTHOMODE
 70
     0
  9
$REGENMODE
 70
     1
  9
$FILLMODE
 70
     1
  9
$QTEXTMODE
 70
     0
  9
$MIRRTEXT
 70
     0
  9
$LTSCALE
 40
1.0
  9
$ATTMODE
 70
     1
  9
$TEXTSIZE
 40
2.5
  9
$TRACEWID
 40
1.0
  9
$TEXTSTYLE
  7
Standard
  9
$CLAYER
  8
0
  9
$CELTYPE
  6
ByLayer
  9
$CECOLOR
 62
   256
  9
$CELTSCALE
 40
1.0
  9
$DISPSILH
 70
     0
  9
$DIMSCALE
 40
1.0
  9
$DIMASZ
 40
2.5
  9
$DIMEXO
 40
0.625
  9
$DIMDLI
 40
3.75
  9
$DIMRND
 40
0.0
  9
$DIMDLE
 40
0.0
  9
$DIMEXE
 40
1.25
  9
$DIMTP
 40
0.0
  9
$DIMTM
 40
0.0
  9
$DIMTXT
 40
2.5
  9
$DIMCEN
 40
2.5
  9
$DIMTSZ
 40
0.0
  9
$DIMTOL
 70
     0
  9
$DIMLIM
 70
     0
  9
$DIMTIH
 70
     0
  9
$DIMTOH
 70
     0
  9
$DIMSE1
 70
     0
  9
$DIMSE2
 70
     0
  9
$DIMTAD
 70
     1
  9
$DIMZIN
 70
     8
  9
$DIMBLK
  1

  9
$DIMASO
 70
     1
  9
$DIMSHO
 70
     1
  9
$DIMPOST
  1

  9
$DIMAPOST
  1

  9
$DIMALT
 70
     0
  9
$DIMALTD
 70
     3
  9
$DIMALTF
 40
0.03937007874016
  9
$DIMLFAC
 40
1.0
  9
$DIMTOFL
 70
     1
  9
$DIMTVP
 40
0.0
  9
$DIMTIX
 70
     0
  9
$DIMSOXD
 70
     0
  9
$DIMSAH
 70
     0
  9
$DIMBLK1
  1

  9
$DIMBLK2
  1

  9
$DIMSTYLE
  2
ISO-25
  9
$DIMCLRD
 70
     0
  9
$DIMCLRE
 70
     0
  9
$DIMCLRT
 70
     0
  9
$DIMTFAC
 40
1.0
  9
$DIMGAP
 40
0.625
  9
$DIMJUST
 70
     0
  9
$DIMSD1
 70
     0
  9
$DIMSD2
 70
     0
  9
$DIMTOLJ
 70
     0
  9
$DIMTZIN
 70
     8
  9
$DIMALTZ
 70
     0
  9
$DIMALTTZ
 70
     0
  9
$DIMUPT
 70
     0
  9
$DIMDEC
 70
     2
  9
$DIMTDEC
 70
     2
  9
$DIMALTU
 70
     2
  9
$DIMALTTD
 70
     3
  9
$DIMTXSTY
  7
Standard
  9
$DIMAUNIT
 70
     0
  9
$DIMADEC
 70
     0
  9
$DIMALTRND
 40
0.0
  9
$DIMAZIN
 70
     0
  9
$DIMDSEP
 70
    44
  9
$DIMATFIT
 70
     3
  9
$DIMFRAC
 70
     0
  9
$DIMLDRBLK
  1

  9
$DIMLUNIT
 70
     2
  9
$DIMLWD
 70
    -2
  9
$DIMLWE
 70
    -2
  9
$DIMTMOVE
 70
     0
  9
$LUNITS
 70
     2
  9
$LUPREC
 70
     4
  9
$SKETCHINC
 40
1.0
  9
$FILLETRAD
 40
0.0
  9
$AUNITS
 70
     0
  9
$AUPREC
 70
     0
  9
$MENU
  1
.
  9
$ELEVATION
 40
0.0
  9
$PELEVATION
 40
0.0
  9
$THICKNESS
 40
0.0
  9
$LIMCHECK
 70
     0
  9
$CHAMFERA
 40
0.0
  9
$CHAMFERB
 40
0.0
  9
$CHAMFERC
 40
0.0
  9
$CHAMFERD
 40
0.0
  9
$SKPOLY
 70
     0
  9
$TDCREATE
 40
2454768.510881991
  9
$TDUCREATE
 40
2454768.469215324
  9
$TDUPDATE
 40
2455609.630944190
  9
$TDUUPDATE
 40
2455609.589277523
  9
$TDINDWG
 40
0.1166851620
  9
$TDUSRTIMER
 40
0.1166808565
  9
$USRTIMER
 70
     1
  9
$ANGBASE
 50
0.0
  9
$ANGDIR
 70
     0
  9
$PDMODE
 70
     0
  9
$PDSIZE
 40
0.0
  9
$PLINEWID
 40
0.0
  9
$SPLFRAME
 70
     0
  9
$SPLINETYPE
 70
     6
  9
$SPLINESEGS
 70
     8
  9
$HANDSEED
  5
1C42
  9
$SURFTAB1
 70
     6
  9
$SURFTAB2
 70
     6
  9
$SURFTYPE
 70
     6
  9
$SURFU
 70
     6
  9
$SURFV
 70
     6
  9
$UCSBASE
  2

  9
$UCSNAME
  2

  9
$UCSORG
 10
0.0
 20
0.0
 30
0.0
  9
$UCSXDIR
 10
1.0
 20
0.0
 30
0.0
  9
$UCSYDIR
 10
0.0
 20
1.0
 30
0.0
  9
$UCSORTHOREF
  2

  9
$UCSORTHOVIEW
 70
     0
  9
$UCSORGTOP
 10
0.0
 20
0.0
 30
0.0
  9
$UCSORGBOTTOM
 10
0.0
 20
0.0
 30
0.0
  9
$UCSORGLEFT
 10
0.0
 20
0.0
 30
0.0
  9
$UCSORGRIGHT
 10
0.0
 20
0.0
 30
0.0
  9
$UCSORGFRONT
 10
0.0
 20
0.0
 30
0.0
  9
$UCSORGBACK
 10
0.0
 20
0.0
 30
0.0
  9
$PUCSBASE
  2

  9
$PUCSNAME
  2

  9
$PUCSORG
 10
0.0
 20
0.0
 30
0.0
  9
$PUCSXDIR
 10
1.0
 20
0.0
 30
0.0
  9
$PUCSYDIR
 10
0.0
 20
1.0
 30
0.0
  9
$PUCSORTHOREF
  2

  9
$PUCSORTHOVIEW
 70
     0
  9
$PUCSORGTOP
 10
0.0
 20
0.0
 30
0.0
  9
$PUCSORGBOTTOM
 10
0.0
 20
0.0
 30
0.0
  9
$PUCSORGLEFT
 10
0.0
 20
0.0
 30
0.0
  9
$PUCSORGRIGHT
 10
0.0
 20
0.0
 30
0.0
  9
$PUCSORGFRONT
 10
0.0
 20
0.0
 30
0.0
  9
$PUCSORGBACK
 10
0.0
 20
0.0
 30
0.0
  9
$USERI1
 70
     0
  9
$USERI2
 70
     0
  9
$USERI3
 70
     0
  9
$USERI4
 70
     0
  9
$USERI5
 70
     0
  9
$USERR1
 40
0.0
  9
$USERR2
 40
0.0
  9
$USERR3
 40
0.0
  9
$USERR4
 40
0.0
  9
$USERR5
 40
0.0
  9
$WORLDVIEW
 70
     1
  9
$SHADEDGE
 70
     3
  9
$SHADEDIF
 70
    70
  9
$TILEMODE
 70
     1
  9
$MAXACTVP
 70
    64
  9
$PINSBASE
 10
0.0
 20
0.0
 30
0.0
  9
$PLIMCHECK
 70
     0
  9
$PEXTMIN
 10
0.0
 20
0.0
 30
0.0
  9
$PEXTMAX
 10
0.0
 20
0.0
 30
0.0
  9
$PLIMMIN
 10
0.0
 20
0.0
  9
$PLIMMAX
 10
12.0
 20
9.0
  9
$UNITMODE
 70
     0
  9
$VISRETAIN
 70
     1
  9
$PLINEGEN
 70
     0
  9
$PSLTSCALE
 70
     1
  9
$TREEDEPTH
 70
  3020
  9
$CMLSTYLE
  2
Standard
  9
$CMLJUST
 70
     0
  9
$CMLSCALE
 40
20.0
  9
$PROXYGRAPHICS
 70
     1
  9
$MEASUREMENT
 70
     1
  9
$CELWEIGHT
370
    -1
  9
$ENDCAPS
280
     0
  9
$JOINSTYLE
280
     0
  9
$LWDISPLAY
290
     0
  9
$INSUNITS
 70
     4
  9
$HYPERLINKBASE
  1

  9
$STYLESHEET
  1

  9
$XEDIT
290
     1
  9
$CEPSNTYPE
380
     0
  9
$PSTYLEMODE
290
     1
  9
$FINGERPRINTGUID
  2
{A9F5D530-972F-4813-857A-78B9B08CAD27}
  9
$VERSIONGUID
  2
{655F6ED3-A450-43F2-B3AD-E3F1A298E9C8}
  9
$EXTNAMES
290
     1
  9
$PSVPSCALE
 40
0.0
  9
$OLESTARTUP
290
     0
  0
ENDSEC
  0
SECTION
  2
CLASSES
  0
CLASS
  1
ACDBDICTIONARYWDFLT
  2
AcDbDictionaryWithDefault
  3
ObjectDBX Classes
 90
        0
280
     0
281
     0
  0
CLASS
  1
DICTIONARYVAR
  2
AcDbDictionaryVar
  3
ObjectDBX Classes
 90
        0
280
     0
281
     0
  0
CLASS
  1
TABLESTYLE
  2
AcDbTableStyle
  3
ObjectDBX Classes
 90
     4095
280
     0
281
     0
  0
CLASS
  1
MATERIAL
  2
AcDbMaterial
  3
ObjectDBX Classes
 90
     1024
280
     0
281
     0
  0
CLASS
  1
VISUALSTYLE
  2
AcDbVisualStyle
  3
ObjectDBX Classes
 90
     4095
280
     0
281
     0
  0
CLASS
  1
SORTENTSTABLE
  2
AcDbSortentsTable
  3
ObjectDBX Classes
 90
        0
280
     0
281
     0
  0
CLASS
  1
DIMASSOC
  2
AcDbDimAssoc
  3
"AcDbDimAssoc|Product Desc:     AcDim ARX App For Dimension|Company:          Autodesk, Inc.|WEB Address:      www.autodesk.com"
 90
    32768
280
     0
281
     0
  0
CLASS
  1
ACDBPLACEHOLDER
  2
AcDbPlaceHolder
  3
ObjectDBX Classes
 90
        0
280
     0
281
     0
  0
CLASS
  1
LAYOUT
  2
AcDbLayout
  3
ObjectDBX Classes
 90
        0
280
     0
281
     0
  0
ENDSEC
  0
SECTION
  2
TABLES
  0
TABLE
  2
VPORT
  5
8
330
0
100
AcDbSymbolTable
 70
     1
  0
VPORT
  5
EA
330
8
100
AcDbSymbolTableRecord
100
AcDbViewportTableRecord
  2
*Active
 70
     0
 10
0.0
 20
0.0
 11
1.0
 21
1.0
 12
562.1219282191806
 22
614.2678734636814
 13
0.0
 23
0.0
 14
10.0
 24
10.0
 15
10.0
 25
10.0
 16
0.0
 26
0.0
 36
1.0
 17
0.0
 27
0.0
 37
0.0
 40
1326.715977221468
 41
1.858662613981762
 42
50.0
 43
0.0
 44
0.0
 50
0.0
 51
0.0
 71
     0
 72
  1000
 73
     1
 74
     3
 75
     0
 76
     0
 77
     0
 78
     0
281
     0
 65
     1
110
0.0
120
0.0
130
0.0
111
1.0
121
0.0
131
0.0
112
0.0
122
1.0
132
0.0
 79
     0
146
0.0
  0
ENDTAB
  0
TABLE
  2
LTYPE
  5
5
330
0
100
AcDbSymbolTable
 70
     1
  0
LTYPE
  5
14
330
5
100
AcDbSymbolTableRecord
100
AcDbLinetypeTableRecord
  2
ByBlock
 70
     0
  3

 72
    65
 73
     0
 40
0.0
  0
LTYPE
  5
15
330
5
100
AcDbSymbolTableRecord
100
AcDbLinetypeTableRecord
  2
ByLayer
 70
     0
  3

 72
    65
 73
     0
 40
0.0
  0
LTYPE
  5
16
330
5
100
AcDbSymbolTableRecord
100
AcDbLinetypeTableRecord
  2
Continuous
 70
     0
  3
Solid line
 72
    65
 73
     0
 40
0.0
  0
ENDTAB
  0
TABLE
  2
LAYER
  5
2
102
{ACAD_XDICTIONARY
360
141
102
}
330
0
100
AcDbSymbolTable
 70
     3
  0
LAYER
  5
10
330
2
100
AcDbSymbolTableRecord
100
AcDbLayerTableRecord
  2
0
 70
     0
 62
     7
  6
Continuous
370
    -3
390
F
  0
LAYER
  5
124
330
2
100
AcDbSymbolTableRecord
100
AcDbLayerTableRecord
  2
Defpoints
 70
     0
 62
     7
  6
Continuous
290
     0
370
    -3
390
F
  0
LAYER
  5
13E
330
2
100
AcDbSymbolTableRecord
100
AcDbLayerTableRecord
  2
Hewi
 70
     0
 62
     7
  6
Continuous
370
    -3
390
F
  0
ENDTAB
  0
TABLE
  2
STYLE
  5
3
330
0
100
AcDbSymbolTable
 70
     1
  0
STYLE
  5
11
330
3
100
AcDbSymbolTableRecord
100
AcDbTextStyleTableRecord
  2
Standard
 70
     0
 40
0.0
 41
1.0
 50
0.0
 71
     0
 42
2.5
  3
txt
  4

  0
ENDTAB
  0
TABLE
  2
VIEW
  5
6
330
0
100
AcDbSymbolTable
 70
     0
  0
ENDTAB
  0
TABLE
  2
UCS
  5
7
330
0
100
AcDbSymbolTable
 70
     0
  0
ENDTAB
  0
TABLE
  2
APPID
  5
9
330
0
100
AcDbSymbolTable
 70
     3
  0
APPID
  5
12
330
9
100
AcDbSymbolTableRecord
100
AcDbRegAppTableRecord
  2
ACAD
 70
     0
  0
APPID
  5
9E
330
9
100
AcDbSymbolTableRecord
100
AcDbRegAppTableRecord
  2
ACAD_PSEXT
 70
     0
  0
APPID
  5
212
330
9
100
AcDbSymbolTableRecord
100
AcDbRegAppTableRecord
  2
ACAD_EXEMPT_FROM_CAD_STANDARDS
 70
     0
  0
ENDTAB
  0
TABLE
  2
DIMSTYLE
  5
A
330
0
100
AcDbSymbolTable
 70
     2
100
AcDbDimStyleTable
 71
     1
340
27
  0
DIMSTYLE
105
27
330
A
100
AcDbSymbolTableRecord
100
AcDbDimStyleTableRecord
  2
ISO-25
 70
     0
 41
2.5
 42
0.625
 43
3.75
 44
1.25
 73
     0
 74
     0
 77
     1
 78
     8
140
2.5
141
2.5
143
0.03937007874016
147
0.625
171
     3
172
     1
271
     2
272
     2
274
     3
278
    44
283
     0
284
     8
340
11
  0
DIMSTYLE
105
254
330
A
100
AcDbSymbolTableRecord
100
AcDbDimStyleTableRecord
  2
Standard
 70
     0
340
11
  0
ENDTAB
  0
TABLE
  2
BLOCK_RECORD
  5
1
330
0
100
AcDbSymbolTable
 70
     5
  0
BLOCK_RECORD
  5
1F
102
{ACAD_XDICTIONARY
360
116
102
}
330
1
100
AcDbSymbolTableRecord
100
AcDbBlockTableRecord
  2
*Model_Space
340
22
  0
BLOCK_RECORD
  5
D2
330
1
100
AcDbSymbolTableRecord
100
AcDbBlockTableRecord
  2
*Paper_Space
340
D3
  0
BLOCK_RECORD
  5
D6
330
1
100
AcDbSymbolTableRecord
100
AcDbBlockTableRecord
  2
*Paper_Space0
340
D7
  0
ENDTAB
  0
ENDSEC
  0
SECTION
  2
BLOCKS
  0
BLOCK
  5
20
330
1F
100
AcDbEntity
  8
0
100
AcDbBlockBegin
  2
*Model_Space
 70
     0
 10
0.0
 20
0.0
 30
0.0
  3
*Model_Space
  1

  0
ENDBLK
  5
21
330
1F
100
AcDbEntity
  8
0
100
AcDbBlockEnd
  0
BLOCK
  5
D4
330
D2
100
AcDbEntity
 67
     1
  8
0
100
AcDbBlockBegin
  2
*Paper_Space
 70
     0
 10
0.0
 20
0.0
 30
0.0
  3
*Paper_Space
  1

  0
ENDBLK
  5
D5
330
D2
100
AcDbEntity
 67
     1
  8
0
100
AcDbBlockEnd
  0
BLOCK
  5
D8
330
D6
100
AcDbEntity
 67
     1
  8
0
100
AcDbBlockBegin
  2
*Paper_Space0
 70
     0
 10
0.0
 20
0.0
 30
0.0
  3
*Paper_Space0
  1

  0
ENDBLK
  5
D9
330
D6
100
AcDbEntity
 67
     1
  8
0
100
AcDbBlockEnd
  0
ENDSEC
  0
SECTION
  2
ENTITIES
  0
LINE
  5
1A85
330
1F
100
AcDbEntity
  8
Hewi
  6
Continuous
100
AcDbLine
 10
761.8121009982327
 20
1030.924755813113
 30
0.0000000000000659
 11
761.81204514995
 21
992.4564436977071
 31
0.0000000000000659
  0
LINE
  5
1A86
330
1F
100
AcDbEntity
  8
Hewi
  6
Continuous
100
AcDbLine
 10
761.8120190413909
 20
974.4728610603107
 30
0.0000000000000659
 11
761.8117867390558
 21
814.4629490753102
 31
0.0000000000000659
  0
LINE
  5
1A87
330
1F
100
AcDbEntity
  8
Hewi
  6
Continuous
100
AcDbLine
 10
761.8108844841835
 20
474.9789561366732
 30
0.0000000000000659
 11
761.8108844841835
 21
436.5247558131041
 31
0.0000000000000659
  0
LINE
  5
1A88
330
1F
100
AcDbEntity
  8
Hewi
  6
Continuous
100
AcDbLine
 10
794.8108844841835
 20
436.5247558131041
 30
0.0000000000000659
 11
794.8108844841834
 21
708.4629490753322
 31
0.0000000000000659
  0
LINE
  5
1A89
330
1F
100
AcDbEntity
  8
Hewi
  6
Continuous
100
AcDbLine
 10
761.8103906136887
 20
492.9791015625768
 30
0.0000000000000659
 11
717.8111137242731
 21
492.9791015625768
 31
0.0000000000000659
  0
LINE
  5
1A8A
330
1F
100
AcDbEntity
  8
Hewi
  6
Continuous
100
AcDbLine
 10
717.8114360561657
 20
474.9791015625769
 30
0.0000000000000659
 11
761.8107336938037
 21
474.9791015625769
 31
0.0000000000000659
  0
LINE
  5
1A8B
330
1F
100
AcDbEntity
  8
Hewi
  6
Continuous
100
AcDbLine
 10
715.8108844841835
 20
1023.47041006364
 30
0.0000000000000659
 11
704.8108844841834
 21
1023.47041006364
 31
0.0000000000000659
  0
LINE
  5
1A8C
330
1F
100
AcDbEntity
  8
Hewi
  6
Continuous
100
AcDbLine
 10
704.8108844841834
 20
943.47041006364
 30
0.0000000000000659
 11
715.8108844841835
 21
943.47041006364
 31
0.0000000000000659
  0
LINE
  5
1A8D
330
1F
100
AcDbEntity
  8
Hewi
  6
Continuous
100
AcDbLine
 10
761.804533185822
 20
992.47041006364
 30
0.0000000000000659
 11
717.8113148111511
 21
992.47041006364
 31
0.0000000000000659
  0
LINE
  5
1A8E
330
1F
100
AcDbEntity
  8
Hewi
  6
Continuous
100
AcDbLine
 10
717.8112577332281
 20
974.4704100636399
 30
0.0000000000000659
 11
761.8108604056388
 21
974.4704100636399
 31
0.0000000000000659
  0
LINE
  5
1A8F
330
1F
100
AcDbEntity
  8
Hewi
  6
Continuous
100
AcDbLine
 10
715.8108844841835
 20
523.9791015625769
 30
0.0000000000000659
 11
704.8108844841834
 21
523.9791015625769
 31
0.0000000000000659
  0
LINE
  5
1A90
330
1F
100
AcDbEntity
  8
Hewi
  6
Continuous
100
AcDbLine
 10
704.8108844841834
 20
443.9791015625768
 30
0.0000000000000659
 11
715.8108844841835
 21
443.9791015625768
 31
0.0000000000000659
  0
LINE
  5
1A91
330
1F
100
AcDbEntity
  8
Hewi
  6
Continuous
100
AcDbLine
 10
794.8108844841835
 20
435.9141026445676
 30
0.0000000000000659
 11
794.8108844841835
 21
436.0247558131041
 31
0.0000000000000659
  0
LINE
  5
1A92
330
1F
100
AcDbEntity
  8
Hewi
  6
Continuous
100
AcDbLine
 10
761.8108844841835
 20
436.0247558131041
 30
0.0000000000000659
 11
761.8108844841835
 21
435.9141026445676
 31
0.0000000000000659
  0
LINE
  5
1A93
330
1F
100
AcDbEntity
  8
Hewi
  6
Continuous
100
AcDbLine
 10
761.8108844841835
 20
1031.535408981663
 30
0.0000000000000659
 11
761.8108844841835
 21
1031.424755813113
 31
0.0000000000000659
  0
LINE
  5
1A94
330
1F
100
AcDbEntity
  8
Hewi
  6
Continuous
100
AcDbLine
 10
794.8108844841835
 20
1031.424755813113
 30
0.0000000000000659
 11
794.8108844841835
 21
1031.535408981663
 31
0.0000000000000659
  0
LINE
  5
1A95
330
1F
100
AcDbEntity
  8
Hewi
  6
Continuous
100
AcDbLine
 10
778.3108844841835
 20
1030.924755813113
 30
0.0000000000000659
 11
761.8108844841835
 21
1030.924755813113
 31
0.0000000000000659
  0
LINE
  5
1A96
330
1F
100
AcDbEntity
  8
Hewi
  6
Continuous
100
AcDbLine
 10
794.8108844841835
 20
1030.924755813113
 30
0.0000000000000659
 11
778.3108844841835
 21
1030.924755813113
 31
0.0000000000000659
  0
LINE
  5
1A97
330
1F
100
AcDbEntity
  8
Hewi
  6
Continuous
100
AcDbLine
 10
794.8108844841835
 20
436.5247558131041
 30
0.0000000000000659
 11
761.8108844841835
 21
436.5247558131041
 31
0.0000000000000659
  0
LINE
  5
1A98
330
1F
100
AcDbEntity
  8
Hewi
  6
Continuous
100
AcDbLine
 10
717.8108844841837
 20
945.47041006364
 30
0.0000000000000659
 11
717.8108844841837
 21
1021.47041006364
 31
0.0000000000000659
  0
LINE
  5
1A99
330
1F
100
AcDbEntity
  8
Hewi
  6
Continuous
100
AcDbLine
 10
704.8108844841834
 20
943.47041006364
 30
0.0000000000000659
 11
704.8108844841834
 21
1023.47041006364
 31
0.0000000000000659
  0
LINE
  5
1A9A
330
1F
100
AcDbEntity
  8
Hewi
  6
Continuous
100
AcDbLine
 10
704.8108844841834
 20
443.9791015625768
 30
0.0000000000000659
 11
704.8108844841834
 21
523.9791015625769
 31
0.0000000000000659
  0
LINE
  5
1A9B
330
1F
100
AcDbEntity
  8
Hewi
  6
Continuous
100
AcDbLine
 10
717.8108844841837
 20
445.9791015625769
 30
0.0000000000000659
 11
717.8108844841837
 21
521.9791015625769
 31
0.0000000000000659
  0
LINE
  5
1A9C
330
1F
100
AcDbEntity
  8
Hewi
  6
Continuous
100
AcDbLine
 10
761.8108844841835
 20
436.0247558131041
 30
0.0000000000000659
 11
794.8108844841835
 21
436.0247558131041
 31
0.0000000000000659
  0
LINE
  5
1A9D
330
1F
100
AcDbEntity
  8
Hewi
  6
Continuous
100
AcDbLine
 10
794.8108844841835
 20
1031.424755813113
 30
0.0000000000000659
 11
761.8108844841835
 21
1031.424755813113
 31
0.0000000000000659
  0
LINE
  5
1A9E
330
1F
100
AcDbEntity
  8
Hewi
100
AcDbLine
 10
350.246988115548
 20
1030.924755813113
 30
0.0000000000000643
 11
350.2469881155479
 21
815.3546146137426
 31
0.0000000000000643
  0
LINE
  5
1A9F
330
1F
100
AcDbEntity
  8
Hewi
100
AcDbLine
 10
383.246988115548
 20
436.5247558131041
 30
0.0000000000000675
 11
383.246988115548
 21
707.3545920694153
 31
0.0000000000000675
  0
LINE
  5
1AA0
330
1F
100
AcDbEntity
  8
Hewi
100
AcDbLine
 10
406.6763254700548
 20
981.0944930736246
 30
0.0000000000000662
 11
406.78900840917
 21
981.0962553078379
 31
0.0000000000000662
  0
LINE
  5
1AA1
330
1F
100
AcDbEntity
  8
Hewi
100
AcDbLine
 10
406.6951866416848
 20
987.0955217193213
 30
0.0000000000000662
 11
406.5825289140398
 21
987.0937598793927
 31
0.0000000000000662
  0
LINE
  5
1AA2
330
1F
100
AcDbEntity
  8
Hewi
100
AcDbLine
 10
406.6723006644529
 20
481.5358766979288
 30
0.0000000000000662
 11
406.7481306986946
 21
481.6117796696008
 31
0.0000000000000662
  0
LINE
  5
1AA3
330
1F
100
AcDbEntity
  8
Hewi
100
AcDbLine
 10
406.7458362896499
 20
486.3848791181326
 30
0.0000000000000662
 11
406.6699333179917
 21
486.4607091523748
 31
0.0000000000000662
  0
LINE
  5
1AA4
330
1F
100
AcDbEntity
  8
Hewi
100
AcDbLine
 10
406.635728876593
 20
480.9982755676274
 30
0.0000000000000662
 11
406.7484255815129
 21
480.9983297404641
 31
0.0000000000000662
  0
LINE
  5
1AA5
330
1F
100
AcDbEntity
  8
Hewi
100
AcDbLine
 10
406.7455414068308
 20
486.9983290472691
 30
0.0000000000000662
 11
406.6328699164508
 21
486.9982748865395
 31
0.0000000000000662
  0
LINE
  5
1AA6
330
1F
100
AcDbEntity
  8
Hewi
100
AcDbLine
 10
406.7047450010786
 20
981.6325867469084
 30
0.0000000000000662
 11
406.7794159152898
 21
981.7096303045357
 31
0.0000000000000662
  0
LINE
  5
1AA7
330
1F
100
AcDbEntity
  8
Hewi
100
AcDbLine
 10
406.7047791355639
 20
986.4821467226384
 30
0.0000000000000662
 11
406.6277355779378
 21
986.5568176368496
 31
0.0000000000000662
  0
LINE
  5
1AA8
330
1F
100
AcDbEntity
  8
Hewi
100
AcDbLine
 10
383.246988115548
 20
435.9141026445676
 30
0.0000000000000675
 11
383.246988115548
 21
436.0247558131041
 31
0.0000000000000675
  0
LINE
  5
1AA9
330
1F
100
AcDbEntity
  8
Hewi
100
AcDbLine
 10
350.246988115548
 20
436.0247558131041
 30
0.0000000000000643
 11
350.246988115548
 21
435.9141026445676
 31
0.0000000000000643
  0
LINE
  5
1AAA
330
1F
100
AcDbEntity
  8
Hewi
100
AcDbLine
 10
350.246988115548
 20
1031.535408981663
 30
0.0000000000000643
 11
350.246988115548
 21
1031.424755813113
 31
0.0000000000000643
  0
LINE
  5
1AAB
330
1F
100
AcDbEntity
  8
Hewi
100
AcDbLine
 10
383.246988115548
 20
1031.424755813113
 30
0.0000000000000675
 11
383.246988115548
 21
1031.535408981663
 31
0.0000000000000675
  0
LINE
  5
1AAC
330
1F
100
AcDbEntity
  8
Hewi
100
AcDbLine
 10
406.7794159152898
 20
981.7096303045357
 30
0.0000000000000662
 11
406.7034876997698
 21
981.7084428727783
 31
0.0000000000000662
  0
LINE
  5
1AAD
330
1F
100
AcDbEntity
  8
Hewi
100
AcDbLine
 10
406.7047791355639
 20
986.4821467226384
 30
0.0000000000000662
 11
406.6288509200448
 21
986.480959290896
 31
0.0000000000000662
  0
LINE
  5
1AAE
330
1F
100
AcDbEntity
  8
Hewi
100
AcDbLine
 10
406.7481306986946
 20
481.6117796696008
 30
0.0000000000000662
 11
406.6721932074639
 21
481.6117431667617
 31
0.0000000000000662
  0
LINE
  5
1AAF
330
1F
100
AcDbEntity
  8
Hewi
100
AcDbLine
 10
406.7458362896499
 20
486.3848791181326
 30
0.0000000000000662
 11
406.6698987984186
 21
486.3848426153081
 31
0.0000000000000662
  0
LINE
  5
1AB0
330
1F
100
AcDbEntity
  8
Hewi
100
AcDbLine
 10
406.7458362896499
 20
486.3848791181326
 30
0.0000000000000662
 11
406.7481306986946
 21
481.6117796696008
 31
0.0000000000000662
  0
LINE
  5
1AB1
330
1F
100
AcDbEntity
  8
Hewi
100
AcDbLine
 10
406.7047791355639
 20
986.4821467226384
 30
0.0000000000000662
 11
406.7794159152898
 21
981.7096303045357
 31
0.0000000000000662
  0
LINE
  5
1AB2
330
1F
100
AcDbEntity
  8
Hewi
100
AcDbLine
 10
383.246988115548
 20
436.0247558131041
 30
0.0000000000000675
 11
350.246988115548
 21
436.0247558131041
 31
0.0000000000000643
  0
LINE
  5
1AB3
330
1F
100
AcDbEntity
  8
Hewi
100
AcDbLine
 10
383.246988115548
 20
1031.424755813113
 30
0.0000000000000675
 11
350.246988115548
 21
1031.424755813113
 31
0.0000000000000643
  0
ARC
  5
1AB4
330
1F
100
AcDbEntity
  8
Hewi
  6
Continuous
100
AcDbCircle
 10
794.3108844841836
 20
1030.924755813113
 30
0.0000000000000659
 40
0.5
100
AcDbArc
 50
0.0
 51
90.0
  0
ARC
  5
1AB5
330
1F
100
AcDbEntity
  8
Hewi
  6
Continuous
100
AcDbCircle
 10
762.3108844841834
 20
1030.924755813113
 30
0.0000000000000659
 40
0.5
100
AcDbArc
 50
90.0
 51
180.0
  0
ARC
  5
1AB6
330
1F
100
AcDbEntity
  8
Hewi
  6
Continuous
100
AcDbCircle
 10
794.3108844841836
 20
436.5247558131041
 30
0.0000000000000659
 40
0.5
100
AcDbArc
 50
270.0
 51
0.0
  0
ARC
  5
1AB7
330
1F
100
AcDbEntity
  8
Hewi
  6
Continuous
100
AcDbCircle
 10
762.3108844841834
 20
436.5247558131041
 30
0.0000000000000659
 40
0.5
100
AcDbArc
 50
180.0
 51
270.0
  0
ARC
  5
1AB8
330
1F
100
AcDbEntity
  8
Hewi
  6
Continuous
100
AcDbCircle
 10
715.8108844841835
 20
1021.47041006364
 30
0.0000000000000659
 40
2.0
100
AcDbArc
 50
0.0
 51
90.0
  0
ARC
  5
1AB9
330
1F
100
AcDbEntity
  8
Hewi
  6
Continuous
100
AcDbCircle
 10
715.8108844841835
 20
945.47041006364
 30
0.0000000000000659
 40
2.0
100
AcDbArc
 50
270.0
 51
0.0
  0
ARC
  5
1ABA
330
1F
100
AcDbEntity
  8
Hewi
  6
Continuous
100
AcDbCircle
 10
715.8108844841835
 20
521.9791015625769
 30
0.0000000000000659
 40
2.0
100
AcDbArc
 50
0.0
 51
90.0
  0
ARC
  5
1ABB
330
1F
100
AcDbEntity
  8
Hewi
  6
Continuous
100
AcDbCircle
 10
715.8108844841835
 20
445.9791015625769
 30
0.0000000000000659
 40
2.0
100
AcDbArc
 50
270.0
 51
0.0
  0
ARC
  5
1ABC
330
1F
100
AcDbEntity
  8
Hewi
  6
Continuous
100
AcDbCircle
 10
763.0108844841948
 20
435.9141026445676
 30
0.0000000000000659
 40
1.199999999999999
100
AcDbArc
 50
180.0
 51
262.6004459106723
  0
ARC
  5
1ABD
330
1F
100
AcDbEntity
  8
Hewi
  6
Continuous
100
AcDbCircle
 10
793.6108844841859
 20
435.9141026445676
 30
0.0000000000000659
 40
1.199999999999999
100
AcDbArc
 50
277.3995540893277
 51
0.0
  0
ARC
  5
1ABE
330
1F
100
AcDbEntity
  8
Hewi
  6
Continuous
100
AcDbCircle
 10
778.3108844841835
 20
553.7247558131157
 30
0.0000000000000659
 40
120.0
100
AcDbArc
 50
262.6004459106723
 51
277.3995540893277
  0
ARC
  5
1ABF
330
1F
100
AcDbEntity
  8
Hewi
  6
Continuous
100
AcDbCircle
 10
793.6108844841859
 20
1031.535408981663
 30
0.0000000000000659
 40
1.199999999999999
100
AcDbArc
 50
0.0
 51
82.60044591067218
  0
ARC
  5
1AC0
330
1F
100
AcDbEntity
  8
Hewi
  6
Continuous
100
AcDbCircle
 10
763.0108844841948
 20
1031.535408981663
 30
0.0000000000000659
 40
1.199999999999999
100
AcDbArc
 50
97.39955408932779
 51
180.0
  0
ARC
  5
1AC1
330
1F
100
AcDbEntity
  8
Hewi
  6
Continuous
100
AcDbCircle
 10
778.3108844841835
 20
913.7247558131157
 30
0.0000000000000659
 40
120.0
100
AcDbArc
 50
82.60044591067218
 51
97.39955408932779
  0
ARC
  5
1AC2
330
1F
100
AcDbEntity
  8
Hewi
100
AcDbCircle
 10
382.7469881155471
 20
1030.924755813113
 30
0.0000000000000674
 40
0.5
100
AcDbArc
 50
0.0
 51
90.0
  0
ARC
  5
1AC3
330
1F
100
AcDbEntity
  8
Hewi
100
AcDbCircle
 10
350.746988115548
 20
1030.924755813113
 30
0.0000000000000644
 40
0.5
100
AcDbArc
 50
90.0
 51
180.0
  0
ARC
  5
1AC4
330
1F
100
AcDbEntity
  8
Hewi
100
AcDbCircle
 10
382.7469881155471
 20
436.5247558131041
 30
0.0000000000000674
 40
0.5
100
AcDbArc
 50
270.0
 51
0.0
  0
ARC
  5
1AC5
330
1F
100
AcDbEntity
  8
Hewi
100
AcDbCircle
 10
350.746988115548
 20
436.5247558131041
 30
0.0000000000000644
 40
0.5
100
AcDbArc
 50
180.0
 51
270.0
  0
ARC
  5
1AC6
330
1F
100
AcDbEntity
  8
Hewi
100
AcDbCircle
 10
351.4469881155451
 20
435.9141026445676
 30
0.0000000000000644
 40
1.199999999999999
100
AcDbArc
 50
180.0
 51
262.6004459106723
  0
ARC
  5
1AC7
330
1F
100
AcDbEntity
  8
Hewi
100
AcDbCircle
 10
382.0469881155359
 20
435.9141026445676
 30
0.0000000000000674
 40
1.199999999999999
100
AcDbArc
 50
277.3995540893277
 51
0.0
  0
ARC
  5
1AC8
330
1F
100
AcDbEntity
  8
Hewi
100
AcDbCircle
 10
366.7469881155471
 20
553.7247558131157
 30
0.0000000000000659
 40
120.0
100
AcDbArc
 50
262.6004459106723
 51
277.3995540893277
  0
ARC
  5
1AC9
330
1F
100
AcDbEntity
  8
Hewi
100
AcDbCircle
 10
382.0469881155359
 20
1031.535408981663
 30
0.0000000000000674
 40
1.199999999999999
100
AcDbArc
 50
0.0
 51
82.60044591067218
  0
ARC
  5
1ACA
330
1F
100
AcDbEntity
  8
Hewi
100
AcDbCircle
 10
351.4469881155451
 20
1031.535408981663
 30
0.0000000000000644
 40
1.199999999999999
100
AcDbArc
 50
97.39955408932779
 51
180.0
  0
ARC
  5
1ACB
330
1F
100
AcDbEntity
  8
Hewi
100
AcDbCircle
 10
366.7469881155471
 20
913.7247558131157
 30
0.0000000000000659
 40
120.0
100
AcDbArc
 50
82.60044591067218
 51
97.39955408932779
  0
ARC
  5
1ACC
330
1F
100
AcDbEntity
  8
Hewi
100
AcDbCircle
 10
-366.7469881155471
 20
983.4704100636399
 30
-0.0000000000000659
 40
40.0
210
0.0
220
0.0
230
-1.0
100
AcDbArc
 50
359.9999987526901
 51
65.63812970700467
  0
ARC
  5
1ACD
330
1F
100
AcDbEntity
  8
Hewi
100
AcDbCircle
 10
-366.7469881155471
 20
983.4704100636399
 30
-0.0000000000000659
 40
40.0
210
0.0
220
0.0
230
-1.0
100
AcDbArc
 50
114.3675059093169
 51
245.6325091968106
  0
ARC
  5
1ACE
330
1F
100
AcDbEntity
  8
Hewi
100
AcDbCircle
 10
-366.7469881155471
 20
983.4704100636399
 30
-0.0000000000000659
 40
40.0
210
0.0
220
0.0
230
-1.0
100
AcDbArc
 50
294.3618821226967
 51
0.0000130767440115
  0
ARC
  5
1ACF
330
1F
100
AcDbEntity
  8
Hewi
100
AcDbCircle
 10
-366.7469881155471
 20
483.9791015625769
 30
-0.0000000000000659
 40
40.0
210
0.0
220
0.0
230
-1.0
100
AcDbArc
 50
359.9999931814835
 51
65.63812413493284
  0
ARC
  5
1AD0
330
1F
100
AcDbEntity
  8
Hewi
100
AcDbCircle
 10
-366.7469881155471
 20
483.9791015625769
 30
-0.0000000000000659
 40
40.0
210
0.0
220
0.0
230
-1.0
100
AcDbArc
 50
114.3675003378842
 51
245.6325036253661
  0
ARC
  5
1AD1
330
1F
100
AcDbEntity
  8
Hewi
100
AcDbCircle
 10
-366.7469881155471
 20
483.9791015625769
 30
-0.0000000000000659
 40
40.0
210
0.0
220
0.0
230
-1.0
100
AcDbArc
 50
294.3618765515403
 51
0.0000075055374644
  0
SPLINE
  5
1AD2
330
1F
100
AcDbEntity
  8
Hewi
  6
Continuous
100
AcDbSpline
210
0.0
220
0.0
230
1.0
 70
     8
 71
     3
 72
    14
 73
    10
 74
     0
 42
0.0000000001
 43
0.0000000001
 40
0.0
 40
0.0
 40
0.0
 40
0.0
 40
0.2434325075971086
 40
0.2434325075971086
 40
0.495621671731406
 40
0.495621671731406
 40
0.7478108358657032
 40
0.7478108358657032
 40
1.0
 40
1.0
 40
1.0
 40
1.0
 10
761.8111481065048
 20
474.9808825318567
 30
0.0000000000000659
 10
761.8118212073959
 20
475.0279989137298
 30
0.0000000000000659
 10
762.3597990915644
 20
476.0159087361489
 30
0.0000000000000659
 10
763.6502970674976
 20
479.2079240345146
 30
0.0000000000000659
 10
764.3437157635116
 20
481.5152166465949
 30
0.0000000000000659
 10
764.3617930053798
 20
486.3270629840943
 30
0.0000000000000659
 10
763.672614114249
 20
488.6764162269346
 30
0.0000000000000659
 10
762.356986672406
 20
491.9552849809652
 30
0.0000000000000659
 10
761.7825201895239
 20
492.9779327321112
 30
0.0000000000000659
 10
761.8121080993208
 20
492.9791005227698
 30
0.0000000000000659
  0
SPLINE
  5
1AD3
330
1F
100
AcDbEntity
  8
Hewi
  6
Continuous
100
AcDbSpline
210
0.0
220
0.0
230
1.0
 70
     8
 71
     3
 72
    14
 73
    10
 74
     0
 42
0.0000000001
 43
0.0000000001
 40
0.0
 40
0.0
 40
0.0
 40
0.0
 40
0.2434469386710948
 40
0.2434469386710948
 40
0.4956312924473967
 40
0.4956312924473967
 40
0.7478156462236985
 40
0.7478156462236985
 40
1.0
 40
1.0
 40
1.0
 40
1.0
 10
761.8111479583667
 20
974.4706361088857
 30
0.0000000000000659
 10
761.8117353315527
 20
974.4822919733516
 30
0.0000000000000659
 10
762.3597494247427
 20
975.4360339643564
 30
0.0000000000000659
 10
763.6502970674976
 20
978.5789430337855
 30
0.0000000000000659
 10
764.3437157635116
 20
980.8706389316457
 30
0.0000000000000659
 10
764.3617930053798
 20
985.6814628704842
 30
0.0000000000000659
 10
763.672614114249
 20
988.0456836028853
 30
0.0000000000000659
 10
762.356986672406
 20
991.3734490369924
 30
0.0000000000000659
 10
761.7825201895239
 20
992.4313216270483
 30
0.0000000000000659
 10
761.8121080993208
 20
992.4693096808724
 30
0.0000000000000659
  0
LINE
  5
1AF0
330
1F
100
AcDbEntity
  8
Hewi
  6
Continuous
100
AcDbLine
 10
761.804533185822
 20
992.47041006364
 30
0.0000000000000659
 11
761.804533185822
 21
1030.924755813113
 31
0.0000000000000659
  0
LINE
  5
1B39
330
1F
100
AcDbEntity
  8
Hewi
100
AcDbLine
 10
342.4508069030367
 20
775.3545920694032
 30
0.000000000000067
 11
333.9508069030367
 21
775.3545920694032
 31
0.000000000000066
210
0.0
220
1.0
230
0.0
  0
LINE
  5
1B3A
330
1F
100
AcDbEntity
  8
Hewi
100
AcDbLine
 10
342.4508069030367
 20
815.3545920694027
 30
0.000000000000067
 11
333.9508069030367
 21
815.3545920694027
 31
0.000000000000066
210
0.0
220
1.0
230
0.0
  0
ARC
  5
1B3B
330
1F
100
AcDbEntity
  8
Hewi
100
AcDbCircle
 10
309.3008069030379
 20
814.3545920694153
 30
0.0000000000000629
 40
0.9999999999999998
100
AcDbArc
 50
90.0
 51
180.0
  0
ARC
  5
1B3C
330
1F
100
AcDbEntity
  8
Hewi
100
AcDbCircle
 10
309.3008069030379
 20
776.3545920694154
 30
0.0000000000000629
 40
0.9999999999999998
100
AcDbArc
 50
180.0
 51
270.0
  0
SPLINE
  5
1B3D
330
1F
100
AcDbEntity
  8
Hewi
100
AcDbSpline
210
0.0000000000003131
220
-0.0000000000002765
230
1.0
 70
     8
 71
     3
 72
    10
 73
     6
 74
     0
 42
0.0000000001
 43
0.0000000001
 40
0.5238557413344813
 40
0.5238557413344813
 40
0.5238557413344813
 40
0.5238557413344813
 40
3.344927373450713
 40
3.344927373450713
 40
3.375545046730997
 40
3.375545046730997
 40
3.375545046730997
 40
3.375545046730997
 10
309.0708052316454
 20
799.1180733462033
 30
0.0000000000000629
 10
309.6688660815894
 20
799.8322304192059
 30
0.000000000000063
 10
310.2809145137685
 20
800.5287902159871
 30
0.0000000000000631
 10
310.9091744496423
 20
801.212642078222
 30
0.0000000000000631
 10
310.9159211114461
 20
801.2199821466507
 30
0.0000000000000631
 10
310.9226690047224
 20
801.2273199828204
 30
0.0000000000000631
  0
SPLINE
  5
1B3E
330
1F
100
AcDbEntity
  8
Hewi
100
AcDbSpline
210
0.0000000000000033
220
-0.0000000000000055
230
1.0
 70
     8
 71
     3
 72
    18
 73
    14
 74
     0
 42
0.0000000001
 43
0.0000000001
 40
1.6540747858433
 40
1.6540747858433
 40
1.6540747858433
 40
1.6540747858433
 40
1.715582394495875
 40
1.715582394495875
 40
1.902970208297488
 40
1.902970208297488
 40
2.031734176382974
 40
2.031734176382974
 40
2.255265245202036
 40
2.255265245202036
 40
2.814065234951959
 40
2.814065234951959
 40
3.138692671095101
 40
3.138692671095101
 40
3.138692671095101
 40
3.138692671095101
 10
310.9226688299991
 20
801.2273201092591
 30
0.0000000000000631
 10
310.9363404282953
 20
801.2421869112186
 30
0.0000000000000631
 10
310.9501461459637
 20
801.2568349384245
 30
0.0000000000000631
 10
311.0064737015296
 20
801.3151862330929
 30
0.0000000000000631
 10
311.050010834048
 20
801.3570754780651
 30
0.0000000000000632
 10
311.1246054497483
 20
801.4239116591534
 30
0.0000000000000632
 10
311.1553438638243
 20
801.4500922285757
 30
0.0000000000000632
 10
311.2401036695896
 20
801.5186801427811
 30
0.0000000000000632
 10
311.2947129123263
 20
801.5589415818096
 30
0.0000000000000632
 10
311.4872077156373
 20
801.6870912280969
 30
0.0000000000000632
 10
311.6172084697942
 20
801.7495993509959
 30
0.0000000000000632
 10
311.8061075449536
 20
801.8065679628923
 30
0.0000000000000632
 10
311.8860034088943
 20
801.822832193176
 30
0.0000000000000633
 10
311.9700586494513
 20
801.8228019870457
 30
0.0000000000000633
  0
SPLINE
  5
1B3F
330
1F
100
AcDbEntity
  8
Hewi
100
AcDbSpline
210
0.0
220
0.0
230
1.0
 70
     8
 71
     3
 72
    24
 73
    20
 74
     0
 42
0.0000000001
 43
0.0000000001
 40
0.0
 40
0.0
 40
0.0
 40
0.0
 40
0.0756974007302869
 40
0.0756974007302869
 40
0.2789853411804089
 40
0.2789853411804089
 40
0.3497529015458669
 40
0.3497529015458669
 40
0.5919349001703657
 40
0.5919349001703657
 40
1.276514795648737
 40
1.276514795648737
 40
1.476316936862741
 40
1.476316936862741
 40
1.827563147716625
 40
1.827563147716625
 40
1.910592365237698
 40
1.910592365237698
 40
1.954297335670276
 40
1.954297335670276
 40
1.954297335670276
 40
1.954297335670276
 10
308.300806903038
 20
797.4463520714566
 30
0.0000000000000628
 10
308.300806903038
 20
797.4674415882057
 30
0.0000000000000628
 10
308.3015694367173
 20
797.4886129703222
 30
0.0000000000000628
 10
308.3067647633265
 20
797.566641966434
 30
0.0000000000000628
 10
308.3152029216876
 20
797.6242220839981
 30
0.0000000000000628
 10
308.3311007806983
 20
797.7025670438991
 30
0.0000000000000628
 10
308.3356184340914
 20
797.7228592358154
 30
0.0000000000000628
 10
308.3572555075311
 20
797.8128313495698
 30
0.0000000000000628
 10
308.3783822079145
 20
797.8832146378149
 30
0.0000000000000628
 10
308.4721561443953
 20
798.1538201296842
 30
0.0000000000000628
 10
308.5692616851015
 20
798.3596787731824
 30
0.0000000000000628
 10
308.7158457956862
 20
798.6150027627759
 30
0.0000000000000629
 10
308.7505742383251
 20
798.6723013519531
 30
0.0000000000000629
 10
308.8502767359447
 20
798.8281511614331
 30
0.0000000000000629
 10
308.9186745190023
 20
798.9257802362482
 30
0.0000000000000629
 10
309.0080262659844
 20
799.0409602233055
 30
0.0000000000000629
 10
309.025349489219
 20
799.0627602664407
 30
0.0000000000000629
 10
309.0521371337795
 20
799.0956268747336
 30
0.0000000000000629
 10
309.0614398422216
 20
799.1068894407893
 30
0.0000000000000629
 10
309.0708054495885
 20
799.1180730886989
 30
0.0000000000000629
  0
SPLINE
  5
1B40
330
1F
100
AcDbEntity
  8
Hewi
100
AcDbSpline
210
0.0000000000000002
220
-0.0000000000000004
230
1.0
 70
     8
 71
     3
 72
    20
 73
    16
 74
     0
 42
0.0000000001
 43
0.0000000001
 40
1.736023434719105
 40
1.736023434719105
 40
1.736023434719105
 40
1.736023434719105
 40
4.481724718716971
 40
4.481724718716971
 40
8.494256553288714
 40
8.494256553288714
 40
12.2302098530054
 40
12.2302098530054
 40
16.0190034065687
 40
16.0190034065687
 40
20.63191901924623
 40
20.63191901924623
 40
24.55726384241274
 40
24.55726384241274
 40
27.09366019960931
 40
27.09366019960931
 40
27.09366019960931
 40
27.09366019960931
 10
313.4259580641824
 20
801.5180667345484
 30
0.0000000000000634
 10
314.1211311474267
 20
800.9503088504587
 30
0.0000000000000635
 10
314.8799813875671
 20
800.4452830540994
 30
0.0000000000000636
 10
316.871851096334
 20
799.4296706912114
 30
0.0000000000000639
 10
318.1510370349811
 20
799.0316262603283
 30
0.000000000000064
 10
320.7261635520686
 20
798.8074621902387
 30
0.0000000000000643
 10
321.95514680099
 20
798.9487743317766
 30
0.0000000000000645
 10
324.3482261543272
 20
799.6824228678018
 30
0.0000000000000648
 10
325.4751467201472
 20
800.2695044958214
 30
0.0000000000000649
 10
327.7196596228628
 20
801.8719980399819
 30
0.0000000000000652
 10
328.789780016135
 20
802.9570167094478
 30
0.0000000000000653
 10
330.3416481768713
 20
805.0983963056715
 30
0.0000000000000655
 10
330.8841085582112
 20
806.130031838354
 30
0.0000000000000656
 10
331.4314163807574
 20
807.7888472802033
 30
0.0000000000000656
 10
331.5544612267117
 20
808.4173072938519
 30
0.0000000000000657
 10
331.58369336237
 20
809.0102401192202
 30
0.0000000000000657
  0
SPLINE
  5
1B41
330
1F
100
AcDbEntity
  8
Hewi
100
AcDbSpline
210
-0.0000000000000013
220
-0.0000000000000038
230
-1.0
 70
     8
 71
     3
 72
    18
 73
    14
 74
     0
 42
0.0000000001
 43
0.0000000001
 40
0.203900170074742
 40
0.203900170074742
 40
0.203900170074742
 40
0.203900170074742
 40
0.4140914887330024
 40
0.4140914887330024
 40
0.5531594004291947
 40
0.5531594004291947
 40
0.9342624836064976
 40
0.9342624836064976
 40
1.058715851533574
 40
1.058715851533574
 40
1.209079349970968
 40
1.209079349970968
 40
1.267392488679218
 40
1.267392488679218
 40
1.267392488679218
 40
1.267392488679218
 10
312.6225805111167
 20
801.8228862243386
 30
0.0000000000000633
 10
312.6709590689657
 20
801.8228934553812
 30
0.0000000000000634
 10
312.7168959287369
 20
801.8173363142413
 30
0.0000000000000634
 10
312.7841578631619
 20
801.8055339547286
 30
0.0000000000000634
 10
312.8110988322164
 20
801.7996488721932
 30
0.0000000000000634
 10
312.9123014335742
 20
801.7739098210094
 30
0.0000000000000634
 10
312.9877760085569
 20
801.7475791410594
 30
0.0000000000000634
 10
313.0898557407068
 20
801.7054815127774
 30
0.0000000000000634
 10
313.1151137269449
 20
801.6945409751519
 30
0.0000000000000634
 10
313.1711448902138
 20
801.6692237024725
 30
0.0000000000000634
 10
313.2019756017848
 20
801.6546040733256
 30
0.0000000000000634
 10
313.2449579738672
 20
801.6333612872072
 30
0.0000000000000634
 10
313.2569909870513
 20
801.6273212703621
 30
0.0000000000000634
 10
313.2690435387772
 20
801.6211816594701
 30
0.0000000000000634
  0
SPLINE
  5
1B42
330
1F
100
AcDbEntity
  8
Hewi
100
AcDbSpline
210
0.0
220
0.0
230
1.0
 70
     8
 71
     3
 72
    24
 73
    20
 74
     0
 42
0.0000000001
 43
0.0000000001
 40
0.0
 40
0.0
 40
0.0
 40
0.0
 40
0.0069048149749769
 40
0.0069048149749769
 40
0.0247659649317762
 40
0.0247659649317762
 40
0.0545552763944881
 40
0.0545552763944881
 40
0.0643559091378874
 40
0.0643559091378874
 40
0.0859949234863203
 40
0.0859949234863203
 40
0.1473005450050084
 40
0.1473005450050084
 40
0.1844538307831443
 40
0.1844538307831443
 40
0.2059422517223871
 40
0.2059422517223871
 40
0.2061965395260138
 40
0.2061965395260138
 40
0.2061965395260138
 40
0.2061965395260138
 10
313.2690435387608
 20
801.6211816594783
 30
0.0000000000000634
 10
313.2709318624379
 20
801.6202197409668
 30
0.0000000000000634
 10
313.2728156010239
 20
801.6192511105938
 30
0.0000000000000634
 10
313.2795556140623
 20
801.615752964582
 30
0.0000000000000634
 10
313.284385800222
 20
801.6131854680789
 30
0.0000000000000634
 10
313.2971898756973
 20
801.6062186789653
 30
0.0000000000000634
 10
313.3051086774362
 20
801.6017413116809
 30
0.0000000000000634
 10
313.3155200156975
 20
801.5956326406977
 30
0.0000000000000634
 10
313.3180881181647
 20
801.5941075765004
 30
0.0000000000000634
 10
313.3262968694294
 20
801.5891744103337
 30
0.0000000000000634
 10
313.3319014150488
 20
801.5857171951143
 30
0.0000000000000634
 10
313.3532139099802
 20
801.5722319444176
 30
0.0000000000000634
 10
313.3685962452005
 20
801.5617846130894
 30
0.0000000000000634
 10
313.3927557260636
 20
801.5442651094414
 30
0.0000000000000634
 10
313.4017409580115
 20
801.5374896011572
 30
0.0000000000000634
 10
313.4157291048755
 20
801.5265422473726
 30
0.0000000000000634
 10
313.4208124727588
 20
801.5224781233667
 30
0.0000000000000634
 10
313.4259149022478
 20
801.5183135073813
 30
0.0000000000000634
 10
313.4259745709228
 20
801.5182647937617
 30
0.0000000000000634
 10
313.4260342337625
 20
801.5182160730159
 30
0.0000000000000634
  0
LINE
  5
1B43
330
1F
100
AcDbEntity
  8
Hewi
100
AcDbLine
 10
333.8008069030379
 20
812.7545920694156
 30
0.0000000000000659
 11
333.9508069030367
 21
812.7545920694156
 31
0.000000000000066
210
0.0
220
1.0
230
0.0
  0
LINE
  5
1B44
330
1F
100
AcDbEntity
  8
Hewi
100
AcDbLine
 10
333.8008069030379
 20
777.9545920694154
 30
0.0000000000000659
 11
333.9508069030367
 21
777.9545920694154
 31
0.000000000000066
210
0.0
220
1.0
230
0.0
  0
LINE
  5
1B45
330
1F
100
AcDbEntity
  8
Hewi
100
AcDbLine
 10
312.6226208405219
 20
801.8227906049354
 30
0.0000000000000633
 11
311.9700457185804
 21
801.8227906049354
 31
0.0000000000000633
210
0.0
220
1.0
230
0.0
  0
LINE
  5
1B46
330
1F
100
AcDbEntity
  8
Hewi
100
AcDbLine
 10
309.3008069030379
 20
815.3545920694153
 30
0.0000000000000629
 11
333.8008069030379
 21
815.3545920694153
 31
0.0000000000000659
210
0.0
220
1.0
230
0.0
  0
LINE
  5
1B47
330
1F
100
AcDbEntity
  8
Hewi
100
AcDbLine
 10
309.3008069030379
 20
775.3545920694153
 30
0.0000000000000629
 11
333.8008069030379
 21
775.3545920694153
 31
0.0000000000000659
210
0.0
220
1.0
230
0.0
  0
LINE
  5
1B48
330
1F
100
AcDbEntity
  8
Hewi
100
AcDbLine
 10
333.9508069030367
 20
815.3545920694027
 30
0.000000000000066
 11
333.9508069030367
 21
795.3545920694027
 31
0.000000000000066
210
0.0
220
1.0
230
0.0
  0
LINE
  5
1B49
330
1F
100
AcDbEntity
  8
Hewi
100
AcDbLine
 10
333.9508069030367
 20
795.3545920694032
 30
0.000000000000066
 11
333.9508069030367
 21
775.3545920694032
 31
0.000000000000066
210
0.0
220
1.0
230
0.0
  0
LINE
  5
1B4A
330
1F
100
AcDbEntity
  8
Hewi
100
AcDbLine
 10
333.8008069030379
 20
815.3545920694153
 30
0.0000000000000659
 11
333.8008069030379
 21
809.4967276931461
 31
0.0000000000000659
210
0.0
220
1.0
230
0.0
  0
LINE
  5
1B4B
330
1F
100
AcDbEntity
  8
Hewi
100
AcDbLine
 10
333.8008069030379
 20
809.4967276931466
 30
0.0000000000000659
 11
333.8008069030379
 21
775.3545920694153
 31
0.0000000000000659
210
0.0
220
1.0
230
0.0
  0
LINE
  5
1B4C
330
1F
100
AcDbEntity
  8
Hewi
100
AcDbLine
 10
308.300806903038
 20
797.4463520714566
 30
0.0000000000000628
 11
308.300806903038
 21
776.3545920694154
 31
0.0000000000000628
210
0.0
220
1.0
230
0.0
  0
LINE
  5
1B4D
330
1F
100
AcDbEntity
  8
Hewi
100
AcDbLine
 10
308.300806903038
 20
814.2390973606287
 30
0.0000000000000628
 11
308.300806903038
 21
797.4463520714566
 31
0.0000000000000628
210
0.0
220
1.0
230
0.0
  0
LINE
  5
1B4E
330
1F
100
AcDbEntity
  8
Hewi
100
AcDbLine
 10
308.300806903038
 20
814.3545920694153
 30
0.0000000000000628
 11
308.300806903038
 21
814.2390973606287
 31
0.0000000000000628
210
0.0
220
1.0
230
0.0
  0
SPLINE
  5
1B4F
330
1F
100
AcDbEntity
  8
Hewi
100
AcDbSpline
210
0.0000000000000002
220
0.0
230
-1.0
 70
     8
 71
     3
 72
    35
 73
    31
 74
     0
 42
0.0000000001
 43
0.0000000001
 40
132.3072857087947
 40
132.3072857087947
 40
132.3072857087947
 40
132.3072857087947
 40
136.7855331456034
 40
136.7855331456034
 40
141.7555702341805
 40
141.7555702341805
 40
141.7555702341805
 40
150.5350853176014
 40
150.5350853176014
 40
159.3158069937373
 40
159.3158069937373
 40
168.101503115555
 40
168.101503115555
 40
176.8930034281827
 40
176.8930034281827
 40
185.6877688664844
 40
185.6877688664844
 40
194.4814480186283
 40
194.4814480186283
 40
203.2703476028081
 40
203.2703476028081
 40
212.0534605094508
 40
212.0534605094508
 40
220.8330910535008
 40
220.8330910535008
 40
229.6136189378029
 40
229.6136189378029
 40
238.398942885138
 40
238.398942885138
 40
241.1243396664151
 40
241.1243396664151
 40
241.1243396664151
 40
241.1243396664151
 10
351.6508069121769
 20
746.8218854320618
 30
0.0000000000000681
 10
350.5385077581973
 20
745.8301281317773
 30
0.000000000000068
 10
349.527569314087
 20
744.7301820053207
 30
0.0000000000000679
 10
347.6405342331932
 20
742.2151602335365
 30
0.0000000000000676
 10
346.7975109884806
 20
740.7868372723855
 30
0.0000000000000675
 10
346.1194972158378
 20
739.2791423825029
 30
0.0000000000000674
 10
344.9217934487255
 20
736.6158161756733
 30
0.0000000000000673
 10
344.2569594196152
 20
733.7447471006337
 30
0.0000000000000672
 10
344.068055523429
 20
727.9094460900672
 30
0.0000000000000672
 10
344.5459555922912
 20
725.0011871500969
 30
0.0000000000000673
 10
346.5930888485577
 20
719.5293422325399
 30
0.0000000000000675
 10
348.1432933943393
 20
717.0184505009975
 30
0.0000000000000677
 10
352.1227139968494
 20
712.7291476069161
 30
0.0000000000000682
 10
354.5143942111085
 20
710.9922960032572
 30
0.0000000000000685
 10
359.8315532158098
 20
708.5302938333239
 30
0.0000000000000691
 10
362.7064440654481
 20
707.8290308372412
 30
0.0000000000000695
 10
368.5633904741494
 20
707.5651918161891
 30
0.0000000000000702
 10
371.4896033244508
 20
708.0049900485219
 30
0.0000000000000706
 10
377.0066051195622
 20
709.9781061560069
 30
0.0000000000000712
 10
379.5449851534172
 20
711.4920233860646
 30
0.0000000000000715
 10
383.8954932779838
 20
715.403896378011
 30
0.0000000000000721
 10
385.6665445907507
 20
717.7639132739931
 30
0.0000000000000723
 10
388.2014493353167
 20
723.0272973981104
 30
0.0000000000000726
 10
388.9414230138459
 20
725.8800513797901
 30
0.0000000000000727
 10
389.2834186439145
 20
731.708375201425
 30
0.0000000000000727
 10
388.882041962132
 20
734.6280430131096
 30
0.0000000000000727
 10
386.9793254462998
 20
740.1512802425322
 30
0.0000000000000725
 10
385.4956469766726
 20
742.7016817791391
 30
0.0000000000000723
 10
382.964309690356
 20
745.5776993283066
 30
0.000000000000072
 10
382.3253785221309
 20
746.2204154339096
 30
0.0000000000000719
 10
381.6508032787874
 20
746.8218813741096
 30
0.0000000000000718
  0
ARC
  5
1B50
330
1F
100
AcDbEntity
  8
Hewi
100
AcDbCircle
 10
385.6508069030347
 20
708.0545920694153
 30
0.0000000000000723
 40
0.6999999999999319
100
AcDbArc
 50
270.0
 51
0.0
  0
ARC
  5
1B51
330
1F
100
AcDbEntity
  8
Hewi
100
AcDbCircle
 10
347.6508069030365
 20
708.0545920694153
 30
0.0000000000000676
 40
0.6999999999999319
100
AcDbArc
 50
180.0
 51
270.0
  0
ARC
  5
1B52
330
1F
100
AcDbEntity
  8
Hewi
100
AcDbCircle
 10
399.500806903036
 20
777.3545920694154
 30
0.000000000000074
 40
1.999999999999999
100
AcDbArc
 50
270.0
 51
0.0
  0
ARC
  5
1B53
330
1F
100
AcDbEntity
  8
Hewi
100
AcDbCircle
 10
399.5008069030368
 20
813.3545920694153
 30
0.000000000000074
 40
1.999999999999999
100
AcDbArc
 50
0.0
 51
90.0
  0
LINE
  5
1B54
330
1F
100
AcDbEntity
  8
Hewi
100
AcDbLine
 10
384.1508069030365
 20
775.3545695250886
 30
0.0000000000000721
 11
381.6508069030365
 21
775.3545695250886
 31
0.0000000000000718
210
0.0
220
1.0
230
0.0
  0
LINE
  5
1B55
330
1F
100
AcDbEntity
  8
Hewi
100
AcDbLine
 10
351.6508069030365
 20
775.3545695250886
 30
0.0000000000000681
 11
349.1508069030365
 21
775.3545695250886
 31
0.0000000000000678
210
0.0
220
1.0
230
0.0
  0
LINE
  5
1B56
330
1F
100
AcDbEntity
  8
Hewi
100
AcDbLine
 10
384.1508069030365
 20
815.3546146137424
 30
0.0000000000000721
 11
349.1508069030365
 21
815.3546146137424
 31
0.0000000000000678
210
0.0
220
1.0
230
0.0
  0
LINE
  5
1B57
330
1F
100
AcDbEntity
  8
Hewi
100
AcDbLine
 10
390.6508069030365
 20
775.3545920694153
 30
0.0000000000000729
 11
384.1508069030365
 21
775.3545920694153
 31
0.0000000000000721
210
0.0
220
1.0
230
0.0
  0
LINE
  5
1B58
330
1F
100
AcDbEntity
  8
Hewi
100
AcDbLine
 10
390.6508069030365
 20
815.3545920694153
 30
0.0000000000000729
 11
384.1508069030365
 21
815.3545920694153
 31
0.0000000000000721
210
0.0
220
1.0
230
0.0
  0
LINE
  5
1B59
330
1F
100
AcDbEntity
  8
Hewi
100
AcDbLine
 10
349.1508069030365
 20
775.3545920694153
 30
0.0000000000000678
 11
342.6508069030365
 21
775.3545920694153
 31
0.000000000000067
210
0.0
220
1.0
230
0.0
  0
LINE
  5
1B5A
330
1F
100
AcDbEntity
  8
Hewi
100
AcDbLine
 10
349.1508069030365
 20
815.3545920694153
 30
0.0000000000000678
 11
342.6508069030365
 21
815.3545920694153
 31
0.000000000000067
210
0.0
220
1.0
230
0.0
  0
LINE
  5
1B5B
330
1F
100
AcDbEntity
  8
Hewi
100
AcDbLine
 10
346.9508069030358
 20
740.939980235974
 30
0.0000000000000675
 11
346.9508069030367
 21
775.3545920694153
 31
0.0000000000000675
210
0.0
220
1.0
230
0.0
  0
LINE
  5
1B5C
330
1F
100
AcDbEntity
  8
Hewi
100
AcDbLine
 10
346.9508069030358
 20
708.0545920694153
 30
0.0000000000000675
 11
346.9508069030358
 21
719.2676984528392
 31
0.0000000000000675
210
0.0
220
1.0
230
0.0
  0
LINE
  5
1B5D
330
1F
100
AcDbEntity
  8
Hewi
100
AcDbLine
 10
386.3508069030353
 20
740.9399802359762
 30
0.0000000000000724
 11
386.3508069030364
 21
775.3545920694153
 31
0.0000000000000724
210
0.0
220
1.0
230
0.0
  0
LINE
  5
1B5E
330
1F
100
AcDbEntity
  8
Hewi
100
AcDbLine
 10
386.3508069030353
 20
708.0545920694151
 30
0.0000000000000724
 11
386.3508069030353
 21
719.2676984528361
 31
0.0000000000000724
210
0.0
220
1.0
230
0.0
  0
LINE
  5
1B5F
330
1F
100
AcDbEntity
  8
Hewi
100
AcDbLine
 10
399.3508069030363
 20
775.3545920694032
 30
0.000000000000074
 11
390.8508069030363
 21
775.3545920694032
 31
0.0000000000000729
210
0.0
220
1.0
230
0.0
  0
LINE
  5
1B60
330
1F
100
AcDbEntity
  8
Hewi
100
AcDbLine
 10
399.3508069030363
 20
815.3545920694027
 30
0.000000000000074
 11
390.8508069030363
 21
815.3545920694027
 31
0.0000000000000729
210
0.0
220
1.0
230
0.0
  0
LINE
  5
1B61
330
1F
100
AcDbEntity
  8
Hewi
100
AcDbLine
 10
399.3508069030363
 20
812.7545920694156
 30
0.000000000000074
 11
399.5008069030368
 21
812.7545920694156
 31
0.000000000000074
210
0.0
220
1.0
230
0.0
  0
LINE
  5
1B62
330
1F
100
AcDbEntity
  8
Hewi
100
AcDbLine
 10
399.3508069030363
 20
777.9545920694154
 30
0.000000000000074
 11
399.500806903036
 21
777.9545920694154
 31
0.000000000000074
210
0.0
220
1.0
230
0.0
  0
LINE
  5
1B63
330
1F
100
AcDbEntity
  8
Hewi
100
AcDbLine
 10
342.4508069030367
 20
803.3545920694153
 30
0.000000000000067
 11
342.6508069030365
 21
803.3545920694148
 31
0.000000000000067
210
0.0
220
1.0
230
0.0
  0
LINE
  5
1B64
330
1F
100
AcDbEntity
  8
Hewi
100
AcDbLine
 10
390.6508069030365
 20
803.3545920694148
 30
0.0000000000000729
 11
390.8508069030363
 21
803.3545920694148
 31
0.0000000000000729
210
0.0
220
1.0
230
0.0
  0
LINE
  5
1B65
330
1F
100
AcDbEntity
  8
Hewi
100
AcDbLine
 10
342.4508069030367
 20
787.3545920694163
 30
0.000000000000067
 11
342.6508069030365
 21
787.354592069416
 31
0.000000000000067
210
0.0
220
1.0
230
0.0
  0
LINE
  5
1B66
330
1F
100
AcDbEntity
  8
Hewi
100
AcDbLine
 10
390.6508069030365
 20
787.354592069416
 30
0.0000000000000729
 11
390.8508069030363
 21
787.354592069416
 31
0.0000000000000729
210
0.0
220
1.0
230
0.0
  0
LINE
  5
1B67
330
1F
100
AcDbEntity
  8
Hewi
100
AcDbLine
 10
342.6508069030365
 20
787.6271854591037
 30
0.000000000000067
 11
342.4508069030367
 21
787.6271854591037
 31
0.000000000000067
210
0.0
220
1.0
230
0.0
  0
LINE
  5
1B68
330
1F
100
AcDbEntity
  8
Hewi
100
AcDbLine
 10
342.4508069030367
 20
789.5590371116809
 30
0.000000000000067
 11
342.6508069030365
 21
789.5590371116809
 31
0.000000000000067
210
0.0
220
1.0
230
0.0
  0
LINE
  5
1B69
330
1F
100
AcDbEntity
  8
Hewi
100
AcDbLine
 10
342.4508069030367
 20
789.6977378199237
 30
0.000000000000067
 11
342.6508069030365
 21
789.6977378199237
 31
0.000000000000067
210
0.0
220
1.0
230
0.0
  0
LINE
  5
1B6A
330
1F
100
AcDbEntity
  8
Hewi
100
AcDbLine
 10
399.5008069030368
 20
815.3545920694153
 30
0.000000000000074
 11
399.500806903036
 21
775.3545920694153
 31
0.000000000000074
210
0.0
220
1.0
230
0.0
  0
LINE
  5
1B6B
330
1F
100
AcDbEntity
  8
Hewi
100
AcDbLine
 10
401.5008069030367
 20
813.3545920694153
 30
0.0000000000000742
 11
401.5008069030359
 21
777.3545920694154
 31
0.0000000000000742
210
0.0
220
1.0
230
0.0
  0
LINE
  5
1B6C
330
1F
100
AcDbEntity
  8
Hewi
100
AcDbLine
 10
342.4508069030367
 20
775.3545920694032
 30
0.000000000000067
 11
342.4508069030367
 21
815.3545920694027
 31
0.000000000000067
210
0.0
220
1.0
230
0.0
  0
LINE
  5
1B6D
330
1F
100
AcDbEntity
  8
Hewi
100
AcDbLine
 10
342.6508069030365
 20
777.3545920694149
 30
0.000000000000067
 11
342.4508069030367
 21
777.3545920694149
 31
0.000000000000067
210
0.0
220
1.0
230
0.0
  0
LINE
  5
1B6E
330
1F
100
AcDbEntity
  8
Hewi
100
AcDbLine
 10
390.8508069030363
 20
777.3545920694149
 30
0.0000000000000729
 11
390.6508069030365
 21
777.3545920694149
 31
0.0000000000000729
210
0.0
220
1.0
230
0.0
  0
LINE
  5
1B6F
330
1F
100
AcDbEntity
  8
Hewi
100
AcDbLine
 10
390.6508069030365
 20
780.0545920694153
 30
0.0000000000000729
 11
390.8508069030353
 21
780.0545920694153
 31
0.0000000000000729
210
0.0
220
1.0
230
0.0
  0
LINE
  5
1B70
330
1F
100
AcDbEntity
  8
Hewi
100
AcDbLine
 10
342.4508069030376
 20
780.0545920694153
 30
0.000000000000067
 11
342.6508069030365
 21
780.0545920694153
 31
0.000000000000067
210
0.0
220
1.0
230
0.0
  0
LINE
  5
1B71
330
1F
100
AcDbEntity
  8
Hewi
100
AcDbLine
 10
342.6508069030365
 20
810.6545920693926
 30
0.000000000000067
 11
342.4508069030376
 21
810.6545920693926
 31
0.000000000000067
210
0.0
220
1.0
230
0.0
  0
LINE
  5
1B72
330
1F
100
AcDbEntity
  8
Hewi
100
AcDbLine
 10
390.8508069030353
 20
810.6545920693926
 30
0.0000000000000729
 11
390.6508069030365
 21
810.6545920693926
 31
0.0000000000000729
210
0.0
220
1.0
230
0.0
  0
LINE
  5
1B73
330
1F
100
AcDbEntity
  8
Hewi
100
AcDbLine
 10
390.6508069030365
 20
813.3545920693931
 30
0.0000000000000729
 11
390.8508069030363
 21
813.3545920693931
 31
0.0000000000000729
210
0.0
220
1.0
230
0.0
  0
LINE
  5
1B74
330
1F
100
AcDbEntity
  8
Hewi
100
AcDbLine
 10
342.4508069030367
 20
813.3545920693931
 30
0.000000000000067
 11
342.6508069030365
 21
813.3545920693931
 31
0.000000000000067
210
0.0
220
1.0
230
0.0
  0
LINE
  5
1B75
330
1F
100
AcDbEntity
  8
Hewi
100
AcDbLine
 10
390.8508069030363
 20
775.3545920694032
 30
0.0000000000000729
 11
390.8508069030363
 21
815.3545920694027
 31
0.0000000000000729
210
0.0
220
1.0
230
0.0
  0
LINE
  5
1B76
330
1F
100
AcDbEntity
  8
Hewi
100
AcDbLine
 10
399.3508069030363
 20
815.3545920694027
 30
0.000000000000074
 11
399.3508069030363
 21
795.3545920694027
 31
0.000000000000074
210
0.0
220
1.0
230
0.0
  0
LINE
  5
1B77
330
1F
100
AcDbEntity
  8
Hewi
100
AcDbLine
 10
399.3508069030363
 20
795.3545920694032
 30
0.000000000000074
 11
399.3508069030363
 21
775.3545920694032
 31
0.000000000000074
210
0.0
220
1.0
230
0.0
  0
LINE
  5
1B78
330
1F
100
AcDbEntity
  8
Hewi
100
AcDbLine
 10
385.6508069030347
 20
707.3545920694153
 30
0.0000000000000723
 11
347.6508069030365
 21
707.3545920694153
 31
0.0000000000000676
210
0.0
220
1.0
230
0.0
  0
LINE
  5
1B79
330
1F
100
AcDbEntity
  8
Hewi
100
AcDbLine
 10
342.6508069030365
 20
815.3545920694153
 30
0.000000000000067
 11
342.6508069030365
 21
795.3545920694153
 31
0.000000000000067
210
0.0
220
1.0
230
0.0
  0
LINE
  5
1B7A
330
1F
100
AcDbEntity
  8
Hewi
100
AcDbLine
 10
342.6508069030365
 20
795.3545920694153
 30
0.000000000000067
 11
342.6508069030365
 21
775.3545920694153
 31
0.000000000000067
210
0.0
220
1.0
230
0.0
  0
LINE
  5
1B7B
330
1F
100
AcDbEntity
  8
Hewi
100
AcDbLine
 10
349.1508069030365
 20
815.3546146137424
 30
0.0000000000000678
 11
349.1508069030365
 21
775.3545695250886
 31
0.0000000000000678
210
0.0
220
1.0
230
0.0
  0
LINE
  5
1B7C
330
1F
100
AcDbEntity
  8
Hewi
100
AcDbLine
 10
390.6508069030365
 20
815.3545920694153
 30
0.0000000000000729
 11
390.6508069030365
 21
795.3545920694153
 31
0.0000000000000729
210
0.0
220
1.0
230
0.0
  0
LINE
  5
1B7D
330
1F
100
AcDbEntity
  8
Hewi
100
AcDbLine
 10
390.6508069030365
 20
795.3545920694153
 30
0.0000000000000729
 11
390.6508069030365
 21
775.3545920694153
 31
0.0000000000000729
210
0.0
220
1.0
230
0.0
  0
LINE
  5
1B7E
330
1F
100
AcDbEntity
  8
Hewi
100
AcDbLine
 10
384.1508069030365
 20
775.3545695250886
 30
0.0000000000000721
 11
384.1508069030365
 21
815.3546146137424
 31
0.0000000000000721
210
0.0
220
1.0
230
0.0
  0
SPLINE
  5
1B7F
330
1F
100
AcDbEntity
  8
Hewi
100
AcDbSpline
210
0.0000000000000006
220
0.0000000000000026
230
1.0
 70
     8
 71
     3
 72
    14
 73
    10
 74
     0
 42
0.0000000001
 43
0.0000000001
 40
-1.51819376772367
 40
-1.51819376772367
 40
-1.51819376772367
 40
-1.51819376772367
 40
-1.135751222155821
 40
-1.135751222155821
 40
-0.7533086765879721
 40
-0.7533086765879721
 40
-0.376654338293986
 40
-0.376654338293986
 40
0.0
 40
0.0
 40
0.0
 40
0.0
 10
381.6508069030365
 20
775.9175616230264
 30
0.0000000000000718
 10
381.6508069030365
 20
775.9475959453274
 30
0.0000000000000718
 10
381.6255474613204
 20
775.9809518975563
 30
0.0000000000000718
 10
381.522852174146
 20
776.0447304135746
 30
0.0000000000000718
 10
381.4454170532149
 20
776.0750876034301
 30
0.0000000000000718
 10
381.2675294623318
 20
776.1237453656717
 30
0.0000000000000718
 10
381.1556599916388
 20
776.1454125651994
 30
0.0000000000000717
 10
380.9100809834085
 20
776.1744996891644
 30
0.0000000000000717
 10
380.7763583491346
 20
776.1818425604307
 30
0.0000000000000717
 10
380.6508069030365
 20
776.1818425604307
 30
0.0000000000000717
  0
SPLINE
  5
1B80
330
1F
100
AcDbEntity
  8
Hewi
100
AcDbSpline
210
0.0000000000000007
220
-0.0000000000000029
230
1.0
 70
     8
 71
     3
 72
    14
 73
    10
 74
     0
 42
0.0000000001
 43
0.0000000001
 40
0.0
 40
0.0
 40
0.0
 40
0.0
 40
0.3766543382939877
 40
0.3766543382939877
 40
0.7533086765879756
 40
0.7533086765879756
 40
1.135751222155823
 40
1.135751222155823
 40
1.51819376772367
 40
1.51819376772367
 40
1.51819376772367
 40
1.51819376772367
 10
352.6508069030365
 20
776.1818425604307
 30
0.0000000000000682
 10
352.5252554569383
 20
776.1818425604307
 30
0.0000000000000682
 10
352.3915328226643
 20
776.1744996891644
 30
0.0000000000000682
 10
352.1459538144341
 20
776.1454125651994
 30
0.0000000000000682
 10
352.0340843437411
 20
776.1237453656717
 30
0.0000000000000682
 10
351.856196752859
 20
776.0750876034301
 30
0.0000000000000681
 10
351.778761631927
 20
776.0447304135746
 30
0.0000000000000681
 10
351.6760663447527
 20
775.9809518975563
 30
0.0000000000000681
 10
351.6508069030365
 20
775.9475959453274
 30
0.0000000000000681
 10
351.6508069030365
 20
775.9175616230264
 30
0.0000000000000681
  0
LINE
  5
1B81
330
1F
100
AcDbEntity
  8
Hewi
100
AcDbLine
 10
380.6508069030365
 20
776.1818425604307
 30
0.0000000000000717
 11
352.6508069030365
 21
776.1818425604307
 31
0.0000000000000682
210
0.0
220
1.0
230
0.0
  0
LINE
  5
1B82
330
1F
100
AcDbEntity
  8
Hewi
100
AcDbLine
 10
381.6508069030365
 20
775.9175616230264
 30
0.0000000000000718
 11
381.6508069030365
 21
745.2130462787001
 31
0.0000000000000718
210
0.0
220
1.0
230
0.0
  0
LINE
  5
1B83
330
1F
100
AcDbEntity
  8
Hewi
100
AcDbLine
 10
351.6508069030365
 20
775.9175616230264
 30
0.0000000000000681
 11
351.6508069030365
 21
745.2130462787001
 31
0.0000000000000681
210
0.0
220
1.0
230
0.0
  0
SPLINE
  5
1B84
330
1F
100
AcDbEntity
  8
Hewi
100
AcDbSpline
210
0.0
220
0.0
230
1.0
 70
     8
 71
     3
 72
    14
 73
    10
 74
     0
 42
0.0000000001
 43
0.0000000001
 40
0.649611117407552
 40
0.649611117407552
 40
0.649611117407552
 40
0.649611117407552
 40
0.7333587369340008
 40
0.7333587369340008
 40
1.466717473868001
 40
1.466717473868001
 40
2.251649856864295
 40
2.251649856864295
 40
3.036582239860591
 40
3.036582239860591
 40
3.036582239860591
 40
3.036582239860591
 10
352.3349380370169
 20
743.1007044203347
 30
0.0000000000000682
 10
352.3213453700841
 20
743.1270937163962
 30
0.0000000000000682
 10
352.3078228221243
 20
743.1534774577102
 30
0.0000000000000682
 10
352.1768345893775
 20
743.4105590728112
 30
0.0000000000000682
 10
352.0674631745884
 20
743.6386710934693
 30
0.0000000000000682
 10
351.8864439486312
 20
744.0660681790416
 30
0.0000000000000682
 10
351.7996965270054
 20
744.3043901365472
 30
0.0000000000000681
 10
351.6815011347812
 20
744.7729288149599
 30
0.0000000000000681
 10
351.6508069030365
 20
745.0037193700418
 30
0.0000000000000681
 10
351.6508069030365
 20
745.2130462787001
 30
0.0000000000000681
  0
SPLINE
  5
1B85
330
1F
100
AcDbEntity
  8
Hewi
100
AcDbSpline
210
0.0
220
0.0
230
1.0
 70
     8
 71
     3
 72
    20
 73
    16
 74
     0
 42
0.0000000001
 43
0.0000000001
 40
-2.081957642337048
 40
-2.081957642337048
 40
-2.081957642337048
 40
-2.081957642337048
 40
-2.029036545889133
 40
-2.029036545889133
 40
-1.976115449441223
 40
-1.976115449441223
 40
-1.938296586027501
 40
-1.938296586027501
 40
-1.900477722613779
 40
-1.900477722613779
 40
-1.79865290262327
 40
-1.79865290262327
 40
-1.696828082632761
 40
-1.696828082632761
 40
-1.658125044755919
 40
-1.658125044755919
 40
-1.658125044755919
 40
-1.658125044755919
 10
352.6508069030365
 20
742.9794962658514
 30
0.0000000000000682
 10
352.6390191335384
 20
742.9664225251172
 30
0.0000000000000682
 10
352.625121339906
 20
742.9529450900985
 30
0.0000000000000682
 10
352.5944990384429
 20
742.9305026854977
 30
0.0000000000000682
 10
352.5777112799083
 20
742.9216233968977
 30
0.0000000000000682
 10
352.5486178161842
 20
742.9135812024163
 30
0.0000000000000682
 10
352.5350366146136
 20
742.9120948373992
 30
0.0000000000000682
 10
352.5084335950301
 20
742.9145384267846
 30
0.0000000000000682
 10
352.4954070349354
 20
742.9184276663684
 30
0.0000000000000682
 10
352.4537414451239
 20
742.937260614603
 30
0.0000000000000682
 10
352.4309941239703
 20
742.9590863399893
 30
0.0000000000000682
 10
352.3891915066829
 20
743.0083102743402
 30
0.0000000000000682
 10
352.3707797604716
 20
743.0362433923302
 30
0.0000000000000682
 10
352.3472456295444
 20
743.0773823369512
 30
0.0000000000000682
 10
352.3409874901886
 20
743.0889597927683
 30
0.0000000000000682
 10
352.3349380370169
 20
743.1007044203347
 30
0.0000000000000682
  0
SPLINE
  5
1B86
330
1F
100
AcDbEntity
  8
Hewi
100
AcDbSpline
210
0.0
220
0.0
230
1.0
 70
     8
 71
     3
 72
    20
 73
    16
 74
     0
 42
0.0000000001
 43
0.0000000001
 40
1.658125044755959
 40
1.658125044755959
 40
1.658125044755959
 40
1.658125044755959
 40
1.696828082632773
 40
1.696828082632773
 40
1.798652902623284
 40
1.798652902623284
 40
1.900477722613793
 40
1.900477722613793
 40
1.93829658602752
 40
1.93829658602752
 40
1.976115449441245
 40
1.976115449441245
 40
2.029036545889153
 40
2.029036545889153
 40
2.081957642337064
 40
2.081957642337064
 40
2.081957642337064
 40
2.081957642337064
 10
380.9666757690561
 20
743.1007044203347
 30
0.0000000000000717
 10
380.9606263158844
 20
743.0889597927683
 30
0.0000000000000717
 10
380.9543681765285
 20
743.0773823369512
 30
0.0000000000000717
 10
380.9308340456013
 20
743.0362433923302
 30
0.0000000000000717
 10
380.9124222993901
 20
743.0083102743402
 30
0.0000000000000717
 10
380.8706196821026
 20
742.9590863399893
 30
0.0000000000000717
 10
380.8478723609492
 20
742.937260614603
 30
0.0000000000000717
 10
380.8062067711376
 20
742.9184276663684
 30
0.0000000000000717
 10
380.7931802110429
 20
742.9145384267846
 30
0.0000000000000717
 10
380.7665771914594
 20
742.9120948373992
 30
0.0000000000000717
 10
380.7529959898888
 20
742.9135812024163
 30
0.0000000000000717
 10
380.7239025261647
 20
742.9216233968977
 30
0.0000000000000717
 10
380.7071147676302
 20
742.9305026854977
 30
0.0000000000000717
 10
380.676492466167
 20
742.9529450900985
 30
0.0000000000000717
 10
380.6625946725349
 20
742.9664225251172
 30
0.0000000000000717
 10
380.6508069030365
 20
742.9794962658514
 30
0.0000000000000717
  0
SPLINE
  5
1B87
330
1F
100
AcDbEntity
  8
Hewi
100
AcDbSpline
210
0.0
220
0.0
230
1.0
 70
     8
 71
     3
 72
    14
 73
    10
 74
     0
 42
0.0000000001
 43
0.0000000001
 40
8.794524056531006
 40
8.794524056531006
 40
8.794524056531006
 40
8.794524056531006
 40
9.579456439527339
 40
9.579456439527339
 40
10.36438882252367
 40
10.36438882252367
 40
11.09774755945768
 40
11.09774755945768
 40
11.18149517898412
 40
11.18149517898412
 40
11.18149517898412
 40
11.18149517898412
 10
381.6508069030365
 20
745.2130462787001
 30
0.0000000000000718
 10
381.6508069030365
 20
745.0037193700418
 30
0.0000000000000718
 10
381.6201126712917
 20
744.7729288149599
 30
0.0000000000000718
 10
381.5019172790676
 20
744.3043901365467
 30
0.0000000000000718
 10
381.415169857442
 20
744.0660681790416
 30
0.0000000000000718
 10
381.2341506314847
 20
743.6386710934693
 30
0.0000000000000717
 10
381.1247792166954
 20
743.4105590728112
 30
0.0000000000000717
 10
380.9937909839486
 20
743.1534774577102
 30
0.0000000000000717
 10
380.9802684359888
 20
743.1270937163962
 30
0.0000000000000717
 10
380.9666757690561
 20
743.1007044203347
 30
0.0000000000000717
  0
ELLIPSE
  5
1B88
330
1F
100
AcDbEntity
  8
Hewi
100
AcDbEllipse
 10
366.6508069030365
 20
730.4524623153958
 30
0.00000000000007
 11
-18.81828199961667
 21
0.0
 31
-0.0000000000000023
210
-0.0000000000000001
220
0.0
230
1.0
 40
0.9961946980917455
 41
-2.409769549797642
 42
-0.7318231037921505
  0
ELLIPSE
  5
1B89
330
1F
100
AcDbEntity
  8
Hewi
100
AcDbEllipse
 10
366.6508069030365
 20
730.5230849866886
 30
0.00000000000007
 11
12.70449773839052
 21
0.0
 31
0.0000000000000016
210
-0.0000000000000001
220
0.0
230
1.0
 40
0.9961946980917455
 41
0.0
 42
6.283185307179584
  0
ARC
  5
1B8A
330
1F
100
AcDbEntity
  8
Hewi
100
AcDbCircle
 10
827.218264696472
 20
712.782594435626
 30
0.0000000000000799
 40
4.000000000000073
100
AcDbArc
 50
194.1768749669893
 51
355.8231250330065
  0
ARC
  5
1B8B
330
1F
100
AcDbEntity
  8
Hewi
100
AcDbCircle
 10
796.8971823056691
 20
709.1629490753322
 30
0.0000000000000743
 40
0.6999999999999319
100
AcDbArc
 50
270.0
 51
0.0
  0
ARC
  5
1B8C
330
1F
100
AcDbEntity
  8
Hewi
100
AcDbCircle
 10
758.89718230567
 20
709.1629490753322
 30
0.0000000000000673
 40
0.6999999999999319
100
AcDbArc
 50
180.0
 51
270.0
  0
ARC
  5
1B8D
330
1F
100
AcDbEntity
  8
Hewi
100
AcDbCircle
 10
753.1971823056701
 20
812.4629490753102
 30
0.0000000000000663
 40
1.999999999999995
100
AcDbArc
 50
90.0
 51
180.0
  0
ARC
  5
1B8E
330
1F
100
AcDbEntity
  8
Hewi
100
AcDbCircle
 10
753.1971823056701
 20
780.462949075332
 30
0.0000000000000663
 40
1.999999999999999
100
AcDbArc
 50
180.0
 51
270.0
  0
ARC
  5
1B8F
330
1F
100
AcDbEntity
  8
Hewi
100
AcDbCircle
 10
711.5263658570303
 20
721.2315318199374
 30
0.0000000000000586
 40
119.9999999999995
100
AcDbArc
 50
355.8231250330065
 51
358.9226597831567
  0
ARC
  5
1B90
330
1F
100
AcDbEntity
  8
Hewi
100
AcDbCircle
 10
711.5263658570303
 20
721.2315318199374
 30
0.0000000000000586
 40
119.9999999999995
100
AcDbArc
 50
11.07734021684892
 51
14.02230851987765
  0
LINE
  5
1B91
330
1F
100
AcDbEntity
  8
Hewi
100
AcDbLine
 10
758.1971823056692
 20
709.1629490753322
 30
0.0000000000000672
 11
758.1971823056692
 21
778.4629490753325
 31
0.0000000000000672
210
0.0
220
1.0
230
0.0
  0
LINE
  5
1B92
330
1F
100
AcDbEntity
  8
Hewi
100
AcDbLine
 10
797.5971823056688
 20
709.1629490753322
 30
0.0000000000000744
 11
797.5971823056688
 21
778.4629490753325
 31
0.0000000000000744
210
0.0
220
1.0
230
0.0
  0
LINE
  5
1B93
330
1F
100
AcDbEntity
  8
Hewi
100
AcDbLine
 10
751.1971823056701
 20
780.462949075332
 30
0.0000000000000659
 11
751.1971823056701
 21
812.4629490753102
 31
0.0000000000000659
210
0.0
220
1.0
230
0.0
  0
LINE
  5
1B94
330
1F
100
AcDbEntity
  8
Hewi
100
AcDbLine
 10
777.8971823056698
 20
778.4629490753334
 30
0.0000000000000708
 11
811.1793844185612
 21
778.4629490753334
 31
0.0000000000000769
210
0.0
220
1.0
230
0.0
  0
LINE
  5
1B95
330
1F
100
AcDbEntity
  8
Hewi
100
AcDbLine
 10
777.8971823056698
 20
814.4629490753116
 30
0.0000000000000708
 11
811.1793844185713
 21
814.4629490753116
 31
0.0000000000000769
210
0.0
220
1.0
230
0.0
  0
LINE
  5
1B96
330
1F
100
AcDbEntity
  8
Hewi
100
AcDbLine
 10
753.1971823056701
 20
814.4629490753102
 30
0.0000000000000663
 11
777.8971823056698
 21
814.4629490753102
 31
0.0000000000000708
210
0.0
220
1.0
230
0.0
  0
LINE
  5
1B97
330
1F
100
AcDbEntity
  8
Hewi
100
AcDbLine
 10
753.1971823056701
 20
778.462949075332
 30
0.0000000000000663
 11
777.8971823056698
 21
778.462949075332
 31
0.0000000000000708
210
0.0
220
1.0
230
0.0
  0
LINE
  5
1B98
330
1F
100
AcDbEntity
  8
Hewi
100
AcDbLine
 10
796.8971823056691
 20
708.4629490753325
 30
0.0000000000000743
 11
758.89718230567
 21
708.4629490753325
 31
0.0000000000000673
210
0.0
220
1.0
230
0.0
  0
ARC
  5
1B99
330
1F
100
AcDbEntity
  8
Hewi
100
AcDbCircle
 10
819.8971823056691
 20
796.4629490753325
 30
0.0000000000000785
 40
20.00002254432668
100
AcDbArc
 50
244.1579338865238
 51
115.8420661136496
  0
LINE
  5
1B9A
330
1F
100
AcDbEntity
  8
Hewi
100
AcDbLine
 10
817.620302301767
 20
776.5929536243666
 30
0.0000000000000781
 11
820.525131205005
 21
743.3906073297877
 31
0.0000000000000786
210
0.0
220
1.0
230
0.0
  0
SPLINE
  5
1B9B
330
1F
100
AcDbEntity
  8
Hewi
100
AcDbSpline
210
0.0
220
0.0
230
1.0
 70
     8
 71
     3
 72
    20
 73
    16
 74
     0
 42
0.0000000001
 43
0.0000000001
 40
1.658125044756507
 40
1.658125044756507
 40
1.658125044756507
 40
1.658125044756507
 40
1.696828082632723
 40
1.696828082632723
 40
1.798652902623234
 40
1.798652902623234
 40
1.900477722613745
 40
1.900477722613745
 40
1.938296586027634
 40
1.938296586027634
 40
1.97611544944152
 40
1.97611544944152
 40
2.029036545890053
 40
2.029036545890053
 40
2.081957642338585
 40
2.081957642338585
 40
2.081957642338585
 40
2.081957642338585
 10
820.5651388036468
 20
743.5207397345011
 30
0.0000000000000786
 10
820.5641754036705
 20
743.5086440537149
 30
0.0000000000000786
 10
820.5631924949985
 20
743.4967146836618
 30
0.0000000000000786
 10
820.5595517851477
 20
743.4542991491333
 30
0.0000000000000786
 10
820.5568026102962
 20
743.4254503640723
 30
0.0000000000000786
 10
820.5508602011303
 20
743.3744192641248
 30
0.0000000000000786
 10
820.5477333148646
 20
743.3517054873291
 30
0.0000000000000786
 10
820.5424179752816
 20
743.3316447727313
 30
0.0000000000000786
 10
820.5407949578775
 20
743.3274093536002
 30
0.0000000000000786
 10
820.5375856601259
 20
743.3243621821271
 30
0.0000000000000786
 10
820.5359995421277
 20
743.3255918013197
 30
0.0000000000000786
 10
820.5326950650006
 20
743.3331753911395
 30
0.0000000000000786
 10
820.5308697500257
 20
743.3418698048015
 30
0.0000000000000786
 10
820.5276641875162
 20
743.364093192509
 30
0.0000000000000786
 10
820.5262750091087
 20
743.3775335890532
 30
0.0000000000000786
 10
820.525131205005
 20
743.3906073297877
 30
0.0000000000000786
  0
SPLINE
  5
1B9C
330
1F
100
AcDbEntity
  8
Hewi
100
AcDbSpline
210
0.0000000000000067
220
-0.0000000000000022
230
1.0
 70
     8
 71
     3
 72
    14
 73
    10
 74
     0
 42
0.0000000001
 43
0.0000000001
 40
8.778950683888792
 40
8.778950683888792
 40
8.778950683888792
 40
8.778950683888792
 40
9.563883066885145
 40
9.563883066885145
 40
10.34881544988149
 40
10.34881544988149
 40
11.08217418681549
 40
11.08217418681549
 40
11.16592180634194
 40
11.16592180634194
 40
11.16592180634194
 40
11.16592180634194
 10
821.3182904581024
 20
745.7984688281309
 30
0.0000000000000788
 10
821.2000534364905
 20
745.5650643374672
 30
0.0000000000000787
 10
821.0757767640853
 20
745.3088001356469
 30
0.0000000000000787
 10
820.859971897482
 20
744.7949812723387
 30
0.0000000000000787
 10
820.7691310949831
 20
744.5369651300609
 30
0.0000000000000787
 10
820.6446752488364
 20
744.0810298319457
 30
0.0000000000000786
 10
820.5966705265081
 20
743.840934287931
 30
0.0000000000000786
 10
820.5697666109243
 20
743.5751428883265
 30
0.0000000000000786
 10
820.5673034910377
 20
743.5479178207827
 30
0.0000000000000786
 10
820.5651388036468
 20
743.5207397345011
 30
0.0000000000000786
  0
SPLINE
  5
1B9D
330
1F
100
AcDbEntity
  8
Hewi
100
AcDbSpline
210
0.0
220
-0.0000000000000001
230
1.0
 70
     8
 71
     3
 72
    30
 73
    26
 74
     0
 42
0.0000000001
 43
0.0000000001
 40
50.21703549202495
 40
50.21703549202495
 40
50.21703549202495
 40
50.21703549202495
 40
50.53039260880385
 40
50.53039260880385
 40
51.29598074329932
 40
51.29598074329932
 40
51.92914302530023
 40
51.92914302530023
 40
52.56230530730113
 40
52.56230530730113
 40
53.12551373138332
 40
53.12551373138332
 40
53.68872215546555
 40
53.68872215546555
 40
54.25193057954776
 40
54.25193057954776
 40
54.81513900362998
 40
54.81513900362998
 40
55.44830128563085
 40
55.44830128563085
 40
56.08146356763175
 40
56.08146356763175
 40
56.84705170212724
 40
56.84705170212724
 40
57.16040881890615
 40
57.16040881890615
 40
57.16040881890615
 40
57.16040881890615
 10
827.2954586466529
 20
746.3214032846171
 30
0.0000000000000799
 10
827.227885583985
 20
746.4115145810552
 30
0.0000000000000799
 10
827.1563936362626
 20
746.500666003235
 30
0.0000000000000798
 10
826.8997126053346
 20
746.7982758049291
 30
0.0000000000000798
 10
826.6982960181639
 20
746.9924178584729
 30
0.0000000000000798
 10
826.3344763123495
 20
747.2840073192253
 30
0.0000000000000797
 10
826.1433027919936
 20
747.4149196559749
 30
0.0000000000000797
 10
825.7390219494325
 20
747.6356938948575
 30
0.0000000000000796
 10
825.5257887805237
 20
747.7253252689328
 30
0.0000000000000795
 10
825.1450993300085
 20
747.8441073975806
 30
0.0000000000000795
 10
824.9439981210308
 20
747.888598592626
 30
0.0000000000000794
 10
824.5370830326438
 20
747.9342161684687
 30
0.0000000000000794
 10
824.3312589637053
 20
747.9352516113491
 30
0.0000000000000793
 10
823.9572154663783
 20
747.9025270456681
 30
0.0000000000000793
 10
823.7546981302994
 20
747.8657663589999
 30
0.0000000000000792
 10
823.3618864053532
 20
747.7501817530726
 30
0.0000000000000791
 10
823.1715661905536
 20
747.6714456207852
 30
0.0000000000000791
 10
822.8172865683754
 20
747.488362030235
 30
0.000000000000079
 10
822.622857215204
 20
747.3630648069335
 30
0.000000000000079
 10
822.2630553513136
 20
747.0754419932397
 30
0.0000000000000789
 10
822.0975188750081
 20
746.9133215756163
 30
0.0000000000000789
 10
821.7898603865094
 20
746.5629853850563
 30
0.0000000000000789
 10
821.6252161836846
 20
746.3368171622265
 30
0.0000000000000788
 10
821.4241141140956
 20
745.9991565288835
 30
0.0000000000000788
 10
821.3691892716976
 20
745.8989450706893
 30
0.0000000000000788
 10
821.3182904581024
 20
745.7984688281309
 30
0.0000000000000788
  0
SPLINE
  5
1B9E
330
1F
100
AcDbEntity
  8
Hewi
100
AcDbSpline
210
0.0000000000000116
220
0.0000000000000062
230
1.0
 70
     8
 71
     3
 72
    14
 73
    10
 74
     0
 42
0.0000000001
 43
0.0000000001
 40
0.649611117407552
 40
0.649611117407552
 40
0.649611117407552
 40
0.649611117407552
 40
0.7333587369340008
 40
0.7333587369340008
 40
1.466717473868001
 40
1.466717473868001
 40
2.251649856864295
 40
2.251649856864295
 40
3.036582239860591
 40
3.036582239860591
 40
3.036582239860591
 40
3.036582239860591
 10
828.4326917414826
 20
744.2090614262516
 30
0.0000000000000801
 10
828.4258405154012
 20
744.2354507223131
 30
0.0000000000000801
 10
828.4186872324752
 20
744.2618344636273
 30
0.0000000000000801
 10
828.346037855641
 20
744.5189160787281
 30
0.0000000000000801
 10
828.2570702792272
 20
744.7470280993861
 30
0.00000000000008
 10
828.0553328633823
 20
745.1744251849586
 30
0.00000000000008
 10
827.9210681038758
 20
745.4127471424642
 30
0.00000000000008
 10
827.6193180888428
 20
745.8812858208768
 30
0.0000000000000799
 10
827.4524296466925
 20
746.1120763759587
 30
0.0000000000000799
 10
827.2954586466529
 20
746.3214032846171
 30
0.0000000000000799
  0
SPLINE
  5
1B9F
330
1F
100
AcDbEntity
  8
Hewi
100
AcDbSpline
210
0.0
220
0.0
230
1.0
 70
     8
 71
     3
 72
    20
 73
    16
 74
     0
 42
0.0000000001
 43
0.0000000001
 40
-2.081957642337048
 40
-2.081957642337048
 40
-2.081957642337048
 40
-2.081957642337048
 40
-2.029036545889133
 40
-2.029036545889133
 40
-1.976115449441223
 40
-1.976115449441223
 40
-1.938296586027501
 40
-1.938296586027501
 40
-1.900477722613779
 40
-1.900477722613779
 40
-1.79865290262327
 40
-1.79865290262327
 40
-1.696828082632761
 40
-1.696828082632761
 40
-1.658125044755919
 40
-1.658125044755919
 40
-1.658125044755919
 40
-1.658125044755919
 10
828.4946887897385
 20
744.0878532717686
 30
0.0000000000000801
 10
828.4958325938433
 20
744.0747795310342
 30
0.0000000000000801
 10
828.496798420544
 20
744.0613020960157
 30
0.0000000000000801
 10
828.4975006085087
 20
744.0388596914147
 30
0.0000000000000801
 10
828.4972127932578
 20
744.0299804028147
 30
0.0000000000000801
 10
828.4952753951156
 20
744.0219382083333
 30
0.0000000000000801
 10
828.4939268949464
 20
744.0204518433162
 30
0.0000000000000801
 10
828.4902372178649
 20
744.0228954327015
 30
0.0000000000000801
 10
828.4879033849284
 20
744.0267846722853
 30
0.0000000000000801
 10
828.4791852907655
 20
744.04561762052
 30
0.0000000000000801
 10
828.472161702979
 20
744.0674433459063
 30
0.0000000000000801
 10
828.457448114851
 20
744.1166672802572
 30
0.0000000000000801
 10
828.4497311671882
 20
744.1446003982471
 30
0.0000000000000801
 10
828.4387803876262
 20
744.1857393428684
 30
0.0000000000000801
 10
828.4357408981749
 20
744.1973167986855
 30
0.0000000000000801
 10
828.4326917414826
 20
744.2090614262516
 30
0.0000000000000801
  0
LINE
  5
1BA0
330
1F
100
AcDbEntity
  8
Hewi
100
AcDbLine
 10
825.5898598865005
 20
777.2901995663476
 30
0.0000000000000796
 11
828.4946887897385
 21
744.0878532717686
 31
0.0000000000000801
210
0.0
220
1.0
230
0.0
  0
LINE
  5
1BA1
330
1F
100
AcDbEntity
  8
Hewi
100
AcDbLine
 10
829.2906131380105
 20
744.2875952815089
 30
0.0000000000000802
 11
831.5051530112613
 21
718.9752887037027
 31
0.0000000000000806
210
0.0
220
1.0
230
0.0
  0
LINE
  5
1BA2
330
1F
100
AcDbEntity
  8
Hewi
100
AcDbLine
 10
819.7066139000208
 20
743.4491039969441
 30
0.0000000000000785
 11
821.9211537732716
 21
718.1367974191375
 31
0.0000000000000789
210
0.0
220
1.0
230
0.0
  0
SPLINE
  5
1BA3
330
1F
100
AcDbEntity
  8
Hewi
100
AcDbSpline
210
0.0000000000000027
220
0.0000000000000028
230
1.0
 70
     8
 71
     3
 72
    46
 73
    42
 74
     0
 42
0.0000000001
 43
0.0000000001
 40
-26.25009051702358
 40
-26.25009051702358
 40
-26.25009051702358
 40
-26.25009051702358
 40
-25.19226716828405
 40
-25.19226716828405
 40
-24.06297385938894
 40
-24.06297385938894
 40
-22.97039393615168
 40
-22.97039393615168
 40
-21.87781401291442
 40
-21.87781401291442
 40
-20.78523408967716
 40
-20.78523408967716
 40
-19.6926541664399
 40
-19.6926541664399
 40
-18.59462246291696
 40
-18.59462246291696
 40
-17.49659075939401
 40
-17.49659075939401
 40
-16.39855905587109
 40
-16.39855905587109
 40
-15.30052735234815
 40
-15.30052735234815
 40
-14.20249564882519
 40
-14.20249564882519
 40
-13.10446394530224
 40
-13.10446394530224
 40
-12.00643224177928
 40
-12.00643224177928
 40
-10.90840053825633
 40
-10.90840053825633
 40
-9.815820615019132
 40
-9.815820615019132
 40
-8.723240691781931
 40
-8.723240691781931
 40
-7.630660768544732
 40
-7.630660768544732
 40
-6.538080845307532
 40
-6.538080845307532
 40
-5.408787536412319
 40
-5.408787536412319
 40
-4.350964187672493
 40
-4.350964187672493
 40
-4.350964187672493
 40
-4.350964187672493
 10
814.1411777500859
 20
777.3091403308847
 30
0.0000000000000775
 10
813.9699086562995
 20
777.3606145920203
 30
0.0000000000000774
 10
813.7781768625528
 20
777.4207747669086
 30
0.0000000000000774
 10
813.3546138364009
 20
777.5619453550596
 30
0.0000000000000773
 10
813.1210100125889
 20
777.6441438514399
 30
0.0000000000000773
 10
812.6550880104524
 20
777.8185954703316
 30
0.0000000000000772
 10
812.4025959798689
 20
777.9179522670227
 30
0.0000000000000771
 10
811.862929969051
 20
778.1452931061143
 30
0.000000000000077
 10
811.5757888937688
 20
778.273330410175
 30
0.000000000000077
 10
810.9831734517356
 20
778.5562949587348
 30
0.0000000000000769
 10
810.6775681565206
 20
778.7113472573579
 30
0.0000000000000768
 10
810.0667119928656
 20
779.0421997920153
 30
0.0000000000000767
 10
809.7614812096534
 20
779.2180361651593
 30
0.0000000000000766
 10
809.1702091408532
 20
779.5794452970515
 30
0.0000000000000765
 10
808.8577939882089
 20
779.7811677189753
 30
0.0000000000000765
 10
808.2203900656358
 20
780.2209526885556
 30
0.0000000000000764
 10
807.8954254382761
 20
780.4590613288756
 30
0.0000000000000763
 10
807.2524826601775
 20
780.9620406574201
 30
0.0000000000000762
 10
806.9342773012367
 20
781.2271275324595
 30
0.0000000000000761
 10
806.3224400754544
 20
781.7696329886407
 30
0.000000000000076
 10
806.0288086151704
 20
782.0470515183699
 30
0.000000000000076
 10
805.4812847487065
 20
782.5945753848333
 30
0.0000000000000759
 10
805.2038662189771
 20
782.8882068451182
 30
0.0000000000000758
 10
804.6613607627959
 20
783.5000440709007
 30
0.0000000000000757
 10
804.3962738877562
 20
783.8182494298409
 30
0.0000000000000757
 10
803.8932945592122
 20
784.4611922079394
 30
0.0000000000000756
 10
803.6551859188922
 20
784.7861568352989
 30
0.0000000000000755
 10
803.2154009493115
 20
785.4235607578723
 30
0.0000000000000754
 10
803.013678527388
 20
785.7359759105167
 30
0.0000000000000754
 10
802.6522693954957
 20
786.3272479793175
 30
0.0000000000000753
 10
802.4764330223524
 20
786.6324787625297
 30
0.0000000000000753
 10
802.145580487695
 20
787.2433349261844
 30
0.0000000000000752
 10
801.9905281890713
 20
787.5489402213989
 30
0.0000000000000752
 10
801.7075636405115
 20
788.1415556634326
 30
0.0000000000000752
 10
801.5795263364507
 20
788.4286967387143
 30
0.0000000000000751
 10
801.3521854973596
 20
788.9683627495327
 30
0.0000000000000751
 10
801.2528287006681
 20
789.2208547801159
 30
0.0000000000000751
 10
801.078377081777
 20
789.6867767822522
 30
0.0000000000000751
 10
800.9961785853965
 20
789.9203806060636
 30
0.000000000000075
 10
800.8550079972447
 20
790.3439436322162
 30
0.000000000000075
 10
800.7948478223569
 20
790.5356754259627
 30
0.000000000000075
 10
800.7433735612211
 20
790.7069445197492
 30
0.000000000000075
  0
SPLINE
  5
1BA4
330
1F
100
AcDbEntity
  8
Hewi
100
AcDbSpline
210
-0.0000000000000025
220
-0.0000000000000026
230
-1.0
 70
     8
 71
     3
 72
    38
 73
    34
 74
     0
 42
0.0000000001
 43
0.0000000001
 40
7.989195374219312
 40
7.989195374219312
 40
7.989195374219312
 40
7.989195374219312
 40
8.254479951649056
 40
8.254479951649056
 40
9.559037833637082
 40
9.559037833637082
 40
10.8635957156251
 40
10.8635957156251
 40
12.16815359761313
 40
12.16815359761313
 40
13.47206133512371
 40
13.47206133512371
 40
14.77596907263429
 40
14.77596907263429
 40
16.07987681014486
 40
16.07987681014486
 40
17.38378454765544
 40
17.38378454765544
 40
18.68769228516606
 40
18.68769228516606
 40
19.99160002267668
 40
19.99160002267668
 40
21.29550776018729
 40
21.29550776018729
 40
22.59941549769791
 40
22.59941549769791
 40
23.90397337968593
 40
23.90397337968593
 40
25.20853126167392
 40
25.20853126167392
 40
26.51308914366193
 40
26.51308914366193
 40
26.77837372109179
 40
26.77837372109179
 40
26.77837372109179
 40
26.77837372109179
 10
825.653207591522
 20
815.6167516512557
 30
0.0000000000000796
 10
825.7172779741457
 20
815.5974976806968
 30
0.0000000000000796
 10
825.7825413376721
 20
815.5775347551394
 30
0.0000000000000796
 10
826.1754400844148
 20
815.4550643305336
 30
0.0000000000000797
 10
826.5292426107826
 20
815.3354696242736
 30
0.0000000000000797
 10
827.2697874654586
 20
815.0586730171083
 30
0.0000000000000799
 10
827.6567153340772
 20
814.9012940933678
 30
0.0000000000000799
 10
828.4378531791542
 20
814.5527213473613
 30
0.0000000000000801
 10
828.8320341467006
 20
814.3614509343111
 30
0.0000000000000801
 10
829.5990356727251
 20
813.9575711111659
 30
0.0000000000000803
 10
830.0049548330317
 20
813.7276811433425
 30
0.0000000000000804
 10
830.8347636966217
 20
813.2142878923152
 30
0.0000000000000805
 10
831.2586115545636
 20
812.9306994816504
 30
0.0000000000000806
 10
832.0966836774013
 20
812.3198417187071
 30
0.0000000000000807
 10
832.5113085646989
 20
811.992203342382
 30
0.0000000000000808
 10
833.3062472709734
 20
811.311211469488
 30
0.000000000000081
 10
833.6865545664695
 20
810.9578480619941
 30
0.000000000000081
 10
834.3920812923306
 20
810.252321336133
 30
0.0000000000000812
 10
834.7454446998245
 20
809.8720140406365
 30
0.0000000000000812
 10
835.4264365727186
 20
809.0770753343623
 30
0.0000000000000814
 10
835.7540749490436
 20
808.6624504470647
 30
0.0000000000000814
 10
836.3649327119873
 20
807.8243783242267
 30
0.0000000000000815
 10
836.6485211226518
 20
807.4005304662852
 30
0.0000000000000816
 10
837.1619143736788
 20
806.570721602695
 30
0.0000000000000817
 10
837.3918043415024
 20
806.1648024423885
 30
0.0000000000000817
 10
837.7956841646474
 20
805.3978009163641
 30
0.0000000000000818
 10
837.9869545776982
 20
805.0036199488179
 30
0.0000000000000818
 10
838.3355273237047
 20
804.2224821037407
 30
0.0000000000000819
 10
838.4929062474448
 20
803.835554235122
 30
0.0000000000000819
 10
838.7697028546106
 20
803.0950093804465
 30
0.000000000000082
 10
838.8892975608696
 20
802.741206854078
 30
0.000000000000082
 10
839.0117679854757
 20
802.3483081073361
 30
0.000000000000082
 10
839.0317309110333
 20
802.2830447438096
 30
0.000000000000082
 10
839.0509848815927
 20
802.218974361185
 30
0.000000000000082
  0
ARC
  5
1BA5
330
1F
100
AcDbEntity
  8
Hewi
100
AcDbCircle
 10
819.8971821179352
 20
796.46294967888
 30
0.0000000000000715
 40
19.99999944047946
100
AcDbArc
 50
79.55669986848824
 51
196.726306894444
  0
ARC
  5
1BA6
330
1F
100
AcDbEntity
  8
Hewi
100
AcDbCircle
 10
819.8971823056691
 20
796.4629490753325
 30
0.0000000000000785
 40
20.0
100
AcDbArc
 50
259.5567007107984
 51
10.4432992891752
  0
ARC
  5
1BA7
330
1F
100
AcDbEntity
  8
Hewi
100
AcDbCircle
 10
819.8971823056691
 20
796.4629490753325
 30
0.0000000000000785
 40
20.0
100
AcDbArc
 50
253.2737136313603
 51
259.5567007107984
  0
ARC
  5
1BA8
330
1F
100
AcDbEntity
  8
Hewi
100
AcDbCircle
 10
939.6854010542528
 20
741.1928608807072
 30
0.0000000000001005
 40
120.0000000000005
100
AcDbArc
 50
175.9776914801458
 51
178.9226597831304
  0
ARC
  5
1BA9
330
1F
100
AcDbEntity
  8
Hewi
100
AcDbCircle
 10
939.6854010542528
 20
741.1928608807072
 30
0.0000000000001005
 40
120.0000000000005
100
AcDbArc
 50
191.0773402168489
 51
194.1768749669893
  0
LINE
  5
1BAB
330
1F
100
AcDbEntity
  8
Hewi
  6
Continuous
100
AcDbLine
 10
378.1159550160037
 20
227.9776761502303
 30
0.0
 11
378.1159550160037
 21
263.6159366471789
 31
0.0
  0
LINE
  5
1BAC
330
1F
100
AcDbEntity
  8
Hewi
  6
Continuous
100
AcDbLine
 10
360.1159550160037
 20
263.6156143152856
 30
0.0
 11
360.1159550160037
 21
227.6195642778175
 31
0.0
  0
LINE
  5
1BAD
330
1F
100
AcDbEntity
  8
Hewi
  6
Continuous
100
AcDbLine
 10
409.1159550160035
 20
265.6161658872679
 30
0.0
 11
409.1159550160035
 21
276.6161658872679
 31
0.0
  0
LINE
  5
1BAE
330
1F
100
AcDbEntity
  8
Hewi
  6
Continuous
100
AcDbLine
 10
329.1159550160037
 20
276.6161658872679
 30
0.0
 11
329.1159550160037
 21
265.6161658872679
 31
0.0
  0
LINE
  5
1BAF
330
1F
100
AcDbEntity
  8
Hewi
  6
Continuous
100
AcDbLine
 10
329.1159550160037
 20
276.6161658872679
 30
0.0
 11
409.1159550160035
 21
276.6161658872679
 31
0.0
  0
LINE
  5
1BB0
330
1F
100
AcDbEntity
  8
Hewi
  6
Continuous
100
AcDbLine
 10
331.1159550160037
 20
263.6161658872679
 30
0.0
 11
407.1159550160037
 21
263.6161658872679
 31
0.0
  0
ARC
  5
1BB1
330
1F
100
AcDbEntity
  8
Hewi
  6
Continuous
100
AcDbCircle
 10
407.1159550160037
 20
265.6161658872679
 30
0.0
 40
2.0
100
AcDbArc
 50
270.0
 51
0.0
  0
ARC
  5
1BB2
330
1F
100
AcDbEntity
  8
Hewi
  6
Continuous
100
AcDbCircle
 10
331.1159550160037
 20
265.6161658872679
 30
0.0
 40
2.0
100
AcDbArc
 50
180.0
 51
270.0
  0
CIRCLE
  5
1BB3
330
1F
100
AcDbEntity
  8
Hewi
100
AcDbCircle
 10
369.1159550160037
 20
203.1668089189407
 30
0.0
 40
16.5
  0
LINE
  5
1BB4
330
1F
100
AcDbEntity
  8
Hewi
100
AcDbLine
 10
393.6159550160038
 20
140.6668089189414
 30
0.0
 11
387.1159550160037
 21
140.6668089189414
 31
0.0
  0
LINE
  5
1BB5
330
1F
100
AcDbEntity
  8
Hewi
100
AcDbLine
 10
387.1159550160037
 20
169.3846068060415
 30
0.0
 11
393.8159550160035
 21
169.3846068060415
 31
0.0
  0
ARC
  5
1BB6
330
1F
100
AcDbEntity
  8
Hewi
100
AcDbCircle
 10
369.6159550160037
 20
202.6668089189406
 30
0.0
 40
26.69999999999936
100
AcDbArc
 50
0.0
 51
110.8428039567438
  0
ARC
  5
1BB7
330
1F
100
AcDbEntity
  8
Hewi
100
AcDbCircle
 10
312.2659550160051
 20
179.6668089189416
 30
0.0
 40
0.9999999999999998
100
AcDbArc
 50
90.0
 51
180.0
  0
SPLINE
  5
1BB8
330
1F
100
AcDbEntity
  8
Hewi
100
AcDbSpline
210
0.0
220
0.0
230
1.0
 70
     8
 71
     3
 72
    10
 73
     6
 74
     0
 42
0.0000000001
 43
0.0000000001
 40
1.86139545575616
 40
1.86139545575616
 40
1.86139545575616
 40
1.86139545575616
 40
3.074047116240881
 40
3.074047116240881
 40
4.714235913710636
 40
4.714235913710636
 40
4.714235913710636
 40
4.714235913710636
 10
313.8878168640995
 20
154.7940806353099
 30
0.0
 10
313.6204900862085
 20
155.084778817555
 30
0.0
 10
313.3550654092014
 20
155.3790142558578
 30
0.0
 10
312.7358562909539
 20
156.0791492000958
 30
0.0
 10
312.3835785959536
 20
156.4882220394142
 30
0.0
 10
312.03595350867
 20
156.9033278400338
 30
0.0
  0
SPLINE
  5
1BB9
330
1F
100
AcDbEntity
  8
Hewi
100
AcDbSpline
210
0.0
220
0.0
230
1.0
 70
     8
 71
     3
 72
    22
 73
    18
 74
     0
 42
0.0000000001
 43
0.0000000001
 40
0.0
 40
0.0
 40
0.0
 40
0.0
 40
0.1010342156325368
 40
0.1010342156325368
 40
0.3279516765630044
 40
0.3279516765630044
 40
0.5175559881790206
 40
0.5175559881790206
 40
0.7979184818379858
 40
0.7979184818379858
 40
1.199996365120317
 40
1.199996365120317
 40
1.322552189555461
 40
1.322552189555461
 40
1.603510848517379
 40
1.603510848517379
 40
2.026822376410208
 40
2.026822376410208
 40
2.026822376410208
 40
2.026822376410208
 10
312.0359535625557
 20
156.903327899658
 30
0.0
 10
312.0145063621913
 20
156.9289384050043
 30
0.0
 10
311.9933841386119
 20
156.9549681668113
 30
0.0
 10
311.9259533616451
 20
157.0405464193873
 30
0.0
 10
311.8809178826032
 20
157.1016161066664
 30
0.0
 10
311.8017069939424
 20
157.2156573239754
 30
0.0
 10
311.7668556297894
 20
157.2684670574721
 30
0.0
 10
311.683833280681
 20
157.4006482385589
 30
0.0
 10
311.6370439322809
 20
157.4809920951325
 30
0.0
 10
311.5311080606716
 20
157.6776497336259
 30
0.0
 10
311.4748265471107
 20
157.7954673845834
 30
0.0
 10
311.4121936333831
 20
157.9480653387177
 30
0.0
 10
311.3983053450074
 20
157.9837062617166
 30
0.0
 10
311.3553059662063
 20
158.1007766018992
 30
0.0
 10
311.3296108415534
 20
158.181987669539
 30
0.0
 10
311.2794073273253
 20
158.3830283572688
 30
0.0
 10
311.2659550160052
 20
158.4865160297504
 30
0.0
 10
311.2659550160052
 20
158.5750489169004
 30
0.0
  0
SPLINE
  5
1BBA
330
1F
100
AcDbEntity
  8
Hewi
100
AcDbSpline
210
0.0
220
0.0
230
1.0
 70
     8
 71
     3
 72
    16
 73
    12
 74
     0
 42
0.0000000001
 43
0.0000000001
 40
0.2153933378818875
 40
0.2153933378818875
 40
0.2153933378818875
 40
0.2153933378818875
 40
0.4400106383128409
 40
0.4400106383128409
 40
0.7443622166473654
 40
0.7443622166473654
 40
0.7898558523517304
 40
0.7898558523517304
 40
0.8400475890234059
 40
0.8400475890234059
 40
0.9391014517164848
 40
0.9391014517164848
 40
0.9391014517164848
 40
0.9391014517164848
 10
314.9351974124584
 20
154.1986082507856
 30
0.0
 10
314.8255704359681
 20
154.1985872374407
 30
0.0
 10
314.7154204307326
 20
154.2261826814156
 30
0.0
 10
314.4706795679031
 20
154.3231417789616
 30
0.0
 10
314.3208924771179
 20
154.4117166792898
 30
0.0
 10
314.14653053027
 20
154.5500173061182
 30
0.0
 10
314.123980132098
 20
154.5685966710657
 30
0.0
 10
314.0768986939684
 20
154.6088673947693
 30
0.0
 10
314.052388784784
 20
154.6306946598665
 30
0.0
 10
313.9802606028434
 20
154.6975776040262
 30
0.0
 10
313.9332765854661
 20
154.7446466028323
 30
0.0
 10
313.8878171005381
 20
154.794080992076
 30
0.0
  0
ARC
  5
1BBB
330
1F
100
AcDbEntity
  8
Hewi
100
AcDbCircle
 10
312.2659550160051
 20
141.6668089189415
 30
0.0
 40
0.9999999999999998
100
AcDbArc
 50
180.0
 51
270.0
  0
SPLINE
  5
1BBC
330
1F
100
AcDbEntity
  8
Hewi
100
AcDbSpline
210
0.0
220
0.0
230
1.0
 70
     8
 71
     3
 72
    22
 73
    18
 74
     0
 42
0.0000000001
 43
0.0000000001
 40
3.061871436955371
 40
3.061871436955371
 40
3.061871436955371
 40
3.061871436955371
 40
3.560368615882661
 40
3.560368615882661
 40
7.493792974690866
 40
7.493792974690866
 40
12.10816926551457
 40
12.10816926551457
 40
16.79563105604579
 40
16.79563105604579
 40
20.70282533587922
 40
20.70282533587922
 40
24.42008836558175
 40
24.42008836558175
 40
27.33511547717966
 40
27.33511547717966
 40
28.43964690264884
 40
28.43964690264884
 40
28.43964690264884
 40
28.43964690264884
 10
334.5488750539298
 20
147.0112062353687
 30
0.0
 10
334.5430881170441
 20
147.1275558220277
 30
0.0
 10
334.53367142968
 20
147.2457096461944
 30
0.0
 10
334.4173092226192
 20
148.3119709682251
 30
0.0
 10
334.0889024969556
 20
149.3264417667719
 30
0.0
 10
332.9401161378237
 20
151.5436306824176
 30
0.0
 10
332.0588568625217
 20
152.7200756953807
 30
0.0
 10
329.8967436788198
 20
154.8019102919852
 30
0.0
 10
328.6041595549814
 20
155.7073153440046
 30
0.0
 10
325.9842072518677
 20
156.8261494896719
 30
0.0
 10
324.718996917537
 20
157.1193132514263
 30
0.0
 10
322.1766778113924
 20
157.1600050019533
 30
0.0
 10
320.9642643951638
 20
156.9325556796348
 30
0.0
 10
318.9029485272304
 20
156.158885091952
 30
0.0
 10
318.0473381479496
 20
155.698283263513
 30
0.0
 10
316.9598454796469
 20
154.9490874030275
 30
0.0
 10
316.6703883381607
 20
154.7312167987302
 30
0.0
 10
316.3911675020618
 20
154.5032150444904
 30
0.0
  0
SPLINE
  5
1BBD
330
1F
100
AcDbEntity
  8
Hewi
100
AcDbSpline
210
0.0
220
0.0
230
1.0
 70
     8
 71
     3
 72
    14
 73
    10
 74
     0
 42
0.0000000001
 43
0.0000000001
 40
0.0
 40
0.0
 40
0.0
 40
0.0
 40
0.1027022129701241
 40
0.1027022129701241
 40
0.7279570392031931
 40
0.7279570392031931
 40
0.878711546942449
 40
0.878711546942449
 40
1.007573759621968
 40
1.007573759621968
 40
1.007573759621968
 40
1.007573759621968
 10
316.2341916517444
 20
154.400219328887
 30
0.0
 10
316.2071789328284
 20
154.3864589578825
 30
0.0
 10
316.1802630425982
 20
154.3731976729295
 30
0.0
 10
315.9903458236158
 20
154.283091064251
 30
0.0
 10
315.8537335145465
 20
154.2362978788474
 30
0.0
 10
315.7109807396355
 20
154.2088071734128
 30
0.0
 10
315.6832944325233
 20
154.2046670589706
 30
0.0
 10
315.6322535933168
 20
154.1997307797928
 30
0.0
 10
315.6095913258178
 20
154.1985826218524
 30
0.0
 10
315.5877021127462
 20
154.19856612396
 30
0.0
  0
SPLINE
  5
1BBE
330
1F
100
AcDbEntity
  8
Hewi
100
AcDbSpline
210
0.0
220
0.0
230
1.0
 70
     8
 71
     3
 72
    20
 73
    16
 74
     0
 42
0.0000000001
 43
0.0000000001
 40
0.1476977204276086
 40
0.1476977204276086
 40
0.1476977204276086
 40
0.1476977204276086
 40
0.2758370288594389
 40
0.2758370288594389
 40
0.293331138459643
 40
0.293331138459643
 40
0.301426564545421
 40
0.301426564545421
 40
0.3203753852087088
 40
0.3203753852087088
 40
0.3465415963585574
 40
0.3465415963585574
 40
0.3510419892013851
 40
0.3510419892013851
 40
0.3544686228257871
 40
0.3544686228257871
 40
0.3544686228257871
 40
0.3544686228257871
 10
316.3911824072438
 20
154.5031846940437
 30
0.0
 10
316.3612222439042
 20
154.4787186194194
 30
0.0
 10
316.3298907975705
 20
154.4561309390928
 30
0.0
 10
316.2923168213583
 20
154.4327709588469
 30
0.0
 10
316.2877742083701
 20
154.4300048147706
 30
0.0
 10
316.2810863674303
 20
154.4260178475874
 30
0.0
 10
316.2789643624202
 20
154.4247652432086
 30
0.0
 10
316.271854402803
 20
154.4206099406719
 30
0.0
 10
316.2668383785267
 20
154.4177465224525
 30
0.0
 10
316.2548134696363
 20
154.4110452774234
 30
0.0
 10
316.2477735010217
 20
154.4072518795801
 30
0.0
 10
316.2394456556094
 20
154.4029178804176
 30
0.0
 10
316.2382215752432
 20
154.4022846758903
 30
0.0
 10
316.2360620420441
 20
154.401174333846
 30
0.0
 10
316.2351274118564
 20
154.4006960082747
 30
0.0
 10
316.234191651728
 20
154.4002193288788
 30
0.0
  0
LINE
  5
1BBF
330
1F
100
AcDbEntity
  8
Hewi
100
AcDbLine
 10
336.7659550160051
 20
178.0668089189416
 30
0.0
 11
336.9159550160039
 21
178.0668089189416
 31
0.0
  0
LINE
  5
1BC0
330
1F
100
AcDbEntity
  8
Hewi
100
AcDbLine
 10
336.7659550160051
 20
143.2668089189415
 30
0.0
 11
336.9159550160039
 21
143.2668089189415
 31
0.0
  0
LINE
  5
1BC1
330
1F
100
AcDbEntity
  8
Hewi
100
AcDbLine
 10
314.9351938315476
 20
154.198610383421
 30
0.0
 11
315.5877689534891
 21
154.198610383421
 31
0.0
  0
LINE
  5
1BC2
330
1F
100
AcDbEntity
  8
Hewi
100
AcDbLine
 10
312.2659550160051
 20
180.6668089189416
 30
0.0
 11
336.7659550160051
 21
180.6668089189416
 31
0.0
  0
LINE
  5
1BC3
330
1F
100
AcDbEntity
  8
Hewi
100
AcDbLine
 10
312.2659550160051
 20
140.6668089189414
 30
0.0
 11
336.7659550160051
 21
140.6668089189414
 31
0.0
  0
LINE
  5
1BC4
330
1F
100
AcDbEntity
  8
Hewi
100
AcDbLine
 10
387.1159550160037
 20
140.6667863746142
 30
0.0
 11
352.1159550160037
 21
140.6667863746142
 31
0.0
  0
LINE
  5
1BC5
330
1F
100
AcDbEntity
  8
Hewi
100
AcDbLine
 10
352.1159550160037
 20
140.6668089189414
 30
0.0
 11
345.6159550160037
 21
140.6668089189414
 31
0.0
  0
LINE
  5
1BC6
330
1F
100
AcDbEntity
  8
Hewi
100
AcDbLine
 10
345.4159550160039
 20
140.6668089189397
 30
0.0
 11
336.9159550160039
 21
140.6668089189397
 31
0.0
  0
LINE
  5
1BC7
330
1F
100
AcDbEntity
  8
Hewi
100
AcDbLine
 10
342.9159550160048
 20
180.6668089189397
 30
0.0
 11
336.9159550160039
 21
180.6668089189397
 31
0.0
  0
LINE
  5
1BC8
330
1F
100
AcDbEntity
  8
Hewi
100
AcDbLine
 10
345.4159550160039
 20
168.6668089189406
 30
0.0
 11
345.6159550160037
 21
168.6668089189406
 31
0.0
  0
LINE
  5
1BC9
330
1F
100
AcDbEntity
  8
Hewi
100
AcDbLine
 10
345.4159550160039
 20
152.6668089189415
 30
0.0
 11
345.6159550160037
 21
152.6668089189415
 31
0.0
  0
LINE
  5
1BCA
330
1F
100
AcDbEntity
  8
Hewi
100
AcDbLine
 10
345.6159550160037
 20
164.9094496060611
 30
0.0
 11
345.4159550160039
 21
164.9094496060611
 31
0.0
  0
LINE
  5
1BCB
330
1F
100
AcDbEntity
  8
Hewi
100
AcDbLine
 10
345.6159550160037
 20
162.7373612797614
 30
0.0
 11
345.4159550160039
 21
162.7373612797614
 31
0.0
  0
LINE
  5
1BCC
330
1F
100
AcDbEntity
  8
Hewi
100
AcDbLine
 10
345.4159550160039
 20
166.3236631684334
 30
0.0
 11
345.6159550160037
 21
166.3236631684334
 31
0.0
  0
LINE
  5
1BCD
330
1F
100
AcDbEntity
  8
Hewi
100
AcDbLine
 10
344.9159550160048
 20
169.3846068060415
 30
0.0
 11
345.4159550160039
 21
169.3846068060415
 31
0.0
  0
SPLINE
  5
1BCE
330
1F
100
AcDbEntity
  8
Hewi
100
AcDbSpline
210
0.0
220
0.0
230
1.0
 70
     8
 71
     3
 72
    18
 73
    14
 74
     0
 42
0.0000000001
 43
0.0000000001
 40
-4.49455063240396
 40
-4.49455063240396
 40
-4.49455063240396
 40
-4.49455063240396
 40
-3.042993563053926
 40
-3.042993563053926
 40
-2.317215028378913
 40
-2.317215028378913
 40
-1.591436493703898
 40
-1.591436493703898
 40
-0.7957182468519495
 40
-0.7957182468519495
 40
-0.3978591234259738
 40
-0.3978591234259738
 40
0.0
 40
0.0
 40
0.0
 40
0.0
 10
342.9159550160048
 20
172.6668089189511
 30
0.0
 10
342.9159550160048
 20
172.2797270337914
 30
0.0
 10
342.9811953280359
 20
171.8489620469117
 30
0.0
 10
343.1761128491153
 20
171.2089824584545
 30
0.0
 10
343.2568733534144
 20
170.9967881838265
 30
0.0
 10
343.4484071173729
 20
170.5879173567909
 30
0.0
 10
343.559024801938
 20
170.3911913812721
 30
0.0
 10
343.8235030296983
 20
170.0108852916814
 30
0.0
 10
343.9987588418944
 20
169.8051867681256
 30
0.0
 10
344.3092632441075
 20
169.570532795185
 30
0.0
 10
344.4205873344637
 20
169.50465505298
 30
0.0
 10
344.6576409820136
 20
169.4117211162051
 30
0.0
 10
344.783335308196
 20
169.3846068060388
 30
0.0
 10
344.9159550160048
 20
169.3846068060388
 30
0.0
  0
LINE
  5
1BCF
330
1F
100
AcDbEntity
  8
Hewi
100
AcDbLine
 10
345.4159550160039
 20
140.6668089189397
 30
0.0
 11
345.4159550160039
 21
169.3846068060415
 31
0.0
  0
LINE
  5
1BD0
330
1F
100
AcDbEntity
  8
Hewi
100
AcDbLine
 10
336.9159550160039
 20
180.6668089189397
 30
0.0
 11
336.9159550160039
 21
140.6668089189397
 31
0.0
  0
LINE
  5
1BD1
330
1F
100
AcDbEntity
  8
Hewi
100
AcDbLine
 10
345.4159550160039
 20
169.3846068060415
 30
0.0
 11
352.1159550160037
 21
169.3846068060415
 31
0.0
  0
LINE
  5
1BD2
330
1F
100
AcDbEntity
  8
Hewi
100
AcDbLine
 10
342.9159550160048
 20
202.6668089189406
 30
0.0
 11
342.9159550160048
 21
172.6668089189511
 31
0.0
  0
ARC
  5
1BD3
330
1F
100
AcDbEntity
  8
Hewi
100
AcDbCircle
 10
369.6159550160037
 20
202.6668089189406
 30
0.0
 40
26.69999999999936
100
AcDbArc
 50
110.8428039567438
 51
180.0
  0
LINE
  5
1BD4
330
1F
100
AcDbEntity
  8
Hewi
100
AcDbLine
 10
345.6159550160037
 20
169.3846068060552
 30
0.0
 11
345.6159550160037
 21
140.6668089189414
 31
0.0
  0
LINE
  5
1BD5
330
1F
100
AcDbEntity
  8
Hewi
100
AcDbLine
 10
352.1159550160037
 20
169.3846585261766
 30
0.0
 11
352.1159550160037
 21
140.6667863746142
 31
0.0
  0
LINE
  5
1BD6
330
1F
100
AcDbEntity
  8
Hewi
100
AcDbLine
 10
387.1159550160037
 20
140.6667863746142
 30
0.0
 11
387.1159550160037
 21
169.3846585261766
 31
0.0
  0
LINE
  5
1BD7
330
1F
100
AcDbEntity
  8
Hewi
100
AcDbLine
 10
336.7659550160051
 20
180.6668089189416
 30
0.0
 11
336.7659550160051
 21
146.52467329521
 31
0.0
  0
LINE
  5
1BD8
330
1F
100
AcDbEntity
  8
Hewi
100
AcDbLine
 10
336.7659550160051
 20
146.5246732952105
 30
0.0
 11
336.7659550160051
 21
140.6668089189414
 31
0.0
  0
LINE
  5
1BD9
330
1F
100
AcDbEntity
  8
Hewi
100
AcDbLine
 10
311.2659550160052
 20
158.5750489169004
 30
0.0
 11
311.2659550160052
 21
141.7823036277282
 31
0.0
  0
LINE
  5
1BDA
330
1F
100
AcDbEntity
  8
Hewi
100
AcDbLine
 10
311.2659550160052
 20
141.7823036277282
 30
0.0
 11
311.2659550160052
 21
141.6668089189415
 31
0.0
  0
LINE
  5
1BDB
330
1F
100
AcDbEntity
  8
Hewi
100
AcDbLine
 10
311.2659550160052
 20
179.6668089189416
 30
0.0
 11
311.2659550160052
 21
158.5750489169004
 31
0.0
  0
ARC
  5
1BDC
330
1F
100
AcDbEntity
  8
Hewi
100
AcDbCircle
 10
402.465955016004
 20
142.6668089189415
 30
0.0
 40
1.999999999999999
100
AcDbArc
 50
270.0
 51
0.0
  0
ARC
  5
1BDD
330
1F
100
AcDbEntity
  8
Hewi
100
AcDbCircle
 10
402.465955016004
 20
178.6668089189411
 30
0.0
 40
1.999999999999999
100
AcDbArc
 50
0.0
 51
90.0
  0
LINE
  5
1BDE
330
1F
100
AcDbEntity
  8
Hewi
100
AcDbLine
 10
402.3159550160035
 20
140.6668089189397
 30
0.0
 11
393.8159550160035
 21
140.6668089189397
 31
0.0
  0
LINE
  5
1BDF
330
1F
100
AcDbEntity
  8
Hewi
100
AcDbLine
 10
402.3159550160035
 20
180.6668089189397
 30
0.0
 11
396.3159550160026
 21
180.6668089189397
 31
0.0
  0
LINE
  5
1BE0
330
1F
100
AcDbEntity
  8
Hewi
100
AcDbLine
 10
402.3159550160035
 20
178.0668089189412
 30
0.0
 11
402.465955016004
 21
178.0668089189412
 31
0.0
  0
LINE
  5
1BE1
330
1F
100
AcDbEntity
  8
Hewi
100
AcDbLine
 10
402.3159550160035
 20
143.266808918941
 30
0.0
 11
402.465955016004
 21
143.266808918941
 31
0.0
  0
LINE
  5
1BE2
330
1F
100
AcDbEntity
  8
Hewi
100
AcDbLine
 10
393.6159550160038
 20
168.6668089189406
 30
0.0
 11
393.8159550160035
 21
168.6668089189406
 31
0.0
  0
LINE
  5
1BE3
330
1F
100
AcDbEntity
  8
Hewi
100
AcDbLine
 10
393.6159550160038
 20
152.6668089189415
 30
0.0
 11
393.8159550160035
 21
152.6668089189415
 31
0.0
  0
LINE
  5
1BE4
330
1F
100
AcDbEntity
  8
Hewi
100
AcDbLine
 10
402.465955016004
 20
180.6668089189411
 30
0.0
 11
402.465955016004
 21
174.8089445426721
 31
0.0
  0
LINE
  5
1BE5
330
1F
100
AcDbEntity
  8
Hewi
100
AcDbLine
 10
402.465955016004
 20
174.8089445426721
 30
0.0
 11
402.465955016004
 21
140.6668089189414
 31
0.0
  0
LINE
  5
1BE6
330
1F
100
AcDbEntity
  8
Hewi
100
AcDbLine
 10
404.465955016004
 20
178.6668089189411
 30
0.0
 11
404.465955016004
 21
173.3947309802988
 31
0.0
  0
LINE
  5
1BE7
330
1F
100
AcDbEntity
  8
Hewi
100
AcDbLine
 10
404.465955016004
 20
173.3947309802993
 30
0.0
 11
404.465955016004
 21
142.6668089189415
 31
0.0
  0
LINE
  5
1BE8
330
1F
100
AcDbEntity
  8
Hewi
100
AcDbLine
 10
393.8159550160035
 20
169.3846068060415
 30
0.0
 11
394.3159550160027
 21
169.3846068060415
 31
0.0
  0
LINE
  5
1BE9
330
1F
100
AcDbEntity
  8
Hewi
100
AcDbLine
 10
393.8159550160035
 20
140.6668089189397
 30
0.0
 11
393.8159550160035
 21
169.3846068060415
 31
0.0
  0
SPLINE
  5
1BEA
330
1F
100
AcDbEntity
  8
Hewi
100
AcDbSpline
210
0.0
220
0.0
230
1.0
 70
     8
 71
     3
 72
    18
 73
    14
 74
     0
 42
0.0000000001
 43
0.0000000001
 40
0.0
 40
0.0
 40
0.0
 40
0.0
 40
0.3978591234259627
 40
0.3978591234259627
 40
0.7957182468519255
 40
0.7957182468519255
 40
1.59143649370385
 40
1.59143649370385
 40
2.317215028378712
 40
2.317215028378712
 40
3.042993563053578
 40
3.042993563053578
 40
4.494550632403308
 40
4.494550632403308
 40
4.494550632403308
 40
4.494550632403308
 10
394.3159550160027
 20
169.3846068060397
 30
0.0
 10
394.4485747238114
 20
169.3846068060397
 30
0.0
 10
394.5742690499938
 20
169.4117211162061
 30
0.0
 10
394.8113226975438
 20
169.5046550529809
 30
0.0
 10
394.9226467878998
 20
169.5705327951855
 30
0.0
 10
395.233151190113
 20
169.8051867681261
 30
0.0
 10
395.4084070023091
 20
170.0108852916819
 30
0.0
 10
395.6728852300694
 20
170.3911913812726
 30
0.0
 10
395.7835029146345
 20
170.5879173567919
 30
0.0
 10
395.9750366785929
 20
170.996788183827
 30
0.0
 10
396.0557971828921
 20
171.2089824584545
 30
0.0
 10
396.2507147039714
 20
171.8489620469122
 30
0.0
 10
396.3159550160026
 20
172.2797270337914
 30
0.0
 10
396.3159550160026
 20
172.6668089189511
 30
0.0
  0
LINE
  5
1BEB
330
1F
100
AcDbEntity
  8
Hewi
100
AcDbLine
 10
402.3159550160035
 20
180.6668089189397
 30
0.0
 11
402.3159550160035
 21
140.6668089189397
 31
0.0
  0
LINE
  5
1BEC
330
1F
100
AcDbEntity
  8
Hewi
100
AcDbLine
 10
396.3159550160026
 20
202.6668089189406
 30
0.0
 11
396.3159550160026
 21
172.6668089189511
 31
0.0
  0
LINE
  5
1BED
330
1F
100
AcDbEntity
  8
Hewi
100
AcDbLine
 10
393.6159550160038
 20
169.3846068060552
 30
0.0
 11
393.6159550160038
 21
140.6668089189414
 31
0.0
  0
LINE
  5
1C06
330
1F
100
AcDbEntity
  8
Hewi
  6
Continuous
100
AcDbLine
 10
794.8108844841828
 20
814.4629490753116
 30
0.0000000000000659
 11
794.8108844841828
 21
1030.924755813113
 31
0.0000000000000659
  0
LINE
  5
1C07
330
1F
100
AcDbEntity
  8
Hewi
  6
Continuous
100
AcDbLine
 10
761.8116328482921
 20
1008.462949075332
 30
0.0000000000000659
 11
761.8116096133753
 21
992.4587320466141
 31
0.0000000000000659
  0
LINE
  5
1C08
330
1F
100
AcDbEntity
  8
Hewi
100
AcDbLine
 10
383.246988115548
 20
815.3546146137426
 30
0.0000000000000674
 11
383.246988115548
 21
1030.924755813113
 31
0.0000000000000674
  0
LINE
  5
1C09
330
1F
100
AcDbEntity
  8
Hewi
100
AcDbLine
 10
350.246988115548
 20
1007.354592069416
 30
0.0000000000000643
 11
350.246988115548
 21
815.3546146137422
 31
0.0000000000000643
  0
LINE
  5
1C25
330
1F
100
AcDbEntity
  8
Hewi
  6
Continuous
100
AcDbLine
 10
794.8108844841832
 20
814.4629490753116
 30
0.0000000000000659
 11
794.8108844841832
 21
1008.462949075332
 31
0.0000000000000659
  0
LINE
  5
1C26
330
1F
100
AcDbEntity
  8
Hewi
  6
Continuous
100
AcDbLine
 10
761.8111973083951
 20
708.4629490753325
 30
0.0000000000000659
 11
761.8108844841835
 21
492.9895468356797
 31
0.0000000000000659
  0
LINE
  5
1C27
330
1F
100
AcDbEntity
  8
Hewi
100
AcDbLine
 10
383.246988115548
 20
815.3546146137422
 30
0.0000000000000675
 11
383.2469881155481
 21
1007.354592069416
 31
0.0000000000000674
  0
LINE
  5
1C28
330
1F
100
AcDbEntity
  8
Hewi
100
AcDbLine
 10
350.246988115548
 20
707.3545920694153
 30
0.0000000000000643
 11
350.246988115548
 21
436.5247558131041
 31
0.0000000000000643
  0
LINE
  5
1C29
330
1F
100
AcDbEntity
  8
Hewi
  6
Continuous
100
AcDbLine
 10
761.8115835000867
 20
974.4718916895728
 30
0.0000000000000659
 11
761.8113511991587
 21
814.4629490753102
 31
0.0000000000000659
  0
ENDSEC
  0
SECTION
  2
OBJECTS
  0
DICTIONARY
  5
C
330
0
100
AcDbDictionary
281
     1
  3
ACAD_COLOR
350
6B
  3
ACAD_GROUP
350
D
  3
ACAD_LAYOUT
350
1A
  3
ACAD_MATERIAL
350
6A
  3
ACAD_MLINESTYLE
350
17
  3
ACAD_PLOTSETTINGS
350
19
  3
ACAD_PLOTSTYLENAME
350
E
  3
ACAD_TABLESTYLE
350
7E
  3
ACAD_VISUALSTYLE
350
EF
  3
AcDbVariableDictionary
350
5E
  3
DWGPROPS
350
1C39
  0
DICTIONARY
  5
141
330
2
100
AcDbDictionary
280
     1
281
     1
  3
ACAD_LAYERSTATES
360
142
  0
DICTIONARY
  5
116
330
1F
100
AcDbDictionary
280
     1
281
     1
  3
ACAD_SORTENTS
360
117
  0
DICTIONARY
  5
6B
102
{ACAD_REACTORS
330
C
102
}
330
C
100
AcDbDictionary
281
     1
  0
DICTIONARY
  5
D
102
{ACAD_REACTORS
330
C
102
}
330
C
100
AcDbDictionary
281
     1
  0
DICTIONARY
  5
1A
102
{ACAD_REACTORS
330
C
102
}
330
C
100
AcDbDictionary
281
     1
  3
Layout1
350
D3
  3
Layout2
350
D7
  3
Model
350
22
  0
DICTIONARY
  5
6A
102
{ACAD_REACTORS
330
C
102
}
330
C
100
AcDbDictionary
281
     1
  3
ByBlock
350
ED
  3
ByLayer
350
EC
  3
Global
350
EE
  0
DICTIONARY
  5
17
102
{ACAD_REACTORS
330
C
102
}
330
C
100
AcDbDictionary
281
     1
  3
Standard
350
18
  0
DICTIONARY
  5
19
102
{ACAD_REACTORS
330
C
102
}
330
C
100
AcDbDictionary
281
     1
  0
ACDBDICTIONARYWDFLT
  5
E
102
{ACAD_REACTORS
330
C
102
}
330
C
100
AcDbDictionary
281
     1
  3
Normal
350
F
100
AcDbDictionaryWithDefault
340
F
  0
DICTIONARY
  5
7E
102
{ACAD_REACTORS
330
C
102
}
330
C
100
AcDbDictionary
281
     1
  3
Standard
350
7F
  0
DICTIONARY
  5
EF
102
{ACAD_REACTORS
330
C
102
}
330
C
100
AcDbDictionary
281
     1
  3
2dWireframe
350
F5
  3
3D Hidden
350
F7
  3
3dWireframe
350
F6
  3
Basic
350
F4
  3
Brighten
350
FB
  3
ColorChange
350
FF
  3
Conceptual
350
F8
  3
Dim
350
FA
  3
Facepattern
350
FE
  3
Flat
350
F0
  3
FlatWithEdges
350
F1
  3
Gouraud
350
F2
  3
GouraudWithEdges
350
F3
  3
Linepattern
350
FD
  3
Realistic
350
F9
  3
Thicken
350
FC
  0
DICTIONARY
  5
5E
102
{ACAD_REACTORS
330
C
102
}
330
C
100
AcDbDictionary
281
     1
  3
CTABLESTYLE
350
84
  3
DIMASSOC
350
5F
  3
HIDETEXT
350
63
  3
INDEXCTL
350
327
  3
PSOLHEIGHT
350
1C38
  3
PSOLWIDTH
350
1C37
  3
SORTENTS
350
326
  0
XRECORD
  5
1C39
102
{ACAD_REACTORS
330
C
102
}
330
C
100
AcDbXrecord
280
     1
  1
DWGPROPS COOKIE
  2

  3

  4

  6

  7

  8
kaschu
  9

300
=
301
=
302
=
303
=
304
=
305
=
306
=
307
=
308
=
309
=
 40
0.116685162037037
 41
2454768.510881991
 42
2455609.63094419
  1

 90
        0
  0
DICTIONARY
  5
142
102
{ACAD_REACTORS
330
141
102
}
330
141
100
AcDbDictionary
281
     1
  0
SORTENTSTABLE
  5
117
102
{ACAD_REACTORS
330
116
102
}
330
116
100
AcDbSortentsTable
330
1F
331
1AB8
  5
1AC1
331
1B5F
  5
1B68
331
1B96
  5
1B9F
331
1A8B
  5
1A90
331
1AC0
  5
1AC9
331
1BD5
  5
1BDE
331
1BDD
  5
1BE6
331
1A93
  5
1A98
331
1AC8
  5
1AD1
331
1B67
  5
1B70
331
1B9E
  5
1BA7
331
1BA6
  5
1BB0
331
1BE5
  5
1C06
331
1AD0
  5
1B3D
331
1B6F
  5
1B78
331
1BAE
  5
1BB7
331
1A99
  5
1A9E
331
1B77
  5
1B80
331
1BB6
  5
1BBF
331
1AA1
  5
1AAA
331
1B40
  5
1B49
331
1B48
  5
1B51
331
1B7F
  5
1B88
331
1BED
  5
1C29
331
1AA9
  5
1AB2
331
1BBE
  5
1BC7
331
1B50
  5
1B59
331
1B87
  5
1B90
331
1AB1
  5
1ABA
331
1BC6
  5
1BCF
331
1BCE
  5
1BD7
331
1B8F
  5
1B98
331
1AB9
  5
1AC2
331
1B58
  5
1B61
331
1B97
  5
1BA0
331
1BD6
  5
1BDF
331
1A8C
  5
1A91
331
1AC1
  5
1ACA
331
1B60
  5
1B69
331
1B9F
  5
1BA8
331
1BDE
  5
1BE7
331
1A94
  5
1A99
331
1AC9
  5
1AD2
331
1B68
  5
1B71
331
1BA7
  5
1BB1
331
1AD1
  5
1B3E
331
1BE6
  5
1C07
331
1BAF
  5
1BB8
331
1B39
  5
1B42
331
1B70
  5
1B79
331
1A9A
  5
1A9F
331
1BB7
  5
1BC0
331
1B41
  5
1B4A
331
1B78
  5
1B81
331
1AA2
  5
1AAB
331
1BBF
  5
1BC8
331
1AAA
  5
1AB3
331
1B49
  5
1B52
331
1B80
  5
1B89
331
1B88
  5
1B91
331
1BC7
  5
1BD0
331
1AB2
  5
1ABB
331
1B51
  5
1B5A
331
1BCF
  5
1BD8
331
1B59
  5
1B62
331
1B90
  5
1B99
331
1A85
  5
1A85
331
1ABA
  5
1AC3
331
1B61
  5
1B6A
331
1B98
  5
1BA1
331
1A8D
  5
1A92
331
1AC2
  5
1ACB
331
1BD7
  5
1BE0
331
1BDF
  5
1BE8
331
1A95
  5
1A9A
331
1ACA
  5
1AD3
331
1B69
  5
1B72
331
1BA0
  5
1BA9
331
1BA8
  5
1BB2
331
1AD2
  5
1B3F
331
1BE7
  5
1C08
331
1BB0
  5
1BB9
331
1A9B
  5
1AA0
331
1B3A
  5
1B43
331
1C25
  5
1A8C
331
1B71
  5
1B7A
331
1B79
  5
1B82
331
1BB8
  5
1BC1
331
1AA3
  5
1AAC
331
1B42
  5
1B4B
331
1B4A
  5
1B53
331
1B81
  5
1B8A
331
1AAB
  5
1AB4
331
1BC0
  5
1BC9
331
1BC8
  5
1BD1
331
1B52
  5
1B5B
331
1B89
  5
1B92
331
1C06
  5
1A8D
331
1AB3
  5
1ABC
331
1BD0
  5
1BD9
331
1A86
  5
1A86
331
1ABB
  5
1AC4
331
1B5A
  5
1B63
331
1B91
  5
1B9A
331
1B99
  5
1BA2
331
1BD8
  5
1BE1
331
1A8E
  5
1A93
331
1AC3
  5
1ACC
331
1B62
  5
1B6B
331
1B6A
  5
1B73
331
1BA1
  5
1BAB
331
1A96
  5
1A9B
331
1ACB
  5
1AF0
331
1BE0
  5
1BE9
331
1BA9
  5
1BB3
331
1AD3
  5
1B40
331
1B3B
  5
1B44
331
1B72
  5
1B7B
331
1C26
  5
1A89
331
1A9C
  5
1AA1
331
1BB1
  5
1BBA
331
1BB9
  5
1BC2
331
1AA4
  5
1AAD
331
1B43
  5
1B4C
331
1BE8
  5
1C09
331
1B7A
  5
1B83
331
1BC1
  5
1BCA
331
1AAC
  5
1AB5
331
1B4B
  5
1B54
331
1B82
  5
1B8B
331
1B8A
  5
1B93
331
1BC9
  5
1BD2
331
1C07
  5
1A87
331
1AB4
  5
1ABD
331
1B53
  5
1B5C
331
1B5B
  5
1B64
331
1B92
  5
1B9B
331
1A87
  5
1A8A
331
1ABC
  5
1AC5
331
1BD1
  5
1BDA
331
1BD9
  5
1BE2
331
1B63
  5
1B6C
331
1B9A
  5
1BA3
331
1A8F
  5
1A94
331
1AC4
  5
1ACD
331
1BE1
  5
1BEA
331
1A97
  5
1A9C
331
1ACC
  5
1B39
331
1B6B
  5
1B74
331
1BA2
  5
1BAC
331
1B73
  5
1B7C
331
1BB2
  5
1BBB
331
1A9D
  5
1AA2
331
1B3C
  5
1B45
331
1C27
  5
1AA7
331
1B7B
  5
1B84
331
1BBA
  5
1BC3
331
1BE9
  5
1C25
331
1AA5
  5
1AAE
331
1B44
  5
1B4D
331
1B4C
  5
1B55
331
1B83
  5
1B8C
331
1AAD
  5
1AB6
331
1BC2
  5
1BCB
331
1BCA
  5
1BD3
331
1AB5
  5
1ABE
331
1B54
  5
1B5D
331
1B8B
  5
1B94
331
1BD2
  5
1BDB
331
1A88
  5
1A8B
331
1ABD
  5
1AC6
331
1B5C
  5
1B65
331
1B93
  5
1B9C
331
1B9B
  5
1BA4
331
1BDA
  5
1BE3
331
1A90
  5
1A95
331
1AC5
  5
1ACE
331
1B64
  5
1B6D
331
1B6C
  5
1B75
331
1BA3
  5
1BAD
331
1ACD
  5
1B3A
331
1BE2
  5
1BEB
331
1BAB
  5
1BB4
331
1C08
  5
1AA8
331
1B3D
  5
1B46
331
1B74
  5
1B7D
331
1C28
  5
1AA5
331
1A9E
  5
1AA3
331
1BB3
  5
1BBC
331
1BBB
  5
1BC4
331
1AA6
  5
1AAF
331
1B45
  5
1B4E
331
1BEA
  5
1C26
331
1B7C
  5
1B85
331
1B84
  5
1B8D
331
1BC3
  5
1BCC
331
1AAE
  5
1AB7
331
1B4D
  5
1B56
331
1B8C
  5
1B95
331
1BCB
  5
1BD4
331
1AB6
  5
1ABF
331
1B55
  5
1B5E
331
1B5D
  5
1B66
331
1B94
  5
1B9D
331
1A89
  5
1A8E
331
1ABE
  5
1AC7
331
1BD3
  5
1BDC
331
1BDB
  5
1BE4
331
1AC6
  5
1ACF
331
1B65
  5
1B6E
331
1B9C
  5
1BA5
331
1A91
  5
1A96
331
1BE3
  5
1BEC
331
1ACE
  5
1B3B
331
1B6D
  5
1B76
331
1BA4
  5
1BAE
331
1BAC
  5
1BB5
331
1C09
  5
1AA4
331
1B75
  5
1B7E
331
1BB4
  5
1BBD
331
1C29
  5
1A88
331
1A9F
  5
1AA6
331
1B3E
  5
1B47
331
1B7D
  5
1B86
331
1BBC
  5
1BC5
331
1BEB
  5
1C27
331
1AA7
  5
1AB0
331
1B46
  5
1B4F
331
1B4E
  5
1B57
331
1B85
  5
1B8E
331
1AAF
  5
1AB8
331
1BC4
  5
1BCD
331
1BCC
  5
1BD5
331
1AB7
  5
1AC0
331
1B56
  5
1B5F
331
1B8D
  5
1B96
331
1B95
  5
1B9E
331
1BD4
  5
1BDD
331
1ABF
  5
1AC8
331
1B5E
  5
1B67
331
1A8A
  5
1A8F
331
1AF0
  5
1B41
331
1B9D
  5
1BA6
331
1BDC
  5
1BE5
331
1A92
  5
1A97
331
1AC7
  5
1AD0
331
1B66
  5
1B6F
331
1B6E
  5
1B77
331
1BA5
  5
1BAF
331
1ACF
  5
1B3C
331
1BE4
  5
1BED
331
1BAD
  5
1BB6
331
1A98
  5
1A9D
331
1B3F
  5
1B48
331
1B76
  5
1B7F
331
1AA0
  5
1AA9
331
1BB5
  5
1BBE
331
1BBD
  5
1BC6
331
1AA8
  5
1AB1
331
1B47
  5
1B50
331
1BEC
  5
1C28
331
1B7E
  5
1B87
331
1B86
  5
1B8F
331
1BC5
  5
1BCE
331
1AB0
  5
1AB9
331
1B4F
  5
1B58
331
1B8E
  5
1B97
331
1BCD
  5
1BD6
331
1B57
  5
1B60
  0
LAYOUT
  5
D3
102
{ACAD_XDICTIONARY
360
1C3E
102
}
102
{ACAD_REACTORS
330
1A
102
}
330
1A
100
AcDbPlotSettings
  1

  2
C:\Documents and Settings\basas\Application Data\Autodesk\AutoCAD 2005\R16.1\enu\plotters\Default Windows System Printer.pc3
  4

  6

 40
0.0
 41
0.0
 42
0.0
 43
0.0
 44
0.0
 45
0.0
 46
0.0
 47
0.0
 48
0.0
 49
0.0
140
0.0
141
0.0
142
1.0
143
1.0
 70
   688
 72
     0
 73
     0
 74
     5
  7

 75
    16
147
1.0
148
0.0
149
0.0
100
AcDbLayout
  1
Layout1
 70
     1
 71
     1
 10
0.0
 20
0.0
 11
12.0
 21
9.0
 12
0.0
 22
0.0
 32
0.0
 14
0.0
 24
0.0
 34
0.0
 15
0.0
 25
0.0
 35
0.0
146
0.0
 13
0.0
 23
0.0
 33
0.0
 16
1.0
 26
0.0
 36
0.0
 17
0.0
 27
1.0
 37
0.0
 76
     0
330
D2
  0
LAYOUT
  5
D7
102
{ACAD_XDICTIONARY
360
1C40
102
}
102
{ACAD_REACTORS
330
1A
102
}
330
1A
100
AcDbPlotSettings
  1

  2
C:\Documents and Settings\basas\Application Data\Autodesk\AutoCAD 2005\R16.1\enu\plotters\Default Windows System Printer.pc3
  4

  6

 40
0.0
 41
0.0
 42
0.0
 43
0.0
 44
0.0
 45
0.0
 46
0.0
 47
0.0
 48
0.0
 49
0.0
140
0.0
141
0.0
142
1.0
143
1.0
 70
   688
 72
     0
 73
     0
 74
     5
  7

 75
    16
147
1.0
148
0.0
149
0.0
100
AcDbLayout
  1
Layout2
 70
     1
 71
     2
 10
0.0
 20
0.0
 11
12.0
 21
9.0
 12
0.0
 22
0.0
 32
0.0
 14
0.0
 24
0.0
 34
0.0
 15
0.0
 25
0.0
 35
0.0
146
0.0
 13
0.0
 23
0.0
 33
0.0
 16
1.0
 26
0.0
 36
0.0
 17
0.0
 27
1.0
 37
0.0
 76
     0
330
D6
  0
LAYOUT
  5
22
102
{ACAD_XDICTIONARY
360
1C3A
102
}
102
{ACAD_REACTORS
330
1A
102
}
330
1A
100
AcDbPlotSettings
  1

  2
none_device
  4
ISO_A4_(210.00_x_297.00_MM)
  6

 40
7.5
 41
20.0
 42
7.5
 43
20.0
 44
210.0
 45
297.0
 46
11.54999923706054
 47
-13.65000009536743
 48
0.0
 49
0.0
140
0.0
141
0.0
142
1.0
143
8.704084754739808
 70
 11952
 72
     1
 73
     0
 74
     0
  7

 75
     0
147
0.1148885871608098
148
0.0
149
0.0
100
AcDbLayout
  1
Model
 70
     1
 71
     0
 10
0.0
 20
0.0
 11
12.0
 21
9.0
 12
0.0
 22
0.0
 32
0.0
 14
0.0
 24
0.0
 34
0.0
 15
0.0
 25
0.0
 35
0.0
146
0.0
 13
0.0
 23
0.0
 33
0.0
 16
1.0
 26
0.0
 36
0.0
 17
0.0
 27
1.0
 37
0.0
 76
     0
330
1F
331
EA
1001
ACAD_PSEXT
1000
None
1000
None
1000
Not applicable
1000
The layout will not be plotted unless a new plotter configuration name is selected.
1070
     0
  0
MATERIAL
  5
ED
102
{ACAD_XDICTIONARY
360
335
102
}
102
{ACAD_REACTORS
330
6A
102
}
330
6A
100
AcDbMaterial
  1
ByBlock
  0
MATERIAL
  5
EC
102
{ACAD_XDICTIONARY
360
333
102
}
102
{ACAD_REACTORS
330
6A
102
}
330
6A
100
AcDbMaterial
  1
ByLayer
  0
MATERIAL
  5
EE
102
{ACAD_XDICTIONARY
360
337
102
}
102
{ACAD_REACTORS
330
6A
102
}
330
6A
100
AcDbMaterial
  1
Global
  0
MLINESTYLE
  5
18
102
{ACAD_REACTORS
330
17
102
}
330
17
100
AcDbMlineStyle
  2
STANDARD
 70
     0
  3

 62
   256
 51
90.0
 52
90.0
 71
     2
 49
0.5
 62
   256
  6
BYLAYER
 49
-0.5
 62
   256
  6
BYLAYER
  0
ACDBPLACEHOLDER
  5
F
102
{ACAD_REACTORS
330
E
102
}
330
E
  0
TABLESTYLE
  5
7F
102
{ACAD_XDICTIONARY
360
1C3C
102
}
102
{ACAD_REACTORS
330
7E
102
}
330
7E
100
AcDbTableStyle
  3
Standard
 70
     0
 71
     0
 40
1.5
 41
1.5
280
     0
281
     0
  7
Standard
140
4.5
170
     2
 62
     0
 63
     7
283
     0
274
    -2
284
     1
 64
     0
275
    -2
285
     1
 65
     0
276
    -2
286
     1
 66
     0
277
    -2
287
     1
 67
     0
278
    -2
288
     1
 68
     0
279
    -2
289
     1
 69
     0
  7
Standard
140
6.0
170
     5
 62
     0
 63
     7
283
     0
274
    -2
284
     1
 64
     0
275
    -2
285
     1
 65
     0
276
    -2
286
     1
 66
     0
277
    -2
287
     1
 67
     0
278
    -2
288
     1
 68
     0
279
    -2
289
     1
 69
     0
  7
Standard
140
4.5
170
     5
 62
     0
 63
     7
283
     0
274
    -2
284
     1
 64
     0
275
    -2
285
     1
 65
     0
276
    -2
286
     1
 66
     0
277
    -2
287
     1
 67
     0
278
    -2
288
     1
 68
     0
279
    -2
289
     1
 69
     0
  0
VISUALSTYLE
  5
F5
102
{ACAD_REACTORS
330
EF
102
}
330
EF
100
AcDbVisualStyle
  2
2dWireframe
 70
     4
 71
     0
 72
     2
 73
     1
 90
        0
 40
-0.6
 41
-30.0
 62
     5
 63
     7
 74
     1
 91
        4
 64
     7
 65
   257
 75
     1
175
     1
 42
1.0
 92
        0
 66
   257
 43
1.0
 76
     1
 77
     6
 78
     2
 67
     7
 79
     5
170
     0
171
     0
290
     0
174
     0
 93
        1
 44
0.0
173
     0
291
     0
 45
0.0
1001
ACAD
1000
AcDbSavedByObjectVersion
1070
     0
1000
AcDbSavedByObjectVersion
1070
     0
1000
AcDbSavedByObjectVersion
1070
     0
1000
AcDbSavedByObjectVersion
1070
     0
1000
AcDbSavedByObjectVersion
1070
     0
1000
AcDbSavedByObjectVersion
1070
     0
1000
AcDbSavedByObjectVersion
1070
     0
1000
AcDbSavedByObjectVersion
1070
     0
  0
VISUALSTYLE
  5
F7
102
{ACAD_REACTORS
330
EF
102
}
330
EF
100
AcDbVisualStyle
  2
3D Hidden
 70
     6
 71
     1
 72
     2
 73
     2
 90
        0
 40
-0.6
 41
-30.0
 62
     5
 63
     7
 74
     2
 91
        2
 64
     7
 65
   257
 75
     2
175
     1
 42
40.0
 92
        0
 66
   257
 43
1.0
 76
     1
 77
     6
 78
     2
 67
     7
 79
     3
170
     0
171
     0
290
     0
174
     0
 93
        1
 44
0.0
173
     0
291
     0
 45
0.0
1001
ACAD
1000
AcDbSavedByObjectVersion
1070
     0
1000
AcDbSavedByObjectVersion
1070
     0
1000
AcDbSavedByObjectVersion
1070
     0
1000
AcDbSavedByObjectVersion
1070
     0
1000
AcDbSavedByObjectVersion
1070
     0
1000
AcDbSavedByObjectVersion
1070
     0
1000
AcDbSavedByObjectVersion
1070
     0
1000
AcDbSavedByObjectVersion
1070
     0
  0
VISUALSTYLE
  5
F6
102
{ACAD_REACTORS
330
EF
102
}
330
EF
100
AcDbVisualStyle
  2
3dWireframe
 70
     5
 71
     0
 72
     2
 73
     1
 90
        0
 40
-0.6
 41
-30.0
 62
     5
 63
     7
 74
     1
 91
        4
 64
     7
 65
   257
 75
     1
175
     1
 42
1.0
 92
        0
 66
   257
 43
1.0
 76
     1
 77
     6
 78
     2
 67
     7
 79
     5
170
     0
171
     0
290
     0
174
     0
 93
        1
 44
0.0
173
     0
291
     0
 45
0.0
1001
ACAD
1000
AcDbSavedByObjectVersion
1070
     0
1000
AcDbSavedByObjectVersion
1070
     0
1000
AcDbSavedByObjectVersion
1070
     0
1000
AcDbSavedByObjectVersion
1070
     0
1000
AcDbSavedByObjectVersion
1070
     0
1000
AcDbSavedByObjectVersion
1070
     0
1000
AcDbSavedByObjectVersion
1070
     0
1000
AcDbSavedByObjectVersion
1070
     0
  0
VISUALSTYLE
  5
F4
102
{ACAD_REACTORS
330
EF
102
}
330
EF
100
AcDbVisualStyle
  2
Basic
 70
     7
 71
     1
 72
     0
 73
     1
 90
        0
 40
-0.6
 41
-30.0
 62
     5
 63
     7
 74
     0
 91
        4
 64
     7
 65
   257
 75
     1
175
     1
 42
1.0
 92
        8
 66
     7
 43
1.0
 76
     1
 77
     6
 78
     2
 67
     7
 79
     5
170
     0
171
     0
290
     0
174
     0
 93
        1
 44
0.0
173
     0
291
     1
 45
0.0
1001
ACAD
1000
AcDbSavedByObjectVersion
1070
     0
1000
AcDbSavedByObjectVersion
1070
     0
1000
AcDbSavedByObjectVersion
1070
     0
1000
AcDbSavedByObjectVersion
1070
     0
1000
AcDbSavedByObjectVersion
1070
     0
1000
AcDbSavedByObjectVersion
1070
     0
1000
AcDbSavedByObjectVersion
1070
     0
1000
AcDbSavedByObjectVersion
1070
     0
  0
VISUALSTYLE
  5
FB
102
{ACAD_REACTORS
330
EF
102
}
330
EF
100
AcDbVisualStyle
  2
Brighten
 70
    12
 71
     2
 72
     2
 73
     1
 90
        0
 40
-0.6
 41
-30.0
 62
     5
 63
     7
 74
     1
 91
        4
 64
     7
 65
   257
 75
     1
175
     1
 42
1.0
 92
        8
 66
     7
 43
1.0
 76
     1
 77
     6
 78
     2
 67
     7
 79
     5
170
     0
171
     0
290
     0
174
     0
 93
        1
 44
50.0
173
     0
291
     1
 45
0.0
1001
ACAD
1000
AcDbSavedByObjectVersion
1070
     0
1000
AcDbSavedByObjectVersion
1070
     0
1000
AcDbSavedByObjectVersion
1070
     0
1000
AcDbSavedByObjectVersion
1070
     0
1000
AcDbSavedByObjectVersion
1070
     0
1000
AcDbSavedByObjectVersion
1070
     0
1000
AcDbSavedByObjectVersion
1070
     0
1000
AcDbSavedByObjectVersion
1070
     0
  0
VISUALSTYLE
  5
FF
102
{ACAD_REACTORS
330
EF
102
}
330
EF
100
AcDbVisualStyle
  2
ColorChange
 70
    16
 71
     2
 72
     2
 73
     3
 90
        0
 40
-0.6
 41
-30.0
 62
     5
 63
     8
 74
     1
 91
        4
 64
     7
 65
   257
 75
     1
175
     1
 42
1.0
 92
        8
 66
     8
 43
1.0
 76
     1
 77
     6
 78
     2
 67
     7
 79
     5
170
     0
171
     0
290
     0
174
     0
 93
        1
 44
0.0
173
     0
291
     1
 45
0.0
1001
ACAD
1000
AcDbSavedByObjectVersion
1070
     0
1000
AcDbSavedByObjectVersion
1070
     0
1000
AcDbSavedByObjectVersion
1070
     0
1000
AcDbSavedByObjectVersion
1070
     0
1000
AcDbSavedByObjectVersion
1070
     0
1000
AcDbSavedByObjectVersion
1070
     0
1000
AcDbSavedByObjectVersion
1070
     0
1000
AcDbSavedByObjectVersion
1070
     0
  0
VISUALSTYLE
  5
F8
102
{ACAD_REACTORS
330
EF
102
}
330
EF
100
AcDbVisualStyle
  2
Conceptual
 70
     9
 71
     3
 72
     2
 73
     1
 90
        0
 40
-0.6
 41
-30.0
 62
     5
 63
     7
 74
     2
 91
        2
 64
     7
 65
   257
 75
     1
175
     1
 42
40.0
 92
        8
 66
     7
 43
1.0
 76
     1
 77
     6
 78
     2
 67
     7
 79
     3
170
     0
171
     0
290
     0
174
     0
 93
        1
 44
0.0
173
     0
291
     0
 45
0.0
1001
ACAD
1000
AcDbSavedByObjectVersion
1070
     0
1000
AcDbSavedByObjectVersion
1070
     0
1000
AcDbSavedByObjectVersion
1070
     0
1000
AcDbSavedByObjectVersion
1070
     0
1000
AcDbSavedByObjectVersion
1070
     0
1000
AcDbSavedByObjectVersion
1070
     0
1000
AcDbSavedByObjectVersion
1070
     0
1000
AcDbSavedByObjectVersion
1070
     0
  0
VISUALSTYLE
  5
FA
102
{ACAD_REACTORS
330
EF
102
}
330
EF
100
AcDbVisualStyle
  2
Dim
 70
    11
 71
     2
 72
     2
 73
     1
 90
        0
 40
-0.6
 41
-30.0
 62
     5
 63
     7
 74
     1
 91
        4
 64
     7
 65
   257
 75
     1
175
     1
 42
1.0
 92
        8
 66
     7
 43
1.0
 76
     1
 77
     6
 78
     2
 67
     7
 79
     5
170
     0
171
     0
290
     0
174
     0
 93
        1
 44
-50.0
173
     0
291
     1
 45
0.0
1001
ACAD
1000
AcDbSavedByObjectVersion
1070
     0
1000
AcDbSavedByObjectVersion
1070
     0
1000
AcDbSavedByObjectVersion
1070
     0
1000
AcDbSavedByObjectVersion
1070
     0
1000
AcDbSavedByObjectVersion
1070
     0
1000
AcDbSavedByObjectVersion
1070
     0
1000
AcDbSavedByObjectVersion
1070
     0
1000
AcDbSavedByObjectVersion
1070
     0
  0
VISUALSTYLE
  5
FE
102
{ACAD_REACTORS
330
EF
102
}
330
EF
100
AcDbVisualStyle
  2
Facepattern
 70
    15
 71
     2
 72
     2
 73
     1
 90
        0
 40
-0.6
 41
-30.0
 62
     5
 63
     7
 74
     1
 91
        4
 64
     7
 65
   257
 75
     1
175
     1
 42
1.0
 92
        8
 66
     7
 43
1.0
 76
     1
 77
     6
 78
     2
 67
     7
 79
     5
170
     0
171
     0
290
     0
174
     0
 93
        1
 44
0.0
173
     0
291
     1
 45
0.0
1001
ACAD
1000
AcDbSavedByObjectVersion
1070
     0
1000
AcDbSavedByObjectVersion
1070
     0
1000
AcDbSavedByObjectVersion
1070
     0
1000
AcDbSavedByObjectVersion
1070
     0
1000
AcDbSavedByObjectVersion
1070
     0
1000
AcDbSavedByObjectVersion
1070
     0
1000
AcDbSavedByObjectVersion
1070
     0
1000
AcDbSavedByObjectVersion
1070
     0
  0
VISUALSTYLE
  5
F0
102
{ACAD_REACTORS
330
EF
102
}
330
EF
100
AcDbVisualStyle
  2
Flat
 70
     0
 71
     2
 72
     1
 73
     1
 90
        2
 40
-0.6
 41
30.0
 62
     5
 63
     7
 74
     0
 91
        4
 64
     7
 65
   257
 75
     1
175
     1
 42
1.0
 92
        8
 66
     7
 43
1.0
 76
     1
 77
     6
 78
     2
 67
     7
 79
     5
170
     0
171
     0
290
     0
174
     0
 93
       13
 44
0.0
173
     0
291
     1
 45
0.0
1001
ACAD
1000
AcDbSavedByObjectVersion
1070
     0
1000
AcDbSavedByObjectVersion
1070
     0
1000
AcDbSavedByObjectVersion
1070
     0
1000
AcDbSavedByObjectVersion
1070
     0
1000
AcDbSavedByObjectVersion
1070
     0
1000
AcDbSavedByObjectVersion
1070
     0
1000
AcDbSavedByObjectVersion
1070
     0
1000
AcDbSavedByObjectVersion
1070
     0
  0
VISUALSTYLE
  5
F1
102
{ACAD_REACTORS
330
EF
102
}
330
EF
100
AcDbVisualStyle
  2
FlatWithEdges
 70
     1
 71
     2
 72
     1
 73
     1
 90
        2
 40
-0.6
 41
30.0
 62
     5
 63
     7
 74
     1
 91
        4
 64
     7
 65
   257
 75
     1
175
     1
 42
1.0
 92
        0
 66
   257
 43
1.0
 76
     1
 77
     6
 78
     2
 67
     7
 79
     5
170
     0
171
     0
290
     0
174
     0
 93
       13
 44
0.0
173
     0
291
     1
 45
0.0
1001
ACAD
1000
AcDbSavedByObjectVersion
1070
     0
1000
AcDbSavedByObjectVersion
1070
     0
1000
AcDbSavedByObjectVersion
1070
     0
1000
AcDbSavedByObjectVersion
1070
     0
1000
AcDbSavedByObjectVersion
1070
     0
1000
AcDbSavedByObjectVersion
1070
     0
1000
AcDbSavedByObjectVersion
1070
     0
1000
AcDbSavedByObjectVersion
1070
     0
  0
VISUALSTYLE
  5
F2
102
{ACAD_REACTORS
330
EF
102
}
330
EF
100
AcDbVisualStyle
  2
Gouraud
 70
     2
 71
     2
 72
     2
 73
     1
 90
        2
 40
-0.6
 41
30.0
 62
     5
 63
     7
 74
     0
 91
        4
 64
     7
 65
   257
 75
     1
175
     1
 42
1.0
 92
        0
 66
     7
 43
1.0
 76
     1
 77
     6
 78
     2
 67
     7
 79
     5
170
     0
171
     0
290
     0
174
     0
 93
       13
 44
0.0
173
     0
291
     1
 45
0.0
1001
ACAD
1000
AcDbSavedByObjectVersion
1070
     0
1000
AcDbSavedByObjectVersion
1070
     0
1000
AcDbSavedByObjectVersion
1070
     0
1000
AcDbSavedByObjectVersion
1070
     0
1000
AcDbSavedByObjectVersion
1070
     0
1000
AcDbSavedByObjectVersion
1070
     0
1000
AcDbSavedByObjectVersion
1070
     0
1000
AcDbSavedByObjectVersion
1070
     0
  0
VISUALSTYLE
  5
F3
102
{ACAD_REACTORS
330
EF
102
}
330
EF
100
AcDbVisualStyle
  2
GouraudWithEdges
 70
     3
 71
     2
 72
     2
 73
     1
 90
        2
 40
-0.6
 41
30.0
 62
     5
 63
     7
 74
     1
 91
        4
 64
     7
 65
   257
 75
     1
175
     1
 42
1.0
 92
        0
 66
   257
 43
1.0
 76
     1
 77
     6
 78
     2
 67
     7
 79
     5
170
     0
171
     0
290
     0
174
     0
 93
       13
 44
0.0
173
     0
291
     1
 45
0.0
1001
ACAD
1000
AcDbSavedByObjectVersion
1070
     0
1000
AcDbSavedByObjectVersion
1070
     0
1000
AcDbSavedByObjectVersion
1070
     0
1000
AcDbSavedByObjectVersion
1070
     0
1000
AcDbSavedByObjectVersion
1070
     0
1000
AcDbSavedByObjectVersion
1070
     0
1000
AcDbSavedByObjectVersion
1070
     0
1000
AcDbSavedByObjectVersion
1070
     0
  0
VISUALSTYLE
  5
FD
102
{ACAD_REACTORS
330
EF
102
}
330
EF
100
AcDbVisualStyle
  2
Linepattern
 70
    14
 71
     2
 72
     2
 73
     1
 90
        0
 40
-0.6
 41
-30.0
 62
     5
 63
     7
 74
     1
 91
        4
 64
     7
 65
   257
 75
     7
175
     7
 42
1.0
 92
        8
 66
     7
 43
1.0
 76
     1
 77
     6
 78
     2
 67
     7
 79
     5
170
     0
171
     0
290
     0
174
     0
 93
        1
 44
0.0
173
     0
291
     1
 45
0.0
1001
ACAD
1000
AcDbSavedByObjectVersion
1070
     0
1000
AcDbSavedByObjectVersion
1070
     0
1000
AcDbSavedByObjectVersion
1070
     0
1000
AcDbSavedByObjectVersion
1070
     0
1000
AcDbSavedByObjectVersion
1070
     0
1000
AcDbSavedByObjectVersion
1070
     0
1000
AcDbSavedByObjectVersion
1070
     0
1000
AcDbSavedByObjectVersion
1070
     0
  0
VISUALSTYLE
  5
F9
102
{ACAD_REACTORS
330
EF
102
}
330
EF
100
AcDbVisualStyle
  2
Realistic
 70
     8
 71
     2
 72
     2
 73
     1
 90
        0
 40
-0.6
 41
-30.0
 62
     5
 63
     7
 74
     1
 91
        0
 64
     7
 65
   257
 75
     1
175
     1
 42
1.0
 92
        8
 66
     8
 43
1.0
 76
     1
 77
     6
 78
     2
 67
     7
 79
     5
170
     0
171
     0
290
     0
174
     0
 93
       13
 44
0.0
173
     0
291
     0
 45
0.0
1001
ACAD
1000
AcDbSavedByObjectVersion
1070
     0
1000
AcDbSavedByObjectVersion
1070
     0
1000
AcDbSavedByObjectVersion
1070
     0
1000
AcDbSavedByObjectVersion
1070
     0
1000
AcDbSavedByObjectVersion
1070
     0
1000
AcDbSavedByObjectVersion
1070
     0
1000
AcDbSavedByObjectVersion
1070
     0
1000
AcDbSavedByObjectVersion
1070
     0
  0
VISUALSTYLE
  5
FC
102
{ACAD_REACTORS
330
EF
102
}
330
EF
100
AcDbVisualStyle
  2
Thicken
 70
    13
 71
     2
 72
     2
 73
     1
 90
        0
 40
-0.6
 41
-30.0
 62
     5
 63
     7
 74
     1
 91
        4
 64
     7
 65
   257
 75
     1
175
     1
 42
1.0
 92
       12
 66
     7
 43
1.0
 76
     1
 77
     6
 78
     2
 67
     7
 79
     5
170
     0
171
     0
290
     0
174
     0
 93
        1
 44
0.0
173
     0
291
     1
 45
0.0
1001
ACAD
1000
AcDbSavedByObjectVersion
1070
     0
1000
AcDbSavedByObjectVersion
1070
     0
1000
AcDbSavedByObjectVersion
1070
     0
1000
AcDbSavedByObjectVersion
1070
     0
1000
AcDbSavedByObjectVersion
1070
     0
1000
AcDbSavedByObjectVersion
1070
     0
1000
AcDbSavedByObjectVersion
1070
     0
1000
AcDbSavedByObjectVersion
1070
     0
  0
DICTIONARYVAR
  5
84
102
{ACAD_REACTORS
330
5E
102
}
330
5E
100
DictionaryVariables
280
     0
  1
STANDARD
  0
DICTIONARYVAR
  5
5F
102
{ACAD_REACTORS
330
5E
102
}
330
5E
100
DictionaryVariables
280
     0
  1
2
  0
DICTIONARYVAR
  5
63
102
{ACAD_REACTORS
330
5E
102
}
330
5E
100
DictionaryVariables
280
     0
  1
1
  0
DICTIONARYVAR
  5
327
102
{ACAD_REACTORS
330
5E
102
}
330
5E
100
DictionaryVariables
280
     0
  1
0
  0
DICTIONARYVAR
  5
1C38
102
{ACAD_REACTORS
330
5E
102
}
330
5E
100
DictionaryVariables
280
     0
  1
80.000000
  0
DICTIONARYVAR
  5
1C37
102
{ACAD_REACTORS
330
5E
102
}
330
5E
100
DictionaryVariables
280
     0
  1
5.000000
  0
DICTIONARYVAR
  5
326
102
{ACAD_REACTORS
330
5E
102
}
330
5E
100
DictionaryVariables
280
     0
  1
127
  0
DICTIONARY
  5
1C3E
330
D3
100
AcDbDictionary
280
     1
281
     1
  3
ACAD_XREC_ROUNDTRIP
360
1C3F
  0
DICTIONARY
  5
1C40
330
D7
100
AcDbDictionary
280
     1
281
     1
  3
ACAD_XREC_ROUNDTRIP
360
1C41
  0
DICTIONARY
  5
1C3A
330
22
100
AcDbDictionary
280
     1
281
     1
  3
ACAD_XREC_ROUNDTRIP
360
1C3B
  0
DICTIONARY
  5
335
330
ED
100
AcDbDictionary
280
     1
281
     1
  3
ACAD_XREC_ROUNDTRIP
360
336
  0
DICTIONARY
  5
333
330
EC
100
AcDbDictionary
280
     1
281
     1
  3
ACAD_XREC_ROUNDTRIP
360
334
  0
DICTIONARY
  5
337
330
EE
100
AcDbDictionary
280
     1
281
     1
  3
ACAD_XREC_ROUNDTRIP
360
338
  0
DICTIONARY
  5
1C3C
330
7F
100
AcDbDictionary
280
     1
281
     1
  3
ACAD_XREC_ROUNDTRIP
360
1C3D
  0
XRECORD
  5
1C3F
102
{ACAD_REACTORS
330
1C3E
102
}
330
1C3E
100
AcDbXrecord
280
     1
102
SHADEPLOT
 70
     0
102
SHADEPLOTRESLEVEL
 70
     2
102
SHADEPLOTCUSTOMDPI
 70
   300
  0
XRECORD
  5
1C41
102
{ACAD_REACTORS
330
1C40
102
}
330
1C40
100
AcDbXrecord
280
     1
102
SHADEPLOT
 70
     0
102
SHADEPLOTRESLEVEL
 70
     2
102
SHADEPLOTCUSTOMDPI
 70
   300
  0
XRECORD
  5
1C3B
102
{ACAD_REACTORS
330
1C3A
102
}
330
1C3A
100
AcDbXrecord
280
     1
102
SHADEPLOT
 70
     0
102
SHADEPLOTRESLEVEL
 70
     2
102
SHADEPLOTCUSTOMDPI
 70
   300
  0
XRECORD
  5
336
102
{ACAD_REACTORS
330
335
102
}
330
335
100
AcDbXrecord
280
     1
102
MATERIAL
148
0.0
149
0.0
149
0.0
 93
        0
 94
       63
282
     0
 72
     1
 77
     1
171
     1
175
     1
179
     1
273
     0
  0
XRECORD
  5
334
102
{ACAD_REACTORS
330
333
102
}
330
333
100
AcDbXrecord
280
     1
102
MATERIAL
148
0.0
149
0.0
149
0.0
 93
        0
 94
       63
282
     0
 72
     1
 77
     1
171
     1
175
     1
179
     1
273
     0
  0
XRECORD
  5
338
102
{ACAD_REACTORS
330
337
102
}
330
337
100
AcDbXrecord
280
     1
102
MATERIAL
148
0.0
149
0.0
149
0.0
 93
        0
 94
       63
282
     0
 72
     1
 77
     1
171
     1
175
     1
179
     1
273
     0
  0
XRECORD
  5
1C3D
102
{ACAD_REACTORS
330
1C3C
102
}
330
1C3C
100
AcDbXrecord
280
     1
102
ACAD_ROUNDTRIP_PRE2007_TABLESTYLE
 90
      512
 91
        0
  1

 92
      512
 93
        0
  2

 94
      512
 95
        0
  3

  0
ENDSEC
  0
EOF
