  0
SECTION
  2
HEADER
  9
$ACADVER
  1
AC1015
  9
$ACADMAINTVER
 70
    20
  9
$DWGCODEPAGE
  3
ANSI_1252
  9
$INSBASE
 10
0.0
 20
0.0
 30
0.0
  9
$EXTMIN
 10
-56.08078060767917
 20
-2201.619480995099
 30
-0.0000000000000073
  9
$EXTMAX
 10
944.7263549979048
 20
-865.2917047387072
 30
0.0000000000000346
  9
$LIMMIN
 10
0.0
 20
0.0
  9
$LIMMAX
 10
420.0
 20
297.0
  9
$ORTHOMODE
 70
     0
  9
$REGENMODE
 70
     1
  9
$FILLMODE
 70
     1
  9
$QTEXTMODE
 70
     0
  9
$MIRRTEXT
 70
     0
  9
$LTSCALE
 40
1.0
  9
$ATTMODE
 70
     1
  9
$TEXTSIZE
 40
2.5
  9
$TRACEWID
 40
1.0
  9
$TEXTSTYLE
  7
Standard
  9
$CLAYER
  8
0
  9
$CELTYPE
  6
ByLayer
  9
$CECOLOR
 62
   256
  9
$CELTSCALE
 40
1.0
  9
$DISPSILH
 70
     0
  9
$DIMSCALE
 40
1.0
  9
$DIMASZ
 40
2.5
  9
$DIMEXO
 40
0.625
  9
$DIMDLI
 40
3.75
  9
$DIMRND
 40
0.0
  9
$DIMDLE
 40
0.0
  9
$DIMEXE
 40
1.25
  9
$DIMTP
 40
0.0
  9
$DIMTM
 40
0.0
  9
$DIMTXT
 40
2.5
  9
$DIMCEN
 40
2.5
  9
$DIMTSZ
 40
0.0
  9
$DIMTOL
 70
     0
  9
$DIMLIM
 70
     0
  9
$DIMTIH
 70
     0
  9
$DIMTOH
 70
     0
  9
$DIMSE1
 70
     0
  9
$DIMSE2
 70
     0
  9
$DIMTAD
 70
     1
  9
$DIMZIN
 70
     8
  9
$DIMBLK
  1

  9
$DIMASO
 70
     1
  9
$DIMSHO
 70
     1
  9
$DIMPOST
  1

  9
$DIMAPOST
  1

  9
$DIMALT
 70
     0
  9
$DIMALTD
 70
     3
  9
$DIMALTF
 40
0.03937007874016
  9
$DIMLFAC
 40
1.0
  9
$DIMTOFL
 70
     1
  9
$DIMTVP
 40
0.0
  9
$DIMTIX
 70
     0
  9
$DIMSOXD
 70
     0
  9
$DIMSAH
 70
     0
  9
$DIMBLK1
  1

  9
$DIMBLK2
  1

  9
$DIMSTYLE
  2
ISO-25
  9
$DIMCLRD
 70
     0
  9
$DIMCLRE
 70
     0
  9
$DIMCLRT
 70
     0
  9
$DIMTFAC
 40
1.0
  9
$DIMGAP
 40
0.625
  9
$DIMJUST
 70
     0
  9
$DIMSD1
 70
     0
  9
$DIMSD2
 70
     0
  9
$DIMTOLJ
 70
     0
  9
$DIMTZIN
 70
     8
  9
$DIMALTZ
 70
     0
  9
$DIMALTTZ
 70
     0
  9
$DIMUPT
 70
     0
  9
$DIMDEC
 70
     2
  9
$DIMTDEC
 70
     2
  9
$DIMALTU
 70
     2
  9
$DIMALTTD
 70
     3
  9
$DIMTXSTY
  7
Standard
  9
$DIMAUNIT
 70
     0
  9
$DIMADEC
 70
     0
  9
$DIMALTRND
 40
0.0
  9
$DIMAZIN
 70
     0
  9
$DIMDSEP
 70
    44
  9
$DIMATFIT
 70
     3
  9
$DIMFRAC
 70
     0
  9
$DIMLDRBLK
  1

  9
$DIMLUNIT
 70
     2
  9
$DIMLWD
 70
    -2
  9
$DIMLWE
 70
    -2
  9
$DIMTMOVE
 70
     0
  9
$LUNITS
 70
     2
  9
$LUPREC
 70
     4
  9
$SKETCHINC
 40
1.0
  9
$FILLETRAD
 40
0.0
  9
$AUNITS
 70
     0
  9
$AUPREC
 70
     0
  9
$MENU
  1
.
  9
$ELEVATION
 40
0.0
  9
$PELEVATION
 40
0.0
  9
$THICKNESS
 40
0.0
  9
$LIMCHECK
 70
     0
  9
$CHAMFERA
 40
0.0
  9
$CHAMFERB
 40
0.0
  9
$CHAMFERC
 40
0.0
  9
$CHAMFERD
 40
0.0
  9
$SKPOLY
 70
     0
  9
$TDCREATE
 40
2454768.510881991
  9
$TDUCREATE
 40
2454768.469215324
  9
$TDUPDATE
 40
2455602.623224468
  9
$TDUUPDATE
 40
2455602.581557801
  9
$TDINDWG
 40
0.1123026620
  9
$TDUSRTIMER
 40
0.1122985301
  9
$USRTIMER
 70
     1
  9
$ANGBASE
 50
0.0
  9
$ANGDIR
 70
     0
  9
$PDMODE
 70
     0
  9
$PDSIZE
 40
0.0
  9
$PLINEWID
 40
0.0
  9
$SPLFRAME
 70
     0
  9
$SPLINETYPE
 70
     6
  9
$SPLINESEGS
 70
     8
  9
$HANDSEED
  5
1A69
  9
$SURFTAB1
 70
     6
  9
$SURFTAB2
 70
     6
  9
$SURFTYPE
 70
     6
  9
$SURFU
 70
     6
  9
$SURFV
 70
     6
  9
$UCSBASE
  2

  9
$UCSNAME
  2

  9
$UCSORG
 10
0.0
 20
0.0
 30
0.0
  9
$UCSXDIR
 10
1.0
 20
0.0
 30
0.0
  9
$UCSYDIR
 10
0.0
 20
1.0
 30
0.0
  9
$UCSORTHOREF
  2

  9
$UCSORTHOVIEW
 70
     0
  9
$UCSORGTOP
 10
0.0
 20
0.0
 30
0.0
  9
$UCSORGBOTTOM
 10
0.0
 20
0.0
 30
0.0
  9
$UCSORGLEFT
 10
0.0
 20
0.0
 30
0.0
  9
$UCSORGRIGHT
 10
0.0
 20
0.0
 30
0.0
  9
$UCSORGFRONT
 10
0.0
 20
0.0
 30
0.0
  9
$UCSORGBACK
 10
0.0
 20
0.0
 30
0.0
  9
$PUCSBASE
  2

  9
$PUCSNAME
  2

  9
$PUCSORG
 10
0.0
 20
0.0
 30
0.0
  9
$PUCSXDIR
 10
1.0
 20
0.0
 30
0.0
  9
$PUCSYDIR
 10
0.0
 20
1.0
 30
0.0
  9
$PUCSORTHOREF
  2

  9
$PUCSORTHOVIEW
 70
     0
  9
$PUCSORGTOP
 10
0.0
 20
0.0
 30
0.0
  9
$PUCSORGBOTTOM
 10
0.0
 20
0.0
 30
0.0
  9
$PUCSORGLEFT
 10
0.0
 20
0.0
 30
0.0
  9
$PUCSORGRIGHT
 10
0.0
 20
0.0
 30
0.0
  9
$PUCSORGFRONT
 10
0.0
 20
0.0
 30
0.0
  9
$PUCSORGBACK
 10
0.0
 20
0.0
 30
0.0
  9
$USERI1
 70
     0
  9
$USERI2
 70
     0
  9
$USERI3
 70
     0
  9
$USERI4
 70
     0
  9
$USERI5
 70
     0
  9
$USERR1
 40
0.0
  9
$USERR2
 40
0.0
  9
$USERR3
 40
0.0
  9
$USERR4
 40
0.0
  9
$USERR5
 40
0.0
  9
$WORLDVIEW
 70
     1
  9
$SHADEDGE
 70
     3
  9
$SHADEDIF
 70
    70
  9
$TILEMODE
 70
     1
  9
$MAXACTVP
 70
    64
  9
$PINSBASE
 10
0.0
 20
0.0
 30
0.0
  9
$PLIMCHECK
 70
     0
  9
$PEXTMIN
 10
0.0
 20
0.0
 30
0.0
  9
$PEXTMAX
 10
0.0
 20
0.0
 30
0.0
  9
$PLIMMIN
 10
0.0
 20
0.0
  9
$PLIMMAX
 10
12.0
 20
9.0
  9
$UNITMODE
 70
     0
  9
$VISRETAIN
 70
     1
  9
$PLINEGEN
 70
     0
  9
$PSLTSCALE
 70
     1
  9
$TREEDEPTH
 70
  3020
  9
$CMLSTYLE
  2
Standard
  9
$CMLJUST
 70
     0
  9
$CMLSCALE
 40
20.0
  9
$PROXYGRAPHICS
 70
     1
  9
$MEASUREMENT
 70
     1
  9
$CELWEIGHT
370
    -1
  9
$ENDCAPS
280
     0
  9
$JOINSTYLE
280
     0
  9
$LWDISPLAY
290
     0
  9
$INSUNITS
 70
     4
  9
$HYPERLINKBASE
  1

  9
$STYLESHEET
  1

  9
$XEDIT
290
     1
  9
$CEPSNTYPE
380
     0
  9
$PSTYLEMODE
290
     1
  9
$FINGERPRINTGUID
  2
{A9F5D530-972F-4813-857A-78B9B08CAD27}
  9
$VERSIONGUID
  2
{B30DDC46-E969-48F1-907B-04284F56A494}
  9
$EXTNAMES
290
     1
  9
$PSVPSCALE
 40
0.0
  9
$OLESTARTUP
290
     0
  0
ENDSEC
  0
SECTION
  2
CLASSES
  0
CLASS
  1
ACDBDICTIONARYWDFLT
  2
AcDbDictionaryWithDefault
  3
ObjectDBX Classes
 90
        0
280
     0
281
     0
  0
CLASS
  1
DICTIONARYVAR
  2
AcDbDictionaryVar
  3
ObjectDBX Classes
 90
        0
280
     0
281
     0
  0
CLASS
  1
TABLESTYLE
  2
AcDbTableStyle
  3
ObjectDBX Classes
 90
     4095
280
     0
281
     0
  0
CLASS
  1
MATERIAL
  2
AcDbMaterial
  3
ObjectDBX Classes
 90
     1024
280
     0
281
     0
  0
CLASS
  1
VISUALSTYLE
  2
AcDbVisualStyle
  3
ObjectDBX Classes
 90
     4095
280
     0
281
     0
  0
CLASS
  1
SORTENTSTABLE
  2
AcDbSortentsTable
  3
ObjectDBX Classes
 90
        0
280
     0
281
     0
  0
CLASS
  1
DIMASSOC
  2
AcDbDimAssoc
  3
"AcDbDimAssoc|Product Desc:     AcDim ARX App For Dimension|Company:          Autodesk, Inc.|WEB Address:      www.autodesk.com"
 90
        0
280
     0
281
     0
  0
CLASS
  1
ACDBPLACEHOLDER
  2
AcDbPlaceHolder
  3
ObjectDBX Classes
 90
        0
280
     0
281
     0
  0
CLASS
  1
LAYOUT
  2
AcDbLayout
  3
ObjectDBX Classes
 90
        0
280
     0
281
     0
  0
ENDSEC
  0
SECTION
  2
TABLES
  0
TABLE
  2
VPORT
  5
8
330
0
100
AcDbSymbolTable
 70
     1
  0
VPORT
  5
EA
330
8
100
AcDbSymbolTableRecord
100
AcDbViewportTableRecord
  2
*Active
 70
     0
 10
0.0
 20
0.0
 11
1.0
 21
1.0
 12
739.9151197221408
 22
-1598.505559412786
 13
0.0
 23
0.0
 14
10.0
 24
10.0
 15
10.0
 25
10.0
 16
0.0
 26
0.0
 36
1.0
 17
0.0
 27
0.0
 37
0.0
 40
2272.137179642941
 41
1.858662613981763
 42
50.0
 43
0.0
 44
0.0
 50
0.0
 51
0.0
 71
     0
 72
  1000
 73
     1
 74
     3
 75
     0
 76
     0
 77
     0
 78
     0
281
     0
 65
     1
110
0.0
120
0.0
130
0.0
111
1.0
121
0.0
131
0.0
112
0.0
122
1.0
132
0.0
 79
     0
146
0.0
  0
ENDTAB
  0
TABLE
  2
LTYPE
  5
5
330
0
100
AcDbSymbolTable
 70
     1
  0
LTYPE
  5
14
330
5
100
AcDbSymbolTableRecord
100
AcDbLinetypeTableRecord
  2
ByBlock
 70
     0
  3

 72
    65
 73
     0
 40
0.0
  0
LTYPE
  5
15
330
5
100
AcDbSymbolTableRecord
100
AcDbLinetypeTableRecord
  2
ByLayer
 70
     0
  3

 72
    65
 73
     0
 40
0.0
  0
LTYPE
  5
16
330
5
100
AcDbSymbolTableRecord
100
AcDbLinetypeTableRecord
  2
Continuous
 70
     0
  3
Solid line
 72
    65
 73
     0
 40
0.0
  0
ENDTAB
  0
TABLE
  2
LAYER
  5
2
102
{ACAD_XDICTIONARY
360
141
102
}
330
0
100
AcDbSymbolTable
 70
     4
  0
LAYER
  5
10
330
2
100
AcDbSymbolTableRecord
100
AcDbLayerTableRecord
  2
0
 70
     0
 62
     7
  6
Continuous
370
    -3
390
F
  0
LAYER
  5
124
330
2
100
AcDbSymbolTableRecord
100
AcDbLayerTableRecord
  2
Defpoints
 70
     0
 62
     7
  6
Continuous
290
     0
370
    -3
390
F
  0
LAYER
  5
13E
330
2
100
AcDbSymbolTableRecord
100
AcDbLayerTableRecord
  2
Hewi
 70
     0
 62
     7
  6
Continuous
370
    -3
390
F
  0
LAYER
  5
17E5
330
2
100
AcDbSymbolTableRecord
100
AcDbLayerTableRecord
  2
PV-174
 70
     2
 62
     7
  6
Continuous
370
    -3
390
F
  0
ENDTAB
  0
TABLE
  2
STYLE
  5
3
330
0
100
AcDbSymbolTable
 70
     1
  0
STYLE
  5
11
330
3
100
AcDbSymbolTableRecord
100
AcDbTextStyleTableRecord
  2
Standard
 70
     0
 40
0.0
 41
1.0
 50
0.0
 71
     0
 42
2.5
  3
txt
  4

  0
ENDTAB
  0
TABLE
  2
VIEW
  5
6
330
0
100
AcDbSymbolTable
 70
     0
  0
ENDTAB
  0
TABLE
  2
UCS
  5
7
330
0
100
AcDbSymbolTable
 70
     0
  0
ENDTAB
  0
TABLE
  2
APPID
  5
9
330
0
100
AcDbSymbolTable
 70
     3
  0
APPID
  5
12
330
9
100
AcDbSymbolTableRecord
100
AcDbRegAppTableRecord
  2
ACAD
 70
     0
  0
APPID
  5
9E
330
9
100
AcDbSymbolTableRecord
100
AcDbRegAppTableRecord
  2
ACAD_PSEXT
 70
     0
  0
APPID
  5
212
330
9
100
AcDbSymbolTableRecord
100
AcDbRegAppTableRecord
  2
ACAD_EXEMPT_FROM_CAD_STANDARDS
 70
     0
  0
ENDTAB
  0
TABLE
  2
DIMSTYLE
  5
A
330
0
100
AcDbSymbolTable
 70
     2
100
AcDbDimStyleTable
 71
     1
340
27
  0
DIMSTYLE
105
27
330
A
100
AcDbSymbolTableRecord
100
AcDbDimStyleTableRecord
  2
ISO-25
 70
     0
 41
2.5
 42
0.625
 43
3.75
 44
1.25
 73
     0
 74
     0
 77
     1
 78
     8
140
2.5
141
2.5
143
0.03937007874016
147
0.625
171
     3
172
     1
271
     2
272
     2
274
     3
278
    44
283
     0
284
     8
340
11
  0
DIMSTYLE
105
254
330
A
100
AcDbSymbolTableRecord
100
AcDbDimStyleTableRecord
  2
Standard
 70
     0
340
11
  0
ENDTAB
  0
TABLE
  2
BLOCK_RECORD
  5
1
330
0
100
AcDbSymbolTable
 70
     4
  0
BLOCK_RECORD
  5
1F
102
{ACAD_XDICTIONARY
360
116
102
}
330
1
100
AcDbSymbolTableRecord
100
AcDbBlockTableRecord
  2
*Model_Space
340
22
  0
BLOCK_RECORD
  5
D2
330
1
100
AcDbSymbolTableRecord
100
AcDbBlockTableRecord
  2
*Paper_Space
340
D3
  0
BLOCK_RECORD
  5
D6
330
1
100
AcDbSymbolTableRecord
100
AcDbBlockTableRecord
  2
*Paper_Space0
340
D7
  0
BLOCK_RECORD
  5
19CD
330
1
100
AcDbSymbolTableRecord
100
AcDbBlockTableRecord
  2
*D1
340
0
  0
BLOCK_RECORD
  5
19E5
330
1
100
AcDbSymbolTableRecord
100
AcDbBlockTableRecord
  2
*D2
340
0
  0
BLOCK_RECORD
  5
1A47
330
1
100
AcDbSymbolTableRecord
100
AcDbBlockTableRecord
  2
*D3
340
0
  0
ENDTAB
  0
ENDSEC
  0
SECTION
  2
BLOCKS
  0
BLOCK
  5
20
330
1F
100
AcDbEntity
  8
0
100
AcDbBlockBegin
  2
*Model_Space
 70
     0
 10
0.0
 20
0.0
 30
0.0
  3
*Model_Space
  1

  0
ENDBLK
  5
21
330
1F
100
AcDbEntity
  8
0
100
AcDbBlockEnd
  0
BLOCK
  5
D4
330
D2
100
AcDbEntity
 67
     1
  8
0
100
AcDbBlockBegin
  2
*Paper_Space
 70
     0
 10
0.0
 20
0.0
 30
0.0
  3
*Paper_Space
  1

  0
ENDBLK
  5
D5
330
D2
100
AcDbEntity
 67
     1
  8
0
100
AcDbBlockEnd
  0
BLOCK
  5
D8
330
D6
100
AcDbEntity
 67
     1
  8
0
100
AcDbBlockBegin
  2
*Paper_Space0
 70
     0
 10
0.0
 20
0.0
 30
0.0
  3
*Paper_Space0
  1

  0
ENDBLK
  5
D9
330
D6
100
AcDbEntity
 67
     1
  8
0
100
AcDbBlockEnd
  0
BLOCK
  5
19D7
330
19CD
100
AcDbEntity
  8
0
100
AcDbBlockBegin
  2
*D1
 70
     1
 10
0.0
 20
0.0
 30
0.0
  3
*D1
  1

  0
LINE
  5
19DA
330
19CD
100
AcDbEntity
  8
0
 62
     0
370
    -2
100
AcDbLine
 10
284.9998885190725
 20
-1016.062978975265
 30
0.0
 11
153.556827527662
 21
-1016.062978975265
 31
0.0
  0
LINE
  5
19DB
330
19CD
100
AcDbEntity
  8
0
 62
     0
370
    -2
100
AcDbLine
 10
389.3587401791883
 20
-1932.562978975265
 30
0.0
 11
153.5568275276618
 21
-1932.562978975265
 31
0.0
  0
LINE
  5
19DC
330
19CD
100
AcDbEntity
  8
0
 62
     0
370
    -2
100
AcDbLine
 10
154.806827527662
 20
-1018.562978975265
 30
0.0
 11
154.8068275276618
 21
-1930.062978975265
 31
0.0
  0
SOLID
  5
19DD
330
19CD
100
AcDbEntity
  8
0
 62
     0
100
AcDbTrace
 10
154.3901608609953
 20
-1018.562978975265
 30
0.0
 11
155.2234941943287
 21
-1018.562978975265
 31
0.0
 12
154.806827527662
 22
-1016.062978975265
 32
0.0
 13
154.806827527662
 23
-1016.062978975265
 33
0.0
  0
SOLID
  5
19DE
330
19CD
100
AcDbEntity
  8
0
 62
     0
100
AcDbTrace
 10
154.3901608609951
 20
-1930.062978975265
 30
0.0
 11
155.2234941943285
 21
-1930.062978975265
 31
0.0
 12
154.8068275276618
 22
-1932.562978975265
 32
0.0
 13
154.8068275276618
 23
-1932.562978975265
 33
0.0
  0
MTEXT
  5
19DF
330
19CD
100
AcDbEntity
  8
0
 62
     0
100
AcDbMText
 10
152.7234941943288
 20
-1474.312978975265
 30
0.0
 40
2.5
 41
0.0
 71
     5
 72
     1
  1
916,5
 11
0.0000000000000001
 21
1.0
 31
0.0
 73
     1
 44
1.0
1001
ACAD
1000
MTEXTBEGIN
1070
    73
1070
     1
1070
    44
1040
1.0
1070
    74
1070
     0
1000
MTEXTEND
  0
POINT
  5
19E0
330
19CD
100
AcDbEntity
  8
Defpoints
 62
     0
100
AcDbPoint
 10
285.6248885190725
 20
-1016.062978975265
 30
0.0
  0
POINT
  5
19E1
330
19CD
100
AcDbEntity
  8
Defpoints
 62
     0
100
AcDbPoint
 10
389.9837401791883
 20
-1932.562978975265
 30
0.0000000000000016
  0
POINT
  5
19E2
330
19CD
100
AcDbEntity
  8
Defpoints
 62
     0
100
AcDbPoint
 10
154.8068275276618
 20
-1932.562978975265
 30
0.0
  0
ENDBLK
  5
19D8
330
19CD
100
AcDbEntity
  8
0
100
AcDbBlockEnd
  0
BLOCK
  5
19EF
330
19E5
100
AcDbEntity
  8
0
100
AcDbBlockBegin
  2
*D2
 70
     1
 10
0.0
 20
0.0
 30
0.0
  3
*D2
  1

  0
LINE
  5
19F2
330
19E5
100
AcDbEntity
  8
0
 62
     0
370
    -2
100
AcDbLine
 10
269.1248885190716
 20
-1723.221733758987
 30
0.0
 11
269.1248885190716
 21
-1658.300991221769
 31
0.0
  0
LINE
  5
19F3
330
19E5
100
AcDbEntity
  8
0
 62
     0
370
    -2
100
AcDbLine
 10
685.6248885190723
 20
-1915.437978975265
 30
0.0
 11
685.6248885190723
 21
-1658.300991221769
 31
0.0
  0
LINE
  5
19F4
330
19E5
100
AcDbEntity
  8
0
 62
     0
370
    -2
100
AcDbLine
 10
271.6248885190716
 20
-1659.550991221768
 30
0.0
 11
683.1248885190723
 21
-1659.550991221768
 31
0.0
  0
SOLID
  5
19F5
330
19E5
100
AcDbEntity
  8
0
 62
     0
100
AcDbTrace
 10
271.6248885190716
 20
-1659.134324555102
 30
0.0
 11
271.6248885190716
 21
-1659.967657888435
 31
0.0
 12
269.1248885190716
 22
-1659.550991221768
 32
0.0
 13
269.1248885190716
 23
-1659.550991221768
 33
0.0
  0
SOLID
  5
19F6
330
19E5
100
AcDbEntity
  8
0
 62
     0
100
AcDbTrace
 10
683.1248885190723
 20
-1659.134324555102
 30
0.0
 11
683.1248885190723
 21
-1659.967657888435
 31
0.0
 12
685.6248885190723
 22
-1659.550991221768
 32
0.0
 13
685.6248885190723
 23
-1659.550991221768
 33
0.0
  0
MTEXT
  5
19F7
330
19E5
100
AcDbEntity
  8
0
 62
     0
100
AcDbMText
 10
477.374888519072
 20
-1657.467657888435
 30
0.0
 40
2.5
 41
0.0
 71
     5
 72
     1
  1
416,5
 73
     1
 44
1.0
1001
ACAD
1000
MTEXTBEGIN
1070
    73
1070
     1
1070
    44
1040
1.0
1070
    74
1070
     0
1000
MTEXTEND
  0
POINT
  5
19F8
330
19E5
100
AcDbEntity
  8
Defpoints
 62
     0
100
AcDbPoint
 10
269.1248885190716
 20
-1723.846733758987
 30
0.0000000000000015
  0
POINT
  5
19F9
330
19E5
100
AcDbEntity
  8
Defpoints
 62
     0
100
AcDbPoint
 10
685.6248885190723
 20
-1916.062978975265
 30
0.0
  0
POINT
  5
19FA
330
19E5
100
AcDbEntity
  8
Defpoints
 62
     0
100
AcDbPoint
 10
685.6248885190723
 20
-1659.550991221768
 30
0.0
  0
ENDBLK
  5
19F0
330
19E5
100
AcDbEntity
  8
0
100
AcDbBlockEnd
  0
BLOCK
  5
1A51
330
1A47
100
AcDbEntity
  8
0
100
AcDbBlockBegin
  2
*D3
 70
     1
 10
0.0
 20
0.0
 30
0.0
  3
*D3
  1

  0
LINE
  5
1A54
330
1A47
100
AcDbEntity
  8
0
 62
     0
370
    -2
100
AcDbLine
 10
285.6248885190725
 20
-2065.045101482445
 30
0.0
 11
285.6248885190725
 21
-2013.321997631082
 31
0.0
  0
LINE
  5
1A55
330
1A47
100
AcDbEntity
  8
0
 62
     0
370
    -2
100
AcDbLine
 10
684.9642085198047
 20
-2138.545101482446
 30
0.0
 11
684.9642085198047
 21
-2013.321997631082
 31
0.0
  0
LINE
  5
1A56
330
1A47
100
AcDbEntity
  8
0
 62
     0
370
    -2
100
AcDbLine
 10
288.1248885190725
 20
-2014.571997631082
 30
0.0
 11
682.4642085198047
 21
-2014.571997631082
 31
0.0
  0
SOLID
  5
1A57
330
1A47
100
AcDbEntity
  8
0
 62
     0
100
AcDbTrace
 10
288.1248885190725
 20
-2014.155330964415
 30
0.0
 11
288.1248885190725
 21
-2014.988664297749
 31
0.0
 12
285.6248885190725
 22
-2014.571997631082
 32
0.0
 13
285.6248885190725
 23
-2014.571997631082
 33
0.0
  0
SOLID
  5
1A58
330
1A47
100
AcDbEntity
  8
0
 62
     0
100
AcDbTrace
 10
682.4642085198047
 20
-2014.155330964415
 30
0.0
 11
682.4642085198047
 21
-2014.988664297749
 31
0.0
 12
684.9642085198047
 22
-2014.571997631082
 32
0.0
 13
684.9642085198047
 23
-2014.571997631082
 33
0.0
  0
MTEXT
  5
1A59
330
1A47
100
AcDbEntity
  8
0
 62
     0
100
AcDbMText
 10
485.2945485194386
 20
-2012.488664297749
 30
0.0
 40
2.5
 41
0.0
 71
     5
 72
     1
  1
399,34
 73
     1
 44
1.0
1001
ACAD
1000
MTEXTBEGIN
1070
    73
1070
     1
1070
    44
1040
1.0
1070
    74
1070
     0
1000
MTEXTEND
  0
POINT
  5
1A5A
330
1A47
100
AcDbEntity
  8
Defpoints
 62
     0
100
AcDbPoint
 10
285.6248885190725
 20
-2065.670101482445
 30
0.0
  0
POINT
  5
1A5B
330
1A47
100
AcDbEntity
  8
Defpoints
 62
     0
100
AcDbPoint
 10
684.9642085198047
 20
-2139.170101482445
 30
0.0000000000000003
  0
POINT
  5
1A5C
330
1A47
100
AcDbEntity
  8
Defpoints
 62
     0
100
AcDbPoint
 10
684.9642085198047
 20
-2014.571997631082
 30
0.0
  0
ENDBLK
  5
1A52
330
1A47
100
AcDbEntity
  8
0
100
AcDbBlockEnd
  0
ENDSEC
  0
SECTION
  2
ENTITIES
  0
LINE
  5
136B
330
1F
100
AcDbEntity
  8
Hewi
  6
Continuous
100
AcDbLine
 10
682.164208519802
 20
-2122.670571589915
 30
0.0000000000000003
 11
326.2184088433624
 21
-2122.670101482445
 31
0.0000000000000003
  0
LINE
  5
136C
330
1F
100
AcDbEntity
  8
Hewi
  6
Continuous
100
AcDbLine
 10
326.2184088433624
 20
-2122.670101482445
 30
0.0000000000000003
 11
306.7551890103447
 21
-2122.670101482445
 31
0.0000000000000003
  0
LINE
  5
136E
330
1F
100
AcDbEntity
  8
Hewi
  6
Continuous
100
AcDbLine
 10
312.8248885190714
 20
-2155.670101482445
 30
0.0000000000000003
 11
682.1642085198017
 21
-2155.670101482444
 31
0.0000000000000003
  0
LINE
  5
136F
330
1F
100
AcDbEntity
  8
Hewi
  6
Continuous
100
AcDbLine
 10
294.6248885190726
 20
-2114.308591219483
 30
0.0
 11
294.6248885190726
 21
-2078.670330722534
 31
0.0
  0
LINE
  5
1370
330
1F
100
AcDbEntity
  8
Hewi
  6
Continuous
100
AcDbLine
 10
276.6248885190726
 20
-2078.670653054428
 30
0.0
 11
276.6248885190726
 21
-2114.666703091896
 31
0.0
  0
LINE
  5
1371
330
1F
100
AcDbEntity
  8
Hewi
  6
Continuous
100
AcDbLine
 10
674.7098627703287
 20
-2076.670101482445
 30
0.0000000000000003
 11
674.7098627703287
 21
-2065.670101482445
 31
0.0000000000000003
  0
LINE
  5
1372
330
1F
100
AcDbEntity
  8
Hewi
  6
Continuous
100
AcDbLine
 10
594.7098627703288
 20
-2065.670101482445
 30
0.0000000000000003
 11
594.7098627703288
 21
-2076.670101482445
 31
0.0000000000000003
  0
LINE
  5
1373
330
1F
100
AcDbEntity
  8
Hewi
  6
Continuous
100
AcDbLine
 10
643.7098627703289
 20
-2122.663750184083
 30
0.0000000000000003
 11
643.7098627703289
 21
-2078.670531809413
 31
0.0000000000000003
  0
LINE
  5
1374
330
1F
100
AcDbEntity
  8
Hewi
  6
Continuous
100
AcDbLine
 10
625.709862770329
 20
-2078.67047473149
 30
0.0000000000000003
 11
625.709862770329
 21
-2122.670077403901
 31
0.0000000000000003
  0
LINE
  5
1375
330
1F
100
AcDbEntity
  8
Hewi
  6
Continuous
100
AcDbLine
 10
325.6248885190725
 20
-2076.670101482445
 30
0.0
 11
325.6248885190725
 21
-2065.670101482445
 31
0.0
  0
LINE
  5
1376
330
1F
100
AcDbEntity
  8
Hewi
  6
Continuous
100
AcDbLine
 10
245.6248885190725
 20
-2065.670101482445
 30
0.0
 11
245.6248885190725
 21
-2076.670101482445
 31
0.0
  0
LINE
  5
1379
330
1F
100
AcDbEntity
  8
Hewi
  6
Continuous
100
AcDbLine
 10
682.7748616883527
 20
-2122.670101482445
 30
0.0000000000000003
 11
682.6642085198017
 21
-2122.670101482445
 31
0.0000000000000003
  0
LINE
  5
137A
330
1F
100
AcDbEntity
  8
Hewi
  6
Continuous
100
AcDbLine
 10
682.6642085198017
 20
-2155.670101482445
 30
0.0000000000000003
 11
682.7748616883527
 21
-2155.670101482445
 31
0.0000000000000003
  0
LINE
  5
137B
330
1F
100
AcDbEntity
  8
Hewi
  6
Continuous
100
AcDbLine
 10
682.1642085198017
 20
-2139.170101482445
 30
0.0000000000000003
 11
682.1642085198017
 21
-2122.670101482445
 31
0.0000000000000003
  0
LINE
  5
137C
330
1F
100
AcDbEntity
  8
Hewi
  6
Continuous
100
AcDbLine
 10
682.1642085198017
 20
-2155.670101482445
 30
0.0000000000000003
 11
682.1642085198017
 21
-2139.170101482445
 31
0.0000000000000003
  0
LINE
  5
1380
330
1F
100
AcDbEntity
  8
Hewi
  6
Continuous
100
AcDbLine
 10
596.709862770329
 20
-2078.670101482445
 30
0.0000000000000003
 11
672.709862770329
 21
-2078.670101482445
 31
0.0000000000000003
  0
LINE
  5
1381
330
1F
100
AcDbEntity
  8
Hewi
  6
Continuous
100
AcDbLine
 10
594.7098627703288
 20
-2065.670101482445
 30
0.0000000000000003
 11
674.7098627703287
 21
-2065.670101482445
 31
0.0000000000000003
  0
LINE
  5
1382
330
1F
100
AcDbEntity
  8
Hewi
  6
Continuous
100
AcDbLine
 10
245.6248885190725
 20
-2065.670101482445
 30
0.0
 11
325.6248885190725
 21
-2065.670101482445
 31
0.0
  0
LINE
  5
1385
330
1F
100
AcDbEntity
  8
Hewi
  6
Continuous
100
AcDbLine
 10
247.6248885190725
 20
-2078.670101482445
 30
0.0
 11
323.6248885190726
 21
-2078.670101482445
 31
0.0
  0
LINE
  5
138E
330
1F
100
AcDbEntity
  8
Hewi
  6
Continuous
100
AcDbLine
 10
682.6642085198017
 20
-2155.670101482445
 30
0.0000000000000003
 11
682.6642085198017
 21
-2122.670101482445
 31
0.0000000000000003
  0
LINE
  5
138F
330
1F
100
AcDbEntity
  8
Hewi
100
AcDbLine
 10
682.8248885190696
 20
-1899.562978975265
 30
-0.0000000000000016
 11
334.1248885190726
 21
-1899.562978975265
 31
-0.0000000000000016
  0
LINE
  5
1390
330
1F
100
AcDbEntity
  8
Hewi
100
AcDbLine
 10
334.1248885190726
 20
-1932.562978975265
 30
0.0000000000000016
 11
682.8248885190696
 21
-1932.562978975266
 31
0.0000000000000015
  0
LINE
  5
1391
330
1F
100
AcDbEntity
  8
Hewi
100
AcDbLine
 10
632.9946257795817
 20
-1955.992316329772
 30
0.0000000000000003
 11
632.9963880137947
 21
-1956.104999268887
 31
0.0000000000000003
  0
LINE
  5
1392
330
1F
100
AcDbEntity
  8
Hewi
100
AcDbLine
 10
638.9956544252782
 20
-1956.011177501403
 30
0.0000000000000003
 11
638.9938925853494
 21
-1955.898519773757
 31
0.0000000000000003
  0
LINE
  5
1397
330
1F
100
AcDbEntity
  8
Hewi
100
AcDbLine
 10
633.5327194528654
 20
-1956.020735860796
 30
0.0000000000000003
 11
633.6097630104922
 21
-1956.095406775007
 31
0.0000000000000003
  0
LINE
  5
1398
330
1F
100
AcDbEntity
  8
Hewi
100
AcDbLine
 10
638.3822794285953
 20
-1956.020769995281
 30
0.0000000000000003
 11
638.4569503428065
 21
-1955.943726437655
 31
0.0000000000000003
  0
LINE
  5
139B
330
1F
100
AcDbEntity
  8
Hewi
100
AcDbLine
 10
683.4355416876205
 20
-1899.562978975265
 30
-0.0000000000000016
 11
683.3248885190696
 21
-1899.562978975265
 31
-0.0000000000000016
  0
LINE
  5
139C
330
1F
100
AcDbEntity
  8
Hewi
100
AcDbLine
 10
683.3248885190696
 20
-1932.562978975266
 30
0.0000000000000016
 11
683.4355416876205
 21
-1932.562978975266
 31
0.0000000000000016
  0
LINE
  5
139D
330
1F
100
AcDbEntity
  8
Hewi
100
AcDbLine
 10
633.6097630104922
 20
-1956.095406775007
 30
0.0000000000000003
 11
633.6085755787353
 21
-1956.019478559488
 31
0.0000000000000003
  0
LINE
  5
139E
330
1F
100
AcDbEntity
  8
Hewi
100
AcDbLine
 10
638.3822794285953
 20
-1956.020769995281
 30
0.0000000000000003
 11
638.3810919968527
 21
-1955.944841779762
 31
0.0000000000000003
  0
LINE
  5
13CB
330
1F
100
AcDbEntity
  8
Hewi
100
AcDbLine
 10
638.3822794285953
 20
-1956.020769995281
 30
0.0000000000000003
 11
633.6097630104922
 21
-1956.095406775007
 31
0.0000000000000003
  0
LINE
  5
13D3
330
1F
100
AcDbEntity
  8
Hewi
100
AcDbLine
 10
683.3248885190696
 20
-1932.562978975266
 30
0.0000000000000016
 11
683.3248885190696
 21
-1899.562978975265
 31
-0.0000000000000016
  0
ARC
  5
13DF
330
1F
100
AcDbEntity
  8
Hewi
  6
Continuous
100
AcDbCircle
 10
682.1642085198017
 20
-2155.170101482445
 30
0.0000000000000003
 40
0.5
100
AcDbArc
 50
270.0
 51
0.0
  0
ARC
  5
13E0
330
1F
100
AcDbEntity
  8
Hewi
  6
Continuous
100
AcDbCircle
 10
682.1642085198017
 20
-2123.170101482445
 30
0.0000000000000003
 40
0.5
100
AcDbArc
 50
0.0
 51
90.0
  0
ARC
  5
13E3
330
1F
100
AcDbEntity
  8
Hewi
  6
Continuous
100
AcDbCircle
 10
672.709862770329
 20
-2076.670101482445
 30
0.0000000000000003
 40
2.0
100
AcDbArc
 50
270.0
 51
0.0
  0
ARC
  5
13E4
330
1F
100
AcDbEntity
  8
Hewi
  6
Continuous
100
AcDbCircle
 10
596.709862770329
 20
-2076.670101482445
 30
0.0000000000000003
 40
2.0
100
AcDbArc
 50
180.0
 51
270.0
  0
ARC
  5
13E5
330
1F
100
AcDbEntity
  8
Hewi
  6
Continuous
100
AcDbCircle
 10
323.6248885190726
 20
-2076.670101482445
 30
0.0
 40
2.0
100
AcDbArc
 50
270.0
 51
0.0
  0
ARC
  5
13E6
330
1F
100
AcDbEntity
  8
Hewi
  6
Continuous
100
AcDbCircle
 10
247.6248885190725
 20
-2076.670101482445
 30
0.0
 40
2.0
100
AcDbArc
 50
180.0
 51
270.0
  0
ARC
  5
13EA
330
1F
100
AcDbEntity
  8
Hewi
  6
Continuous
100
AcDbCircle
 10
682.7748616883527
 20
-2154.470101482448
 30
0.0000000000000003
 40
1.199999999999999
100
AcDbArc
 50
270.0
 51
352.6004459106721
  0
ARC
  5
13EB
330
1F
100
AcDbEntity
  8
Hewi
  6
Continuous
100
AcDbCircle
 10
682.7748616883527
 20
-2123.870101482456
 30
0.0000000000000003
 40
1.199999999999999
100
AcDbArc
 50
7.399554089327825
 51
90.0
  0
ARC
  5
13EC
330
1F
100
AcDbEntity
  8
Hewi
  6
Continuous
100
AcDbCircle
 10
564.9642085198047
 20
-2139.170101482445
 30
0.0000000000000003
 40
120.0
100
AcDbArc
 50
352.6004459106721
 51
7.399554089327825
  0
ARC
  5
13ED
330
1F
100
AcDbEntity
  8
Hewi
100
AcDbCircle
 10
682.8248885190696
 20
-1932.062978975265
 30
0.0000000000000015
 40
0.5
100
AcDbArc
 50
270.0
 51
0.0
  0
ARC
  5
13EE
330
1F
100
AcDbEntity
  8
Hewi
100
AcDbCircle
 10
682.8248885190696
 20
-1900.062978975266
 30
-0.0000000000000015
 40
0.5
100
AcDbArc
 50
0.0
 51
90.0
  0
ARC
  5
13F4
330
1F
100
AcDbEntity
  8
Hewi
100
AcDbCircle
 10
683.4355416876205
 20
-1931.362978975253
 30
0.0000000000000015
 40
1.199999999999999
100
AcDbArc
 50
270.0
 51
352.6004459106721
  0
ARC
  5
13F5
330
1F
100
AcDbEntity
  8
Hewi
100
AcDbCircle
 10
683.4355416876205
 20
-1900.762978975263
 30
-0.0000000000000015
 40
1.199999999999999
100
AcDbArc
 50
7.39955408932783
 51
90.0
  0
ARC
  5
13F6
330
1F
100
AcDbEntity
  8
Hewi
100
AcDbCircle
 10
565.6248885190723
 20
-1916.062978975265
 30
0.0
 40
120.0
100
AcDbArc
 50
352.6004459106721
 51
7.39955408932783
  0
ARC
  5
13F7
330
1F
100
AcDbEntity
  8
Hewi
100
AcDbCircle
 10
-635.3705427695968
 20
-1916.062978975265
 30
0.0
 40
40.0
210
0.0
220
0.0
230
-1.0
100
AcDbArc
 50
89.99999875269006
 51
155.6381297070181
  0
ARC
  5
13F8
330
1F
100
AcDbEntity
  8
Hewi
100
AcDbCircle
 10
-635.3705427695968
 20
-1916.062978975265
 30
0.0
 40
40.0
210
0.0
220
0.0
230
-1.0
100
AcDbArc
 50
204.367505909317
 51
335.6325091967972
  0
ARC
  5
13F9
330
1F
100
AcDbEntity
  8
Hewi
100
AcDbCircle
 10
-635.3705427695968
 20
-1916.062978975265
 30
0.0
 40
40.0
210
0.0
220
0.0
230
-1.0
100
AcDbArc
 50
24.36188212269674
 51
90.000013076744
  0
SPLINE
  5
1411
330
1F
100
AcDbEntity
  8
Hewi
  6
Continuous
100
AcDbSpline
210
0.0
220
0.0
230
1.0
 70
     8
 71
     3
 72
    14
 73
    10
 74
     0
 42
0.0000000001
 43
0.0000000001
 40
0.0
 40
0.0
 40
0.0
 40
0.0
 40
0.2434469386710948
 40
0.2434469386710948
 40
0.4956312924473967
 40
0.4956312924473967
 40
0.7478156462236985
 40
0.7478156462236985
 40
1.0
 40
1.0
 40
1.0
 40
1.0
 10
625.7100888155747
 20
-2122.670364956629
 30
0.0000000000000003
 10
625.7217446800406
 20
-2122.670952329815
 30
0.0000000000000003
 10
626.6754866710451
 20
-2123.218966423005
 30
0.0000000000000003
 10
629.8183957404744
 20
-2124.50951406576
 30
0.0000000000000003
 10
632.1100916383348
 20
-2125.202932761773
 30
0.0000000000000003
 10
636.9209155771732
 20
-2125.221010003642
 30
0.0000000000000003
 10
639.2851363095742
 20
-2124.53183111251
 30
0.0000000000000003
 10
642.6129017436815
 20
-2123.216203670668
 30
0.0000000000000003
 10
643.6707743337375
 20
-2122.641737187785
 30
0.0000000000000003
 10
643.7087623875612
 20
-2122.671325097583
 30
0.0000000000000003
  0
LINE
  5
1637
330
1F
100
AcDbEntity
  8
Hewi
  6
Continuous
100
AcDbLine
 10
643.7098627703289
 20
-2122.663750184083
 30
0.0000000000000003
 11
682.1642085198017
 21
-2122.663750184083
 31
0.0000000000000003
  0
LINE
  5
1682
330
1F
100
AcDbEntity
  8
Hewi
100
AcDbLine
 10
302.1248885190725
 20
-1867.562978975264
 30
0.0000000000000059
 11
302.1248885190717
 21
-1402.639580998721
 31
-0.0000000000000005
  0
LINE
  5
1683
330
1F
100
AcDbEntity
  8
Hewi
100
AcDbLine
 10
269.1248885190717
 20
-1018.862978975253
 30
0.0000000000000017
 11
269.1248885190717
 21
-1294.639558454395
 31
0.0000000000000016
  0
LINE
  5
1684
330
1F
100
AcDbEntity
  8
Hewi
100
AcDbLine
 10
245.6995759701667
 20
-1063.874099860078
 30
0.0000000000000003
 11
245.6237459359247
 21
-1063.95000283175
 31
0.0000000000000003
  0
LINE
  5
1685
330
1F
100
AcDbEntity
  8
Hewi
100
AcDbLine
 10
245.6260403449696
 20
-1068.723102280281
 30
0.0000000000000003
 11
245.7019433166276
 21
-1068.798932314524
 31
0.0000000000000003
  0
LINE
  5
1686
330
1F
100
AcDbEntity
  8
Hewi
100
AcDbLine
 10
245.7361477580266
 20
-1063.336498729776
 30
0.0000000000000003
 11
245.6234510531067
 21
-1063.336552902613
 31
0.0000000000000003
  0
LINE
  5
1687
330
1F
100
AcDbEntity
  8
Hewi
100
AcDbLine
 10
245.6263352277886
 20
-1069.336552209418
 30
0.0000000000000003
 11
245.7390067181687
 21
-1069.336498048688
 31
0.0000000000000003
  0
LINE
  5
1688
330
1F
100
AcDbEntity
  8
Hewi
100
AcDbLine
 10
269.1248885190717
 20
-1018.252325806717
 30
0.0000000000000016
 11
269.1248885190717
 21
-1018.362978975253
 31
0.0000000000000016
  0
LINE
  5
1689
330
1F
100
AcDbEntity
  8
Hewi
100
AcDbLine
 10
302.1248885190717
 20
-1018.362978975253
 30
-0.0000000000000016
 11
302.1248885190717
 21
-1018.252325806717
 31
-0.0000000000000016
  0
LINE
  5
168A
330
1F
100
AcDbEntity
  8
Hewi
100
AcDbLine
 10
245.6237459359247
 20
-1063.95000283175
 30
0.0000000000000003
 11
245.6996834271556
 21
-1063.949966328911
 31
0.0000000000000003
  0
LINE
  5
168B
330
1F
100
AcDbEntity
  8
Hewi
100
AcDbLine
 10
245.6260403449696
 20
-1068.723102280281
 30
0.0000000000000003
 11
245.7019778362008
 21
-1068.723065777457
 31
0.0000000000000003
  0
LINE
  5
168C
330
1F
100
AcDbEntity
  8
Hewi
100
AcDbLine
 10
245.6260403449696
 20
-1068.723102280281
 30
0.0000000000000003
 11
245.6237459359247
 21
-1063.95000283175
 31
0.0000000000000003
  0
LINE
  5
168D
330
1F
100
AcDbEntity
  8
Hewi
100
AcDbLine
 10
269.1248885190717
 20
-1018.362978975253
 30
0.0000000000000016
 11
302.1248885190717
 21
-1018.362978975253
 31
-0.0000000000000016
  0
ARC
  5
168E
330
1F
100
AcDbEntity
  8
Hewi
100
AcDbCircle
 10
269.6248885190726
 20
-1018.862978975253
 30
0.0000000000000015
 40
0.5
100
AcDbArc
 50
90.0
 51
180.0
  0
ARC
  5
168F
330
1F
100
AcDbEntity
  8
Hewi
100
AcDbCircle
 10
301.6248885190716
 20
-1018.862978975253
 30
-0.0000000000000015
 40
0.5
100
AcDbArc
 50
0.0
 51
90.0
  0
ARC
  5
1690
330
1F
100
AcDbEntity
  8
Hewi
100
AcDbCircle
 10
300.9248885190745
 20
-1018.252325806717
 30
-0.0000000000000015
 40
1.199999999999999
100
AcDbArc
 50
0.0
 51
82.60044591067224
  0
ARC
  5
1691
330
1F
100
AcDbEntity
  8
Hewi
100
AcDbCircle
 10
270.3248885190837
 20
-1018.252325806717
 30
0.0000000000000015
 40
1.199999999999999
100
AcDbArc
 50
97.39955408932772
 51
180.0
  0
ARC
  5
1692
330
1F
100
AcDbEntity
  8
Hewi
100
AcDbCircle
 10
285.6248885190725
 20
-1136.062978975265
 30
0.0
 40
120.0
100
AcDbArc
 50
82.60044591067224
 51
97.39955408932772
  0
ARC
  5
1693
330
1F
100
AcDbEntity
  8
Hewi
100
AcDbCircle
 10
-285.6248885190725
 20
-1066.317324724726
 30
0.0
 40
40.0
210
0.0
220
0.0
230
-1.0
100
AcDbArc
 50
179.9999931814835
 51
245.638124134908
  0
ARC
  5
1694
330
1F
100
AcDbEntity
  8
Hewi
100
AcDbCircle
 10
-285.6248885190725
 20
-1066.317324724726
 30
0.0
 40
40.0
210
0.0
220
0.0
230
-1.0
100
AcDbArc
 50
294.3675003378844
 51
65.63250362536592
  0
ARC
  5
1695
330
1F
100
AcDbEntity
  8
Hewi
100
AcDbCircle
 10
-285.6248885190725
 20
-1066.317324724726
 30
0.0
 40
40.0
210
0.0
220
0.0
230
-1.0
100
AcDbArc
 50
114.3618765515155
 51
180.0000075055374
  0
ARC
  5
1754
330
1F
100
AcDbEntity
  8
Hewi
100
AcDbCircle
 10
334.1248885190726
 20
-1867.562978975264
 30
0.0000000000000059
 40
65.0
100
AcDbArc
 50
180.0
 51
270.0
  0
ARC
  5
1755
330
1F
100
AcDbEntity
  8
Hewi
100
AcDbCircle
 10
334.1248885190726
 20
-1867.562978975264
 30
0.0000000000000059
 40
32.0
100
AcDbArc
 50
180.0
 51
270.0
  0
ARC
  5
1761
330
1F
100
AcDbEntity
  8
Hewi
100
AcDbCircle
 10
285.6248885190725
 20
-1801.062978975265
 30
0.0
 40
40.0
100
AcDbArc
 50
114.3619779399814
 51
245.6380220600185
  0
ARC
  5
1762
330
1F
100
AcDbEntity
  8
Hewi
100
AcDbCircle
 10
285.6248885190725
 20
-1801.062978975265
 30
0.0
 40
40.0
100
AcDbArc
 50
294.3619779399798
 51
65.63802206002032
  0
CIRCLE
  5
1765
330
1F
100
AcDbEntity
  8
Hewi
100
AcDbCircle
 10
285.6248885190725
 20
-2139.119458450773
 30
0.0
 40
16.5
  0
LINE
  5
176B
330
1F
100
AcDbEntity
  8
Hewi
  6
Continuous
100
AcDbLine
 10
820.3978056614369
 20
-1876.062978975265
 30
0.0
 11
809.3978056614369
 21
-1876.062978975265
 31
0.0
  0
LINE
  5
176C
330
1F
100
AcDbEntity
  8
Hewi
  6
Continuous
100
AcDbLine
 10
809.3978056614369
 20
-1956.062978975265
 30
0.0
 11
820.3978056614369
 21
-1956.062978975265
 31
0.0
  0
LINE
  5
176D
330
1F
100
AcDbEntity
  8
Hewi
  6
Continuous
100
AcDbLine
 10
866.3914543630749
 20
-1907.062978975265
 30
0.0
 11
822.3982359884043
 21
-1907.062978975265
 31
0.0
  0
LINE
  5
176E
330
1F
100
AcDbEntity
  8
Hewi
  6
Continuous
100
AcDbLine
 10
822.3981789104813
 20
-1925.062978975265
 30
0.0
 11
869.0684889754976
 21
-1925.062978975265
 31
0.0
  0
LINE
  5
176F
330
1F
100
AcDbEntity
  8
Hewi
  6
Continuous
100
AcDbLine
 10
822.3978056614367
 20
-1954.062978975264
 30
0.0
 11
822.3978056614367
 21
-1878.062978975265
 31
0.0
  0
LINE
  5
1770
330
1F
100
AcDbEntity
  8
Hewi
  6
Continuous
100
AcDbLine
 10
809.3978056614369
 20
-1956.062978975265
 30
0.0
 11
809.3978056614369
 21
-1876.062978975265
 31
0.0
  0
ARC
  5
1771
330
1F
100
AcDbEntity
  8
Hewi
  6
Continuous
100
AcDbCircle
 10
820.3978056614369
 20
-1878.062978975265
 30
0.0
 40
2.0
100
AcDbArc
 50
0.0
 51
90.0
  0
ARC
  5
1772
330
1F
100
AcDbEntity
  8
Hewi
  6
Continuous
100
AcDbCircle
 10
820.3978056614369
 20
-1954.062978975264
 30
0.0
 40
2.0
100
AcDbArc
 50
270.0
 51
0.0
  0
LINE
  5
1775
330
1F
100
AcDbEntity
  8
Hewi
  6
Continuous
100
AcDbLine
 10
820.3978056614369
 20
-1761.062978975265
 30
0.0
 11
809.3978056614369
 21
-1761.062978975265
 31
0.0
  0
LINE
  5
1776
330
1F
100
AcDbEntity
  8
Hewi
  6
Continuous
100
AcDbLine
 10
809.3978056614369
 20
-1841.062978975265
 30
0.0
 11
820.3978056614369
 21
-1841.062978975265
 31
0.0
  0
LINE
  5
1777
330
1F
100
AcDbEntity
  8
Hewi
  6
Continuous
100
AcDbLine
 10
866.3914543630749
 20
-1792.062978975265
 30
0.0
 11
822.3982359884043
 21
-1792.062978975265
 31
0.0
  0
LINE
  5
1778
330
1F
100
AcDbEntity
  8
Hewi
  6
Continuous
100
AcDbLine
 10
822.3981789104813
 20
-1810.062978975265
 30
0.0
 11
866.3977815828921
 21
-1810.062978975265
 31
0.0
  0
LINE
  5
1779
330
1F
100
AcDbEntity
  8
Hewi
  6
Continuous
100
AcDbLine
 10
822.3978056614367
 20
-1839.062978975265
 30
0.0
 11
822.3978056614367
 21
-1763.062978975264
 31
0.0
  0
LINE
  5
177A
330
1F
100
AcDbEntity
  8
Hewi
  6
Continuous
100
AcDbLine
 10
809.3978056614369
 20
-1841.062978975265
 30
0.0
 11
809.3978056614369
 21
-1761.062978975265
 31
0.0
  0
ARC
  5
177B
330
1F
100
AcDbEntity
  8
Hewi
  6
Continuous
100
AcDbCircle
 10
820.3978056614369
 20
-1763.062978975264
 30
0.0
 40
2.0
100
AcDbArc
 50
0.0
 51
90.0
  0
ARC
  5
177C
330
1F
100
AcDbEntity
  8
Hewi
  6
Continuous
100
AcDbCircle
 10
820.3978056614369
 20
-1839.062978975265
 30
0.0
 40
2.0
100
AcDbArc
 50
270.0
 51
0.0
  0
SPLINE
  5
177D
330
1F
100
AcDbEntity
  8
Hewi
  6
Continuous
100
AcDbSpline
210
0.0
220
0.0
230
1.0
 70
     8
 71
     3
 72
    14
 73
    10
 74
     0
 42
0.0000000001
 43
0.0000000001
 40
0.0
 40
0.0
 40
0.0
 40
0.0
 40
0.2434469386710948
 40
0.2434469386710948
 40
0.4956312924473967
 40
0.4956312924473967
 40
0.7478156462236985
 40
0.7478156462236985
 40
1.0
 40
1.0
 40
1.0
 40
1.0
 10
866.3980691356201
 20
-1810.062752930019
 30
0.0
 10
866.3986565088062
 20
-1810.051097065553
 30
0.0
 10
866.9466706019962
 20
-1809.097355074548
 30
0.0
 10
868.2372182447512
 20
-1805.954446005119
 30
0.0
 10
868.9306369407649
 20
-1803.662750107259
 30
0.0
 10
868.9487141826329
 20
-1798.851926168421
 30
0.0
 10
868.2595352915019
 20
-1796.487705436019
 30
0.0
 10
866.9439078496592
 20
-1793.159940001912
 30
0.0
 10
866.3694413667768
 20
-1792.102067411856
 30
0.0
 10
866.3990292765744
 20
-1792.064079358032
 30
0.0
  0
LINE
  5
177E
330
1F
100
AcDbEntity
  8
Hewi
  6
Continuous
100
AcDbLine
 10
820.3978056614369
 20
-1026.317329964579
 30
0.0
 11
809.3978056614369
 21
-1026.317329964579
 31
0.0
  0
LINE
  5
177F
330
1F
100
AcDbEntity
  8
Hewi
  6
Continuous
100
AcDbLine
 10
809.3978056614369
 20
-1106.317329964579
 30
0.0
 11
820.3978056614369
 21
-1106.317329964579
 31
0.0
  0
LINE
  5
1780
330
1F
100
AcDbEntity
  8
Hewi
  6
Continuous
100
AcDbLine
 10
866.3914543630749
 20
-1057.317329964579
 30
0.0
 11
822.3982359884043
 21
-1057.317329964579
 31
0.0
  0
LINE
  5
1781
330
1F
100
AcDbEntity
  8
Hewi
  6
Continuous
100
AcDbLine
 10
822.3981789104813
 20
-1075.317329964579
 30
0.0
 11
866.3977815828921
 21
-1075.317329964579
 31
0.0
  0
LINE
  5
1782
330
1F
100
AcDbEntity
  8
Hewi
  6
Continuous
100
AcDbLine
 10
822.3978056614367
 20
-1104.317329964579
 30
0.0
 11
822.3978056614367
 21
-1028.317329964579
 31
0.0
  0
LINE
  5
1783
330
1F
100
AcDbEntity
  8
Hewi
  6
Continuous
100
AcDbLine
 10
809.3978056614369
 20
-1106.317329964579
 30
0.0
 11
809.3978056614369
 21
-1026.317329964579
 31
0.0
  0
ARC
  5
1784
330
1F
100
AcDbEntity
  8
Hewi
  6
Continuous
100
AcDbCircle
 10
820.3978056614369
 20
-1028.317329964579
 30
0.0
 40
2.0
100
AcDbArc
 50
0.0
 51
90.0
  0
ARC
  5
1785
330
1F
100
AcDbEntity
  8
Hewi
  6
Continuous
100
AcDbCircle
 10
820.3978056614369
 20
-1104.317329964579
 30
0.0
 40
2.0
100
AcDbArc
 50
270.0
 51
0.0
  0
SPLINE
  5
1786
330
1F
100
AcDbEntity
  8
Hewi
  6
Continuous
100
AcDbSpline
210
0.0
220
0.0
230
1.0
 70
     8
 71
     3
 72
    14
 73
    10
 74
     0
 42
0.0000000001
 43
0.0000000001
 40
0.0
 40
0.0
 40
0.0
 40
0.0
 40
0.2434469386710948
 40
0.2434469386710948
 40
0.4956312924473967
 40
0.4956312924473967
 40
0.7478156462236985
 40
0.7478156462236985
 40
1.0
 40
1.0
 40
1.0
 40
1.0
 10
866.3980691356201
 20
-1075.317103919334
 30
0.0
 10
866.3986565088062
 20
-1075.305448054868
 30
0.0
 10
866.9466706019962
 20
-1074.351706063863
 30
0.0
 10
868.2372182447512
 20
-1071.208796994434
 30
0.0
 10
868.9306369407649
 20
-1068.917101096574
 30
0.0
 10
868.9487141826329
 20
-1064.106277157735
 30
0.0
 10
868.2595352915019
 20
-1061.742056425334
 30
0.0
 10
866.9439078496592
 20
-1058.414290991227
 30
0.0
 10
866.3694413667768
 20
-1057.356418401171
 30
0.0
 10
866.3990292765744
 20
-1057.318430347347
 30
0.0
  0
LINE
  5
1787
330
1F
100
AcDbEntity
  8
Hewi
100
AcDbLine
 10
899.3978056614379
 20
-1916.062978975265
 30
0.0000000000000076
 11
899.397805661437
 21
-1402.651963536577
 31
0.0000000000000006
  0
LINE
  5
1788
330
1F
100
AcDbEntity
  8
Hewi
100
AcDbLine
 10
866.4031945446366
 20
-1018.789768025685
 30
0.0
 11
866.4026091838428
 21
-1057.344863467147
 31
0.0
  0
LINE
  5
1789
330
1F
100
AcDbEntity
  8
Hewi
100
AcDbLine
 10
866.3978056614368
 20
-1018.252325806717
 30
0.0000000000000026
 11
866.3978056614368
 21
-1018.362978975253
 31
0.0000000000000026
  0
LINE
  5
178A
330
1F
100
AcDbEntity
  8
Hewi
100
AcDbLine
 10
899.3978056614368
 20
-1018.362978975253
 30
-0.0000000000000006
 11
899.3978056614368
 21
-1018.252325806717
 31
-0.0000000000000006
  0
LINE
  5
178B
330
1F
100
AcDbEntity
  8
Hewi
100
AcDbLine
 10
866.3978056614368
 20
-1018.362978975253
 30
0.0000000000000026
 11
899.3978056614368
 21
-1018.362978975253
 31
-0.0000000000000006
  0
ARC
  5
178C
330
1F
100
AcDbEntity
  8
Hewi
100
AcDbCircle
 10
866.8978056614376
 20
-1018.862978975253
 30
0.0000000000000025
 40
0.5
100
AcDbArc
 50
90.0
 51
180.0
  0
ARC
  5
178D
330
1F
100
AcDbEntity
  8
Hewi
100
AcDbCircle
 10
898.8978056614369
 20
-1018.862978975253
 30
-0.0000000000000005
 40
0.5
100
AcDbArc
 50
0.0
 51
90.0
  0
ARC
  5
178E
330
1F
100
AcDbEntity
  8
Hewi
100
AcDbCircle
 10
898.1978056614398
 20
-1018.252325806717
 30
-0.0000000000000005
 40
1.199999999999999
100
AcDbArc
 50
0.0
 51
82.60044591067218
  0
ARC
  5
178F
330
1F
100
AcDbEntity
  8
Hewi
100
AcDbCircle
 10
867.5978056614487
 20
-1018.252325806717
 30
0.0000000000000025
 40
1.199999999999999
100
AcDbArc
 50
97.39955408932779
 51
180.0
  0
ARC
  5
1790
330
1F
100
AcDbEntity
  8
Hewi
100
AcDbCircle
 10
882.8978056614376
 20
-1136.062978975265
 30
0.000000000000001
 40
120.0
100
AcDbArc
 50
82.60044591067218
 51
97.39955408932779
  0
CIRCLE
  5
1792
330
1F
100
AcDbEntity
  8
Hewi
100
AcDbCircle
 10
882.8978056614369
 20
-1916.062978975265
 30
0.0
 40
16.5
  0
LINE
  5
1793
330
1F
100
AcDbEntity
  8
Hewi
100
AcDbLine
 10
866.3990292765744
 20
-1057.318430347347
 30
0.0
 11
866.3990292765744
 21
-1018.897937778186
 31
0.0
  0
LINE
  5
1794
330
1F
100
AcDbEntity
  8
Hewi
100
AcDbLine
 10
866.3977815828921
 20
-1810.062978975265
 30
0.0
 11
866.3978056614368
 21
-1916.062978975265
 31
0.0
  0
LINE
  5
179E
330
1F
100
AcDbEntity
  8
Hewi
  6
Continuous
100
AcDbLine
 10
68.25328512884789
 20
-1876.062978975265
 30
0.0
 11
79.25328512884789
 21
-1876.062978975265
 31
0.0
  0
LINE
  5
179F
330
1F
100
AcDbEntity
  8
Hewi
  6
Continuous
100
AcDbLine
 10
79.25328512884789
 20
-1956.062978975265
 30
0.0
 11
68.25328512884789
 21
-1956.062978975265
 31
0.0
  0
LINE
  5
17A0
330
1F
100
AcDbEntity
  8
Hewi
  6
Continuous
100
AcDbLine
 10
22.2596364272099
 20
-1907.062978975265
 30
0.0
 11
66.2528548018804
 21
-1907.062978975265
 31
0.0
  0
LINE
  5
17A1
330
1F
100
AcDbEntity
  8
Hewi
  6
Continuous
100
AcDbLine
 10
66.25291187980337
 20
-1925.062978975265
 30
0.0
 11
19.58260181478715
 21
-1925.062978975265
 31
0.0
  0
LINE
  5
17A2
330
1F
100
AcDbEntity
  8
Hewi
  6
Continuous
100
AcDbLine
 10
66.25328512884789
 20
-1954.062978975264
 30
0.0
 11
66.25328512884789
 21
-1878.062978975265
 31
0.0
  0
LINE
  5
17A3
330
1F
100
AcDbEntity
  8
Hewi
  6
Continuous
100
AcDbLine
 10
79.25328512884789
 20
-1956.062978975265
 30
0.0
 11
79.25328512884789
 21
-1876.062978975265
 31
0.0
  0
ARC
  5
17A4
330
1F
100
AcDbEntity
  8
Hewi
  6
Continuous
100
AcDbCircle
 10
68.25328512884789
 20
-1878.062978975265
 30
0.0
 40
2.0
100
AcDbArc
 50
90.0
 51
180.0
  0
ARC
  5
17A5
330
1F
100
AcDbEntity
  8
Hewi
  6
Continuous
100
AcDbCircle
 10
68.25328512884789
 20
-1954.062978975264
 30
0.0
 40
2.0
100
AcDbArc
 50
180.0
 51
270.0
  0
LINE
  5
17A6
330
1F
100
AcDbEntity
  8
Hewi
  6
Continuous
100
AcDbLine
 10
68.25328512884789
 20
-1761.062978975265
 30
0.0
 11
79.25328512884789
 21
-1761.062978975265
 31
0.0
  0
LINE
  5
17A7
330
1F
100
AcDbEntity
  8
Hewi
  6
Continuous
100
AcDbLine
 10
79.25328512884789
 20
-1841.062978975265
 30
0.0
 11
68.25328512884789
 21
-1841.062978975265
 31
0.0
  0
LINE
  5
17A8
330
1F
100
AcDbEntity
  8
Hewi
  6
Continuous
100
AcDbLine
 10
22.2596364272099
 20
-1792.062978975265
 30
0.0
 11
66.2528548018804
 21
-1792.062978975265
 31
0.0
  0
LINE
  5
17A9
330
1F
100
AcDbEntity
  8
Hewi
  6
Continuous
100
AcDbLine
 10
66.25291187980337
 20
-1810.062978975265
 30
0.0
 11
22.25330920739271
 21
-1810.062978975265
 31
0.0
  0
LINE
  5
17AA
330
1F
100
AcDbEntity
  8
Hewi
  6
Continuous
100
AcDbLine
 10
66.25328512884789
 20
-1839.062978975265
 30
0.0
 11
66.25328512884789
 21
-1763.062978975264
 31
0.0
  0
LINE
  5
17AB
330
1F
100
AcDbEntity
  8
Hewi
  6
Continuous
100
AcDbLine
 10
79.25328512884789
 20
-1841.062978975265
 30
0.0
 11
79.25328512884789
 21
-1761.062978975265
 31
0.0
  0
ARC
  5
17AC
330
1F
100
AcDbEntity
  8
Hewi
  6
Continuous
100
AcDbCircle
 10
68.25328512884789
 20
-1763.062978975264
 30
0.0
 40
2.0
100
AcDbArc
 50
90.0
 51
180.0
  0
ARC
  5
17AD
330
1F
100
AcDbEntity
  8
Hewi
  6
Continuous
100
AcDbCircle
 10
68.25328512884789
 20
-1839.062978975265
 30
0.0
 40
2.0
100
AcDbArc
 50
180.0
 51
270.0
  0
SPLINE
  5
17AE
330
1F
100
AcDbEntity
  8
Hewi
  6
Continuous
100
AcDbSpline
210
0.0
220
0.0
230
1.0
 70
     8
 71
     3
 72
    14
 73
    10
 74
     0
 42
0.0000000001
 43
0.0000000001
 40
0.0
 40
0.0
 40
0.0
 40
0.0
 40
0.2434469386710948
 40
0.2434469386710948
 40
0.4956312924473967
 40
0.4956312924473967
 40
0.7478156462236985
 40
0.7478156462236985
 40
1.0
 40
1.0
 40
1.0
 40
1.0
 10
22.25302165466473
 20
-1810.062752930019
 30
0.0
 10
22.2524342814786
 20
-1810.051097065553
 30
0.0
 10
21.70442018828862
 20
-1809.097355074548
 30
0.0
 10
20.41387254553365
 20
-1805.954446005119
 30
0.0
 10
19.7204538495198
 20
-1803.662750107259
 30
0.0
 10
19.70237660765178
 20
-1798.851926168421
 30
0.0
 10
20.39155549878296
 20
-1796.487705436019
 30
0.0
 10
21.70718294062544
 20
-1793.159940001912
 30
0.0
 10
22.28164942350804
 20
-1792.102067411856
 30
0.0
 10
22.25206151371049
 20
-1792.064079358032
 30
0.0
  0
LINE
  5
17AF
330
1F
100
AcDbEntity
  8
Hewi
  6
Continuous
100
AcDbLine
 10
68.25328512884789
 20
-1026.317329964579
 30
0.0
 11
79.25328512884789
 21
-1026.317329964579
 31
0.0
  0
LINE
  5
17B0
330
1F
100
AcDbEntity
  8
Hewi
  6
Continuous
100
AcDbLine
 10
79.25328512884789
 20
-1106.317329964579
 30
0.0
 11
68.25328512884789
 21
-1106.317329964579
 31
0.0
  0
LINE
  5
17B1
330
1F
100
AcDbEntity
  8
Hewi
  6
Continuous
100
AcDbLine
 10
22.2596364272099
 20
-1057.317329964579
 30
0.0
 11
66.2528548018804
 21
-1057.317329964579
 31
0.0
  0
LINE
  5
17B2
330
1F
100
AcDbEntity
  8
Hewi
  6
Continuous
100
AcDbLine
 10
66.25291187980337
 20
-1075.317329964579
 30
0.0
 11
22.25330920739271
 21
-1075.317329964579
 31
0.0
  0
LINE
  5
17B3
330
1F
100
AcDbEntity
  8
Hewi
  6
Continuous
100
AcDbLine
 10
66.25328512884789
 20
-1104.317329964579
 30
0.0
 11
66.25328512884789
 21
-1028.317329964579
 31
0.0
  0
LINE
  5
17B4
330
1F
100
AcDbEntity
  8
Hewi
  6
Continuous
100
AcDbLine
 10
79.25328512884789
 20
-1106.317329964579
 30
0.0
 11
79.25328512884789
 21
-1026.317329964579
 31
0.0
  0
ARC
  5
17B5
330
1F
100
AcDbEntity
  8
Hewi
  6
Continuous
100
AcDbCircle
 10
68.25328512884789
 20
-1028.317329964579
 30
0.0
 40
2.0
100
AcDbArc
 50
90.0
 51
180.0
  0
ARC
  5
17B6
330
1F
100
AcDbEntity
  8
Hewi
  6
Continuous
100
AcDbCircle
 10
68.25328512884789
 20
-1104.317329964579
 30
0.0
 40
2.0
100
AcDbArc
 50
180.0
 51
270.0
  0
SPLINE
  5
17B7
330
1F
100
AcDbEntity
  8
Hewi
  6
Continuous
100
AcDbSpline
210
0.0
220
0.0
230
1.0
 70
     8
 71
     3
 72
    14
 73
    10
 74
     0
 42
0.0000000001
 43
0.0000000001
 40
0.0
 40
0.0
 40
0.0
 40
0.0
 40
0.2434469386710948
 40
0.2434469386710948
 40
0.4956312924473967
 40
0.4956312924473967
 40
0.7478156462236985
 40
0.7478156462236985
 40
1.0
 40
1.0
 40
1.0
 40
1.0
 10
22.25302165466473
 20
-1075.317103919334
 30
0.0
 10
22.2524342814786
 20
-1075.305448054868
 30
0.0
 10
21.70442018828862
 20
-1074.351706063863
 30
0.0
 10
20.41387254553365
 20
-1071.208796994434
 30
0.0
 10
19.7204538495198
 20
-1068.917101096574
 30
0.0
 10
19.70237660765178
 20
-1064.106277157735
 30
0.0
 10
20.39155549878296
 20
-1061.742056425334
 30
0.0
 10
21.70718294062544
 20
-1058.414290991227
 30
0.0
 10
22.28164942350804
 20
-1057.356418401171
 30
0.0
 10
22.25206151371049
 20
-1057.318430347347
 30
0.0
  0
LINE
  5
17B8
330
1F
100
AcDbEntity
  8
Hewi
100
AcDbLine
 10
-10.74671487115313
 20
-1916.062978975265
 30
0.0000000000000076
 11
-10.74671487115224
 21
-1402.651963536577
 31
0.0000000000000006
  0
LINE
  5
17B9
330
1F
100
AcDbEntity
  8
Hewi
100
AcDbLine
 10
22.24789624564822
 20
-1018.789768025685
 30
0.0
 11
22.24848160644205
 21
-1057.344863467146
 31
0.0
  0
LINE
  5
17BA
330
1F
100
AcDbEntity
  8
Hewi
100
AcDbLine
 10
22.25328512884789
 20
-1018.252325806717
 30
0.0000000000000026
 11
22.25328512884789
 21
-1018.362978975253
 31
0.0000000000000026
  0
LINE
  5
17BB
330
1F
100
AcDbEntity
  8
Hewi
100
AcDbLine
 10
-10.7467148711521
 20
-1018.362978975253
 30
-0.0000000000000006
 11
-10.7467148711521
 21
-1018.252325806717
 31
-0.0000000000000006
  0
LINE
  5
17BC
330
1F
100
AcDbEntity
  8
Hewi
100
AcDbLine
 10
22.25328512884789
 20
-1018.362978975253
 30
0.0000000000000026
 11
-10.7467148711521
 21
-1018.362978975253
 31
-0.0000000000000006
  0
ARC
  5
17BD
330
1F
100
AcDbEntity
  8
Hewi
100
AcDbCircle
 10
21.75328512884698
 20
-1018.862978975253
 30
0.0000000000000025
 40
0.5
100
AcDbArc
 50
0.0
 51
90.0
  0
ARC
  5
17BE
330
1F
100
AcDbEntity
  8
Hewi
100
AcDbCircle
 10
-10.2467148711521
 20
-1018.862978975253
 30
-0.0000000000000005
 40
0.5
100
AcDbArc
 50
90.0
 51
180.0
  0
ARC
  5
17BF
330
1F
100
AcDbEntity
  8
Hewi
100
AcDbCircle
 10
-9.546714871155018
 20
-1018.252325806717
 30
-0.0000000000000005
 40
1.199999999999999
100
AcDbArc
 50
97.39955408932779
 51
180.0
  0
ARC
  5
17C0
330
1F
100
AcDbEntity
  8
Hewi
100
AcDbCircle
 10
21.0532851288358
 20
-1018.252325806717
 30
0.0000000000000025
 40
1.199999999999999
100
AcDbArc
 50
0.0
 51
82.60044591067218
  0
ARC
  5
17C1
330
1F
100
AcDbEntity
  8
Hewi
100
AcDbCircle
 10
5.753285128846982
 20
-1136.062978975265
 30
0.000000000000001
 40
120.0
100
AcDbArc
 50
82.60044591067218
 51
97.39955408932779
  0
ARC
  5
17C2
330
1F
100
AcDbEntity
  8
Hewi
100
AcDbCircle
 10
5.753285128847892
 20
-1916.062978975265
 30
0.0
 40
16.5
100
AcDbArc
 50
180.0
 51
0.0
  0
LINE
  5
17C3
330
1F
100
AcDbEntity
  8
Hewi
100
AcDbLine
 10
22.25206151371049
 20
-1057.318430347347
 30
0.0
 11
22.25206151371049
 21
-1018.897937778186
 31
0.0
  0
LINE
  5
17C4
330
1F
100
AcDbEntity
  8
Hewi
100
AcDbLine
 10
22.25330920739271
 20
-1810.062978975265
 30
0.0
 11
22.25328512884789
 21
-1916.062978975265
 31
0.0
  0
ARC
  5
17C5
330
1F
100
AcDbEntity
  8
Hewi
100
AcDbCircle
 10
5.753285128847892
 20
-1916.062978975265
 30
0.0
 40
16.5
100
AcDbArc
 50
180.0
 51
0.0
  0
LINE
  5
17C6
330
1F
100
AcDbEntity
  8
Hewi
100
AcDbLine
 10
22.25328512884789
 20
-1916.062978975265
 30
0.000000000000003
 11
22.25328512884789
 21
-1867.562978975264
 31
0.000000000000003
210
0.0
220
1.0
230
0.0
  0
LINE
  5
17C7
330
1F
100
AcDbEntity
  8
Hewi
100
AcDbLine
 10
-10.7467148711521
 20
-1867.562978975264
 30
-0.000000000000003
 11
-10.7467148711521
 21
-1916.062978975265
 31
-0.000000000000003
210
0.0
220
1.0
230
0.0
  0
LINE
  5
17DA
330
1F
100
AcDbEntity
  8
Hewi
100
AcDbLine
 10
22.24789624564822
 20
-1018.789768025685
 30
0.0
 11
22.25211487443069
 21
-1296.6519635366
 31
0.0
  0
LINE
  5
17DB
330
1F
100
AcDbEntity
  8
Hewi
100
AcDbLine
 10
866.4023364582156
 20
-1075.308079818511
 30
0.0
 11
866.3989759158541
 21
-1296.6519635366
 31
0.0
  0
LINE
  5
190B
330
1F
100
AcDbEntity
  8
PV-174
100
AcDbLine
 10
261.52531755177
 20
-1334.639580998734
 30
-0.000000000000003
 11
253.02531755177
 21
-1334.639580998734
 31
-0.000000000000004
210
0.0
220
1.0
230
0.0
  0
LINE
  5
190C
330
1F
100
AcDbEntity
  8
PV-174
100
AcDbLine
 10
261.52531755177
 20
-1294.639580998734
 30
-0.000000000000003
 11
253.02531755177
 21
-1294.639580998734
 31
-0.000000000000004
210
0.0
220
1.0
230
0.0
  0
ARC
  5
190D
330
1F
100
AcDbEntity
  8
PV-174
100
AcDbCircle
 10
228.3753175517713
 20
-1295.639580998721
 30
-0.0000000000000071
 40
0.9999999999999998
100
AcDbArc
 50
90.0
 51
180.0
  0
ARC
  5
190E
330
1F
100
AcDbEntity
  8
PV-174
100
AcDbCircle
 10
228.3753175517713
 20
-1333.639580998722
 30
-0.0000000000000071
 40
0.9999999999999998
100
AcDbArc
 50
180.0
 51
270.0
  0
SPLINE
  5
190F
330
1F
100
AcDbEntity
  8
PV-174
100
AcDbSpline
210
0.0000000000003131
220
-0.0000000000002765
230
1.0
 70
     8
 71
     3
 72
    10
 73
     6
 74
     0
 42
0.0000000001
 43
0.0000000001
 40
0.5238557413344813
 40
0.5238557413344813
 40
0.5238557413344813
 40
0.5238557413344813
 40
3.344927373450713
 40
3.344927373450713
 40
3.375545046730997
 40
3.375545046730997
 40
3.375545046730997
 40
3.375545046730997
 10
228.1453158803788
 20
-1310.876099721934
 30
-0.0000000000000071
 10
228.7433767303228
 20
-1310.161942648931
 30
-0.000000000000007
 10
229.3554251625019
 20
-1309.46538285215
 30
-0.0000000000000069
 10
229.9836850983756
 20
-1308.781530989915
 30
-0.0000000000000069
 10
229.9904317601793
 20
-1308.774190921486
 30
-0.0000000000000069
 10
229.9971796534555
 20
-1308.766853085316
 30
-0.0000000000000069
  0
SPLINE
  5
1910
330
1F
100
AcDbEntity
  8
PV-174
100
AcDbSpline
210
0.0000000000000033
220
-0.0000000000000055
230
1.0
 70
     8
 71
     3
 72
    18
 73
    14
 74
     0
 42
0.0000000001
 43
0.0000000001
 40
1.6540747858433
 40
1.6540747858433
 40
1.6540747858433
 40
1.6540747858433
 40
1.715582394495875
 40
1.715582394495875
 40
1.902970208297488
 40
1.902970208297488
 40
2.031734176382974
 40
2.031734176382974
 40
2.255265245202036
 40
2.255265245202036
 40
2.814065234951959
 40
2.814065234951959
 40
3.138692671095101
 40
3.138692671095101
 40
3.138692671095101
 40
3.138692671095101
 10
229.9971794787323
 20
-1308.766852958878
 30
-0.0000000000000069
 10
230.0108510770288
 20
-1308.751986156919
 30
-0.0000000000000069
 10
230.024656794697
 20
-1308.737338129712
 30
-0.0000000000000069
 10
230.080984350263
 20
-1308.678986835044
 30
-0.0000000000000069
 10
230.1245214827813
 20
-1308.637097590072
 30
-0.0000000000000068
 10
230.1991160984817
 20
-1308.570261408984
 30
-0.0000000000000068
 10
230.2298545125577
 20
-1308.544080839561
 30
-0.0000000000000068
 10
230.314614318323
 20
-1308.475492925356
 30
-0.0000000000000068
 10
230.3692235610597
 20
-1308.435231486327
 30
-0.0000000000000068
 10
230.5617183643708
 20
-1308.30708184004
 30
-0.0000000000000068
 10
230.6917191185275
 20
-1308.244573717141
 30
-0.0000000000000068
 10
230.8806181936871
 20
-1308.187605105245
 30
-0.0000000000000068
 10
230.9605140576277
 20
-1308.171340874961
 30
-0.0000000000000067
 10
231.0445692981848
 20
-1308.171371081091
 30
-0.0000000000000067
  0
SPLINE
  5
1911
330
1F
100
AcDbEntity
  8
PV-174
100
AcDbSpline
210
0.0
220
0.0
230
1.0
 70
     8
 71
     3
 72
    24
 73
    20
 74
     0
 42
0.0000000001
 43
0.0000000001
 40
0.0
 40
0.0
 40
0.0
 40
0.0
 40
0.0756974007302869
 40
0.0756974007302869
 40
0.2789853411804089
 40
0.2789853411804089
 40
0.3497529015458669
 40
0.3497529015458669
 40
0.5919349001703657
 40
0.5919349001703657
 40
1.276514795648737
 40
1.276514795648737
 40
1.476316936862741
 40
1.476316936862741
 40
1.827563147716625
 40
1.827563147716625
 40
1.910592365237698
 40
1.910592365237698
 40
1.954297335670275
 40
1.954297335670275
 40
1.954297335670275
 40
1.954297335670275
 10
227.3753175517713
 20
-1312.54782099668
 30
-0.0000000000000072
 10
227.3753175517713
 20
-1312.526731479931
 30
-0.0000000000000072
 10
227.3760800854507
 20
-1312.505560097815
 30
-0.0000000000000072
 10
227.38127541206
 20
-1312.427531101703
 30
-0.0000000000000072
 10
227.3897135704205
 20
-1312.369950984139
 30
-0.0000000000000072
 10
227.4056114294317
 20
-1312.291606024238
 30
-0.0000000000000072
 10
227.4101290828248
 20
-1312.271313832321
 30
-0.0000000000000072
 10
227.4317661562645
 20
-1312.181341718567
 30
-0.0000000000000072
 10
227.4528928566476
 20
-1312.110958430322
 30
-0.0000000000000072
 10
227.5466667931287
 20
-1311.840352938453
 30
-0.0000000000000072
 10
227.6437723338349
 20
-1311.634494294955
 30
-0.0000000000000072
 10
227.7903564444196
 20
-1311.379170305361
 30
-0.0000000000000071
 10
227.8250848870584
 20
-1311.321871716184
 30
-0.0000000000000071
 10
227.924787384678
 20
-1311.166021906704
 30
-0.0000000000000071
 10
227.9931851677357
 20
-1311.068392831889
 30
-0.0000000000000071
 10
228.0825369147178
 20
-1310.953212844832
 30
-0.0000000000000071
 10
228.0998601379524
 20
-1310.931412801696
 30
-0.0000000000000071
 10
228.1266477825127
 20
-1310.898546193403
 30
-0.0000000000000071
 10
228.1359504909551
 20
-1310.887283627347
 30
-0.0000000000000071
 10
228.1453160983219
 20
-1310.876099979438
 30
-0.0000000000000071
  0
SPLINE
  5
1912
330
1F
100
AcDbEntity
  8
PV-174
100
AcDbSpline
210
-0.0000000000000002
220
0.0000000000000004
230
-1.0
 70
     8
 71
     3
 72
    20
 73
    16
 74
     0
 42
0.0000000001
 43
0.0000000001
 40
1.736023434719105
 40
1.736023434719105
 40
1.736023434719105
 40
1.736023434719105
 40
4.481724718716971
 40
4.481724718716971
 40
8.494256553288714
 40
8.494256553288714
 40
12.2302098530054
 40
12.2302098530054
 40
16.0190034065687
 40
16.0190034065687
 40
20.63191901924623
 40
20.63191901924623
 40
24.55726384241274
 40
24.55726384241274
 40
27.09366019960931
 40
27.09366019960931
 40
27.09366019960931
 40
27.09366019960931
 10
232.5004687129158
 20
-1308.476106333589
 30
-0.0000000000000066
 10
233.1956417961601
 20
-1309.043864217678
 30
-0.0000000000000065
 10
233.9544920363005
 20
-1309.548890014037
 30
-0.0000000000000064
 10
235.9463617450674
 20
-1310.564502376926
 30
-0.0000000000000061
 10
237.2255476837145
 20
-1310.962546807809
 30
-0.000000000000006
 10
239.8006742008019
 20
-1311.186710877898
 30
-0.0000000000000057
 10
241.0296574497234
 20
-1311.04539873636
 30
-0.0000000000000055
 10
243.4227368030606
 20
-1310.311750200335
 30
-0.0000000000000052
 10
244.5496573688806
 20
-1309.724668572316
 30
-0.0000000000000051
 10
246.7941702715962
 20
-1308.122175028155
 30
-0.0000000000000048
 10
247.8642906648683
 20
-1307.037156358689
 30
-0.0000000000000047
 10
249.4161588256047
 20
-1304.895776762466
 30
-0.0000000000000045
 10
249.9586192069446
 20
-1303.864141229783
 30
-0.0000000000000044
 10
250.5059270294905
 20
-1302.205325787934
 30
-0.0000000000000044
 10
250.6289718754451
 20
-1301.576865774285
 30
-0.0000000000000043
 10
250.6582040111034
 20
-1300.983932948917
 30
-0.0000000000000043
  0
SPLINE
  5
1913
330
1F
100
AcDbEntity
  8
PV-174
100
AcDbSpline
210
0.0000000000000013
220
0.0000000000000038
230
1.0
 70
     8
 71
     3
 72
    18
 73
    14
 74
     0
 42
0.0000000001
 43
0.0000000001
 40
0.203900170074742
 40
0.203900170074742
 40
0.203900170074742
 40
0.203900170074742
 40
0.4140914887330024
 40
0.4140914887330024
 40
0.5531594004291947
 40
0.5531594004291947
 40
0.9342624836064976
 40
0.9342624836064976
 40
1.058715851533574
 40
1.058715851533574
 40
1.209079349970967
 40
1.209079349970967
 40
1.267392488679218
 40
1.267392488679218
 40
1.267392488679218
 40
1.267392488679218
 10
231.6970911598501
 20
-1308.171286843798
 30
-0.0000000000000067
 10
231.745469717699
 20
-1308.171279612756
 30
-0.0000000000000066
 10
231.7914065774703
 20
-1308.176836753896
 30
-0.0000000000000066
 10
231.8586685118953
 20
-1308.188639113408
 30
-0.0000000000000066
 10
231.8856094809498
 20
-1308.194524195944
 30
-0.0000000000000066
 10
231.9868120823076
 20
-1308.220263247127
 30
-0.0000000000000066
 10
232.0622866572903
 20
-1308.246593927077
 30
-0.0000000000000066
 10
232.1643663894402
 20
-1308.288691555359
 30
-0.0000000000000066
 10
232.189624375678
 20
-1308.299632092985
 30
-0.0000000000000066
 10
232.2456555389472
 20
-1308.324949365664
 30
-0.0000000000000066
 10
232.2764862505183
 20
-1308.339568994811
 30
-0.0000000000000066
 10
232.3194686226007
 20
-1308.360811780929
 30
-0.0000000000000066
 10
232.3315016357847
 20
-1308.366851797775
 30
-0.0000000000000066
 10
232.3435541875106
 20
-1308.372991408667
 30
-0.0000000000000066
  0
SPLINE
  5
1914
330
1F
100
AcDbEntity
  8
PV-174
100
AcDbSpline
210
0.0
220
0.0
230
1.0
 70
     8
 71
     3
 72
    24
 73
    20
 74
     0
 42
0.0000000001
 43
0.0000000001
 40
0.0
 40
0.0
 40
0.0
 40
0.0
 40
0.0069048149749769
 40
0.0069048149749769
 40
0.0247659649317762
 40
0.0247659649317762
 40
0.0545552763944881
 40
0.0545552763944881
 40
0.0643559091378874
 40
0.0643559091378874
 40
0.0859949234863203
 40
0.0859949234863203
 40
0.1473005450050084
 40
0.1473005450050084
 40
0.1844538307831443
 40
0.1844538307831443
 40
0.2059422517223871
 40
0.2059422517223871
 40
0.2061965395260138
 40
0.2061965395260138
 40
0.2061965395260138
 40
0.2061965395260138
 10
232.3435541874942
 20
-1308.372991408659
 30
-0.0000000000000066
 10
232.3454425111713
 20
-1308.37395332717
 30
-0.0000000000000066
 10
232.3473262497573
 20
-1308.374921957543
 30
-0.0000000000000066
 10
232.3540662627956
 20
-1308.378420103555
 30
-0.0000000000000066
 10
232.3588964489554
 20
-1308.380987600058
 30
-0.0000000000000066
 10
232.3717005244307
 20
-1308.387954389172
 30
-0.0000000000000066
 10
232.3796193261696
 20
-1308.392431756456
 30
-0.0000000000000066
 10
232.3900306644307
 20
-1308.398540427439
 30
-0.0000000000000066
 10
232.3925987668979
 20
-1308.400065491637
 30
-0.0000000000000066
 10
232.4008075181628
 20
-1308.404998657804
 30
-0.0000000000000066
 10
232.4064120637822
 20
-1308.408455873022
 30
-0.0000000000000066
 10
232.4277245587136
 20
-1308.421941123719
 30
-0.0000000000000066
 10
232.4431068939341
 20
-1308.432388455047
 30
-0.0000000000000066
 10
232.4672663747967
 20
-1308.449907958696
 30
-0.0000000000000066
 10
232.4762516067449
 20
-1308.45668346698
 30
-0.0000000000000066
 10
232.4902397536089
 20
-1308.467630820765
 30
-0.0000000000000066
 10
232.4953231214922
 20
-1308.47169494477
 30
-0.0000000000000066
 10
232.5004255509812
 20
-1308.475859560756
 30
-0.0000000000000066
 10
232.500485219656
 20
-1308.475908274375
 30
-0.0000000000000066
 10
232.5005448824961
 20
-1308.475956995121
 30
-0.0000000000000066
  0
LINE
  5
1915
330
1F
100
AcDbEntity
  8
PV-174
100
AcDbLine
 10
252.8753175517709
 20
-1297.239580998721
 30
-0.0000000000000041
 11
253.02531755177
 21
-1297.239580998721
 31
-0.000000000000004
210
0.0
220
1.0
230
0.0
  0
LINE
  5
1916
330
1F
100
AcDbEntity
  8
PV-174
100
AcDbLine
 10
252.8753175517709
 20
-1332.039580998722
 30
-0.0000000000000041
 11
253.02531755177
 21
-1332.039580998722
 31
-0.000000000000004
210
0.0
220
1.0
230
0.0
  0
LINE
  5
1917
330
1F
100
AcDbEntity
  8
PV-174
100
AcDbLine
 10
231.6971314892553
 20
-1308.171382463201
 30
-0.0000000000000067
 11
231.0445563673141
 21
-1308.171382463201
 31
-0.0000000000000067
210
0.0
220
1.0
230
0.0
  0
LINE
  5
1918
330
1F
100
AcDbEntity
  8
PV-174
100
AcDbLine
 10
228.3753175517713
 20
-1294.639580998721
 30
-0.0000000000000071
 11
252.8753175517709
 21
-1294.639580998721
 31
-0.0000000000000041
210
0.0
220
1.0
230
0.0
  0
LINE
  5
1919
330
1F
100
AcDbEntity
  8
PV-174
100
AcDbLine
 10
228.3753175517713
 20
-1334.639580998721
 30
-0.0000000000000071
 11
252.8753175517709
 21
-1334.639580998721
 31
-0.0000000000000041
210
0.0
220
1.0
230
0.0
  0
LINE
  5
191A
330
1F
100
AcDbEntity
  8
PV-174
100
AcDbLine
 10
253.02531755177
 20
-1294.639580998734
 30
-0.000000000000004
 11
253.02531755177
 21
-1314.639580998734
 31
-0.000000000000004
210
0.0
220
1.0
230
0.0
  0
LINE
  5
191B
330
1F
100
AcDbEntity
  8
PV-174
100
AcDbLine
 10
253.02531755177
 20
-1314.639580998734
 30
-0.000000000000004
 11
253.02531755177
 21
-1334.639580998734
 31
-0.000000000000004
210
0.0
220
1.0
230
0.0
  0
LINE
  5
191C
330
1F
100
AcDbEntity
  8
PV-174
100
AcDbLine
 10
252.8753175517709
 20
-1294.639580998721
 30
-0.0000000000000041
 11
252.8753175517709
 21
-1300.497445374991
 31
-0.0000000000000041
210
0.0
220
1.0
230
0.0
  0
LINE
  5
191D
330
1F
100
AcDbEntity
  8
PV-174
100
AcDbLine
 10
252.8753175517709
 20
-1300.49744537499
 30
-0.0000000000000041
 11
252.8753175517709
 21
-1334.639580998721
 31
-0.0000000000000041
210
0.0
220
1.0
230
0.0
  0
LINE
  5
191E
330
1F
100
AcDbEntity
  8
PV-174
100
AcDbLine
 10
227.3753175517713
 20
-1312.54782099668
 30
-0.0000000000000072
 11
227.3753175517713
 21
-1333.639580998722
 31
-0.0000000000000072
210
0.0
220
1.0
230
0.0
  0
LINE
  5
191F
330
1F
100
AcDbEntity
  8
PV-174
100
AcDbLine
 10
227.3753175517713
 20
-1295.755075707508
 30
-0.0000000000000072
 11
227.3753175517713
 21
-1312.54782099668
 31
-0.0000000000000072
210
0.0
220
1.0
230
0.0
  0
LINE
  5
1920
330
1F
100
AcDbEntity
  8
PV-174
100
AcDbLine
 10
227.3753175517713
 20
-1295.639580998721
 30
-0.0000000000000072
 11
227.3753175517713
 21
-1295.755075707508
 31
-0.0000000000000072
210
0.0
220
1.0
230
0.0
  0
SPLINE
  5
1921
330
1F
100
AcDbEntity
  8
PV-174
100
AcDbSpline
210
0.0000000000000002
220
0.0
230
-1.0
 70
     8
 71
     3
 72
    35
 73
    31
 74
     0
 42
0.0000000001
 43
0.0000000001
 40
132.3072857087947
 40
132.3072857087947
 40
132.3072857087947
 40
132.3072857087947
 40
136.7855331456034
 40
136.7855331456034
 40
141.7555702341805
 40
141.7555702341805
 40
141.7555702341805
 40
150.5350853176014
 40
150.5350853176014
 40
159.3158069937373
 40
159.3158069937373
 40
168.101503115555
 40
168.101503115555
 40
176.8930034281827
 40
176.8930034281827
 40
185.6877688664844
 40
185.6877688664844
 40
194.4814480186283
 40
194.4814480186283
 40
203.2703476028081
 40
203.2703476028081
 40
212.0534605094508
 40
212.0534605094508
 40
220.8330910535008
 40
220.8330910535008
 40
229.6136189378029
 40
229.6136189378029
 40
238.398942885138
 40
238.398942885138
 40
241.1243396664151
 40
241.1243396664151
 40
241.1243396664151
 40
241.1243396664151
 10
270.7253175609101
 20
-1363.172287636075
 30
-0.0000000000000019
 10
269.6130184069311
 20
-1364.16404493636
 30
-0.000000000000002
 10
268.60207996282
 20
-1365.263991062816
 30
-0.0000000000000021
 10
266.7150448819261
 20
-1367.7790128346
 30
-0.0000000000000024
 10
265.8720216372139
 20
-1369.207335795751
 30
-0.0000000000000025
 10
265.194007864571
 20
-1370.715030685634
 30
-0.0000000000000026
 10
263.996304097459
 20
-1373.378356892464
 30
-0.0000000000000027
 10
263.3314700683479
 20
-1376.249425967503
 30
-0.0000000000000028
 10
263.1425661721619
 20
-1382.08472697807
 30
-0.0000000000000028
 10
263.6204662410241
 20
-1384.99298591804
 30
-0.0000000000000027
 10
265.6675994972911
 20
-1390.464830835597
 30
-0.0000000000000025
 10
267.2178040430731
 20
-1392.975722567139
 30
-0.0000000000000023
 10
271.197224645583
 20
-1397.265025461221
 30
-0.0000000000000018
 10
273.5889048598419
 20
-1399.00187706488
 30
-0.0000000000000015
 10
278.906063864543
 20
-1401.463879234813
 30
-0.0000000000000009
 10
281.780954714181
 20
-1402.165142230896
 30
-0.0000000000000005
 10
287.637901122883
 20
-1402.428981251948
 30
0.0000000000000003
 10
290.564113973184
 20
-1401.989183019615
 30
0.0000000000000007
 10
296.0811157682949
 20
-1400.01606691213
 30
0.0000000000000013
 10
298.6194958021499
 20
-1398.502149682072
 30
0.0000000000000016
 10
302.970003926717
 20
-1394.590276690126
 30
0.0000000000000022
 10
304.741055239484
 20
-1392.230259794144
 30
0.0000000000000024
 10
307.2759599840499
 20
-1386.966875670026
 30
0.0000000000000027
 10
308.0159336625789
 20
-1384.114121688347
 30
0.0000000000000028
 10
308.3579292926481
 20
-1378.285797866712
 30
0.0000000000000028
 10
307.956552610865
 20
-1375.366130055027
 30
0.0000000000000028
 10
306.0538360950328
 20
-1369.842892825605
 30
0.0000000000000026
 10
304.570157625406
 20
-1367.292491288998
 30
0.0000000000000024
 10
302.0388203390889
 20
-1364.41647373983
 30
0.0000000000000021
 10
301.3998891708641
 20
-1363.773757634227
 30
0.000000000000002
 10
300.725313927521
 20
-1363.172291694027
 30
0.0000000000000019
  0
ARC
  5
1922
330
1F
100
AcDbEntity
  8
PV-174
100
AcDbCircle
 10
304.7253175517678
 20
-1401.939580998722
 30
0.0000000000000024
 40
0.6999999999999319
100
AcDbArc
 50
270.0
 51
0.0
  0
ARC
  5
1923
330
1F
100
AcDbEntity
  8
PV-174
100
AcDbCircle
 10
266.7253175517701
 20
-1401.939580998722
 30
-0.0000000000000024
 40
0.6999999999999319
100
AcDbArc
 50
180.0
 51
270.0
  0
ARC
  5
1924
330
1F
100
AcDbEntity
  8
PV-174
100
AcDbCircle
 10
318.5753175517689
 20
-1332.639580998721
 30
0.0000000000000041
 40
1.999999999999999
100
AcDbArc
 50
270.0
 51
0.0
  0
ARC
  5
1925
330
1F
100
AcDbEntity
  8
PV-174
100
AcDbCircle
 10
318.57531755177
 20
-1296.639580998722
 30
0.0000000000000041
 40
1.999999999999999
100
AcDbArc
 50
0.0
 51
90.0
  0
LINE
  5
1926
330
1F
100
AcDbEntity
  8
PV-174
100
AcDbLine
 10
303.2253175517702
 20
-1334.639603543048
 30
0.0000000000000022
 11
300.7253175517702
 21
-1334.639603543048
 31
0.0000000000000019
210
0.0
220
1.0
230
0.0
  0
LINE
  5
1927
330
1F
100
AcDbEntity
  8
PV-174
100
AcDbLine
 10
270.7253175517701
 20
-1334.639603543048
 30
-0.0000000000000019
 11
268.2253175517701
 21
-1334.639603543048
 31
-0.0000000000000022
210
0.0
220
1.0
230
0.0
  0
LINE
  5
1928
330
1F
100
AcDbEntity
  8
PV-174
100
AcDbLine
 10
303.2253175517702
 20
-1294.639558454395
 30
0.0000000000000022
 11
268.2253175517701
 21
-1294.639558454395
 31
-0.0000000000000022
210
0.0
220
1.0
230
0.0
  0
LINE
  5
1929
330
1F
100
AcDbEntity
  8
PV-174
100
AcDbLine
 10
309.7253175517701
 20
-1334.639580998721
 30
0.000000000000003
 11
303.2253175517702
 21
-1334.639580998721
 31
0.0000000000000022
210
0.0
220
1.0
230
0.0
  0
LINE
  5
192A
330
1F
100
AcDbEntity
  8
PV-174
100
AcDbLine
 10
309.7253175517701
 20
-1294.639580998721
 30
0.000000000000003
 11
303.2253175517702
 21
-1294.639580998721
 31
0.0000000000000022
210
0.0
220
1.0
230
0.0
  0
LINE
  5
192B
330
1F
100
AcDbEntity
  8
PV-174
100
AcDbLine
 10
268.2253175517701
 20
-1334.639580998721
 30
-0.0000000000000022
 11
261.7253175517701
 21
-1334.639580998721
 31
-0.000000000000003
210
0.0
220
1.0
230
0.0
  0
LINE
  5
192C
330
1F
100
AcDbEntity
  8
PV-174
100
AcDbLine
 10
268.2253175517701
 20
-1294.639580998721
 30
-0.0000000000000022
 11
261.7253175517701
 21
-1294.639580998721
 31
-0.000000000000003
210
0.0
220
1.0
230
0.0
  0
LINE
  5
192D
330
1F
100
AcDbEntity
  8
PV-174
100
AcDbLine
 10
266.0253175517691
 20
-1369.054192832163
 30
-0.0000000000000025
 11
266.0253175517701
 21
-1334.639580998721
 31
-0.0000000000000025
210
0.0
220
1.0
230
0.0
  0
LINE
  5
192E
330
1F
100
AcDbEntity
  8
PV-174
100
AcDbLine
 10
266.0253175517691
 20
-1401.939580998722
 30
-0.0000000000000025
 11
266.0253175517691
 21
-1390.726474615298
 31
-0.0000000000000025
210
0.0
220
1.0
230
0.0
  0
LINE
  5
192F
330
1F
100
AcDbEntity
  8
PV-174
100
AcDbLine
 10
305.4253175517679
 20
-1369.054192832161
 30
0.0000000000000025
 11
305.425317551769
 21
-1334.639580998721
 31
0.0000000000000025
210
0.0
220
1.0
230
0.0
  0
LINE
  5
1930
330
1F
100
AcDbEntity
  8
PV-174
100
AcDbLine
 10
305.4253175517679
 20
-1401.939580998722
 30
0.0000000000000025
 11
305.4253175517679
 21
-1390.726474615301
 31
0.0000000000000025
210
0.0
220
1.0
230
0.0
  0
LINE
  5
1931
330
1F
100
AcDbEntity
  8
PV-174
100
AcDbLine
 10
318.425317551769
 20
-1334.639580998734
 30
0.0000000000000041
 11
309.9253175517702
 21
-1334.639580998734
 31
0.000000000000003
210
0.0
220
1.0
230
0.0
  0
LINE
  5
1932
330
1F
100
AcDbEntity
  8
PV-174
100
AcDbLine
 10
318.425317551769
 20
-1294.639580998734
 30
0.0000000000000041
 11
309.9253175517702
 21
-1294.639580998734
 31
0.000000000000003
210
0.0
220
1.0
230
0.0
  0
LINE
  5
1933
330
1F
100
AcDbEntity
  8
PV-174
100
AcDbLine
 10
318.425317551769
 20
-1297.239580998721
 30
0.0000000000000041
 11
318.57531755177
 21
-1297.239580998721
 31
0.0000000000000041
210
0.0
220
1.0
230
0.0
  0
LINE
  5
1934
330
1F
100
AcDbEntity
  8
PV-174
100
AcDbLine
 10
318.425317551769
 20
-1332.039580998722
 30
0.0000000000000041
 11
318.5753175517689
 21
-1332.039580998722
 31
0.0000000000000041
210
0.0
220
1.0
230
0.0
  0
LINE
  5
1935
330
1F
100
AcDbEntity
  8
PV-174
100
AcDbLine
 10
261.52531755177
 20
-1306.639580998721
 30
-0.000000000000003
 11
261.7253175517701
 21
-1306.639580998722
 31
-0.000000000000003
210
0.0
220
1.0
230
0.0
  0
LINE
  5
1936
330
1F
100
AcDbEntity
  8
PV-174
100
AcDbLine
 10
309.7253175517701
 20
-1306.639580998722
 30
0.000000000000003
 11
309.9253175517702
 21
-1306.639580998722
 31
0.000000000000003
210
0.0
220
1.0
230
0.0
  0
LINE
  5
1937
330
1F
100
AcDbEntity
  8
PV-174
100
AcDbLine
 10
261.52531755177
 20
-1322.639580998721
 30
-0.000000000000003
 11
261.7253175517701
 21
-1322.639580998721
 31
-0.000000000000003
210
0.0
220
1.0
230
0.0
  0
LINE
  5
1938
330
1F
100
AcDbEntity
  8
PV-174
100
AcDbLine
 10
309.7253175517701
 20
-1322.639580998721
 30
0.000000000000003
 11
309.9253175517702
 21
-1322.639580998721
 31
0.000000000000003
210
0.0
220
1.0
230
0.0
  0
LINE
  5
1939
330
1F
100
AcDbEntity
  8
PV-174
100
AcDbLine
 10
261.7253175517701
 20
-1322.366987609033
 30
-0.000000000000003
 11
261.52531755177
 21
-1322.366987609033
 31
-0.000000000000003
210
0.0
220
1.0
230
0.0
  0
LINE
  5
193A
330
1F
100
AcDbEntity
  8
PV-174
100
AcDbLine
 10
261.52531755177
 20
-1320.435135956456
 30
-0.000000000000003
 11
261.7253175517701
 21
-1320.435135956456
 31
-0.000000000000003
210
0.0
220
1.0
230
0.0
  0
LINE
  5
193B
330
1F
100
AcDbEntity
  8
PV-174
100
AcDbLine
 10
261.52531755177
 20
-1320.296435248213
 30
-0.000000000000003
 11
261.7253175517701
 21
-1320.296435248213
 31
-0.000000000000003
210
0.0
220
1.0
230
0.0
  0
LINE
  5
193C
330
1F
100
AcDbEntity
  8
PV-174
100
AcDbLine
 10
318.57531755177
 20
-1294.639580998721
 30
0.0000000000000041
 11
318.5753175517689
 21
-1334.639580998721
 31
0.0000000000000041
210
0.0
220
1.0
230
0.0
  0
LINE
  5
193D
330
1F
100
AcDbEntity
  8
PV-174
100
AcDbLine
 10
320.57531755177
 20
-1296.639580998722
 30
0.0000000000000043
 11
320.5753175517689
 21
-1332.639580998721
 31
0.0000000000000043
210
0.0
220
1.0
230
0.0
  0
LINE
  5
193E
330
1F
100
AcDbEntity
  8
PV-174
100
AcDbLine
 10
261.52531755177
 20
-1334.639580998734
 30
-0.000000000000003
 11
261.52531755177
 21
-1294.639580998734
 31
-0.000000000000003
210
0.0
220
1.0
230
0.0
  0
LINE
  5
193F
330
1F
100
AcDbEntity
  8
PV-174
100
AcDbLine
 10
261.7253175517701
 20
-1332.639580998722
 30
-0.000000000000003
 11
261.52531755177
 21
-1332.639580998722
 31
-0.000000000000003
210
0.0
220
1.0
230
0.0
  0
LINE
  5
1940
330
1F
100
AcDbEntity
  8
PV-174
100
AcDbLine
 10
309.9253175517702
 20
-1332.639580998722
 30
0.000000000000003
 11
309.7253175517701
 21
-1332.639580998722
 31
0.000000000000003
210
0.0
220
1.0
230
0.0
  0
LINE
  5
1941
330
1F
100
AcDbEntity
  8
PV-174
100
AcDbLine
 10
309.7253175517701
 20
-1329.939580998722
 30
0.000000000000003
 11
309.925317551769
 21
-1329.939580998722
 31
0.000000000000003
210
0.0
220
1.0
230
0.0
  0
LINE
  5
1942
330
1F
100
AcDbEntity
  8
PV-174
100
AcDbLine
 10
261.525317551771
 20
-1329.939580998722
 30
-0.000000000000003
 11
261.7253175517701
 21
-1329.939580998722
 31
-0.000000000000003
210
0.0
220
1.0
230
0.0
  0
LINE
  5
1943
330
1F
100
AcDbEntity
  8
PV-174
100
AcDbLine
 10
261.7253175517701
 20
-1299.339580998744
 30
-0.000000000000003
 11
261.525317551771
 21
-1299.339580998744
 31
-0.000000000000003
210
0.0
220
1.0
230
0.0
  0
LINE
  5
1944
330
1F
100
AcDbEntity
  8
PV-174
100
AcDbLine
 10
309.925317551769
 20
-1299.339580998744
 30
0.000000000000003
 11
309.7253175517701
 21
-1299.339580998744
 31
0.000000000000003
210
0.0
220
1.0
230
0.0
  0
LINE
  5
1945
330
1F
100
AcDbEntity
  8
PV-174
100
AcDbLine
 10
309.7253175517701
 20
-1296.639580998744
 30
0.000000000000003
 11
309.9253175517702
 21
-1296.639580998744
 31
0.000000000000003
210
0.0
220
1.0
230
0.0
  0
LINE
  5
1946
330
1F
100
AcDbEntity
  8
PV-174
100
AcDbLine
 10
261.52531755177
 20
-1296.639580998744
 30
-0.000000000000003
 11
261.7253175517701
 21
-1296.639580998744
 31
-0.000000000000003
210
0.0
220
1.0
230
0.0
  0
LINE
  5
1947
330
1F
100
AcDbEntity
  8
PV-174
100
AcDbLine
 10
309.9253175517702
 20
-1334.639580998734
 30
0.000000000000003
 11
309.9253175517702
 21
-1294.639580998734
 31
0.000000000000003
210
0.0
220
1.0
230
0.0
  0
LINE
  5
1948
330
1F
100
AcDbEntity
  8
PV-174
100
AcDbLine
 10
318.425317551769
 20
-1294.639580998734
 30
0.0000000000000041
 11
318.425317551769
 21
-1314.639580998734
 31
0.0000000000000041
210
0.0
220
1.0
230
0.0
  0
LINE
  5
1949
330
1F
100
AcDbEntity
  8
PV-174
100
AcDbLine
 10
318.425317551769
 20
-1314.639580998734
 30
0.0000000000000041
 11
318.425317551769
 21
-1334.639580998734
 31
0.0000000000000041
210
0.0
220
1.0
230
0.0
  0
LINE
  5
194A
330
1F
100
AcDbEntity
  8
PV-174
100
AcDbLine
 10
304.7253175517678
 20
-1402.639580998721
 30
0.0000000000000024
 11
266.7253175517701
 21
-1402.639580998721
 31
-0.0000000000000024
210
0.0
220
1.0
230
0.0
  0
LINE
  5
194B
330
1F
100
AcDbEntity
  8
PV-174
100
AcDbLine
 10
261.7253175517701
 20
-1294.639580998721
 30
-0.000000000000003
 11
261.7253175517701
 21
-1314.639580998721
 31
-0.000000000000003
210
0.0
220
1.0
230
0.0
  0
LINE
  5
194C
330
1F
100
AcDbEntity
  8
PV-174
100
AcDbLine
 10
261.7253175517701
 20
-1314.639580998721
 30
-0.000000000000003
 11
261.7253175517701
 21
-1334.639580998721
 31
-0.000000000000003
210
0.0
220
1.0
230
0.0
  0
LINE
  5
194D
330
1F
100
AcDbEntity
  8
PV-174
100
AcDbLine
 10
268.2253175517701
 20
-1294.639558454395
 30
-0.0000000000000022
 11
268.2253175517701
 21
-1334.639603543048
 31
-0.0000000000000022
210
0.0
220
1.0
230
0.0
  0
LINE
  5
194E
330
1F
100
AcDbEntity
  8
PV-174
100
AcDbLine
 10
309.7253175517701
 20
-1294.639580998721
 30
0.000000000000003
 11
309.7253175517701
 21
-1314.639580998721
 31
0.000000000000003
210
0.0
220
1.0
230
0.0
  0
LINE
  5
194F
330
1F
100
AcDbEntity
  8
PV-174
100
AcDbLine
 10
309.7253175517701
 20
-1314.639580998721
 30
0.000000000000003
 11
309.7253175517701
 21
-1334.639580998721
 31
0.000000000000003
210
0.0
220
1.0
230
0.0
  0
LINE
  5
1950
330
1F
100
AcDbEntity
  8
PV-174
100
AcDbLine
 10
303.2253175517702
 20
-1334.639603543048
 30
0.0000000000000022
 11
303.2253175517702
 21
-1294.639558454395
 31
0.0000000000000022
210
0.0
220
1.0
230
0.0
  0
SPLINE
  5
1951
330
1F
100
AcDbEntity
  8
PV-174
100
AcDbSpline
210
0.0000000000000006
220
0.0000000000000026
230
1.0
 70
     8
 71
     3
 72
    14
 73
    10
 74
     0
 42
0.0000000001
 43
0.0000000001
 40
-1.51819376772367
 40
-1.51819376772367
 40
-1.51819376772367
 40
-1.51819376772367
 40
-1.135751222155821
 40
-1.135751222155821
 40
-0.7533086765879721
 40
-0.7533086765879721
 40
-0.376654338293986
 40
-0.376654338293986
 40
0.0
 40
0.0
 40
0.0
 40
0.0
 10
300.7253175517702
 20
-1334.076611445111
 30
0.0000000000000019
 10
300.7253175517702
 20
-1334.04657712281
 30
0.0000000000000019
 10
300.7000581100541
 20
-1334.013221170581
 30
0.0000000000000019
 10
300.5973628228789
 20
-1333.949442654562
 30
0.0000000000000019
 10
300.5199277019481
 20
-1333.919085464707
 30
0.0000000000000019
 10
300.342040111065
 20
-1333.870427702465
 30
0.0000000000000019
 10
300.2301706403721
 20
-1333.848760502937
 30
0.0000000000000018
 10
299.9845916321419
 20
-1333.819673378973
 30
0.0000000000000018
 10
299.850868997868
 20
-1333.812330507706
 30
0.0000000000000018
 10
299.7253175517702
 20
-1333.812330507706
 30
0.0000000000000018
  0
SPLINE
  5
1952
330
1F
100
AcDbEntity
  8
PV-174
100
AcDbSpline
210
0.0000000000000007
220
-0.0000000000000029
230
1.0
 70
     8
 71
     3
 72
    14
 73
    10
 74
     0
 42
0.0000000001
 43
0.0000000001
 40
0.0
 40
0.0
 40
0.0
 40
0.0
 40
0.3766543382939877
 40
0.3766543382939877
 40
0.7533086765879756
 40
0.7533086765879756
 40
1.135751222155823
 40
1.135751222155823
 40
1.51819376772367
 40
1.51819376772367
 40
1.51819376772367
 40
1.51819376772367
 10
271.7253175517701
 20
-1333.812330507706
 30
-0.0000000000000018
 10
271.5997661056708
 20
-1333.812330507706
 30
-0.0000000000000018
 10
271.4660434713981
 20
-1333.819673378973
 30
-0.0000000000000018
 10
271.220464463167
 20
-1333.848760502937
 30
-0.0000000000000018
 10
271.108594992475
 20
-1333.870427702465
 30
-0.0000000000000018
 10
270.9307074015919
 20
-1333.919085464707
 30
-0.0000000000000019
 10
270.8532722806599
 20
-1333.949442654562
 30
-0.0000000000000019
 10
270.750576993486
 20
-1334.013221170581
 30
-0.0000000000000019
 10
270.7253175517701
 20
-1334.04657712281
 30
-0.0000000000000019
 10
270.7253175517701
 20
-1334.076611445111
 30
-0.0000000000000019
  0
LINE
  5
1953
330
1F
100
AcDbEntity
  8
PV-174
100
AcDbLine
 10
299.7253175517702
 20
-1333.812330507706
 30
0.0000000000000018
 11
271.7253175517701
 21
-1333.812330507706
 31
-0.0000000000000018
210
0.0
220
1.0
230
0.0
  0
LINE
  5
1954
330
1F
100
AcDbEntity
  8
PV-174
100
AcDbLine
 10
300.7253175517702
 20
-1334.076611445111
 30
0.0000000000000019
 11
300.7253175517702
 21
-1364.781126789437
 31
0.0000000000000019
210
0.0
220
1.0
230
0.0
  0
LINE
  5
1955
330
1F
100
AcDbEntity
  8
PV-174
100
AcDbLine
 10
270.7253175517701
 20
-1334.076611445111
 30
-0.0000000000000019
 11
270.7253175517701
 21
-1364.781126789437
 31
-0.0000000000000019
210
0.0
220
1.0
230
0.0
  0
SPLINE
  5
1956
330
1F
100
AcDbEntity
  8
PV-174
100
AcDbSpline
210
0.0
220
0.0
230
1.0
 70
     8
 71
     3
 72
    14
 73
    10
 74
     0
 42
0.0000000001
 43
0.0000000001
 40
0.649611117407552
 40
0.649611117407552
 40
0.649611117407552
 40
0.649611117407552
 40
0.7333587369340008
 40
0.7333587369340008
 40
1.466717473868001
 40
1.466717473868001
 40
2.251649856864295
 40
2.251649856864295
 40
3.036582239860591
 40
3.036582239860591
 40
3.036582239860591
 40
3.036582239860591
 10
271.40944868575
 20
-1366.893468647802
 30
-0.0000000000000018
 10
271.3958560188171
 20
-1366.867079351741
 30
-0.0000000000000018
 10
271.3823334708582
 20
-1366.840695610427
 30
-0.0000000000000018
 10
271.2513452381108
 20
-1366.583613995326
 30
-0.0000000000000018
 10
271.1419738233221
 20
-1366.355501974668
 30
-0.0000000000000018
 10
270.960954597364
 20
-1365.928104889095
 30
-0.0000000000000018
 10
270.874207175739
 20
-1365.68978293159
 30
-0.0000000000000019
 10
270.7560117835139
 20
-1365.221244253177
 30
-0.0000000000000019
 10
270.7253175517701
 20
-1364.990453698095
 30
-0.0000000000000019
 10
270.7253175517701
 20
-1364.781126789437
 30
-0.0000000000000019
  0
SPLINE
  5
1957
330
1F
100
AcDbEntity
  8
PV-174
100
AcDbSpline
210
0.0
220
0.0
230
1.0
 70
     8
 71
     3
 72
    20
 73
    16
 74
     0
 42
0.0000000001
 43
0.0000000001
 40
-2.081957642337048
 40
-2.081957642337048
 40
-2.081957642337048
 40
-2.081957642337048
 40
-2.029036545889133
 40
-2.029036545889133
 40
-1.976115449441223
 40
-1.976115449441223
 40
-1.938296586027501
 40
-1.938296586027501
 40
-1.900477722613779
 40
-1.900477722613779
 40
-1.79865290262327
 40
-1.79865290262327
 40
-1.696828082632761
 40
-1.696828082632761
 40
-1.658125044755919
 40
-1.658125044755919
 40
-1.658125044755919
 40
-1.658125044755919
 10
271.7253175517701
 20
-1367.014676802285
 30
-0.0000000000000018
 10
271.7135297822711
 20
-1367.02775054302
 30
-0.0000000000000018
 10
271.6996319886389
 20
-1367.041227978038
 30
-0.0000000000000018
 10
271.669009687176
 20
-1367.063670382639
 30
-0.0000000000000018
 10
271.652221928641
 20
-1367.072549671239
 30
-0.0000000000000018
 10
271.623128464917
 20
-1367.08059186572
 30
-0.0000000000000018
 10
271.6095472633469
 20
-1367.082078230738
 30
-0.0000000000000018
 10
271.582944243763
 20
-1367.079634641352
 30
-0.0000000000000018
 10
271.569917683669
 20
-1367.075745401769
 30
-0.0000000000000018
 10
271.528252093857
 20
-1367.056912453534
 30
-0.0000000000000018
 10
271.5055047727042
 20
-1367.035086728147
 30
-0.0000000000000018
 10
271.4637021554158
 20
-1366.985862793797
 30
-0.0000000000000018
 10
271.445290409205
 20
-1366.957929675807
 30
-0.0000000000000018
 10
271.4217562782769
 20
-1366.916790731186
 30
-0.0000000000000018
 10
271.415498138922
 20
-1366.905213275368
 30
-0.0000000000000018
 10
271.40944868575
 20
-1366.893468647802
 30
-0.0000000000000018
  0
SPLINE
  5
1958
330
1F
100
AcDbEntity
  8
PV-174
100
AcDbSpline
210
0.0
220
0.0
230
1.0
 70
     8
 71
     3
 72
    20
 73
    16
 74
     0
 42
0.0000000001
 43
0.0000000001
 40
1.658125044755959
 40
1.658125044755959
 40
1.658125044755959
 40
1.658125044755959
 40
1.696828082632773
 40
1.696828082632773
 40
1.798652902623284
 40
1.798652902623284
 40
1.900477722613793
 40
1.900477722613793
 40
1.93829658602752
 40
1.93829658602752
 40
1.976115449441245
 40
1.976115449441245
 40
2.029036545889153
 40
2.029036545889153
 40
2.081957642337064
 40
2.081957642337064
 40
2.081957642337064
 40
2.081957642337064
 10
300.0411864177891
 20
-1366.893468647802
 30
0.0000000000000018
 10
300.035136964618
 20
-1366.905213275368
 30
0.0000000000000018
 10
300.0288788252619
 20
-1366.916790731186
 30
0.0000000000000018
 10
300.005344694335
 20
-1366.957929675807
 30
0.0000000000000018
 10
299.986932948123
 20
-1366.985862793797
 30
0.0000000000000018
 10
299.945130330836
 20
-1367.035086728147
 30
0.0000000000000018
 10
299.9223830096821
 20
-1367.056912453534
 30
0.0000000000000018
 10
299.880717419871
 20
-1367.075745401769
 30
0.0000000000000018
 10
299.8676908597762
 20
-1367.079634641352
 30
0.0000000000000018
 10
299.841087840193
 20
-1367.082078230738
 30
0.0000000000000018
 10
299.827506638622
 20
-1367.08059186572
 30
0.0000000000000018
 10
299.7984131748978
 20
-1367.072549671239
 30
0.0000000000000018
 10
299.7816254163629
 20
-1367.063670382639
 30
0.0000000000000018
 10
299.7510031148999
 20
-1367.041227978038
 30
0.0000000000000018
 10
299.737105321268
 20
-1367.02775054302
 30
0.0000000000000018
 10
299.7253175517702
 20
-1367.014676802285
 30
0.0000000000000018
  0
SPLINE
  5
1959
330
1F
100
AcDbEntity
  8
PV-174
100
AcDbSpline
210
0.0
220
0.0
230
1.0
 70
     8
 71
     3
 72
    14
 73
    10
 74
     0
 42
0.0000000001
 43
0.0000000001
 40
8.794524056531006
 40
8.794524056531006
 40
8.794524056531006
 40
8.794524056531006
 40
9.579456439527339
 40
9.579456439527339
 40
10.36438882252367
 40
10.36438882252367
 40
11.09774755945768
 40
11.09774755945768
 40
11.18149517898412
 40
11.18149517898412
 40
11.18149517898412
 40
11.18149517898412
 10
300.7253175517702
 20
-1364.781126789437
 30
0.0000000000000019
 10
300.7253175517702
 20
-1364.990453698095
 30
0.0000000000000019
 10
300.6946233200251
 20
-1365.221244253177
 30
0.0000000000000019
 10
300.5764279278011
 20
-1365.68978293159
 30
0.0000000000000019
 10
300.4896805061749
 20
-1365.928104889095
 30
0.0000000000000019
 10
300.3086612802178
 20
-1366.355501974668
 30
0.0000000000000018
 10
300.1992898654289
 20
-1366.583613995326
 30
0.0000000000000018
 10
300.0683016326818
 20
-1366.840695610427
 30
0.0000000000000018
 10
300.054779084722
 20
-1366.867079351741
 30
0.0000000000000018
 10
300.0411864177891
 20
-1366.893468647802
 30
0.0000000000000018
  0
ELLIPSE
  5
195A
330
1F
100
AcDbEntity
  8
PV-174
100
AcDbEllipse
 10
285.7253175517702
 20
-1379.541710752741
 30
0.0000000000000001
 11
-18.81828199961667
 21
0.0
 31
-0.0000000000000023
210
-0.0000000000000001
220
0.0
230
1.0
 40
0.9961946980917455
 41
-2.409769549797642
 42
-0.7318231037921505
  0
ELLIPSE
  5
195B
330
1F
100
AcDbEntity
  8
PV-174
100
AcDbEllipse
 10
285.7253175517702
 20
-1379.471088081448
 30
0.0000000000000001
 11
12.70449773839052
 21
0.0
 31
0.0000000000000016
210
-0.0000000000000001
220
0.0
230
1.0
 40
0.9961946980917455
 41
0.0
 42
6.283185307179584
  0
ARC
  5
195C
330
1F
100
AcDbEntity
  8
PV-174
100
AcDbCircle
 10
932.0474148443809
 20
-1398.332318176284
 30
0.000000000000014
 40
4.000000000000073
100
AcDbArc
 50
194.1768749669896
 51
355.8231250330065
  0
ARC
  5
195D
330
1F
100
AcDbEntity
  8
PV-174
100
AcDbCircle
 10
901.7263324535781
 20
-1401.951963536577
 30
0.0000000000000084
 40
0.6999999999999319
100
AcDbArc
 50
270.0
 51
0.0
  0
ARC
  5
195E
330
1F
100
AcDbEntity
  8
PV-174
100
AcDbCircle
 10
863.7263324535792
 20
-1401.951963536577
 30
0.0000000000000014
 40
0.6999999999999319
100
AcDbArc
 50
180.0
 51
270.0
  0
ARC
  5
195F
330
1F
100
AcDbEntity
  8
PV-174
100
AcDbCircle
 10
858.0263324535788
 20
-1298.651963536599
 30
0.0000000000000004
 40
1.999999999999995
100
AcDbArc
 50
90.0
 51
180.0
  0
ARC
  5
1960
330
1F
100
AcDbEntity
  8
PV-174
100
AcDbCircle
 10
858.0263324535788
 20
-1330.651963536578
 30
0.0000000000000004
 40
1.999999999999999
100
AcDbArc
 50
180.0
 51
270.0
  0
ARC
  5
1961
330
1F
100
AcDbEntity
  8
PV-174
100
AcDbCircle
 10
816.3555160049389
 20
-1389.883380791972
 30
-0.0000000000000073
 40
119.9999999999995
100
AcDbArc
 50
355.8231250330065
 51
358.9226597831565
  0
ARC
  5
1962
330
1F
100
AcDbEntity
  8
PV-174
100
AcDbCircle
 10
816.3555160049389
 20
-1389.883380791972
 30
-0.0000000000000073
 40
119.9999999999995
100
AcDbArc
 50
11.07734021684894
 51
14.02230851987806
  0
LINE
  5
1963
330
1F
100
AcDbEntity
  8
PV-174
100
AcDbLine
 10
863.0263324535782
 20
-1401.951963536577
 30
0.0000000000000013
 11
863.0263324535782
 21
-1332.651963536577
 31
0.0000000000000013
210
0.0
220
1.0
230
0.0
  0
LINE
  5
1964
330
1F
100
AcDbEntity
  8
PV-174
100
AcDbLine
 10
902.4263324535782
 20
-1401.951963536577
 30
0.0000000000000085
 11
902.4263324535782
 21
-1332.651963536577
 31
0.0000000000000085
210
0.0
220
1.0
230
0.0
  0
LINE
  5
1965
330
1F
100
AcDbEntity
  8
PV-174
100
AcDbLine
 10
856.0263324535791
 20
-1330.651963536578
 30
0.0
 11
856.0263324535791
 21
-1298.651963536599
 31
0.0
210
0.0
220
1.0
230
0.0
  0
LINE
  5
1966
330
1F
100
AcDbEntity
  8
PV-174
100
AcDbLine
 10
882.7263324535792
 20
-1332.651963536576
 30
0.0000000000000049
 11
916.0085345664711
 21
-1332.651963536576
 31
0.000000000000011
210
0.0
220
1.0
230
0.0
  0
LINE
  5
1967
330
1F
100
AcDbEntity
  8
PV-174
100
AcDbLine
 10
882.7263324535792
 20
-1296.651963536598
 30
0.0000000000000049
 11
916.00853456648
 21
-1296.651963536598
 31
0.000000000000011
210
0.0
220
1.0
230
0.0
  0
LINE
  5
1968
330
1F
100
AcDbEntity
  8
PV-174
100
AcDbLine
 10
858.0263324535788
 20
-1296.651963536599
 30
0.0000000000000004
 11
882.7263324535792
 21
-1296.651963536599
 31
0.0000000000000049
210
0.0
220
1.0
230
0.0
  0
LINE
  5
1969
330
1F
100
AcDbEntity
  8
PV-174
100
AcDbLine
 10
858.0263324535788
 20
-1332.651963536578
 30
0.0000000000000004
 11
882.7263324535792
 21
-1332.651963536578
 31
0.0000000000000049
210
0.0
220
1.0
230
0.0
  0
LINE
  5
196A
330
1F
100
AcDbEntity
  8
PV-174
100
AcDbLine
 10
901.7263324535781
 20
-1402.651963536577
 30
0.0000000000000084
 11
863.7263324535792
 21
-1402.651963536577
 31
0.0000000000000014
210
0.0
220
1.0
230
0.0
  0
ARC
  5
196B
330
1F
100
AcDbEntity
  8
PV-174
100
AcDbCircle
 10
924.7263324535779
 20
-1314.651963536577
 30
0.0000000000000126
 40
20.00002254432668
100
AcDbArc
 50
244.1579338865175
 51
115.8420661136564
  0
LINE
  5
196C
330
1F
100
AcDbEntity
  8
PV-174
100
AcDbLine
 10
922.449452449676
 20
-1334.521958987543
 30
0.0000000000000122
 11
925.354281352914
 21
-1367.724305282122
 31
0.0000000000000127
210
0.0
220
1.0
230
0.0
  0
SPLINE
  5
196D
330
1F
100
AcDbEntity
  8
PV-174
100
AcDbSpline
210
0.0
220
0.0
230
1.0
 70
     8
 71
     3
 72
    20
 73
    16
 74
     0
 42
0.0000000001
 43
0.0000000001
 40
1.658125044756507
 40
1.658125044756507
 40
1.658125044756507
 40
1.658125044756507
 40
1.696828082632723
 40
1.696828082632723
 40
1.798652902623234
 40
1.798652902623234
 40
1.900477722613745
 40
1.900477722613745
 40
1.938296586027634
 40
1.938296586027634
 40
1.97611544944152
 40
1.97611544944152
 40
2.029036545890053
 40
2.029036545890053
 40
2.081957642338585
 40
2.081957642338585
 40
2.081957642338585
 40
2.081957642338585
 10
925.394288951556
 20
-1367.594172877409
 30
0.0000000000000127
 10
925.39332555158
 20
-1367.606268558195
 30
0.0000000000000127
 10
925.392342642908
 20
-1367.618197928248
 30
0.0000000000000127
 10
925.3887019330568
 20
-1367.660613462776
 30
0.0000000000000127
 10
925.3859527582047
 20
-1367.689462247837
 30
0.0000000000000127
 10
925.38001034904
 20
-1367.740493347785
 30
0.0000000000000127
 10
925.3768834627733
 20
-1367.763207124581
 30
0.0000000000000127
 10
925.3715681231907
 20
-1367.783267839178
 30
0.0000000000000127
 10
925.3699451057867
 20
-1367.787503258309
 30
0.0000000000000127
 10
925.3667358080347
 20
-1367.790550429782
 30
0.0000000000000127
 10
925.3651496900372
 20
-1367.78932081059
 30
0.0000000000000127
 10
925.3618452129099
 20
-1367.78173722077
 30
0.0000000000000127
 10
925.3600198979354
 20
-1367.773042807108
 30
0.0000000000000127
 10
925.3568143354252
 20
-1367.750819419401
 30
0.0000000000000127
 10
925.3554251570182
 20
-1367.737379022856
 30
0.0000000000000127
 10
925.354281352914
 20
-1367.724305282122
 30
0.0000000000000127
  0
SPLINE
  5
196E
330
1F
100
AcDbEntity
  8
PV-174
100
AcDbSpline
210
0.0000000000000067
220
-0.0000000000000022
230
1.0
 70
     8
 71
     3
 72
    14
 73
    10
 74
     0
 42
0.0000000001
 43
0.0000000001
 40
8.778950683888792
 40
8.778950683888792
 40
8.778950683888792
 40
8.778950683888792
 40
9.563883066885145
 40
9.563883066885145
 40
10.34881544988149
 40
10.34881544988149
 40
11.08217418681549
 40
11.08217418681549
 40
11.16592180634194
 40
11.16592180634194
 40
11.16592180634194
 40
11.16592180634194
 10
926.147440606012
 20
-1365.316443783779
 30
0.0000000000000129
 10
926.0292035844001
 20
-1365.549848274443
 30
0.0000000000000128
 10
925.9049269119936
 20
-1365.806112476263
 30
0.0000000000000128
 10
925.6891220453908
 20
-1366.319931339571
 30
0.0000000000000128
 10
925.598281242892
 20
-1366.577947481849
 30
0.0000000000000128
 10
925.4738253967447
 20
-1367.033882779964
 30
0.0000000000000127
 10
925.4258206744173
 20
-1367.273978323979
 30
0.0000000000000127
 10
925.3989167588327
 20
-1367.539769723583
 30
0.0000000000000127
 10
925.3964536389473
 20
-1367.566994791127
 30
0.0000000000000127
 10
925.394288951556
 20
-1367.594172877409
 30
0.0000000000000127
  0
SPLINE
  5
196F
330
1F
100
AcDbEntity
  8
PV-174
100
AcDbSpline
210
0.0
220
-0.0000000000000001
230
1.0
 70
     8
 71
     3
 72
    30
 73
    26
 74
     0
 42
0.0000000001
 43
0.0000000001
 40
50.21703549202495
 40
50.21703549202495
 40
50.21703549202495
 40
50.21703549202495
 40
50.53039260880385
 40
50.53039260880385
 40
51.29598074329932
 40
51.29598074329932
 40
51.92914302530023
 40
51.92914302530023
 40
52.56230530730113
 40
52.56230530730113
 40
53.12551373138332
 40
53.12551373138332
 40
53.68872215546555
 40
53.68872215546555
 40
54.25193057954776
 40
54.25193057954776
 40
54.81513900362998
 40
54.81513900362998
 40
55.44830128563085
 40
55.44830128563085
 40
56.08146356763175
 40
56.08146356763175
 40
56.84705170212724
 40
56.84705170212724
 40
57.16040881890615
 40
57.16040881890615
 40
57.16040881890615
 40
57.16040881890615
 10
932.124608794562
 20
-1364.793509327293
 30
0.000000000000014
 10
932.057035731894
 20
-1364.703398030854
 30
0.000000000000014
 10
931.9855437841722
 20
-1364.614246608675
 30
0.0000000000000139
 10
931.728862753243
 20
-1364.316636806981
 30
0.0000000000000139
 10
931.5274461660726
 20
-1364.122494753437
 30
0.0000000000000139
 10
931.1636264602588
 20
-1363.830905292684
 30
0.0000000000000138
 10
930.9724529399028
 20
-1363.699992955935
 30
0.0000000000000138
 10
930.5681720973415
 20
-1363.479218717052
 30
0.0000000000000137
 10
930.3549389284327
 20
-1363.389587342977
 30
0.0000000000000136
 10
929.9742494779172
 20
-1363.270805214329
 30
0.0000000000000136
 10
929.77314826894
 20
-1363.226314019284
 30
0.0000000000000135
 10
929.3662331805533
 20
-1363.180696443441
 30
0.0000000000000135
 10
929.1604091116143
 20
-1363.17966100056
 30
0.0000000000000134
 10
928.7863656142873
 20
-1363.212385566242
 30
0.0000000000000134
 10
928.5838482782088
 20
-1363.24914625291
 30
0.0000000000000133
 10
928.191036553262
 20
-1363.364730858837
 30
0.0000000000000132
 10
928.0007163384633
 20
-1363.443466991124
 30
0.0000000000000132
 10
927.6464367162841
 20
-1363.626550581675
 30
0.0000000000000131
 10
927.4520073631128
 20
-1363.751847804976
 30
0.0000000000000131
 10
927.0922054992226
 20
-1364.03947061867
 30
0.000000000000013
 10
926.9266690229171
 20
-1364.201591036293
 30
0.000000000000013
 10
926.6190105344191
 20
-1364.551927226853
 30
0.000000000000013
 10
926.454366331594
 20
-1364.778095449683
 30
0.0000000000000129
 10
926.2532642620039
 20
-1365.115756083026
 30
0.0000000000000129
 10
926.1983394196068
 20
-1365.21596754122
 30
0.0000000000000129
 10
926.147440606012
 20
-1365.316443783779
 30
0.0000000000000129
  0
SPLINE
  5
1970
330
1F
100
AcDbEntity
  8
PV-174
100
AcDbSpline
210
-0.0000000000000116
220
-0.0000000000000062
230
-1.0
 70
     8
 71
     3
 72
    14
 73
    10
 74
     0
 42
0.0000000001
 43
0.0000000001
 40
0.649611117407552
 40
0.649611117407552
 40
0.649611117407552
 40
0.649611117407552
 40
0.7333587369340008
 40
0.7333587369340008
 40
1.466717473868001
 40
1.466717473868001
 40
2.251649856864295
 40
2.251649856864295
 40
3.036582239860591
 40
3.036582239860591
 40
3.036582239860591
 40
3.036582239860591
 10
933.2618418893922
 20
-1366.905851185658
 30
0.0000000000000142
 10
933.2549906633106
 20
-1366.879461889596
 30
0.0000000000000142
 10
933.2478373803851
 20
-1366.853078148282
 30
0.0000000000000142
 10
933.1751880035499
 20
-1366.595996533181
 30
0.0000000000000142
 10
933.0862204271358
 20
-1366.367884512524
 30
0.0000000000000141
 10
932.8844830112908
 20
-1365.940487426951
 30
0.0000000000000141
 10
932.7502182517854
 20
-1365.702165469446
 30
0.0000000000000141
 10
932.448468236752
 20
-1365.233626791033
 30
0.000000000000014
 10
932.2815797946017
 20
-1365.002836235951
 30
0.000000000000014
 10
932.124608794562
 20
-1364.793509327293
 30
0.000000000000014
  0
SPLINE
  5
1971
330
1F
100
AcDbEntity
  8
PV-174
100
AcDbSpline
210
0.0
220
0.0
230
1.0
 70
     8
 71
     3
 72
    20
 73
    16
 74
     0
 42
0.0000000001
 43
0.0000000001
 40
-2.081957642337048
 40
-2.081957642337048
 40
-2.081957642337048
 40
-2.081957642337048
 40
-2.029036545889133
 40
-2.029036545889133
 40
-1.976115449441223
 40
-1.976115449441223
 40
-1.938296586027501
 40
-1.938296586027501
 40
-1.900477722613779
 40
-1.900477722613779
 40
-1.79865290262327
 40
-1.79865290262327
 40
-1.696828082632761
 40
-1.696828082632761
 40
-1.658125044755919
 40
-1.658125044755919
 40
-1.658125044755919
 40
-1.658125044755919
 10
933.323838937648
 20
-1367.027059340141
 30
0.0000000000000142
 10
933.3249827417523
 20
-1367.040133080875
 30
0.0000000000000142
 10
933.325948568453
 20
-1367.053610515894
 30
0.0000000000000142
 10
933.3266507564182
 20
-1367.076052920495
 30
0.0000000000000142
 10
933.3263629411668
 20
-1367.084932209095
 30
0.0000000000000142
 10
933.3244255430242
 20
-1367.092974403576
 30
0.0000000000000142
 10
933.323077042856
 20
-1367.094460768593
 30
0.0000000000000142
 10
933.3193873657739
 20
-1367.092017179208
 30
0.0000000000000142
 10
933.3170535328385
 20
-1367.088127939624
 30
0.0000000000000142
 10
933.3083354386753
 20
-1367.06929499139
 30
0.0000000000000142
 10
933.301311850888
 20
-1367.047469266003
 30
0.0000000000000142
 10
933.28659826276
 20
-1366.998245331652
 30
0.0000000000000142
 10
933.2788813150967
 20
-1366.970312213663
 30
0.0000000000000142
 10
933.2679305355352
 20
-1366.929173269041
 30
0.0000000000000142
 10
933.2648910460839
 20
-1366.917595813224
 30
0.0000000000000142
 10
933.2618418893922
 20
-1366.905851185658
 30
0.0000000000000142
  0
LINE
  5
1972
330
1F
100
AcDbEntity
  8
PV-174
100
AcDbLine
 10
930.4190100344099
 20
-1333.824713045562
 30
0.0000000000000137
 11
933.323838937648
 21
-1367.027059340141
 31
0.0000000000000142
210
0.0
220
1.0
230
0.0
  0
LINE
  5
1973
330
1F
100
AcDbEntity
  8
PV-174
100
AcDbLine
 10
934.1197632859199
 20
-1366.827317330401
 30
0.0000000000000143
 11
936.33430315917
 21
-1392.139623908207
 31
0.0000000000000147
210
0.0
220
1.0
230
0.0
  0
LINE
  5
1974
330
1F
100
AcDbEntity
  8
PV-174
100
AcDbLine
 10
924.53576404793
 20
-1367.665808614966
 30
0.0000000000000126
 11
926.7503039211812
 21
-1392.978115192772
 31
0.000000000000013
210
0.0
220
1.0
230
0.0
  0
SPLINE
  5
1975
330
1F
100
AcDbEntity
  8
PV-174
100
AcDbSpline
210
-0.0000000000000027
220
-0.0000000000000028
230
-1.0
 70
     8
 71
     3
 72
    46
 73
    42
 74
     0
 42
0.0000000001
 43
0.0000000001
 40
-26.25009051702358
 40
-26.25009051702358
 40
-26.25009051702358
 40
-26.25009051702358
 40
-25.19226716828405
 40
-25.19226716828405
 40
-24.06297385938894
 40
-24.06297385938894
 40
-22.97039393615168
 40
-22.97039393615168
 40
-21.87781401291442
 40
-21.87781401291442
 40
-20.78523408967716
 40
-20.78523408967716
 40
-19.6926541664399
 40
-19.6926541664399
 40
-18.59462246291696
 40
-18.59462246291696
 40
-17.49659075939401
 40
-17.49659075939401
 40
-16.39855905587109
 40
-16.39855905587109
 40
-15.30052735234815
 40
-15.30052735234815
 40
-14.20249564882519
 40
-14.20249564882519
 40
-13.10446394530224
 40
-13.10446394530224
 40
-12.00643224177928
 40
-12.00643224177928
 40
-10.90840053825633
 40
-10.90840053825633
 40
-9.815820615019132
 40
-9.815820615019132
 40
-8.723240691781931
 40
-8.723240691781931
 40
-7.630660768544732
 40
-7.630660768544732
 40
-6.538080845307532
 40
-6.538080845307532
 40
-5.408787536412319
 40
-5.408787536412319
 40
-4.350964187672493
 40
-4.350964187672493
 40
-4.350964187672493
 40
-4.350964187672493
 10
918.9703278979946
 20
-1333.805772281025
 30
0.0000000000000116
 10
918.799058804209
 20
-1333.754298019889
 30
0.0000000000000115
 10
918.6073270104621
 20
-1333.694137845001
 30
0.0000000000000115
 10
918.1837639843099
 20
-1333.55296725685
 30
0.0000000000000114
 10
917.9501601604981
 20
-1333.47076876047
 30
0.0000000000000114
 10
917.4842381583607
 20
-1333.296317141578
 30
0.0000000000000113
 10
917.231746127778
 20
-1333.196960344887
 30
0.0000000000000112
 10
916.6920801169602
 20
-1332.969619505795
 30
0.0000000000000111
 10
916.404939041678
 20
-1332.841582201735
 30
0.0000000000000111
 10
915.8123235996439
 20
-1332.558617653175
 30
0.000000000000011
 10
915.5067183044298
 20
-1332.403565354552
 30
0.0000000000000109
 10
914.8958621407754
 20
-1332.072712819894
 30
0.0000000000000108
 10
914.590631357562
 20
-1331.89687644675
 30
0.0000000000000107
 10
913.9993592887632
 20
-1331.535467314858
 30
0.0000000000000106
 10
913.6869441361179
 20
-1331.333744892934
 30
0.0000000000000106
 10
913.0495402135451
 20
-1330.893959923354
 30
0.0000000000000105
 10
912.7245755861853
 20
-1330.655851283034
 30
0.0000000000000104
 10
912.0816328080859
 20
-1330.15287195449
 30
0.0000000000000103
 10
911.7634274491464
 20
-1329.88778507945
 30
0.0000000000000102
 10
911.1515902233639
 20
-1329.345279623269
 30
0.0000000000000101
 10
910.8579587630787
 20
-1329.06786109354
 30
0.0000000000000101
 10
910.310434896616
 20
-1328.520337227076
 30
0.00000000000001
 10
910.0330163668859
 20
-1328.226705766791
 30
0.0000000000000099
 10
909.4905109107047
 20
-1327.614868541009
 30
0.0000000000000098
 10
909.225424035665
 20
-1327.296663182069
 30
0.0000000000000098
 10
908.722444707122
 20
-1326.65372040397
 30
0.0000000000000097
 10
908.4843360668013
 20
-1326.328755776611
 30
0.0000000000000096
 10
908.0445510972202
 20
-1325.691351854037
 30
0.0000000000000095
 10
907.8428286752968
 20
-1325.378936701393
 30
0.0000000000000095
 10
907.4814195434052
 20
-1324.787664632592
 30
0.0000000000000094
 10
907.3055831702619
 20
-1324.48243384938
 30
0.0000000000000094
 10
906.9747306356038
 20
-1323.871577685725
 30
0.0000000000000093
 10
906.8196783369799
 20
-1323.565972390511
 30
0.0000000000000093
 10
906.536713788421
 20
-1322.973356948477
 30
0.0000000000000093
 10
906.4086764843601
 20
-1322.686215873196
 30
0.0000000000000092
 10
906.1813356452679
 20
-1322.146549862377
 30
0.0000000000000092
 10
906.0819788485773
 20
-1321.894057831794
 30
0.0000000000000092
 10
905.907527229686
 20
-1321.428135829658
 30
0.0000000000000092
 10
905.8253287333059
 20
-1321.194532005846
 30
0.0000000000000091
 10
905.6841581451539
 20
-1320.770968979694
 30
0.0000000000000091
 10
905.623997970266
 20
-1320.579237185947
 30
0.0000000000000091
 10
905.5725237091301
 20
-1320.40796809216
 30
0.0000000000000091
  0
SPLINE
  5
1976
330
1F
100
AcDbEntity
  8
PV-174
100
AcDbSpline
210
-0.0000000000000025
220
-0.0000000000000026
230
-1.0
 70
     8
 71
     3
 72
    38
 73
    34
 74
     0
 42
0.0000000001
 43
0.0000000001
 40
7.989195374219312
 40
7.989195374219312
 40
7.989195374219312
 40
7.989195374219312
 40
8.254479951649056
 40
8.254479951649056
 40
9.559037833637082
 40
9.559037833637082
 40
10.8635957156251
 40
10.8635957156251
 40
12.16815359761313
 40
12.16815359761313
 40
13.47206133512371
 40
13.47206133512371
 40
14.77596907263429
 40
14.77596907263429
 40
16.07987681014486
 40
16.07987681014486
 40
17.38378454765544
 40
17.38378454765544
 40
18.68769228516606
 40
18.68769228516606
 40
19.99160002267668
 40
19.99160002267668
 40
21.29550776018729
 40
21.29550776018729
 40
22.59941549769791
 40
22.59941549769791
 40
23.90397337968593
 40
23.90397337968593
 40
25.20853126167392
 40
25.20853126167392
 40
26.51308914366193
 40
26.51308914366193
 40
26.77837372109179
 40
26.77837372109179
 40
26.77837372109179
 40
26.77837372109179
 10
930.482357739431
 20
-1295.498160960654
 30
0.0000000000000137
 10
930.5464281220547
 20
-1295.517414931213
 30
0.0000000000000137
 10
930.6116914855808
 20
-1295.537377856771
 30
0.0000000000000137
 10
931.0045902323226
 20
-1295.659848281376
 30
0.0000000000000138
 10
931.3583927586913
 20
-1295.779442987636
 30
0.0000000000000138
 10
932.0989376133672
 20
-1296.056239594802
 30
0.000000000000014
 10
932.485865481987
 20
-1296.213618518542
 30
0.000000000000014
 10
933.2670033270639
 20
-1296.562191264548
 30
0.0000000000000142
 10
933.6611842946092
 20
-1296.753461677599
 30
0.0000000000000142
 10
934.4281858206343
 20
-1297.157341500744
 30
0.0000000000000144
 10
934.8341049809413
 20
-1297.387231468567
 30
0.0000000000000145
 10
935.6639138445308
 20
-1297.900624719594
 30
0.0000000000000146
 10
936.0877617024732
 20
-1298.184213130259
 30
0.0000000000000147
 10
936.92583382531
 20
-1298.795070893203
 30
0.0000000000000148
 10
937.340458712608
 20
-1299.122709269528
 30
0.0000000000000149
 10
938.135397418882
 20
-1299.803701142422
 30
0.0000000000000151
 10
938.5157047143781
 20
-1300.157064549916
 30
0.0000000000000151
 10
939.2212314402399
 20
-1300.862591275777
 30
0.0000000000000153
 10
939.574594847733
 20
-1301.242898571273
 30
0.0000000000000153
 10
940.255586720627
 20
-1302.037837277547
 30
0.0000000000000155
 10
940.5832250969528
 20
-1302.452462164845
 30
0.0000000000000155
 10
941.1940828598959
 20
-1303.290534287683
 30
0.0000000000000156
 10
941.4776712705608
 20
-1303.714382145624
 30
0.0000000000000157
 10
941.9910645215884
 20
-1304.544191009215
 30
0.0000000000000158
 10
942.2209544894107
 20
-1304.950110169521
 30
0.0000000000000158
 10
942.6248343125573
 20
-1305.717111695546
 30
0.0000000000000159
 10
942.8161047256066
 20
-1306.111292663092
 30
0.0000000000000159
 10
943.1646774716142
 20
-1306.892430508169
 30
0.000000000000016
 10
943.3220563953536
 20
-1307.279358376788
 30
0.000000000000016
 10
943.5988530025202
 20
-1308.019903231463
 30
0.0000000000000161
 10
943.7184477087793
 20
-1308.373705757831
 30
0.0000000000000161
 10
943.8409181333842
 20
-1308.766604504574
 30
0.0000000000000161
 10
943.8608810589418
 20
-1308.8318678681
 30
0.0000000000000161
 10
943.8801350295019
 20
-1308.895938250725
 30
0.0000000000000161
  0
ARC
  5
1977
330
1F
100
AcDbEntity
  8
PV-174
100
AcDbCircle
 10
924.7263324535779
 20
-1314.651963536577
 30
0.0000000000000126
 40
20.0
100
AcDbArc
 50
190.4432992891748
 51
196.7262863686395
  0
ARC
  5
1978
330
1F
100
AcDbEntity
  8
PV-174
100
AcDbCircle
 10
924.7263324535779
 20
-1314.651963536577
 30
0.0000000000000126
 40
20.0
100
AcDbArc
 50
79.55670071079826
 51
190.4432992891748
  0
ARC
  5
1979
330
1F
100
AcDbEntity
  8
PV-174
100
AcDbCircle
 10
924.7263324535779
 20
-1314.651963536577
 30
0.0000000000000126
 40
20.0
100
AcDbArc
 50
73.27371363136029
 51
79.55670071079826
  0
ARC
  5
197A
330
1F
100
AcDbEntity
  8
PV-174
100
AcDbCircle
 10
924.7263324535779
 20
-1314.651963536577
 30
0.0000000000000126
 40
20.0
100
AcDbArc
 50
10.44329928917484
 51
16.72628636863955
  0
ARC
  5
197B
330
1F
100
AcDbEntity
  8
PV-174
100
AcDbCircle
 10
924.7263324535779
 20
-1314.651963536577
 30
0.0000000000000126
 40
20.0
100
AcDbArc
 50
259.5567007107983
 51
10.44329928917484
  0
ARC
  5
197C
330
1F
100
AcDbEntity
  8
PV-174
100
AcDbCircle
 10
924.7263324535779
 20
-1314.651963536577
 30
0.0000000000000126
 40
20.0
100
AcDbArc
 50
253.2737136313601
 51
259.5567007107983
  0
ARC
  5
197D
330
1F
100
AcDbEntity
  8
PV-174
100
AcDbCircle
 10
942.9224530504558
 20
-1309.183765001057
 30
0.000000000000016
 40
1.000000000000051
100
AcDbArc
 50
16.72628636863955
 51
135.0000000000082
  0
ARC
  5
197E
330
1F
100
AcDbEntity
  8
PV-174
100
AcDbCircle
 10
919.2581339180582
 20
-1332.848084133456
 30
0.0000000000000116
 40
1.000000000000051
100
AcDbArc
 50
135.0000000000082
 51
253.2737136313601
  0
LINE
  5
197F
330
1F
100
AcDbEntity
  8
PV-174
100
AcDbLine
 10
942.2153462692701
 20
-1308.476658219871
 30
0.0000000000000158
 11
918.551027136872
 21
-1332.140977352269
 31
0.0000000000000115
210
0.0
220
1.0
230
0.0
  0
ARC
  5
1980
330
1F
100
AcDbEntity
  8
PV-174
100
AcDbCircle
 10
906.5302118567002
 20
-1320.120162072097
 30
0.0000000000000093
 40
1.000000000000051
100
AcDbArc
 50
196.7262863686395
 51
315.0000000000082
  0
LINE
  5
1981
330
1F
100
AcDbEntity
  8
PV-174
100
AcDbLine
 10
907.2373186378859
 20
-1320.827268853284
 30
0.0000000000000094
 11
930.9016377702851
 21
-1297.162949720886
 31
0.0000000000000137
210
0.0
220
1.0
230
0.0
  0
ARC
  5
1982
330
1F
100
AcDbEntity
  8
PV-174
100
AcDbCircle
 10
930.194530989098
 20
-1296.455842939699
 30
0.0000000000000136
 40
1.000000000000051
100
AcDbArc
 50
315.0000000000267
 51
73.27371363136029
  0
ARC
  5
1983
330
1F
100
AcDbEntity
  8
PV-174
100
AcDbCircle
 10
1044.514551202162
 20
-1369.922051731202
 30
0.0000000000000346
 40
120.0000000000005
100
AcDbArc
 50
175.9776914801459
 51
178.9226597831304
  0
ARC
  5
1984
330
1F
100
AcDbEntity
  8
PV-174
100
AcDbCircle
 10
1044.514551202162
 20
-1369.922051731202
 30
0.0000000000000346
 40
120.0000000000005
100
AcDbArc
 50
191.0773402168489
 51
194.1768749669896
  0
LINE
  5
1985
330
1F
100
AcDbEntity
  8
PV-174
100
AcDbLine
 10
310.1248885190726
 20
-2201.619458450772
 30
0.0
 11
303.6248885190726
 21
-2201.619458450772
 31
0.0
  0
LINE
  5
1986
330
1F
100
AcDbEntity
  8
PV-174
100
AcDbLine
 10
303.6248885190726
 20
-2172.901660563672
 30
0.0
 11
310.3248885190724
 21
-2172.901660563672
 31
0.0
  0
ARC
  5
1987
330
1F
100
AcDbEntity
  8
PV-174
100
AcDbCircle
 10
286.1248885190725
 20
-2139.619458450773
 30
0.0
 40
26.69999999999936
100
AcDbArc
 50
0.0
 51
110.8428039567466
  0
ARC
  5
1988
330
1F
100
AcDbEntity
  8
PV-174
100
AcDbCircle
 10
228.774888519074
 20
-2162.619458450771
 30
0.0
 40
0.9999999999999998
100
AcDbArc
 50
90.0
 51
180.0
  0
SPLINE
  5
1989
330
1F
100
AcDbEntity
  8
PV-174
100
AcDbSpline
210
0.0
220
0.0
230
1.0
 70
     8
 71
     3
 72
    10
 73
     6
 74
     0
 42
0.0000000001
 43
0.0000000001
 40
1.86139545575616
 40
1.86139545575616
 40
1.86139545575616
 40
1.86139545575616
 40
3.074047116240881
 40
3.074047116240881
 40
4.714235913710636
 40
4.714235913710636
 40
4.714235913710636
 40
4.714235913710636
 10
230.3967503671684
 20
-2187.492186734403
 30
0.0
 10
230.1294235892774
 20
-2187.201488552158
 30
0.0
 10
229.8639989122703
 20
-2186.907253113855
 30
0.0
 10
229.2447897940228
 20
-2186.207118169617
 30
0.0
 10
228.8925120990225
 20
-2185.798045330299
 30
0.0
 10
228.5448870117388
 20
-2185.382939529679
 30
0.0
  0
SPLINE
  5
198A
330
1F
100
AcDbEntity
  8
PV-174
100
AcDbSpline
210
0.0
220
0.0
230
1.0
 70
     8
 71
     3
 72
    22
 73
    18
 74
     0
 42
0.0000000001
 43
0.0000000001
 40
0.0
 40
0.0
 40
0.0
 40
0.0
 40
0.1010342156325368
 40
0.1010342156325368
 40
0.3279516765630044
 40
0.3279516765630044
 40
0.5175559881790206
 40
0.5175559881790206
 40
0.7979184818379858
 40
0.7979184818379858
 40
1.199996365120317
 40
1.199996365120317
 40
1.322552189555461
 40
1.322552189555461
 40
1.603510848517379
 40
1.603510848517379
 40
2.026822376410208
 40
2.026822376410208
 40
2.026822376410208
 40
2.026822376410208
 10
228.5448870656246
 20
-2185.382939470055
 30
0.0
 10
228.5234398652601
 20
-2185.357328964709
 30
0.0
 10
228.5023176416808
 20
-2185.331299202902
 30
0.0
 10
228.4348868647139
 20
-2185.245720950326
 30
0.0
 10
228.389851385672
 20
-2185.184651263047
 30
0.0
 10
228.3106404970113
 20
-2185.070610045738
 30
0.0
 10
228.2757891328583
 20
-2185.017800312241
 30
0.0
 10
228.19276678375
 20
-2184.885619131154
 30
0.0
 10
228.1459774353498
 20
-2184.805275274581
 30
0.0
 10
228.0400415637405
 20
-2184.608617636087
 30
0.0
 10
227.9837600501796
 20
-2184.49079998513
 30
0.0
 10
227.921127136452
 20
-2184.338202030996
 30
0.0
 10
227.9072388480763
 20
-2184.302561107997
 30
0.0
 10
227.8642394692752
 20
-2184.185490767814
 30
0.0
 10
227.8385443446223
 20
-2184.104279700174
 30
0.0
 10
227.7883408303942
 20
-2183.903239012444
 30
0.0
 10
227.774888519074
 20
-2183.799751339963
 30
0.0
 10
227.774888519074
 20
-2183.711218452813
 30
0.0
  0
SPLINE
  5
198B
330
1F
100
AcDbEntity
  8
PV-174
100
AcDbSpline
210
0.0
220
0.0
230
1.0
 70
     8
 71
     3
 72
    16
 73
    12
 74
     0
 42
0.0000000001
 43
0.0000000001
 40
0.2153933378818875
 40
0.2153933378818875
 40
0.2153933378818875
 40
0.2153933378818875
 40
0.4400106383128409
 40
0.4400106383128409
 40
0.7443622166473654
 40
0.7443622166473654
 40
0.7898558523517304
 40
0.7898558523517304
 40
0.8400475890234059
 40
0.8400475890234059
 40
0.9391014517164848
 40
0.9391014517164848
 40
0.9391014517164848
 40
0.9391014517164848
 10
231.4441309155272
 20
-2188.087659118928
 30
0.0
 10
231.334503939037
 20
-2188.087680132273
 30
0.0
 10
231.2243539338015
 20
-2188.060084688298
 30
0.0
 10
230.9796130709719
 20
-2187.963125590751
 30
0.0
 10
230.8298259801868
 20
-2187.874550690423
 30
0.0
 10
230.6554640333388
 20
-2187.736250063595
 30
0.0
 10
230.6329136351669
 20
-2187.717670698647
 30
0.0
 10
230.5858321970372
 20
-2187.677399974944
 30
0.0
 10
230.5613222878528
 20
-2187.655572709847
 30
0.0
 10
230.4891941059123
 20
-2187.588689765687
 30
0.0
 10
230.4422100885349
 20
-2187.541620766881
 30
0.0
 10
230.396750603607
 20
-2187.492186377637
 30
0.0
  0
ARC
  5
198C
330
1F
100
AcDbEntity
  8
PV-174
100
AcDbCircle
 10
228.774888519074
 20
-2200.619458450772
 30
0.0
 40
0.9999999999999998
100
AcDbArc
 50
180.0
 51
270.0
  0
SPLINE
  5
198D
330
1F
100
AcDbEntity
  8
PV-174
100
AcDbSpline
210
0.0
220
0.0
230
1.0
 70
     8
 71
     3
 72
    22
 73
    18
 74
     0
 42
0.0000000001
 43
0.0000000001
 40
3.061871436955371
 40
3.061871436955371
 40
3.061871436955371
 40
3.061871436955371
 40
3.560368615882661
 40
3.560368615882661
 40
7.493792974690866
 40
7.493792974690866
 40
12.10816926551457
 40
12.10816926551457
 40
16.79563105604579
 40
16.79563105604579
 40
20.70282533587922
 40
20.70282533587922
 40
24.42008836558175
 40
24.42008836558175
 40
27.33511547717966
 40
27.33511547717966
 40
28.43964690264884
 40
28.43964690264884
 40
28.43964690264884
 40
28.43964690264884
 10
251.0578085569987
 20
-2195.275061134344
 30
0.0
 10
251.052021620113
 20
-2195.158711547685
 30
0.0
 10
251.0426049327489
 20
-2195.040557723519
 30
0.0
 10
250.9262427256881
 20
-2193.974296401488
 30
0.0
 10
250.5978360000245
 20
-2192.959825602941
 30
0.0
 10
249.4490496408925
 20
-2190.742636687295
 30
0.0
 10
248.5677903655906
 20
-2189.566191674332
 30
0.0
 10
246.4056771818887
 20
-2187.484357077728
 30
0.0
 10
245.1130930580502
 20
-2186.578952025708
 30
0.0
 10
242.4931407549366
 20
-2185.460117880041
 30
0.0
 10
241.2279304206058
 20
-2185.166954118287
 30
0.0
 10
238.6856113144613
 20
-2185.12626236776
 30
0.0
 10
237.4731978982327
 20
-2185.353711690078
 30
0.0
 10
235.4118820302992
 20
-2186.127382277761
 30
0.0
 10
234.5562716510185
 20
-2186.5879841062
 30
0.0
 10
233.4687789827158
 20
-2187.337179966686
 30
0.0
 10
233.1793218412295
 20
-2187.555050570983
 30
0.0
 10
232.9001010051306
 20
-2187.783052325223
 30
0.0
  0
SPLINE
  5
198E
330
1F
100
AcDbEntity
  8
PV-174
100
AcDbSpline
210
0.0
220
0.0
230
1.0
 70
     8
 71
     3
 72
    14
 73
    10
 74
     0
 42
0.0000000001
 43
0.0000000001
 40
0.0
 40
0.0
 40
0.0
 40
0.0
 40
0.1027022129701241
 40
0.1027022129701241
 40
0.7279570392031931
 40
0.7279570392031931
 40
0.878711546942449
 40
0.878711546942449
 40
1.007573759621968
 40
1.007573759621968
 40
1.007573759621968
 40
1.007573759621968
 10
232.7431251548132
 20
-2187.886048040826
 30
0.0
 10
232.7161124358972
 20
-2187.899808411831
 30
0.0
 10
232.6891965456671
 20
-2187.913069696784
 30
0.0
 10
232.4992793266847
 20
-2188.003176305462
 30
0.0
 10
232.3626670176154
 20
-2188.049969490867
 30
0.0
 10
232.2199142427044
 20
-2188.0774601963
 30
0.0
 10
232.1922279355922
 20
-2188.081600310743
 30
0.0
 10
232.1411870963857
 20
-2188.086536589921
 30
0.0
 10
232.1185248288866
 20
-2188.087684747861
 30
0.0
 10
232.0966356158151
 20
-2188.087701245753
 30
0.0
  0
SPLINE
  5
198F
330
1F
100
AcDbEntity
  8
PV-174
100
AcDbSpline
210
0.0
220
0.0
230
1.0
 70
     8
 71
     3
 72
    20
 73
    16
 74
     0
 42
0.0000000001
 43
0.0000000001
 40
0.1476977204276086
 40
0.1476977204276086
 40
0.1476977204276086
 40
0.1476977204276086
 40
0.2758370288594389
 40
0.2758370288594389
 40
0.293331138459643
 40
0.293331138459643
 40
0.301426564545421
 40
0.301426564545421
 40
0.3203753852087088
 40
0.3203753852087088
 40
0.3465415963585574
 40
0.3465415963585574
 40
0.3510419892013851
 40
0.3510419892013851
 40
0.3544686228257871
 40
0.3544686228257871
 40
0.3544686228257871
 40
0.3544686228257871
 10
232.9001159103127
 20
-2187.78308267567
 30
0.0
 10
232.8701557469731
 20
-2187.807548750294
 30
0.0
 10
232.8388243006393
 20
-2187.83013643062
 30
0.0
 10
232.8012503244272
 20
-2187.853496410866
 30
0.0
 10
232.796707711439
 20
-2187.856262554943
 30
0.0
 10
232.7900198704992
 20
-2187.860249522126
 30
0.0
 10
232.787897865489
 20
-2187.861502126505
 30
0.0
 10
232.7807879058719
 20
-2187.865657429041
 30
0.0
 10
232.7757718815956
 20
-2187.868520847261
 30
0.0
 10
232.7637469727051
 20
-2187.87522209229
 30
0.0
 10
232.7567070040905
 20
-2187.879015490133
 30
0.0
 10
232.7483791586783
 20
-2187.883349489295
 30
0.0
 10
232.747155078312
 20
-2187.883982693823
 30
0.0
 10
232.7449955451129
 20
-2187.885093035867
 30
0.0
 10
232.7440609149253
 20
-2187.885571361439
 30
0.0
 10
232.7431251547969
 20
-2187.886048040835
 30
0.0
  0
LINE
  5
1990
330
1F
100
AcDbEntity
  8
PV-174
100
AcDbLine
 10
253.274888519074
 20
-2164.219458450772
 30
0.0
 11
253.4248885190727
 21
-2164.219458450772
 31
0.0
  0
LINE
  5
1991
330
1F
100
AcDbEntity
  8
PV-174
100
AcDbLine
 10
253.274888519074
 20
-2199.019458450772
 30
0.0
 11
253.4248885190727
 21
-2199.019458450772
 31
0.0
  0
LINE
  5
1992
330
1F
100
AcDbEntity
  8
PV-174
100
AcDbLine
 10
231.4441273346165
 20
-2188.087656986292
 30
0.0
 11
232.096702456558
 21
-2188.087656986292
 31
0.0
  0
LINE
  5
1993
330
1F
100
AcDbEntity
  8
PV-174
100
AcDbLine
 10
228.774888519074
 20
-2161.619458450772
 30
0.0
 11
253.274888519074
 21
-2161.619458450772
 31
0.0
  0
LINE
  5
1994
330
1F
100
AcDbEntity
  8
PV-174
100
AcDbLine
 10
228.774888519074
 20
-2201.619458450772
 30
0.0
 11
253.274888519074
 21
-2201.619458450772
 31
0.0
  0
LINE
  5
1995
330
1F
100
AcDbEntity
  8
PV-174
100
AcDbLine
 10
303.6248885190726
 20
-2201.619480995099
 30
0.0
 11
268.6248885190726
 21
-2201.619480995099
 31
0.0
  0
LINE
  5
1996
330
1F
100
AcDbEntity
  8
PV-174
100
AcDbLine
 10
268.6248885190726
 20
-2201.619458450772
 30
0.0
 11
262.1248885190726
 21
-2201.619458450772
 31
0.0
  0
LINE
  5
1997
330
1F
100
AcDbEntity
  8
PV-174
100
AcDbLine
 10
261.9248885190728
 20
-2201.619458450773
 30
0.0
 11
253.4248885190727
 21
-2201.619458450773
 31
0.0
  0
LINE
  5
1998
330
1F
100
AcDbEntity
  8
PV-174
100
AcDbLine
 10
259.4248885190737
 20
-2161.619458450774
 30
0.0
 11
253.4248885190727
 21
-2161.619458450774
 31
0.0
  0
LINE
  5
1999
330
1F
100
AcDbEntity
  8
PV-174
100
AcDbLine
 10
261.9248885190728
 20
-2173.619458450772
 30
0.0
 11
262.1248885190726
 21
-2173.619458450772
 31
0.0
  0
LINE
  5
199A
330
1F
100
AcDbEntity
  8
PV-174
100
AcDbLine
 10
261.9248885190728
 20
-2189.619458450772
 30
0.0
 11
262.1248885190726
 21
-2189.619458450772
 31
0.0
  0
LINE
  5
199B
330
1F
100
AcDbEntity
  8
PV-174
100
AcDbLine
 10
262.1248885190726
 20
-2177.376817763652
 30
0.0
 11
261.9248885190728
 21
-2177.376817763652
 31
0.0
  0
LINE
  5
199C
330
1F
100
AcDbEntity
  8
PV-174
100
AcDbLine
 10
262.1248885190726
 20
-2179.548906089951
 30
0.0
 11
261.9248885190728
 21
-2179.548906089951
 31
0.0
  0
LINE
  5
199D
330
1F
100
AcDbEntity
  8
PV-174
100
AcDbLine
 10
261.9248885190728
 20
-2175.96260420128
 30
0.0
 11
262.1248885190726
 21
-2175.96260420128
 31
0.0
  0
LINE
  5
199E
330
1F
100
AcDbEntity
  8
PV-174
100
AcDbLine
 10
261.4248885190737
 20
-2172.901660563672
 30
0.0
 11
261.9248885190728
 21
-2172.901660563672
 31
0.0
  0
SPLINE
  5
199F
330
1F
100
AcDbEntity
  8
PV-174
100
AcDbSpline
210
0.0
220
0.0
230
1.0
 70
     8
 71
     3
 72
    18
 73
    14
 74
     0
 42
0.0000000001
 43
0.0000000001
 40
-4.49455063240396
 40
-4.49455063240396
 40
-4.49455063240396
 40
-4.49455063240396
 40
-3.042993563053926
 40
-3.042993563053926
 40
-2.317215028378913
 40
-2.317215028378913
 40
-1.591436493703898
 40
-1.591436493703898
 40
-0.7957182468519495
 40
-0.7957182468519495
 40
-0.3978591234259738
 40
-0.3978591234259738
 40
0.0
 40
0.0
 40
0.0
 40
0.0
 10
259.4248885190737
 20
-2169.619458450762
 30
0.0
 10
259.4248885190737
 20
-2170.006540335922
 30
0.0
 10
259.4901288311048
 20
-2170.437305322801
 30
0.0
 10
259.6850463521842
 20
-2171.077284911259
 30
0.0
 10
259.7658068564833
 20
-2171.289479185887
 30
0.0
 10
259.9573406204418
 20
-2171.698350012922
 30
0.0
 10
260.0679583050069
 20
-2171.895075988441
 30
0.0
 10
260.3324365327671
 20
-2172.275382078032
 30
0.0
 10
260.5076923449633
 20
-2172.481080601588
 30
0.0
 10
260.8181967471765
 20
-2172.715734574528
 30
0.0
 10
260.9295208375324
 20
-2172.781612316733
 30
0.0
 10
261.1665744850825
 20
-2172.874546253508
 30
0.0
 10
261.2922688112649
 20
-2172.901660563674
 30
0.0
 10
261.4248885190737
 20
-2172.901660563674
 30
0.0
  0
LINE
  5
19A0
330
1F
100
AcDbEntity
  8
PV-174
100
AcDbLine
 10
261.9248885190728
 20
-2201.619458450773
 30
0.0
 11
261.9248885190728
 21
-2172.901660563672
 31
0.0
  0
LINE
  5
19A1
330
1F
100
AcDbEntity
  8
PV-174
100
AcDbLine
 10
253.4248885190727
 20
-2161.619458450774
 30
0.0
 11
253.4248885190727
 21
-2201.619458450773
 31
0.0
  0
LINE
  5
19A2
330
1F
100
AcDbEntity
  8
PV-174
100
AcDbLine
 10
261.9248885190728
 20
-2172.901660563672
 30
0.0
 11
268.6248885190726
 21
-2172.901660563672
 31
0.0
  0
LINE
  5
19A3
330
1F
100
AcDbEntity
  8
PV-174
100
AcDbLine
 10
259.4248885190737
 20
-2139.619458450773
 30
0.0
 11
259.4248885190737
 21
-2169.619458450762
 31
0.0
  0
ARC
  5
19A4
330
1F
100
AcDbEntity
  8
PV-174
100
AcDbCircle
 10
286.1248885190725
 20
-2139.619458450773
 30
0.0
 40
26.69999999999936
100
AcDbArc
 50
110.8428039567466
 51
180.0
  0
LINE
  5
19A5
330
1F
100
AcDbEntity
  8
PV-174
100
AcDbLine
 10
262.1248885190726
 20
-2172.901660563658
 30
0.0
 11
262.1248885190726
 21
-2201.619458450772
 31
0.0
  0
LINE
  5
19A6
330
1F
100
AcDbEntity
  8
PV-174
100
AcDbLine
 10
268.6248885190726
 20
-2172.901608843536
 30
0.0
 11
268.6248885190726
 21
-2201.619480995099
 31
0.0
  0
LINE
  5
19A7
330
1F
100
AcDbEntity
  8
PV-174
100
AcDbLine
 10
303.6248885190726
 20
-2201.619480995099
 30
0.0
 11
303.6248885190726
 21
-2172.901608843536
 31
0.0
  0
LINE
  5
19A8
330
1F
100
AcDbEntity
  8
PV-174
100
AcDbLine
 10
253.274888519074
 20
-2161.619458450772
 30
0.0
 11
253.274888519074
 21
-2195.761594074502
 31
0.0
  0
LINE
  5
19A9
330
1F
100
AcDbEntity
  8
PV-174
100
AcDbLine
 10
253.274888519074
 20
-2195.761594074502
 30
0.0
 11
253.274888519074
 21
-2201.619458450772
 31
0.0
  0
LINE
  5
19AA
330
1F
100
AcDbEntity
  8
PV-174
100
AcDbLine
 10
227.774888519074
 20
-2183.711218452813
 30
0.0
 11
227.774888519074
 21
-2200.503963741985
 31
0.0
  0
LINE
  5
19AB
330
1F
100
AcDbEntity
  8
PV-174
100
AcDbLine
 10
227.774888519074
 20
-2200.503963741985
 30
0.0
 11
227.774888519074
 21
-2200.619458450772
 31
0.0
  0
LINE
  5
19AC
330
1F
100
AcDbEntity
  8
PV-174
100
AcDbLine
 10
227.774888519074
 20
-2162.619458450771
 30
0.0
 11
227.774888519074
 21
-2183.711218452813
 31
0.0
  0
ARC
  5
19AD
330
1F
100
AcDbEntity
  8
PV-174
100
AcDbCircle
 10
318.9748885190728
 20
-2199.619458450772
 30
0.0
 40
1.999999999999999
100
AcDbArc
 50
270.0
 51
0.0
  0
ARC
  5
19AE
330
1F
100
AcDbEntity
  8
PV-174
100
AcDbCircle
 10
318.9748885190728
 20
-2163.619458450772
 30
0.0
 40
1.999999999999999
100
AcDbArc
 50
0.0
 51
90.0
  0
LINE
  5
19AF
330
1F
100
AcDbEntity
  8
PV-174
100
AcDbLine
 10
318.8248885190724
 20
-2201.619458450773
 30
0.0
 11
310.3248885190724
 21
-2201.619458450773
 31
0.0
  0
LINE
  5
19B0
330
1F
100
AcDbEntity
  8
PV-174
100
AcDbLine
 10
318.8248885190724
 20
-2161.619458450774
 30
0.0
 11
312.8248885190715
 21
-2161.619458450774
 31
0.0
  0
LINE
  5
19B1
330
1F
100
AcDbEntity
  8
PV-174
100
AcDbLine
 10
318.8248885190724
 20
-2164.219458450772
 30
0.0
 11
318.9748885190728
 21
-2164.219458450772
 31
0.0
  0
LINE
  5
19B2
330
1F
100
AcDbEntity
  8
PV-174
100
AcDbLine
 10
318.8248885190724
 20
-2199.019458450772
 30
0.0
 11
318.9748885190728
 21
-2199.019458450772
 31
0.0
  0
LINE
  5
19B3
330
1F
100
AcDbEntity
  8
PV-174
100
AcDbLine
 10
310.1248885190726
 20
-2173.619458450772
 30
0.0
 11
310.3248885190724
 21
-2173.619458450772
 31
0.0
  0
LINE
  5
19B4
330
1F
100
AcDbEntity
  8
PV-174
100
AcDbLine
 10
310.1248885190726
 20
-2189.619458450772
 30
0.0
 11
310.3248885190724
 21
-2189.619458450772
 31
0.0
  0
LINE
  5
19B5
330
1F
100
AcDbEntity
  8
PV-174
100
AcDbLine
 10
318.9748885190728
 20
-2161.619458450772
 30
0.0
 11
318.9748885190728
 21
-2167.477322827041
 31
0.0
  0
LINE
  5
19B6
330
1F
100
AcDbEntity
  8
PV-174
100
AcDbLine
 10
318.9748885190728
 20
-2167.477322827041
 30
0.0
 11
318.9748885190728
 21
-2201.619458450772
 31
0.0
  0
LINE
  5
19B7
330
1F
100
AcDbEntity
  8
PV-174
100
AcDbLine
 10
320.9748885190728
 20
-2163.619458450772
 30
0.0
 11
320.9748885190728
 21
-2168.891536389415
 31
0.0
  0
LINE
  5
19B8
330
1F
100
AcDbEntity
  8
PV-174
100
AcDbLine
 10
320.9748885190728
 20
-2168.891536389414
 30
0.0
 11
320.9748885190728
 21
-2199.619458450772
 31
0.0
  0
LINE
  5
19B9
330
1F
100
AcDbEntity
  8
PV-174
100
AcDbLine
 10
310.3248885190724
 20
-2172.901660563672
 30
0.0
 11
310.8248885190715
 21
-2172.901660563672
 31
0.0
  0
LINE
  5
19BA
330
1F
100
AcDbEntity
  8
PV-174
100
AcDbLine
 10
310.3248885190724
 20
-2201.619458450773
 30
0.0
 11
310.3248885190724
 21
-2172.901660563672
 31
0.0
  0
SPLINE
  5
19BB
330
1F
100
AcDbEntity
  8
PV-174
100
AcDbSpline
210
0.0
220
0.0
230
1.0
 70
     8
 71
     3
 72
    18
 73
    14
 74
     0
 42
0.0000000001
 43
0.0000000001
 40
0.0
 40
0.0
 40
0.0
 40
0.0
 40
0.3978591234259627
 40
0.3978591234259627
 40
0.7957182468519255
 40
0.7957182468519255
 40
1.59143649370385
 40
1.59143649370385
 40
2.317215028378711
 40
2.317215028378711
 40
3.042993563053578
 40
3.042993563053578
 40
4.494550632403308
 40
4.494550632403308
 40
4.494550632403308
 40
4.494550632403308
 10
310.8248885190715
 20
-2172.901660563673
 30
0.0
 10
310.9575082268802
 20
-2172.901660563673
 30
0.0
 10
311.0832025530626
 20
-2172.874546253507
 30
0.0
 10
311.3202562006127
 20
-2172.781612316732
 30
0.0
 10
311.4315802909687
 20
-2172.715734574528
 30
0.0
 10
311.7420846931818
 20
-2172.481080601587
 30
0.0
 10
311.917340505378
 20
-2172.275382078031
 30
0.0
 10
312.1818187331383
 20
-2171.895075988441
 30
0.0
 10
312.2924364177034
 20
-2171.698350012921
 30
0.0
 10
312.4839701816618
 20
-2171.289479185886
 30
0.0
 10
312.564730685961
 20
-2171.077284911259
 30
0.0
 10
312.7596482070404
 20
-2170.437305322801
 30
0.0
 10
312.8248885190715
 20
-2170.006540335922
 30
0.0
 10
312.8248885190715
 20
-2169.619458450762
 30
0.0
  0
LINE
  5
19BC
330
1F
100
AcDbEntity
  8
PV-174
100
AcDbLine
 10
318.8248885190724
 20
-2161.619458450774
 30
0.0
 11
318.8248885190724
 21
-2201.619458450773
 31
0.0
  0
LINE
  5
19BD
330
1F
100
AcDbEntity
  8
PV-174
100
AcDbLine
 10
312.8248885190715
 20
-2139.619458450773
 30
0.0
 11
312.8248885190715
 21
-2169.619458450762
 31
0.0
  0
LINE
  5
19BE
330
1F
100
AcDbEntity
  8
PV-174
100
AcDbLine
 10
310.1248885190726
 20
-2172.901660563658
 30
0.0
 11
310.1248885190726
 21
-2201.619458450772
 31
0.0
  0
LINE
  5
1A07
330
1F
100
AcDbEntity
  8
Hewi
100
AcDbLine
 10
269.1248885190717
 20
-1402.639580998721
 30
0.0000000000000016
 11
269.1248885190716
 21
-1867.562978975264
 31
0.0000000000000015
  0
LINE
  5
1A08
330
1F
100
AcDbEntity
  8
Hewi
100
AcDbLine
 10
302.1248885190716
 20
-1294.639558454395
 30
-0.0000000000000019
 11
302.1248885190712
 21
-1018.862978975253
 31
-0.0000000000000057
  0
LINE
  5
1A0B
330
1F
100
AcDbEntity
  8
Hewi
100
AcDbLine
 10
899.3978056614368
 20
-1296.651963536598
 30
-0.0000000000000009
 11
899.3978056614365
 21
-1018.862978975253
 31
-0.0000000000000047
  0
LINE
  5
1A0C
330
1F
100
AcDbEntity
  8
Hewi
100
AcDbLine
 10
866.397366576195
 20
-1402.651963536577
 30
0.0
 11
866.3914543630749
 21
-1792.062978975265
 31
0.0
  0
ARC
  5
1A0D
330
1F
100
AcDbEntity
  8
PV-174
100
AcDbCircle
 10
-43.40184045415549
 20
-1398.332318176284
 30
0.000000000000014
 40
4.000000000000073
100
AcDbArc
 50
184.1768749669936
 51
345.8231250330101
  0
ARC
  5
1A0E
330
1F
100
AcDbEntity
  8
PV-174
100
AcDbCircle
 10
-13.08075806335273
 20
-1401.951963536577
 30
0.0000000000000084
 40
0.6999999999999319
100
AcDbArc
 50
180.0
 51
270.0
  0
ARC
  5
1A0F
330
1F
100
AcDbEntity
  8
PV-174
100
AcDbCircle
 10
24.91924193664636
 20
-1401.951963536577
 30
0.0000000000000014
 40
0.6999999999999319
100
AcDbArc
 50
270.0
 51
0.000000000000007
  0
ARC
  5
1A10
330
1F
100
AcDbEntity
  8
PV-174
100
AcDbCircle
 10
30.61924193664641
 20
-1298.651963536599
 30
0.0000000000000004
 40
1.999999999999995
100
AcDbArc
 50
0.000000000000007
 51
90.0
  0
ARC
  5
1A11
330
1F
100
AcDbEntity
  8
PV-174
100
AcDbCircle
 10
30.61924193664641
 20
-1330.651963536578
 30
0.0000000000000004
 40
1.999999999999999
100
AcDbArc
 50
270.0
 51
0.000000000000007
  0
ARC
  5
1A12
330
1F
100
AcDbEntity
  8
PV-174
100
AcDbCircle
 10
72.29005838528656
 20
-1389.883380791972
 30
-0.0000000000000073
 40
119.9999999999995
100
AcDbArc
 50
181.0773402168434
 51
184.1768749669936
  0
ARC
  5
1A13
330
1F
100
AcDbEntity
  8
PV-174
100
AcDbCircle
 10
72.29005838528656
 20
-1389.883380791972
 30
-0.0000000000000073
 40
119.9999999999995
100
AcDbArc
 50
165.9776914801217
 51
168.922659783151
  0
LINE
  5
1A14
330
1F
100
AcDbEntity
  8
PV-174
100
AcDbLine
 10
25.61924193664732
 20
-1401.951963536577
 30
0.0000000000000013
 11
25.61924193664732
 21
-1332.651963536577
 31
0.0000000000000013
210
0.0
220
1.0
230
0.0
  0
LINE
  5
1A15
330
1F
100
AcDbEntity
  8
PV-174
100
AcDbLine
 10
-13.78075806335278
 20
-1401.951963536577
 30
0.0000000000000085
 11
-13.78075806335278
 21
-1332.651963536577
 31
0.0000000000000085
210
0.0
220
1.0
230
0.0
  0
LINE
  5
1A16
330
1F
100
AcDbEntity
  8
PV-174
100
AcDbLine
 10
32.6192419366464
 20
-1330.651963536578
 30
0.0
 11
32.6192419366464
 21
-1298.651963536599
 31
0.0
210
0.0
220
1.0
230
0.0
  0
LINE
  5
1A17
330
1F
100
AcDbEntity
  8
PV-174
100
AcDbLine
 10
5.919241936646357
 20
-1332.651963536576
 30
0.0000000000000049
 11
-27.36296017624568
 21
-1332.651963536576
 31
0.000000000000011
210
0.0
220
1.0
230
0.0
  0
LINE
  5
1A18
330
1F
100
AcDbEntity
  8
PV-174
100
AcDbLine
 10
5.919241936646357
 20
-1296.651963536598
 30
0.0000000000000049
 11
-27.36296017625455
 21
-1296.651963536598
 31
0.000000000000011
210
0.0
220
1.0
230
0.0
  0
LINE
  5
1A19
330
1F
100
AcDbEntity
  8
PV-174
100
AcDbLine
 10
30.61924193664641
 20
-1296.651963536599
 30
0.0000000000000004
 11
5.919241936646357
 21
-1296.651963536599
 31
0.0000000000000049
210
0.0
220
1.0
230
0.0
  0
LINE
  5
1A1A
330
1F
100
AcDbEntity
  8
PV-174
100
AcDbLine
 10
30.61924193664641
 20
-1332.651963536578
 30
0.0000000000000004
 11
5.919241936646357
 21
-1332.651963536578
 31
0.0000000000000049
210
0.0
220
1.0
230
0.0
  0
LINE
  5
1A1B
330
1F
100
AcDbEntity
  8
PV-174
100
AcDbLine
 10
-13.08075806335273
 20
-1402.651963536577
 30
0.0000000000000084
 11
24.91924193664636
 21
-1402.651963536577
 31
0.0000000000000014
210
0.0
220
1.0
230
0.0
  0
ARC
  5
1A1C
330
1F
100
AcDbEntity
  8
PV-174
100
AcDbCircle
 10
-36.0807580633525
 20
-1314.651963536577
 30
0.0000000000000126
 40
20.00002254432668
100
AcDbArc
 50
64.15793388634338
 51
295.8420661134829
  0
LINE
  5
1A1D
330
1F
100
AcDbEntity
  8
PV-174
100
AcDbLine
 10
-33.80387805945043
 20
-1334.521958987543
 30
0.0000000000000122
 11
-36.70870696268844
 21
-1367.724305282122
 31
0.0000000000000127
210
0.0
220
1.0
230
0.0
  0
SPLINE
  5
1A1E
330
1F
100
AcDbEntity
  8
PV-174
100
AcDbSpline
210
0.0
220
0.0
230
1.0
 70
     8
 71
     3
 72
    20
 73
    16
 74
     0
 42
0.0000000001
 43
0.0000000001
 40
1.658125044756507
 40
1.658125044756507
 40
1.658125044756507
 40
1.658125044756507
 40
1.696828082632723
 40
1.696828082632723
 40
1.798652902623234
 40
1.798652902623234
 40
1.900477722613745
 40
1.900477722613745
 40
1.938296586027634
 40
1.938296586027634
 40
1.97611544944152
 40
1.97611544944152
 40
2.029036545890053
 40
2.029036545890053
 40
2.081957642338585
 40
2.081957642338585
 40
2.081957642338585
 40
2.081957642338585
 10
-36.74871456133065
 20
-1367.594172877409
 30
0.0000000000000127
 10
-36.74775116135447
 20
-1367.606268558195
 30
0.0000000000000127
 10
-36.74676825268239
 20
-1367.618197928248
 30
0.0000000000000127
 10
-36.74312754283143
 20
-1367.660613462776
 30
0.0000000000000127
 10
-36.74037836797948
 20
-1367.689462247837
 30
0.0000000000000127
 10
-36.73443595881439
 20
-1367.740493347785
 30
0.0000000000000127
 10
-36.73130907254768
 20
-1367.763207124581
 30
0.0000000000000127
 10
-36.72599373296522
 20
-1367.783267839178
 30
0.0000000000000127
 10
-36.72437071556146
 20
-1367.787503258309
 30
0.0000000000000127
 10
-36.7211614178093
 20
-1367.790550429782
 30
0.0000000000000127
 10
-36.7195752998116
 20
-1367.78932081059
 30
0.0000000000000127
 10
-36.71627082268447
 20
-1367.78173722077
 30
0.0000000000000127
 10
-36.7144455077098
 20
-1367.773042807108
 30
0.0000000000000127
 10
-36.71123994519962
 20
-1367.750819419401
 30
0.0000000000000127
 10
-36.70985076679268
 20
-1367.737379022856
 30
0.0000000000000127
 10
-36.70870696268844
 20
-1367.724305282122
 30
0.0000000000000127
  0
SPLINE
  5
1A1F
330
1F
100
AcDbEntity
  8
PV-174
100
AcDbSpline
210
-0.0000000000000067
220
-0.0000000000000022
230
1.0
 70
     8
 71
     3
 72
    14
 73
    10
 74
     0
 42
0.0000000001
 43
0.0000000001
 40
8.778950683888792
 40
8.778950683888792
 40
8.778950683888792
 40
8.778950683888792
 40
9.563883066885145
 40
9.563883066885145
 40
10.34881544988149
 40
10.34881544988149
 40
11.08217418681549
 40
11.08217418681549
 40
11.16592180634194
 40
11.16592180634194
 40
11.16592180634194
 40
11.16592180634194
 10
-37.50186621578655
 20
-1365.316443783779
 30
0.0000000000000129
 10
-37.38362919417455
 20
-1365.549848274443
 30
0.0000000000000128
 10
-37.25935252176828
 20
-1365.806112476263
 30
0.0000000000000128
 10
-37.04354765516541
 20
-1366.319931339571
 30
0.0000000000000128
 10
-36.95270685266655
 20
-1366.577947481849
 30
0.0000000000000128
 10
-36.82825100651939
 20
-1367.033882779964
 30
0.0000000000000127
 10
-36.78024628419166
 20
-1367.273978323979
 30
0.0000000000000127
 10
-36.75334236860749
 20
-1367.539769723583
 30
0.0000000000000127
 10
-36.75087924872173
 20
-1367.566994791127
 30
0.0000000000000127
 10
-36.74871456133065
 20
-1367.594172877409
 30
0.0000000000000127
  0
SPLINE
  5
1A20
330
1F
100
AcDbEntity
  8
PV-174
100
AcDbSpline
210
0.0
220
-0.0000000000000001
230
1.0
 70
     8
 71
     3
 72
    30
 73
    26
 74
     0
 42
0.0000000001
 43
0.0000000001
 40
50.21703549202495
 40
50.21703549202495
 40
50.21703549202495
 40
50.21703549202495
 40
50.53039260880385
 40
50.53039260880385
 40
51.29598074329932
 40
51.29598074329932
 40
51.92914302530023
 40
51.92914302530023
 40
52.56230530730113
 40
52.56230530730113
 40
53.12551373138332
 40
53.12551373138332
 40
53.68872215546555
 40
53.68872215546555
 40
54.25193057954776
 40
54.25193057954776
 40
54.81513900362998
 40
54.81513900362998
 40
55.44830128563085
 40
55.44830128563085
 40
56.08146356763175
 40
56.08146356763175
 40
56.84705170212724
 40
56.84705170212724
 40
57.16040881890615
 40
57.16040881890615
 40
57.16040881890615
 40
57.16040881890615
 10
-43.4790344043365
 20
-1364.793509327293
 30
0.000000000000014
 10
-43.41146134166844
 20
-1364.703398030854
 30
0.000000000000014
 10
-43.3399693939466
 20
-1364.614246608675
 30
0.0000000000000139
 10
-43.08328836301757
 20
-1364.316636806981
 30
0.0000000000000139
 10
-42.88187177584744
 20
-1364.122494753437
 30
0.0000000000000139
 10
-42.51805207003349
 20
-1363.830905292684
 30
0.0000000000000138
 10
-42.32687854967729
 20
-1363.699992955935
 30
0.0000000000000138
 10
-41.92259770711621
 20
-1363.479218717052
 30
0.0000000000000137
 10
-41.70936453820718
 20
-1363.389587342977
 30
0.0000000000000136
 10
-41.32867508769162
 20
-1363.270805214329
 30
0.0000000000000136
 10
-41.12757387871464
 20
-1363.226314019284
 30
0.0000000000000135
 10
-40.72065879032765
 20
-1363.180696443441
 30
0.0000000000000135
 10
-40.51483472138875
 20
-1363.17966100056
 30
0.0000000000000134
 10
-40.14079122406179
 20
-1363.212385566242
 30
0.0000000000000134
 10
-39.93827388798332
 20
-1363.24914625291
 30
0.0000000000000133
 10
-39.54546216303629
 20
-1363.364730858837
 30
0.0000000000000132
 10
-39.3551419482376
 20
-1363.443466991124
 30
0.0000000000000132
 10
-39.0008623260585
 20
-1363.626550581675
 30
0.0000000000000131
 10
-38.80643297288748
 20
-1363.751847804976
 30
0.0000000000000131
 10
-38.44663110899751
 20
-1364.03947061867
 30
0.000000000000013
 10
-38.28109463269152
 20
-1364.201591036293
 30
0.000000000000013
 10
-37.97343614419356
 20
-1364.551927226853
 30
0.000000000000013
 10
-37.80879194136856
 20
-1364.778095449683
 30
0.0000000000000129
 10
-37.60768987177858
 20
-1365.115756083026
 30
0.0000000000000129
 10
-37.55276502938136
 20
-1365.21596754122
 30
0.0000000000000129
 10
-37.50186621578655
 20
-1365.316443783779
 30
0.0000000000000129
  0
SPLINE
  5
1A21
330
1F
100
AcDbEntity
  8
PV-174
100
AcDbSpline
210
-0.0000000000000116
220
0.0000000000000062
230
1.0
 70
     8
 71
     3
 72
    14
 73
    10
 74
     0
 42
0.0000000001
 43
0.0000000001
 40
0.649611117407552
 40
0.649611117407552
 40
0.649611117407552
 40
0.649611117407552
 40
0.7333587369340008
 40
0.7333587369340008
 40
1.466717473868001
 40
1.466717473868001
 40
2.251649856864295
 40
2.251649856864295
 40
3.036582239860591
 40
3.036582239860591
 40
3.036582239860591
 40
3.036582239860591
 10
-44.61626749916671
 20
-1366.905851185658
 30
0.0000000000000142
 10
-44.60941627308534
 20
-1366.879461889596
 30
0.0000000000000142
 10
-44.6022629901597
 20
-1366.853078148282
 30
0.0000000000000142
 10
-44.5296136133245
 20
-1366.595996533181
 30
0.0000000000000142
 10
-44.44064603691026
 20
-1366.367884512524
 30
0.0000000000000141
 10
-44.23890862106532
 20
-1365.940487426951
 30
0.0000000000000141
 10
-44.10464386155966
 20
-1365.702165469446
 30
0.0000000000000141
 10
-43.80289384652654
 20
-1365.233626791033
 30
0.000000000000014
 10
-43.63600540437642
 20
-1365.002836235951
 30
0.000000000000014
 10
-43.4790344043365
 20
-1364.793509327293
 30
0.000000000000014
  0
SPLINE
  5
1A22
330
1F
100
AcDbEntity
  8
PV-174
100
AcDbSpline
210
0.0
220
0.0
230
1.0
 70
     8
 71
     3
 72
    20
 73
    16
 74
     0
 42
0.0000000001
 43
0.0000000001
 40
-2.081957642337048
 40
-2.081957642337048
 40
-2.081957642337048
 40
-2.081957642337048
 40
-2.029036545889133
 40
-2.029036545889133
 40
-1.976115449441223
 40
-1.976115449441223
 40
-1.938296586027501
 40
-1.938296586027501
 40
-1.900477722613779
 40
-1.900477722613779
 40
-1.79865290262327
 40
-1.79865290262327
 40
-1.696828082632761
 40
-1.696828082632761
 40
-1.658125044755919
 40
-1.658125044755919
 40
-1.658125044755919
 40
-1.658125044755919
 10
-44.67826454742247
 20
-1367.027059340141
 30
0.0000000000000142
 10
-44.67940835152671
 20
-1367.040133080875
 30
0.0000000000000142
 10
-44.68037417822755
 20
-1367.053610515894
 30
0.0000000000000142
 10
-44.68107636619264
 20
-1367.076052920495
 30
0.0000000000000142
 10
-44.68078855094131
 20
-1367.084932209095
 30
0.0000000000000142
 10
-44.67885115279864
 20
-1367.092974403576
 30
0.0000000000000142
 10
-44.67750265263044
 20
-1367.094460768593
 30
0.0000000000000142
 10
-44.67381297554834
 20
-1367.092017179208
 30
0.0000000000000142
 10
-44.67147914261271
 20
-1367.088127939624
 30
0.0000000000000142
 10
-44.6627610484495
 20
-1367.06929499139
 30
0.0000000000000142
 10
-44.65573746066253
 20
-1367.047469266003
 30
0.0000000000000142
 10
-44.64102387253456
 20
-1366.998245331652
 30
0.0000000000000142
 10
-44.63330692487147
 20
-1366.970312213663
 30
0.0000000000000142
 10
-44.6223561453096
 20
-1366.929173269041
 30
0.0000000000000142
 10
-44.61931665585847
 20
-1366.917595813224
 30
0.0000000000000142
 10
-44.61626749916671
 20
-1366.905851185658
 30
0.0000000000000142
  0
LINE
  5
1A23
330
1F
100
AcDbEntity
  8
PV-174
100
AcDbLine
 10
-41.77343564418446
 20
-1333.824713045562
 30
0.0000000000000137
 11
-44.67826454742247
 21
-1367.027059340141
 31
0.0000000000000142
210
0.0
220
1.0
230
0.0
  0
LINE
  5
1A24
330
1F
100
AcDbEntity
  8
PV-174
100
AcDbLine
 10
-45.47418889569438
 20
-1366.827317330401
 30
0.0000000000000143
 11
-47.68872876894442
 21
-1392.139623908207
 31
0.0000000000000147
210
0.0
220
1.0
230
0.0
  0
LINE
  5
1A25
330
1F
100
AcDbEntity
  8
PV-174
100
AcDbLine
 10
-35.8901896577047
 20
-1367.665808614966
 30
0.0000000000000126
 11
-38.10472953095564
 21
-1392.978115192772
 31
0.000000000000013
210
0.0
220
1.0
230
0.0
  0
SPLINE
  5
1A26
330
1F
100
AcDbEntity
  8
PV-174
100
AcDbSpline
210
0.0000000000000027
220
-0.0000000000000028
230
-1.0
 70
     8
 71
     3
 72
    46
 73
    42
 74
     0
 42
0.0000000001
 43
0.0000000001
 40
-26.25009051702358
 40
-26.25009051702358
 40
-26.25009051702358
 40
-26.25009051702358
 40
-25.19226716828405
 40
-25.19226716828405
 40
-24.06297385938894
 40
-24.06297385938894
 40
-22.97039393615168
 40
-22.97039393615168
 40
-21.87781401291442
 40
-21.87781401291442
 40
-20.78523408967716
 40
-20.78523408967716
 40
-19.6926541664399
 40
-19.6926541664399
 40
-18.59462246291696
 40
-18.59462246291696
 40
-17.49659075939401
 40
-17.49659075939401
 40
-16.39855905587109
 40
-16.39855905587109
 40
-15.30052735234815
 40
-15.30052735234815
 40
-14.20249564882519
 40
-14.20249564882519
 40
-13.10446394530224
 40
-13.10446394530224
 40
-12.00643224177928
 40
-12.00643224177928
 40
-10.90840053825633
 40
-10.90840053825633
 40
-9.815820615019132
 40
-9.815820615019132
 40
-8.723240691781931
 40
-8.723240691781931
 40
-7.630660768544732
 40
-7.630660768544732
 40
-6.538080845307532
 40
-6.538080845307532
 40
-5.408787536412319
 40
-5.408787536412319
 40
-4.350964187672493
 40
-4.350964187672493
 40
-4.350964187672493
 40
-4.350964187672493
 10
-30.3247535077694
 20
-1333.805772281025
 30
0.0000000000000116
 10
-30.15348441398352
 20
-1333.754298019889
 30
0.0000000000000115
 10
-29.96175262023644
 20
-1333.694137845001
 30
0.0000000000000115
 10
-29.53818959408454
 20
-1333.55296725685
 30
0.0000000000000114
 10
-29.30458577027252
 20
-1333.47076876047
 30
0.0000000000000114
 10
-28.83866376813535
 20
-1333.296317141578
 30
0.0000000000000113
 10
-28.58617173755261
 20
-1333.196960344887
 30
0.0000000000000112
 10
-28.04650572673472
 20
-1332.969619505795
 30
0.0000000000000111
 10
-27.75936465145264
 20
-1332.841582201735
 30
0.0000000000000111
 10
-27.16674920941864
 20
-1332.558617653175
 30
0.000000000000011
 10
-26.86114391420438
 20
-1332.403565354552
 30
0.0000000000000109
 10
-26.25028775054966
 20
-1332.072712819894
 30
0.0000000000000108
 10
-25.94505696733654
 20
-1331.89687644675
 30
0.0000000000000107
 10
-25.3537848985377
 20
-1331.535467314858
 30
0.0000000000000106
 10
-25.04136974589255
 20
-1331.333744892934
 30
0.0000000000000106
 10
-24.40396582331938
 20
-1330.893959923354
 30
0.0000000000000105
 10
-24.07900119595956
 20
-1330.655851283034
 30
0.0000000000000104
 10
-23.43605841786052
 20
-1330.15287195449
 30
0.0000000000000103
 10
-23.11785305892067
 20
-1329.88778507945
 30
0.0000000000000102
 10
-22.50601583313846
 20
-1329.345279623269
 30
0.0000000000000101
 10
-22.21238437285342
 20
-1329.06786109354
 30
0.0000000000000101
 10
-21.66486050639037
 20
-1328.520337227076
 30
0.00000000000001
 10
-21.38744197666051
 20
-1328.226705766791
 30
0.0000000000000099
 10
-20.84493652047945
 20
-1327.614868541009
 30
0.0000000000000098
 10
-20.57984964543948
 20
-1327.296663182069
 30
0.0000000000000098
 10
-20.0768703168967
 20
-1326.65372040397
 30
0.0000000000000097
 10
-19.83876167657559
 20
-1326.328755776611
 30
0.0000000000000096
 10
-19.39897670699474
 20
-1325.691351854037
 30
0.0000000000000095
 10
-19.19725428507149
 20
-1325.378936701393
 30
0.0000000000000095
 10
-18.83584515317966
 20
-1324.787664632592
 30
0.0000000000000094
 10
-18.6600087800366
 20
-1324.48243384938
 30
0.0000000000000094
 10
-18.3291562453785
 20
-1323.871577685725
 30
0.0000000000000093
 10
-18.17410394675448
 20
-1323.565972390511
 30
0.0000000000000093
 10
-17.89113939819548
 20
-1322.973356948477
 30
0.0000000000000093
 10
-17.76310209413464
 20
-1322.686215873196
 30
0.0000000000000092
 10
-17.53576125504241
 20
-1322.146549862377
 30
0.0000000000000092
 10
-17.43640445835149
 20
-1321.894057831794
 30
0.0000000000000092
 10
-17.26195283946049
 20
-1321.428135829658
 30
0.0000000000000092
 10
-17.1797543430805
 20
-1321.194532005846
 30
0.0000000000000091
 10
-17.03858375492859
 20
-1320.770968979694
 30
0.0000000000000091
 10
-16.9784235800405
 20
-1320.579237185947
 30
0.0000000000000091
 10
-16.92694931890446
 20
-1320.40796809216
 30
0.0000000000000091
  0
SPLINE
  5
1A27
330
1F
100
AcDbEntity
  8
PV-174
100
AcDbSpline
210
-0.0000000000000025
220
0.0000000000000026
230
1.0
 70
     8
 71
     3
 72
    38
 73
    34
 74
     0
 42
0.0000000001
 43
0.0000000001
 40
7.989195374219312
 40
7.989195374219312
 40
7.989195374219312
 40
7.989195374219312
 40
8.254479951649056
 40
8.254479951649056
 40
9.559037833637082
 40
9.559037833637082
 40
10.8635957156251
 40
10.8635957156251
 40
12.16815359761313
 40
12.16815359761313
 40
13.47206133512371
 40
13.47206133512371
 40
14.77596907263429
 40
14.77596907263429
 40
16.07987681014486
 40
16.07987681014486
 40
17.38378454765544
 40
17.38378454765544
 40
18.68769228516606
 40
18.68769228516606
 40
19.99160002267668
 40
19.99160002267668
 40
21.29550776018729
 40
21.29550776018729
 40
22.59941549769791
 40
22.59941549769791
 40
23.90397337968593
 40
23.90397337968593
 40
25.20853126167392
 40
25.20853126167392
 40
26.51308914366193
 40
26.51308914366193
 40
26.77837372109179
 40
26.77837372109179
 40
26.77837372109179
 40
26.77837372109179
 10
-41.83678334920545
 20
-1295.498160960654
 30
0.0000000000000137
 10
-41.90085373182933
 20
-1295.517414931213
 30
0.0000000000000137
 10
-41.96611709535522
 20
-1295.537377856771
 30
0.0000000000000137
 10
-42.35901584209726
 20
-1295.659848281376
 30
0.0000000000000138
 10
-42.71281836846561
 20
-1295.779442987636
 30
0.0000000000000138
 10
-43.45336322314165
 20
-1296.056239594802
 30
0.000000000000014
 10
-43.8402910917614
 20
-1296.213618518542
 30
0.000000000000014
 10
-44.62142893683835
 20
-1296.562191264548
 30
0.0000000000000142
 10
-45.01560990438361
 20
-1296.753461677599
 30
0.0000000000000142
 10
-45.78261143040868
 20
-1297.157341500744
 30
0.0000000000000144
 10
-46.18853059071557
 20
-1297.387231468567
 30
0.0000000000000145
 10
-47.0183394543053
 20
-1297.900624719594
 30
0.0000000000000146
 10
-47.44218731224759
 20
-1298.184213130259
 30
0.0000000000000147
 10
-48.28025943508442
 20
-1298.795070893203
 30
0.0000000000000148
 10
-48.69488432238245
 20
-1299.122709269528
 30
0.0000000000000149
 10
-49.48982302865648
 20
-1299.803701142422
 30
0.0000000000000151
 10
-49.87013032415258
 20
-1300.157064549916
 30
0.0000000000000151
 10
-50.57565705001457
 20
-1300.862591275777
 30
0.0000000000000153
 10
-50.92902045750747
 20
-1301.242898571273
 30
0.0000000000000153
 10
-51.61001233040156
 20
-1302.037837277547
 30
0.0000000000000155
 10
-51.93765070672747
 20
-1302.452462164845
 30
0.0000000000000155
 10
-52.54850846967041
 20
-1303.290534287683
 30
0.0000000000000156
 10
-52.83209688033526
 20
-1303.714382145624
 30
0.0000000000000157
 10
-53.34549013136279
 20
-1304.544191009215
 30
0.0000000000000158
 10
-53.57538009918538
 20
-1304.950110169521
 30
0.0000000000000158
 10
-53.97925992233171
 20
-1305.717111695546
 30
0.0000000000000159
 10
-54.17053033538127
 20
-1306.111292663092
 30
0.0000000000000159
 10
-54.51910308138872
 20
-1306.892430508169
 30
0.000000000000016
 10
-54.67648200512826
 20
-1307.279358376788
 30
0.000000000000016
 10
-54.95327861229475
 20
-1308.019903231463
 30
0.0000000000000161
 10
-55.07287331855354
 20
-1308.373705757831
 30
0.0000000000000161
 10
-55.19534374315867
 20
-1308.766604504574
 30
0.0000000000000161
 10
-55.21530666871626
 20
-1308.8318678681
 30
0.0000000000000161
 10
-55.23456063927664
 20
-1308.895938250725
 30
0.0000000000000161
  0
ARC
  5
1A28
330
1F
100
AcDbEntity
  8
PV-174
100
AcDbCircle
 10
-36.0807580633525
 20
-1314.651963536577
 30
0.0000000000000126
 40
20.0
100
AcDbArc
 50
343.2737136313605
 51
349.5567007108257
  0
ARC
  5
1A29
330
1F
100
AcDbEntity
  8
PV-174
100
AcDbCircle
 10
-36.0807580633525
 20
-1314.651963536577
 30
0.0000000000000126
 40
20.0
100
AcDbArc
 50
349.5567007108257
 51
100.4432992892017
  0
ARC
  5
1A2A
330
1F
100
AcDbEntity
  8
PV-174
100
AcDbCircle
 10
-36.0807580633525
 20
-1314.651963536577
 30
0.0000000000000126
 40
20.0
100
AcDbArc
 50
100.4432992892017
 51
106.7262863686399
  0
ARC
  5
1A2B
330
1F
100
AcDbEntity
  8
PV-174
100
AcDbCircle
 10
-36.0807580633525
 20
-1314.651963536577
 30
0.0000000000000126
 40
20.0
100
AcDbArc
 50
163.2737136313605
 51
169.5567007108257
  0
ARC
  5
1A2C
330
1F
100
AcDbEntity
  8
PV-174
100
AcDbCircle
 10
-36.0807580633525
 20
-1314.651963536577
 30
0.0000000000000126
 40
20.0
100
AcDbArc
 50
169.5567007108257
 51
280.4432992892017
  0
ARC
  5
1A2D
330
1F
100
AcDbEntity
  8
PV-174
100
AcDbCircle
 10
-36.0807580633525
 20
-1314.651963536577
 30
0.0000000000000126
 40
20.0
100
AcDbArc
 50
280.4432992892017
 51
286.7262863686399
  0
ARC
  5
1A2E
330
1F
100
AcDbEntity
  8
PV-174
100
AcDbCircle
 10
-54.27687866023029
 20
-1309.183765001057
 30
0.000000000000016
 40
1.000000000000051
100
AcDbArc
 50
44.99999999999125
 51
163.2737136313605
  0
ARC
  5
1A2F
330
1F
100
AcDbEntity
  8
PV-174
100
AcDbCircle
 10
-30.61255952783267
 20
-1332.848084133456
 30
0.0000000000000116
 40
1.000000000000051
100
AcDbArc
 50
286.7262863686399
 51
44.99999999999125
  0
ARC
  5
1A31
330
1F
100
AcDbEntity
  8
PV-174
100
AcDbCircle
 10
-17.88463746647471
 20
-1320.120162072097
 30
0.0000000000000093
 40
1.000000000000051
100
AcDbArc
 50
224.9999999999912
 51
343.2737136313605
  0
ARC
  5
1A33
330
1F
100
AcDbEntity
  8
PV-174
100
AcDbCircle
 10
-41.54895659887256
 20
-1296.455842939699
 30
0.0000000000000136
 40
1.000000000000051
100
AcDbArc
 50
106.7262863686399
 51
224.9999999999728
  0
ARC
  5
1A34
330
1F
100
AcDbEntity
  8
PV-174
100
AcDbCircle
 10
-155.8689768119366
 20
-1369.922051731202
 30
0.0000000000000346
 40
120.0000000000005
100
AcDbArc
 50
1.077340216869596
 51
4.022308519854076
  0
ARC
  5
1A35
330
1F
100
AcDbEntity
  8
PV-174
100
AcDbCircle
 10
-155.8689768119366
 20
-1369.922051731202
 30
0.0000000000000346
 40
120.0000000000005
100
AcDbArc
 50
345.8231250330101
 51
348.922659783151
  0
LINE
  5
1A36
330
1F
100
AcDbEntity
  8
Hewi
100
AcDbLine
 10
22.25372421408958
 20
-1402.651963536577
 30
0.0
 11
22.2596364272099
 21
-1792.062978975265
 31
0.0
  0
LINE
  5
1A37
330
1F
100
AcDbEntity
  8
Hewi
100
AcDbLine
 10
-10.74671487115206
 20
-1296.651963536598
 30
-0.0000000000000009
 11
-10.74671487115158
 21
-1018.862978975253
 31
-0.0000000000000047
  0
ENDSEC
  0
SECTION
  2
OBJECTS
  0
DICTIONARY
  5
C
330
0
100
AcDbDictionary
281
     1
  3
ACAD_COLOR
350
6B
  3
ACAD_GROUP
350
D
  3
ACAD_LAYOUT
350
1A
  3
ACAD_MATERIAL
350
6A
  3
ACAD_MLINESTYLE
350
17
  3
ACAD_PLOTSETTINGS
350
19
  3
ACAD_PLOTSTYLENAME
350
E
  3
ACAD_TABLESTYLE
350
7E
  3
ACAD_VISUALSTYLE
350
EF
  3
AcDbVariableDictionary
350
5E
  3
DWGPROPS
350
1A60
  0
DICTIONARY
  5
141
330
2
100
AcDbDictionary
280
     1
281
     1
  3
ACAD_LAYERSTATES
360
142
  0
DICTIONARY
  5
116
330
1F
100
AcDbDictionary
280
     1
281
     1
  3
ACAD_SORTENTS
360
117
  0
DICTIONARY
  5
6B
102
{ACAD_REACTORS
330
C
102
}
330
C
100
AcDbDictionary
281
     1
  0
DICTIONARY
  5
D
102
{ACAD_REACTORS
330
C
102
}
330
C
100
AcDbDictionary
281
     1
  0
DICTIONARY
  5
1A
102
{ACAD_REACTORS
330
C
102
}
330
C
100
AcDbDictionary
281
     1
  3
Layout1
350
D3
  3
Layout2
350
D7
  3
Model
350
22
  0
DICTIONARY
  5
6A
102
{ACAD_REACTORS
330
C
102
}
330
C
100
AcDbDictionary
281
     1
  3
ByBlock
350
ED
  3
ByLayer
350
EC
  3
Global
350
EE
  0
DICTIONARY
  5
17
102
{ACAD_REACTORS
330
C
102
}
330
C
100
AcDbDictionary
281
     1
  3
Standard
350
18
  0
DICTIONARY
  5
19
102
{ACAD_REACTORS
330
C
102
}
330
C
100
AcDbDictionary
281
     1
  0
ACDBDICTIONARYWDFLT
  5
E
102
{ACAD_REACTORS
330
C
102
}
330
C
100
AcDbDictionary
281
     1
  3
Normal
350
F
100
AcDbDictionaryWithDefault
340
F
  0
DICTIONARY
  5
7E
102
{ACAD_REACTORS
330
C
102
}
330
C
100
AcDbDictionary
281
     1
  3
Standard
350
7F
  0
DICTIONARY
  5
EF
102
{ACAD_REACTORS
330
C
102
}
330
C
100
AcDbDictionary
281
     1
  3
2dWireframe
350
F5
  3
3D Hidden
350
F7
  3
3dWireframe
350
F6
  3
Basic
350
F4
  3
Brighten
350
FB
  3
ColorChange
350
FF
  3
Conceptual
350
F8
  3
Dim
350
FA
  3
Facepattern
350
FE
  3
Flat
350
F0
  3
FlatWithEdges
350
F1
  3
Gouraud
350
F2
  3
GouraudWithEdges
350
F3
  3
Linepattern
350
FD
  3
Realistic
350
F9
  3
Thicken
350
FC
  0
DICTIONARY
  5
5E
102
{ACAD_REACTORS
330
C
102
}
330
C
100
AcDbDictionary
281
     1
  3
CTABLESTYLE
350
84
  3
DIMASSOC
350
5F
  3
HIDETEXT
350
63
  3
INDEXCTL
350
327
  3
PSOLHEIGHT
350
1A5F
  3
PSOLWIDTH
350
1A5E
  3
SORTENTS
350
326
  0
XRECORD
  5
1A60
102
{ACAD_REACTORS
330
C
102
}
330
C
100
AcDbXrecord
280
     1
  1
DWGPROPS COOKIE
  2

  3

  4

  6

  7

  8
kaschu
  9

300
=
301
=
302
=
303
=
304
=
305
=
306
=
307
=
308
=
309
=
 40
0.112302662037037
 41
2454768.510881991
 42
2455602.623224468
  1

 90
        0
  0
DICTIONARY
  5
142
102
{ACAD_REACTORS
330
141
102
}
330
141
100
AcDbDictionary
281
     1
  0
SORTENTSTABLE
  5
117
102
{ACAD_REACTORS
330
116
102
}
330
116
100
AcDbSortentsTable
330
1F
331
199B
  5
19A1
331
1A1A
  5
1A1C
331
1925
  5
192B
331
1964
  5
196A
331
196C
  5
1972
331
19A3
  5
19A9
331
192D
  5
1933
331
1A22
  5
1A24
331
1974
  5
197A
331
19AB
  5
19B1
331
1935
  5
193B
331
1A2A
  5
1A2C
331
193D
  5
1943
331
197C
  5
1982
331
19B3
  5
19B9
331
1771
  5
1776
331
136E
  5
136E
331
13CB
  5
13CB
331
17B0
  5
17B5
331
1682
  5
1687
331
1779
  5
177C
331
1376
  5
1376
331
13D3
  5
13D3
331
17B8
  5
17BD
331
17C0
  5
17DA
331
168A
  5
1691
331
1781
  5
1784
331
1789
  5
178F
331
13E3
  5
13E3
331
1692
  5
16FB
331
19BB
  5
1A09
331
1945
  5
194B
331
1984
  5
198A
331
194D
  5
1953
331
198C
  5
1992
331
1994
  5
199A
331
1A0B
  5
178B
331
1955
  5
195B
331
195D
  5
1963
331
1A13
  5
1A15
331
138E
  5
138E
331
13EB
  5
13EB
331
1762
  5
176C
331
1910
  5
1916
331
1918
  5
191E
331
17A1
  5
17A6
331
139E
  5
139E
331
17A9
  5
17AE
331
1A1B
  5
1A1D
331
1965
  5
196B
331
199C
  5
19A2
331
1926
  5
192C
331
1A23
  5
1A25
331
192E
  5
1934
331
196D
  5
1973
331
19A4
  5
19AA
331
19AC
  5
19B2
331
1A2B
  5
1A2D
331
1936
  5
193C
331
1975
  5
197B
331
197D
  5
1983
331
19B4
  5
19BA
331
193E
  5
1944
331
1A33
  5
1A35
331
17B1
  5
17B6
331
136F
  5
136F
331
1772
  5
1777
331
177A
  5
177D
331
17B9
  5
17BF
331
1683
  5
1689
331
1782
  5
1785
331
17C1
  5
17DB
331
168B
  5
1692
331
1693
  5
16FC
331
178A
  5
1790
331
13E4
  5
13E4
331
1985
  5
198B
331
19BC
  5
1A0A
331
1946
  5
194C
331
194E
  5
1954
331
198D
  5
1993
331
1A0C
  5
178E
331
1956
  5
195C
331
1995
  5
199B
331
1A14
  5
1A16
331
195E
  5
1964
331
138F
  5
138F
331
13EC
  5
13EC
331
1792
  5
17A0
331
1397
  5
1397
331
13F4
  5
13F4
331
1911
  5
1917
331
17A2
  5
17A7
331
1919
  5
191F
331
176B
  5
176E
331
17AA
  5
17AF
331
199D
  5
19A3
331
1A1C
  5
1A1E
331
1927
  5
192D
331
1966
  5
196C
331
196E
  5
1974
331
19A5
  5
19AB
331
192F
  5
1935
331
1A24
  5
1A26
331
1A2C
  5
1A2E
331
1976
  5
197C
331
19AD
  5
19B3
331
1937
  5
193D
331
1A34
  5
1A36
331
193F
  5
1945
331
197E
  5
1984
331
19B5
  5
19BB
331
1370
  5
1370
331
17B2
  5
17B7
331
1684
  5
168B
331
177B
  5
177E
331
17BA
  5
17C2
331
17C2
  5
18B8
331
1380
  5
1380
331
168C
  5
1693
331
1783
  5
1786
331
178B
  5
1791
331
17DA
  5
17C0
331
13E5
  5
13E5
331
1694
  5
175F
331
19BD
  5
1A0B
331
1947
  5
194D
331
1986
  5
198C
331
198E
  5
1994
331
194F
  5
1955
331
1996
  5
199C
331
1A0D
  5
1A0F
331
1957
  5
195D
331
195F
  5
1965
331
1A15
  5
1A17
331
1793
  5
17A1
331
1390
  5
1390
331
13ED
  5
13ED
331
1754
  5
1761
331
1398
  5
1398
331
13F5
  5
13F5
331
1912
  5
1918
331
191A
  5
1920
331
176C
  5
176F
331
17A3
  5
17A8
331
17AB
  5
17B0
331
1920
  5
1926
331
1A1D
  5
1A1F
331
1928
  5
192E
331
1967
  5
196D
331
199E
  5
19A4
331
1A25
  5
1A27
331
1930
  5
1936
331
196F
  5
1975
331
19A6
  5
19AC
331
19AE
  5
19B4
331
1A2D
  5
1A2F
331
1938
  5
193E
331
1977
  5
197D
331
197F
  5
1985
331
19B6
  5
19BC
331
1A35
  5
1A37
331
1371
  5
1371
331
17B3
  5
17B8
331
177C
  5
177F
331
17BB
  5
17C3
331
1379
  5
1379
331
1685
  5
168C
331
168D
  5
1694
331
1784
  5
1787
331
1381
  5
1381
331
17C3
  5
18B9
331
1695
  5
1760
331
178C
  5
1792
331
13E6
  5
13E6
331
17DB
  5
178D
331
1940
  5
1946
331
1987
  5
198D
331
19BE
  5
1A0C
331
1948
  5
194E
331
1950
  5
1956
331
198F
  5
1995
331
1A0E
  5
1A10
331
1958
  5
195E
331
1997
  5
199D
331
1A16
  5
1A18
331
190B
  5
1911
331
1391
  5
1391
331
13EE
  5
13EE
331
1755
  5
1762
331
1794
  5
17A2
331
1913
  5
1919
331
13F6
  5
13F6
331
1765
  5
176D
331
17A4
  5
17A9
331
191B
  5
1921
331
176D
  5
1770
331
17AC
  5
17B1
331
1921
  5
1927
331
1960
  5
1966
331
199F
  5
19A5
331
1A1E
  5
1A20
331
1929
  5
192F
331
1968
  5
196E
331
1970
  5
1976
331
19A7
  5
19AD
331
1931
  5
1937
331
1A26
  5
1A28
331
1A2E
  5
1A30
331
1939
  5
193F
331
1978
  5
197E
331
19AF
  5
19B5
331
1A36
  5
17C1
331
19B7
  5
19BD
331
1775
  5
1778
331
1372
  5
1372
331
17B4
  5
17B9
331
17BC
  5
17C4
331
1686
  5
168D
331
177D
  5
1780
331
137A
  5
137A
331
17C4
  5
18BA
331
1382
  5
1382
331
13DF
  5
13DF
331
168E
  5
1695
331
1785
  5
1788
331
178D
  5
1793
331
1941
  5
1947
331
1980
  5
1986
331
1949
  5
194F
331
1988
  5
198E
331
1990
  5
1996
331
1A07
  5
168A
331
1951
  5
1957
331
1A0F
  5
1A11
331
1959
  5
195F
331
1A17
  5
1A19
331
1392
  5
1392
331
190C
  5
1912
331
13F7
  5
13F7
331
1914
  5
191A
331
191C
  5
1922
331
176E
  5
1771
331
17A5
  5
17AA
331
17AD
  5
17B2
331
1961
  5
1967
331
1998
  5
199E
331
1922
  5
1928
331
1A1F
  5
1A21
331
192A
  5
1930
331
1969
  5
196F
331
19A0
  5
19A6
331
19A8
  5
19AE
331
1A27
  5
1A29
331
1932
  5
1938
331
1971
  5
1977
331
19B0
  5
19B6
331
1A2F
  5
1A31
331
193A
  5
1940
331
1979
  5
197F
331
1A37
  5
17BE
331
136B
  5
136B
331
17B5
  5
17BA
331
1373
  5
1373
331
1637
  5
1637
331
1776
  5
1779
331
177E
  5
1781
331
17BD
  5
17C5
331
137B
  5
137B
331
1687
  5
168E
331
168F
  5
16F8
331
1786
  5
1789
331
13E0
  5
13E0
331
17C5
  5
18BB
331
178E
  5
1794
331
1981
  5
1987
331
19B8
  5
19BE
331
1942
  5
1948
331
194A
  5
1950
331
1989
  5
198F
331
1952
  5
1958
331
1991
  5
1997
331
1A08
  5
1688
331
1A10
  5
1A12
331
195A
  5
1960
331
190D
  5
1913
331
179E
  5
17A3
331
139B
  5
139B
331
13F8
  5
13F8
331
1915
  5
191B
331
176F
  5
1772
331
17A6
  5
17AB
331
191D
  5
1923
331
17AE
  5
17B3
331
1999
  5
199F
331
1A18
  5
1A1A
331
1923
  5
1929
331
1962
  5
1968
331
19A1
  5
19A7
331
1A20
  5
1A22
331
192B
  5
1931
331
196A
  5
1970
331
1972
  5
1978
331
19A9
  5
19AF
331
1933
  5
1939
331
1A28
  5
1A2A
331
193B
  5
1941
331
197A
  5
1980
331
19B1
  5
19B7
331
136C
  5
136C
331
1777
  5
177A
331
1374
  5
1374
331
17B6
  5
17BB
331
17BE
  5
17C6
331
1688
  5
168F
331
177F
  5
1782
331
137C
  5
137C
331
17C6
  5
18BC
331
1690
  5
16F9
331
1787
  5
178A
331
178F
  5
179E
331
19B9
  5
1A07
331
1943
  5
1949
331
1982
  5
1988
331
194B
  5
1951
331
198A
  5
1990
331
1992
  5
1998
331
1953
  5
1959
331
195B
  5
1961
331
1A11
  5
1A13
331
190E
  5
1914
331
1916
  5
191C
331
179F
  5
17A4
331
139C
  5
139C
331
13F9
  5
13F9
331
191E
  5
1924
331
1411
  5
1411
331
17A7
  5
17AC
331
17AF
  5
17B4
331
1963
  5
1969
331
199A
  5
19A0
331
1924
  5
192A
331
1A19
  5
1A1B
331
1A21
  5
1A23
331
192C
  5
1932
331
196B
  5
1971
331
19A2
  5
19A8
331
19AA
  5
19B0
331
1A29
  5
1A2B
331
1934
  5
193A
331
1973
  5
1979
331
19B2
  5
19B8
331
1A31
  5
1A33
331
193C
  5
1942
331
197B
  5
1981
331
1770
  5
1773
331
1778
  5
177B
331
1375
  5
1375
331
17B7
  5
17BC
331
1780
  5
1783
331
17BF
  5
17C7
331
1689
  5
1690
331
1691
  5
16FA
331
1788
  5
178C
331
1385
  5
1385
331
17C7
  5
18BD
331
1983
  5
1989
331
19BA
  5
1A08
331
1944
  5
194A
331
194C
  5
1952
331
198B
  5
1991
331
1954
  5
195A
331
1993
  5
1999
331
1A12
  5
1A14
331
195C
  5
1962
331
13EA
  5
13EA
331
1790
  5
179F
331
190F
  5
1915
331
1761
  5
1765
331
17A0
  5
17A5
331
139D
  5
139D
331
1917
  5
191D
331
17A8
  5
17AD
331
191F
  5
1925
  0
LAYOUT
  5
D3
102
{ACAD_XDICTIONARY
360
1A65
102
}
102
{ACAD_REACTORS
330
1A
102
}
330
1A
100
AcDbPlotSettings
  1

  2
C:\Documents and Settings\basas\Application Data\Autodesk\AutoCAD 2005\R16.1\enu\plotters\Default Windows System Printer.pc3
  4

  6

 40
0.0
 41
0.0
 42
0.0
 43
0.0
 44
0.0
 45
0.0
 46
0.0
 47
0.0
 48
0.0
 49
0.0
140
0.0
141
0.0
142
1.0
143
1.0
 70
   688
 72
     0
 73
     0
 74
     5
  7

 75
    16
147
1.0
148
0.0
149
0.0
100
AcDbLayout
  1
Layout1
 70
     1
 71
     1
 10
0.0
 20
0.0
 11
12.0
 21
9.0
 12
0.0
 22
0.0
 32
0.0
 14
0.0
 24
0.0
 34
0.0
 15
0.0
 25
0.0
 35
0.0
146
0.0
 13
0.0
 23
0.0
 33
0.0
 16
1.0
 26
0.0
 36
0.0
 17
0.0
 27
1.0
 37
0.0
 76
     0
330
D2
  0
LAYOUT
  5
D7
102
{ACAD_XDICTIONARY
360
1A67
102
}
102
{ACAD_REACTORS
330
1A
102
}
330
1A
100
AcDbPlotSettings
  1

  2
C:\Documents and Settings\basas\Application Data\Autodesk\AutoCAD 2005\R16.1\enu\plotters\Default Windows System Printer.pc3
  4

  6

 40
0.0
 41
0.0
 42
0.0
 43
0.0
 44
0.0
 45
0.0
 46
0.0
 47
0.0
 48
0.0
 49
0.0
140
0.0
141
0.0
142
1.0
143
1.0
 70
   688
 72
     0
 73
     0
 74
     5
  7

 75
    16
147
1.0
148
0.0
149
0.0
100
AcDbLayout
  1
Layout2
 70
     1
 71
     2
 10
0.0
 20
0.0
 11
12.0
 21
9.0
 12
0.0
 22
0.0
 32
0.0
 14
0.0
 24
0.0
 34
0.0
 15
0.0
 25
0.0
 35
0.0
146
0.0
 13
0.0
 23
0.0
 33
0.0
 16
1.0
 26
0.0
 36
0.0
 17
0.0
 27
1.0
 37
0.0
 76
     0
330
D6
  0
LAYOUT
  5
22
102
{ACAD_XDICTIONARY
360
1A61
102
}
102
{ACAD_REACTORS
330
1A
102
}
330
1A
100
AcDbPlotSettings
  1

  2
none_device
  4
ISO_A4_(210.00_x_297.00_MM)
  6

 40
7.5
 41
20.0
 42
7.5
 43
20.0
 44
210.0
 45
297.0
 46
11.54999923706054
 47
-13.65000009536743
 48
0.0
 49
0.0
140
0.0
141
0.0
142
1.0
143
8.704084754739808
 70
 11952
 72
     1
 73
     0
 74
     0
  7

 75
     0
147
0.1148885871608098
148
0.0
149
0.0
100
AcDbLayout
  1
Model
 70
     1
 71
     0
 10
0.0
 20
0.0
 11
12.0
 21
9.0
 12
0.0
 22
0.0
 32
0.0
 14
0.0
 24
0.0
 34
0.0
 15
0.0
 25
0.0
 35
0.0
146
0.0
 13
0.0
 23
0.0
 33
0.0
 16
1.0
 26
0.0
 36
0.0
 17
0.0
 27
1.0
 37
0.0
 76
     0
330
1F
331
EA
1001
ACAD_PSEXT
1000
None
1000
None
1000
Not applicable
1000
The layout will not be plotted unless a new plotter configuration name is selected.
1070
     0
  0
MATERIAL
  5
ED
102
{ACAD_XDICTIONARY
360
335
102
}
102
{ACAD_REACTORS
330
6A
102
}
330
6A
100
AcDbMaterial
  1
ByBlock
  0
MATERIAL
  5
EC
102
{ACAD_XDICTIONARY
360
333
102
}
102
{ACAD_REACTORS
330
6A
102
}
330
6A
100
AcDbMaterial
  1
ByLayer
  0
MATERIAL
  5
EE
102
{ACAD_XDICTIONARY
360
337
102
}
102
{ACAD_REACTORS
330
6A
102
}
330
6A
100
AcDbMaterial
  1
Global
  0
MLINESTYLE
  5
18
102
{ACAD_REACTORS
330
17
102
}
330
17
100
AcDbMlineStyle
  2
STANDARD
 70
     0
  3

 62
   256
 51
90.0
 52
90.0
 71
     2
 49
0.5
 62
   256
  6
BYLAYER
 49
-0.5
 62
   256
  6
BYLAYER
  0
ACDBPLACEHOLDER
  5
F
102
{ACAD_REACTORS
330
E
102
}
330
E
  0
TABLESTYLE
  5
7F
102
{ACAD_XDICTIONARY
360
1A63
102
}
102
{ACAD_REACTORS
330
7E
102
}
330
7E
100
AcDbTableStyle
  3
Standard
 70
     0
 71
     0
 40
1.5
 41
1.5
280
     0
281
     0
  7
Standard
140
4.5
170
     2
 62
     0
 63
     7
283
     0
274
    -2
284
     1
 64
     0
275
    -2
285
     1
 65
     0
276
    -2
286
     1
 66
     0
277
    -2
287
     1
 67
     0
278
    -2
288
     1
 68
     0
279
    -2
289
     1
 69
     0
  7
Standard
140
6.0
170
     5
 62
     0
 63
     7
283
     0
274
    -2
284
     1
 64
     0
275
    -2
285
     1
 65
     0
276
    -2
286
     1
 66
     0
277
    -2
287
     1
 67
     0
278
    -2
288
     1
 68
     0
279
    -2
289
     1
 69
     0
  7
Standard
140
4.5
170
     5
 62
     0
 63
     7
283
     0
274
    -2
284
     1
 64
     0
275
    -2
285
     1
 65
     0
276
    -2
286
     1
 66
     0
277
    -2
287
     1
 67
     0
278
    -2
288
     1
 68
     0
279
    -2
289
     1
 69
     0
  0
VISUALSTYLE
  5
F5
102
{ACAD_REACTORS
330
EF
102
}
330
EF
100
AcDbVisualStyle
  2
2dWireframe
 70
     4
 71
     0
 72
     2
 73
     1
 90
        0
 40
-0.6
 41
-30.0
 62
     5
 63
     7
 74
     1
 91
        4
 64
     7
 65
   257
 75
     1
175
     1
 42
1.0
 92
        0
 66
   257
 43
1.0
 76
     1
 77
     6
 78
     2
 67
     7
 79
     5
170
     0
171
     0
290
     0
174
     0
 93
        1
 44
0.0
173
     0
291
     0
 45
0.0
1001
ACAD
1000
AcDbSavedByObjectVersion
1070
     0
1000
AcDbSavedByObjectVersion
1070
     0
1000
AcDbSavedByObjectVersion
1070
     0
1000
AcDbSavedByObjectVersion
1070
     0
1000
AcDbSavedByObjectVersion
1070
     0
1000
AcDbSavedByObjectVersion
1070
     0
1000
AcDbSavedByObjectVersion
1070
     0
1000
AcDbSavedByObjectVersion
1070
     0
1000
AcDbSavedByObjectVersion
1070
     0
  0
VISUALSTYLE
  5
F7
102
{ACAD_REACTORS
330
EF
102
}
330
EF
100
AcDbVisualStyle
  2
3D Hidden
 70
     6
 71
     1
 72
     2
 73
     2
 90
        0
 40
-0.6
 41
-30.0
 62
     5
 63
     7
 74
     2
 91
        2
 64
     7
 65
   257
 75
     2
175
     1
 42
40.0
 92
        0
 66
   257
 43
1.0
 76
     1
 77
     6
 78
     2
 67
     7
 79
     3
170
     0
171
     0
290
     0
174
     0
 93
        1
 44
0.0
173
     0
291
     0
 45
0.0
1001
ACAD
1000
AcDbSavedByObjectVersion
1070
     0
1000
AcDbSavedByObjectVersion
1070
     0
1000
AcDbSavedByObjectVersion
1070
     0
1000
AcDbSavedByObjectVersion
1070
     0
1000
AcDbSavedByObjectVersion
1070
     0
1000
AcDbSavedByObjectVersion
1070
     0
1000
AcDbSavedByObjectVersion
1070
     0
1000
AcDbSavedByObjectVersion
1070
     0
1000
AcDbSavedByObjectVersion
1070
     0
  0
VISUALSTYLE
  5
F6
102
{ACAD_REACTORS
330
EF
102
}
330
EF
100
AcDbVisualStyle
  2
3dWireframe
 70
     5
 71
     0
 72
     2
 73
     1
 90
        0
 40
-0.6
 41
-30.0
 62
     5
 63
     7
 74
     1
 91
        4
 64
     7
 65
   257
 75
     1
175
     1
 42
1.0
 92
        0
 66
   257
 43
1.0
 76
     1
 77
     6
 78
     2
 67
     7
 79
     5
170
     0
171
     0
290
     0
174
     0
 93
        1
 44
0.0
173
     0
291
     0
 45
0.0
1001
ACAD
1000
AcDbSavedByObjectVersion
1070
     0
1000
AcDbSavedByObjectVersion
1070
     0
1000
AcDbSavedByObjectVersion
1070
     0
1000
AcDbSavedByObjectVersion
1070
     0
1000
AcDbSavedByObjectVersion
1070
     0
1000
AcDbSavedByObjectVersion
1070
     0
1000
AcDbSavedByObjectVersion
1070
     0
1000
AcDbSavedByObjectVersion
1070
     0
1000
AcDbSavedByObjectVersion
1070
     0
  0
VISUALSTYLE
  5
F4
102
{ACAD_REACTORS
330
EF
102
}
330
EF
100
AcDbVisualStyle
  2
Basic
 70
     7
 71
     1
 72
     0
 73
     1
 90
        0
 40
-0.6
 41
-30.0
 62
     5
 63
     7
 74
     0
 91
        4
 64
     7
 65
   257
 75
     1
175
     1
 42
1.0
 92
        8
 66
     7
 43
1.0
 76
     1
 77
     6
 78
     2
 67
     7
 79
     5
170
     0
171
     0
290
     0
174
     0
 93
        1
 44
0.0
173
     0
291
     1
 45
0.0
1001
ACAD
1000
AcDbSavedByObjectVersion
1070
     0
1000
AcDbSavedByObjectVersion
1070
     0
1000
AcDbSavedByObjectVersion
1070
     0
1000
AcDbSavedByObjectVersion
1070
     0
1000
AcDbSavedByObjectVersion
1070
     0
1000
AcDbSavedByObjectVersion
1070
     0
1000
AcDbSavedByObjectVersion
1070
     0
1000
AcDbSavedByObjectVersion
1070
     0
1000
AcDbSavedByObjectVersion
1070
     0
  0
VISUALSTYLE
  5
FB
102
{ACAD_REACTORS
330
EF
102
}
330
EF
100
AcDbVisualStyle
  2
Brighten
 70
    12
 71
     2
 72
     2
 73
     1
 90
        0
 40
-0.6
 41
-30.0
 62
     5
 63
     7
 74
     1
 91
        4
 64
     7
 65
   257
 75
     1
175
     1
 42
1.0
 92
        8
 66
     7
 43
1.0
 76
     1
 77
     6
 78
     2
 67
     7
 79
     5
170
     0
171
     0
290
     0
174
     0
 93
        1
 44
50.0
173
     0
291
     1
 45
0.0
1001
ACAD
1000
AcDbSavedByObjectVersion
1070
     0
1000
AcDbSavedByObjectVersion
1070
     0
1000
AcDbSavedByObjectVersion
1070
     0
1000
AcDbSavedByObjectVersion
1070
     0
1000
AcDbSavedByObjectVersion
1070
     0
1000
AcDbSavedByObjectVersion
1070
     0
1000
AcDbSavedByObjectVersion
1070
     0
1000
AcDbSavedByObjectVersion
1070
     0
1000
AcDbSavedByObjectVersion
1070
     0
  0
VISUALSTYLE
  5
FF
102
{ACAD_REACTORS
330
EF
102
}
330
EF
100
AcDbVisualStyle
  2
ColorChange
 70
    16
 71
     2
 72
     2
 73
     3
 90
        0
 40
-0.6
 41
-30.0
 62
     5
 63
     8
 74
     1
 91
        4
 64
     7
 65
   257
 75
     1
175
     1
 42
1.0
 92
        8
 66
     8
 43
1.0
 76
     1
 77
     6
 78
     2
 67
     7
 79
     5
170
     0
171
     0
290
     0
174
     0
 93
        1
 44
0.0
173
     0
291
     1
 45
0.0
1001
ACAD
1000
AcDbSavedByObjectVersion
1070
     0
1000
AcDbSavedByObjectVersion
1070
     0
1000
AcDbSavedByObjectVersion
1070
     0
1000
AcDbSavedByObjectVersion
1070
     0
1000
AcDbSavedByObjectVersion
1070
     0
1000
AcDbSavedByObjectVersion
1070
     0
1000
AcDbSavedByObjectVersion
1070
     0
1000
AcDbSavedByObjectVersion
1070
     0
1000
AcDbSavedByObjectVersion
1070
     0
  0
VISUALSTYLE
  5
F8
102
{ACAD_REACTORS
330
EF
102
}
330
EF
100
AcDbVisualStyle
  2
Conceptual
 70
     9
 71
     3
 72
     2
 73
     1
 90
        0
 40
-0.6
 41
-30.0
 62
     5
 63
     7
 74
     2
 91
        2
 64
     7
 65
   257
 75
     1
175
     1
 42
40.0
 92
        8
 66
     7
 43
1.0
 76
     1
 77
     6
 78
     2
 67
     7
 79
     3
170
     0
171
     0
290
     0
174
     0
 93
        1
 44
0.0
173
     0
291
     0
 45
0.0
1001
ACAD
1000
AcDbSavedByObjectVersion
1070
     0
1000
AcDbSavedByObjectVersion
1070
     0
1000
AcDbSavedByObjectVersion
1070
     0
1000
AcDbSavedByObjectVersion
1070
     0
1000
AcDbSavedByObjectVersion
1070
     0
1000
AcDbSavedByObjectVersion
1070
     0
1000
AcDbSavedByObjectVersion
1070
     0
1000
AcDbSavedByObjectVersion
1070
     0
1000
AcDbSavedByObjectVersion
1070
     0
  0
VISUALSTYLE
  5
FA
102
{ACAD_REACTORS
330
EF
102
}
330
EF
100
AcDbVisualStyle
  2
Dim
 70
    11
 71
     2
 72
     2
 73
     1
 90
        0
 40
-0.6
 41
-30.0
 62
     5
 63
     7
 74
     1
 91
        4
 64
     7
 65
   257
 75
     1
175
     1
 42
1.0
 92
        8
 66
     7
 43
1.0
 76
     1
 77
     6
 78
     2
 67
     7
 79
     5
170
     0
171
     0
290
     0
174
     0
 93
        1
 44
-50.0
173
     0
291
     1
 45
0.0
1001
ACAD
1000
AcDbSavedByObjectVersion
1070
     0
1000
AcDbSavedByObjectVersion
1070
     0
1000
AcDbSavedByObjectVersion
1070
     0
1000
AcDbSavedByObjectVersion
1070
     0
1000
AcDbSavedByObjectVersion
1070
     0
1000
AcDbSavedByObjectVersion
1070
     0
1000
AcDbSavedByObjectVersion
1070
     0
1000
AcDbSavedByObjectVersion
1070
     0
1000
AcDbSavedByObjectVersion
1070
     0
  0
VISUALSTYLE
  5
FE
102
{ACAD_REACTORS
330
EF
102
}
330
EF
100
AcDbVisualStyle
  2
Facepattern
 70
    15
 71
     2
 72
     2
 73
     1
 90
        0
 40
-0.6
 41
-30.0
 62
     5
 63
     7
 74
     1
 91
        4
 64
     7
 65
   257
 75
     1
175
     1
 42
1.0
 92
        8
 66
     7
 43
1.0
 76
     1
 77
     6
 78
     2
 67
     7
 79
     5
170
     0
171
     0
290
     0
174
     0
 93
        1
 44
0.0
173
     0
291
     1
 45
0.0
1001
ACAD
1000
AcDbSavedByObjectVersion
1070
     0
1000
AcDbSavedByObjectVersion
1070
     0
1000
AcDbSavedByObjectVersion
1070
     0
1000
AcDbSavedByObjectVersion
1070
     0
1000
AcDbSavedByObjectVersion
1070
     0
1000
AcDbSavedByObjectVersion
1070
     0
1000
AcDbSavedByObjectVersion
1070
     0
1000
AcDbSavedByObjectVersion
1070
     0
1000
AcDbSavedByObjectVersion
1070
     0
  0
VISUALSTYLE
  5
F0
102
{ACAD_REACTORS
330
EF
102
}
330
EF
100
AcDbVisualStyle
  2
Flat
 70
     0
 71
     2
 72
     1
 73
     1
 90
        2
 40
-0.6
 41
30.0
 62
     5
 63
     7
 74
     0
 91
        4
 64
     7
 65
   257
 75
     1
175
     1
 42
1.0
 92
        8
 66
     7
 43
1.0
 76
     1
 77
     6
 78
     2
 67
     7
 79
     5
170
     0
171
     0
290
     0
174
     0
 93
       13
 44
0.0
173
     0
291
     1
 45
0.0
1001
ACAD
1000
AcDbSavedByObjectVersion
1070
     0
1000
AcDbSavedByObjectVersion
1070
     0
1000
AcDbSavedByObjectVersion
1070
     0
1000
AcDbSavedByObjectVersion
1070
     0
1000
AcDbSavedByObjectVersion
1070
     0
1000
AcDbSavedByObjectVersion
1070
     0
1000
AcDbSavedByObjectVersion
1070
     0
1000
AcDbSavedByObjectVersion
1070
     0
1000
AcDbSavedByObjectVersion
1070
     0
  0
VISUALSTYLE
  5
F1
102
{ACAD_REACTORS
330
EF
102
}
330
EF
100
AcDbVisualStyle
  2
FlatWithEdges
 70
     1
 71
     2
 72
     1
 73
     1
 90
        2
 40
-0.6
 41
30.0
 62
     5
 63
     7
 74
     1
 91
        4
 64
     7
 65
   257
 75
     1
175
     1
 42
1.0
 92
        0
 66
   257
 43
1.0
 76
     1
 77
     6
 78
     2
 67
     7
 79
     5
170
     0
171
     0
290
     0
174
     0
 93
       13
 44
0.0
173
     0
291
     1
 45
0.0
1001
ACAD
1000
AcDbSavedByObjectVersion
1070
     0
1000
AcDbSavedByObjectVersion
1070
     0
1000
AcDbSavedByObjectVersion
1070
     0
1000
AcDbSavedByObjectVersion
1070
     0
1000
AcDbSavedByObjectVersion
1070
     0
1000
AcDbSavedByObjectVersion
1070
     0
1000
AcDbSavedByObjectVersion
1070
     0
1000
AcDbSavedByObjectVersion
1070
     0
1000
AcDbSavedByObjectVersion
1070
     0
  0
VISUALSTYLE
  5
F2
102
{ACAD_REACTORS
330
EF
102
}
330
EF
100
AcDbVisualStyle
  2
Gouraud
 70
     2
 71
     2
 72
     2
 73
     1
 90
        2
 40
-0.6
 41
30.0
 62
     5
 63
     7
 74
     0
 91
        4
 64
     7
 65
   257
 75
     1
175
     1
 42
1.0
 92
        0
 66
     7
 43
1.0
 76
     1
 77
     6
 78
     2
 67
     7
 79
     5
170
     0
171
     0
290
     0
174
     0
 93
       13
 44
0.0
173
     0
291
     1
 45
0.0
1001
ACAD
1000
AcDbSavedByObjectVersion
1070
     0
1000
AcDbSavedByObjectVersion
1070
     0
1000
AcDbSavedByObjectVersion
1070
     0
1000
AcDbSavedByObjectVersion
1070
     0
1000
AcDbSavedByObjectVersion
1070
     0
1000
AcDbSavedByObjectVersion
1070
     0
1000
AcDbSavedByObjectVersion
1070
     0
1000
AcDbSavedByObjectVersion
1070
     0
1000
AcDbSavedByObjectVersion
1070
     0
  0
VISUALSTYLE
  5
F3
102
{ACAD_REACTORS
330
EF
102
}
330
EF
100
AcDbVisualStyle
  2
GouraudWithEdges
 70
     3
 71
     2
 72
     2
 73
     1
 90
        2
 40
-0.6
 41
30.0
 62
     5
 63
     7
 74
     1
 91
        4
 64
     7
 65
   257
 75
     1
175
     1
 42
1.0
 92
        0
 66
   257
 43
1.0
 76
     1
 77
     6
 78
     2
 67
     7
 79
     5
170
     0
171
     0
290
     0
174
     0
 93
       13
 44
0.0
173
     0
291
     1
 45
0.0
1001
ACAD
1000
AcDbSavedByObjectVersion
1070
     0
1000
AcDbSavedByObjectVersion
1070
     0
1000
AcDbSavedByObjectVersion
1070
     0
1000
AcDbSavedByObjectVersion
1070
     0
1000
AcDbSavedByObjectVersion
1070
     0
1000
AcDbSavedByObjectVersion
1070
     0
1000
AcDbSavedByObjectVersion
1070
     0
1000
AcDbSavedByObjectVersion
1070
     0
1000
AcDbSavedByObjectVersion
1070
     0
  0
VISUALSTYLE
  5
FD
102
{ACAD_REACTORS
330
EF
102
}
330
EF
100
AcDbVisualStyle
  2
Linepattern
 70
    14
 71
     2
 72
     2
 73
     1
 90
        0
 40
-0.6
 41
-30.0
 62
     5
 63
     7
 74
     1
 91
        4
 64
     7
 65
   257
 75
     7
175
     7
 42
1.0
 92
        8
 66
     7
 43
1.0
 76
     1
 77
     6
 78
     2
 67
     7
 79
     5
170
     0
171
     0
290
     0
174
     0
 93
        1
 44
0.0
173
     0
291
     1
 45
0.0
1001
ACAD
1000
AcDbSavedByObjectVersion
1070
     0
1000
AcDbSavedByObjectVersion
1070
     0
1000
AcDbSavedByObjectVersion
1070
     0
1000
AcDbSavedByObjectVersion
1070
     0
1000
AcDbSavedByObjectVersion
1070
     0
1000
AcDbSavedByObjectVersion
1070
     0
1000
AcDbSavedByObjectVersion
1070
     0
1000
AcDbSavedByObjectVersion
1070
     0
1000
AcDbSavedByObjectVersion
1070
     0
  0
VISUALSTYLE
  5
F9
102
{ACAD_REACTORS
330
EF
102
}
330
EF
100
AcDbVisualStyle
  2
Realistic
 70
     8
 71
     2
 72
     2
 73
     1
 90
        0
 40
-0.6
 41
-30.0
 62
     5
 63
     7
 74
     1
 91
        0
 64
     7
 65
   257
 75
     1
175
     1
 42
1.0
 92
        8
 66
     8
 43
1.0
 76
     1
 77
     6
 78
     2
 67
     7
 79
     5
170
     0
171
     0
290
     0
174
     0
 93
       13
 44
0.0
173
     0
291
     0
 45
0.0
1001
ACAD
1000
AcDbSavedByObjectVersion
1070
     0
1000
AcDbSavedByObjectVersion
1070
     0
1000
AcDbSavedByObjectVersion
1070
     0
1000
AcDbSavedByObjectVersion
1070
     0
1000
AcDbSavedByObjectVersion
1070
     0
1000
AcDbSavedByObjectVersion
1070
     0
1000
AcDbSavedByObjectVersion
1070
     0
1000
AcDbSavedByObjectVersion
1070
     0
1000
AcDbSavedByObjectVersion
1070
     0
  0
VISUALSTYLE
  5
FC
102
{ACAD_REACTORS
330
EF
102
}
330
EF
100
AcDbVisualStyle
  2
Thicken
 70
    13
 71
     2
 72
     2
 73
     1
 90
        0
 40
-0.6
 41
-30.0
 62
     5
 63
     7
 74
     1
 91
        4
 64
     7
 65
   257
 75
     1
175
     1
 42
1.0
 92
       12
 66
     7
 43
1.0
 76
     1
 77
     6
 78
     2
 67
     7
 79
     5
170
     0
171
     0
290
     0
174
     0
 93
        1
 44
0.0
173
     0
291
     1
 45
0.0
1001
ACAD
1000
AcDbSavedByObjectVersion
1070
     0
1000
AcDbSavedByObjectVersion
1070
     0
1000
AcDbSavedByObjectVersion
1070
     0
1000
AcDbSavedByObjectVersion
1070
     0
1000
AcDbSavedByObjectVersion
1070
     0
1000
AcDbSavedByObjectVersion
1070
     0
1000
AcDbSavedByObjectVersion
1070
     0
1000
AcDbSavedByObjectVersion
1070
     0
1000
AcDbSavedByObjectVersion
1070
     0
  0
DICTIONARYVAR
  5
84
102
{ACAD_REACTORS
330
5E
102
}
330
5E
100
DictionaryVariables
280
     0
  1
STANDARD
  0
DICTIONARYVAR
  5
5F
102
{ACAD_REACTORS
330
5E
102
}
330
5E
100
DictionaryVariables
280
     0
  1
2
  0
DICTIONARYVAR
  5
63
102
{ACAD_REACTORS
330
5E
102
}
330
5E
100
DictionaryVariables
280
     0
  1
1
  0
DICTIONARYVAR
  5
327
102
{ACAD_REACTORS
330
5E
102
}
330
5E
100
DictionaryVariables
280
     0
  1
0
  0
DICTIONARYVAR
  5
1A5F
102
{ACAD_REACTORS
330
5E
102
}
330
5E
100
DictionaryVariables
280
     0
  1
80.000000
  0
DICTIONARYVAR
  5
1A5E
102
{ACAD_REACTORS
330
5E
102
}
330
5E
100
DictionaryVariables
280
     0
  1
5.000000
  0
DICTIONARYVAR
  5
326
102
{ACAD_REACTORS
330
5E
102
}
330
5E
100
DictionaryVariables
280
     0
  1
127
  0
DICTIONARY
  5
1A65
330
D3
100
AcDbDictionary
280
     1
281
     1
  3
ACAD_XREC_ROUNDTRIP
360
1A66
  0
DICTIONARY
  5
1A67
330
D7
100
AcDbDictionary
280
     1
281
     1
  3
ACAD_XREC_ROUNDTRIP
360
1A68
  0
DICTIONARY
  5
1A61
330
22
100
AcDbDictionary
280
     1
281
     1
  3
ACAD_XREC_ROUNDTRIP
360
1A62
  0
DICTIONARY
  5
335
330
ED
100
AcDbDictionary
280
     1
281
     1
  3
ACAD_XREC_ROUNDTRIP
360
336
  0
DICTIONARY
  5
333
330
EC
100
AcDbDictionary
280
     1
281
     1
  3
ACAD_XREC_ROUNDTRIP
360
334
  0
DICTIONARY
  5
337
330
EE
100
AcDbDictionary
280
     1
281
     1
  3
ACAD_XREC_ROUNDTRIP
360
338
  0
DICTIONARY
  5
1A63
330
7F
100
AcDbDictionary
280
     1
281
     1
  3
ACAD_XREC_ROUNDTRIP
360
1A64
  0
XRECORD
  5
1A66
102
{ACAD_REACTORS
330
1A65
102
}
330
1A65
100
AcDbXrecord
280
     1
102
SHADEPLOT
 70
     0
102
SHADEPLOTRESLEVEL
 70
     2
102
SHADEPLOTCUSTOMDPI
 70
   300
  0
XRECORD
  5
1A68
102
{ACAD_REACTORS
330
1A67
102
}
330
1A67
100
AcDbXrecord
280
     1
102
SHADEPLOT
 70
     0
102
SHADEPLOTRESLEVEL
 70
     2
102
SHADEPLOTCUSTOMDPI
 70
   300
  0
XRECORD
  5
1A62
102
{ACAD_REACTORS
330
1A61
102
}
330
1A61
100
AcDbXrecord
280
     1
102
SHADEPLOT
 70
     0
102
SHADEPLOTRESLEVEL
 70
     2
102
SHADEPLOTCUSTOMDPI
 70
   300
  0
XRECORD
  5
336
102
{ACAD_REACTORS
330
335
102
}
330
335
100
AcDbXrecord
280
     1
102
MATERIAL
148
0.0
149
0.0
149
0.0
 93
        0
 94
       63
282
     0
 72
     1
 77
     1
171
     1
175
     1
179
     1
273
     0
  0
XRECORD
  5
334
102
{ACAD_REACTORS
330
333
102
}
330
333
100
AcDbXrecord
280
     1
102
MATERIAL
148
0.0
149
0.0
149
0.0
 93
        0
 94
       63
282
     0
 72
     1
 77
     1
171
     1
175
     1
179
     1
273
     0
  0
XRECORD
  5
338
102
{ACAD_REACTORS
330
337
102
}
330
337
100
AcDbXrecord
280
     1
102
MATERIAL
148
0.0
149
0.0
149
0.0
 93
        0
 94
       63
282
     0
 72
     1
 77
     1
171
     1
175
     1
179
     1
273
     0
  0
XRECORD
  5
1A64
102
{ACAD_REACTORS
330
1A63
102
}
330
1A63
100
AcDbXrecord
280
     1
102
ACAD_ROUNDTRIP_PRE2007_TABLESTYLE
 90
      512
 91
        0
  1

 92
      512
 93
        0
  2

 94
      512
 95
        0
  3

  0
ENDSEC
  0
EOF
