  0
SECTION
  2
HEADER
  9
$ACADVER
  1
AC1024
  9
$ACADMAINTVER
 70
   205
  9
$DWGCODEPAGE
  3
ANSI_1252
  9
$LASTSAVEDBY
  1
kaschu
  9
$INSBASE
 10
0.0
 20
0.0
 30
0.0
  9
$EXTMIN
 10
-56.08078060767917
 20
-2201.619480995099
 30
-0.0000000000000073
  9
$EXTMAX
 10
1144.726354997904
 20
-666.062978975265
 30
0.0000000000000346
  9
$LIMMIN
 10
0.0
 20
0.0
  9
$LIMMAX
 10
420.0
 20
297.0
  9
$ORTHOMODE
 70
     0
  9
$REGENMODE
 70
     1
  9
$FILLMODE
 70
     1
  9
$QTEXTMODE
 70
     0
  9
$MIRRTEXT
 70
     0
  9
$LTSCALE
 40
1.0
  9
$ATTMODE
 70
     1
  9
$TEXTSIZE
 40
2.5
  9
$TRACEWID
 40
1.0
  9
$TEXTSTYLE
  7
Standard
  9
$CLAYER
  8
0
  9
$CELTYPE
  6
ByLayer
  9
$CECOLOR
 62
   256
  9
$CELTSCALE
 40
1.0
  9
$DISPSILH
 70
     0
  9
$DIMSCALE
 40
1.0
  9
$DIMASZ
 40
2.5
  9
$DIMEXO
 40
0.625
  9
$DIMDLI
 40
3.75
  9
$DIMRND
 40
0.0
  9
$DIMDLE
 40
0.0
  9
$DIMEXE
 40
1.25
  9
$DIMTP
 40
0.0
  9
$DIMTM
 40
0.0
  9
$DIMTXT
 40
2.5
  9
$DIMCEN
 40
2.5
  9
$DIMTSZ
 40
0.0
  9
$DIMTOL
 70
     0
  9
$DIMLIM
 70
     0
  9
$DIMTIH
 70
     0
  9
$DIMTOH
 70
     0
  9
$DIMSE1
 70
     0
  9
$DIMSE2
 70
     0
  9
$DIMTAD
 70
     1
  9
$DIMZIN
 70
     8
  9
$DIMBLK
  1

  9
$DIMASO
 70
     1
  9
$DIMSHO
 70
     1
  9
$DIMPOST
  1

  9
$DIMAPOST
  1

  9
$DIMALT
 70
     0
  9
$DIMALTD
 70
     3
  9
$DIMALTF
 40
0.03937007874016
  9
$DIMLFAC
 40
1.0
  9
$DIMTOFL
 70
     1
  9
$DIMTVP
 40
0.0
  9
$DIMTIX
 70
     0
  9
$DIMSOXD
 70
     0
  9
$DIMSAH
 70
     0
  9
$DIMBLK1
  1

  9
$DIMBLK2
  1

  9
$DIMSTYLE
  2
ISO-25
  9
$DIMCLRD
 70
     0
  9
$DIMCLRE
 70
     0
  9
$DIMCLRT
 70
     0
  9
$DIMTFAC
 40
1.0
  9
$DIMGAP
 40
0.625
  9
$DIMJUST
 70
     0
  9
$DIMSD1
 70
     0
  9
$DIMSD2
 70
     0
  9
$DIMTOLJ
 70
     0
  9
$DIMTZIN
 70
     8
  9
$DIMALTZ
 70
     0
  9
$DIMALTTZ
 70
     0
  9
$DIMUPT
 70
     0
  9
$DIMDEC
 70
     2
  9
$DIMTDEC
 70
     2
  9
$DIMALTU
 70
     2
  9
$DIMALTTD
 70
     3
  9
$DIMTXSTY
  7
Standard
  9
$DIMAUNIT
 70
     0
  9
$DIMADEC
 70
     0
  9
$DIMALTRND
 40
0.0
  9
$DIMAZIN
 70
     0
  9
$DIMDSEP
 70
    44
  9
$DIMATFIT
 70
     3
  9
$DIMFRAC
 70
     0
  9
$DIMLDRBLK
  1

  9
$DIMLUNIT
 70
     2
  9
$DIMLWD
 70
    -2
  9
$DIMLWE
 70
    -2
  9
$DIMTMOVE
 70
     0
  9
$DIMFXL
 40
1.0
  9
$DIMFXLON
 70
     0
  9
$DIMJOGANG
 40
0.7853981633974483
  9
$DIMTFILL
 70
     0
  9
$DIMTFILLCLR
 70
     0
  9
$DIMARCSYM
 70
     0
  9
$DIMLTYPE
  6

  9
$DIMLTEX1
  6

  9
$DIMLTEX2
  6

  9
$DIMTXTDIRECTION
 70
     0
  9
$LUNITS
 70
     2
  9
$LUPREC
 70
     4
  9
$SKETCHINC
 40
1.0
  9
$FILLETRAD
 40
0.0
  9
$AUNITS
 70
     0
  9
$AUPREC
 70
     0
  9
$MENU
  1
.
  9
$ELEVATION
 40
0.0
  9
$PELEVATION
 40
0.0
  9
$THICKNESS
 40
0.0
  9
$LIMCHECK
 70
     0
  9
$CHAMFERA
 40
0.0
  9
$CHAMFERB
 40
0.0
  9
$CHAMFERC
 40
0.0
  9
$CHAMFERD
 40
0.0
  9
$SKPOLY
 70
     0
  9
$TDCREATE
 40
2454768.552548658
  9
$TDUCREATE
 40
2454768.469215324
  9
$TDUPDATE
 40
2458738.583104051
  9
$TDUUPDATE
 40
2458738.499770718
  9
$TDINDWG
 40
0.1157690625
  9
$TDUSRTIMER
 40
0.1157646991
  9
$USRTIMER
 70
     1
  9
$ANGBASE
 50
0.0
  9
$ANGDIR
 70
     0
  9
$PDMODE
 70
     0
  9
$PDSIZE
 40
0.0
  9
$PLINEWID
 40
0.0
  9
$SPLFRAME
 70
     0
  9
$SPLINETYPE
 70
     6
  9
$SPLINESEGS
 70
     8
  9
$HANDSEED
  5
1B7A
  9
$SURFTAB1
 70
     6
  9
$SURFTAB2
 70
     6
  9
$SURFTYPE
 70
     6
  9
$SURFU
 70
     6
  9
$SURFV
 70
     6
  9
$UCSBASE
  2

  9
$UCSNAME
  2

  9
$UCSORG
 10
0.0
 20
0.0
 30
0.0
  9
$UCSXDIR
 10
1.0
 20
0.0
 30
0.0
  9
$UCSYDIR
 10
0.0
 20
1.0
 30
0.0
  9
$UCSORTHOREF
  2

  9
$UCSORTHOVIEW
 70
     0
  9
$UCSORGTOP
 10
0.0
 20
0.0
 30
0.0
  9
$UCSORGBOTTOM
 10
0.0
 20
0.0
 30
0.0
  9
$UCSORGLEFT
 10
0.0
 20
0.0
 30
0.0
  9
$UCSORGRIGHT
 10
0.0
 20
0.0
 30
0.0
  9
$UCSORGFRONT
 10
0.0
 20
0.0
 30
0.0
  9
$UCSORGBACK
 10
0.0
 20
0.0
 30
0.0
  9
$PUCSBASE
  2

  9
$PUCSNAME
  2

  9
$PUCSORG
 10
0.0
 20
0.0
 30
0.0
  9
$PUCSXDIR
 10
1.0
 20
0.0
 30
0.0
  9
$PUCSYDIR
 10
0.0
 20
1.0
 30
0.0
  9
$PUCSORTHOREF
  2

  9
$PUCSORTHOVIEW
 70
     0
  9
$PUCSORGTOP
 10
0.0
 20
0.0
 30
0.0
  9
$PUCSORGBOTTOM
 10
0.0
 20
0.0
 30
0.0
  9
$PUCSORGLEFT
 10
0.0
 20
0.0
 30
0.0
  9
$PUCSORGRIGHT
 10
0.0
 20
0.0
 30
0.0
  9
$PUCSORGFRONT
 10
0.0
 20
0.0
 30
0.0
  9
$PUCSORGBACK
 10
0.0
 20
0.0
 30
0.0
  9
$USERI1
 70
     0
  9
$USERI2
 70
     0
  9
$USERI3
 70
     0
  9
$USERI4
 70
     0
  9
$USERI5
 70
     0
  9
$USERR1
 40
0.0
  9
$USERR2
 40
0.0
  9
$USERR3
 40
0.0
  9
$USERR4
 40
0.0
  9
$USERR5
 40
0.0
  9
$WORLDVIEW
 70
     1
  9
$SHADEDGE
 70
     3
  9
$SHADEDIF
 70
    70
  9
$TILEMODE
 70
     1
  9
$MAXACTVP
 70
    64
  9
$PINSBASE
 10
0.0
 20
0.0
 30
0.0
  9
$PLIMCHECK
 70
     0
  9
$PEXTMIN
 10
0.0
 20
0.0
 30
0.0
  9
$PEXTMAX
 10
0.0
 20
0.0
 30
0.0
  9
$PLIMMIN
 10
0.0
 20
0.0
  9
$PLIMMAX
 10
12.0
 20
9.0
  9
$UNITMODE
 70
     0
  9
$VISRETAIN
 70
     1
  9
$PLINEGEN
 70
     0
  9
$PSLTSCALE
 70
     1
  9
$TREEDEPTH
 70
  3020
  9
$CMLSTYLE
  2
Standard
  9
$CMLJUST
 70
     0
  9
$CMLSCALE
 40
20.0
  9
$PROXYGRAPHICS
 70
     1
  9
$MEASUREMENT
 70
     1
  9
$CELWEIGHT
370
    -1
  9
$ENDCAPS
280
     0
  9
$JOINSTYLE
280
     0
  9
$LWDISPLAY
290
     0
  9
$INSUNITS
 70
     4
  9
$HYPERLINKBASE
  1

  9
$STYLESHEET
  1

  9
$XEDIT
290
     1
  9
$CEPSNTYPE
380
     0
  9
$PSTYLEMODE
290
     1
  9
$FINGERPRINTGUID
  2
{A9F5D530-972F-4813-857A-78B9B08CAD27}
  9
$VERSIONGUID
  2
{532B8E47-B854-4FCC-9640-BF9B439B9772}
  9
$EXTNAMES
290
     1
  9
$PSVPSCALE
 40
0.0
  9
$OLESTARTUP
290
     0
  9
$SORTENTS
280
   127
  9
$INDEXCTL
280
     0
  9
$HIDETEXT
280
     1
  9
$XCLIPFRAME
280
     2
  9
$HALOGAP
280
     0
  9
$OBSCOLOR
 70
   257
  9
$OBSLTYPE
280
     0
  9
$INTERSECTIONDISPLAY
280
     0
  9
$INTERSECTIONCOLOR
 70
   257
  9
$DIMASSOC
280
     2
  9
$PROJECTNAME
  1

  9
$CAMERADISPLAY
290
     0
  9
$LENSLENGTH
 40
50.0
  9
$CAMERAHEIGHT
 40
0.0
  9
$STEPSPERSEC
 40
2.0
  9
$STEPSIZE
 40
6.0
  9
$3DDWFPREC
 40
2.0
  9
$PSOLWIDTH
 40
5.0
  9
$PSOLHEIGHT
 40
80.0
  9
$LOFTANG1
 40
1.570796326794896
  9
$LOFTANG2
 40
1.570796326794896
  9
$LOFTMAG1
 40
0.0
  9
$LOFTMAG2
 40
0.0
  9
$LOFTPARAM
 70
     7
  9
$LOFTNORMALS
280
     1
  9
$LATITUDE
 40
37.795
  9
$LONGITUDE
 40
-122.394
  9
$NORTHDIRECTION
 40
0.0
  9
$TIMEZONE
 70
 -8000
  9
$LIGHTGLYPHDISPLAY
280
     1
  9
$TILEMODELIGHTSYNCH
280
     1
  9
$CMATERIAL
347
EC
  9
$SOLIDHIST
280
     0
  9
$SHOWHIST
280
     1
  9
$DWFFRAME
280
     2
  9
$DGNFRAME
280
     0
  9
$REALWORLDSCALE
290
     1
  9
$INTERFERECOLOR
 62
     1
  9
$INTERFEREOBJVS
345
F9
  9
$INTERFEREVPVS
346
1A93
  9
$CSHADOW
280
     0
  9
$SHADOWPLANELOCATION
 40
0.0
  0
ENDSEC
  0
SECTION
  2
CLASSES
  0
CLASS
  1
ACDBDICTIONARYWDFLT
  2
AcDbDictionaryWithDefault
  3
ObjectDBX Classes
 90
        0
 91
        1
280
     0
281
     0
  0
CLASS
  1
DICTIONARYVAR
  2
AcDbDictionaryVar
  3
ObjectDBX Classes
 90
        0
 91
       15
280
     0
281
     0
  0
CLASS
  1
TABLESTYLE
  2
AcDbTableStyle
  3
ObjectDBX Classes
 90
     4095
 91
        1
280
     0
281
     0
  0
CLASS
  1
MATERIAL
  2
AcDbMaterial
  3
ObjectDBX Classes
 90
     1153
 91
        3
280
     0
281
     0
  0
CLASS
  1
VISUALSTYLE
  2
AcDbVisualStyle
  3
ObjectDBX Classes
 90
     4095
 91
       26
280
     0
281
     0
  0
CLASS
  1
SORTENTSTABLE
  2
AcDbSortentsTable
  3
ObjectDBX Classes
 90
        0
 91
        1
280
     0
281
     0
  0
CLASS
  1
DIMASSOC
  2
AcDbDimAssoc
  3
"AcDbDimAssoc|Product Desc:     AcDim ARX App For Dimension|Company:          Autodesk, Inc.|WEB Address:      www.autodesk.com"
 90
        0
 91
        0
280
     0
281
     0
  0
CLASS
  1
SCALE
  2
AcDbScale
  3
ObjectDBX Classes
 90
     1153
 91
       17
280
     0
281
     0
  0
CLASS
  1
MLEADERSTYLE
  2
AcDbMLeaderStyle
  3
ACDB_MLEADERSTYLE_CLASS
 90
     4095
 91
        1
280
     0
281
     0
  0
CLASS
  1
ACDBSECTIONVIEWSTYLE
  2
AcDbSectionViewStyle
  3
ObjectDBX Classes
 90
     1025
 91
        1
280
     0
281
     0
  0
CLASS
  1
ACDBDETAILVIEWSTYLE
  2
AcDbDetailViewStyle
  3
ObjectDBX Classes
 90
     1025
 91
        1
280
     0
281
     0
  0
CLASS
  1
CELLSTYLEMAP
  2
AcDbCellStyleMap
  3
ObjectDBX Classes
 90
     1152
 91
        3
280
     0
281
     0
  0
ENDSEC
  0
SECTION
  2
TABLES
  0
TABLE
  2
VPORT
  5
8
330
0
100
AcDbSymbolTable
 70
     1
  0
VPORT
  5
EA
330
8
100
AcDbSymbolTableRecord
100
AcDbViewportTableRecord
  2
*Active
 70
     0
 10
0.0
 20
0.0
 11
1.0
 21
1.0
 12
435.4685763642901
 22
-1459.695871486298
 13
0.0
 23
0.0
 14
10.0
 24
10.0
 15
10.0
 25
10.0
 16
0.0
 26
0.0
 36
1.0
 17
0.0
 27
0.0
 37
0.0
 40
2173.234589308385
 41
2.170603674540682
 42
50.0
 43
0.0
 44
0.0
 50
0.0
 51
0.0
 71
     0
 72
  1000
 73
     1
 74
     3
 75
     0
 76
     0
 77
     0
 78
     0
281
     0
 65
     1
110
0.0
120
0.0
130
0.0
111
1.0
121
0.0
131
0.0
112
0.0
122
1.0
132
0.0
 79
     0
146
0.0
348
F5
 60
     3
 61
     5
292
     1
282
     1
141
0.0
142
0.0
 63
   250
421
  3355443
1001
ACAD_NAV_VCDISPLAY
1070
     3
  0
ENDTAB
  0
TABLE
  2
LTYPE
  5
5
330
0
100
AcDbSymbolTable
 70
     1
  0
LTYPE
  5
14
330
5
100
AcDbSymbolTableRecord
100
AcDbLinetypeTableRecord
  2
ByBlock
 70
     0
  3

 72
    65
 73
     0
 40
0.0
  0
LTYPE
  5
15
330
5
100
AcDbSymbolTableRecord
100
AcDbLinetypeTableRecord
  2
ByLayer
 70
     0
  3

 72
    65
 73
     0
 40
0.0
  0
LTYPE
  5
16
330
5
100
AcDbSymbolTableRecord
100
AcDbLinetypeTableRecord
  2
Continuous
 70
     0
  3
Solid line
 72
    65
 73
     0
 40
0.0
  0
ENDTAB
  0
TABLE
  2
LAYER
  5
2
102
{ACAD_XDICTIONARY
360
141
102
}
330
0
100
AcDbSymbolTable
 70
     4
  0
LAYER
  5
10
102
{ACAD_XDICTIONARY
360
1ABA
102
}
330
2
100
AcDbSymbolTableRecord
100
AcDbLayerTableRecord
  2
0
 70
     0
 62
     7
  6
Continuous
370
    -3
390
F
347
EE
  0
LAYER
  5
124
330
2
100
AcDbSymbolTableRecord
100
AcDbLayerTableRecord
  2
Defpoints
 70
     0
 62
     7
  6
Continuous
290
     0
370
    -3
390
F
347
EE
  0
LAYER
  5
13E
102
{ACAD_XDICTIONARY
360
1ABC
102
}
330
2
100
AcDbSymbolTableRecord
100
AcDbLayerTableRecord
  2
Hewi
 70
     0
 62
     7
  6
Continuous
370
    -3
390
F
347
EE
  0
LAYER
  5
17E5
102
{ACAD_XDICTIONARY
360
1ABE
102
}
330
2
100
AcDbSymbolTableRecord
100
AcDbLayerTableRecord
  2
PV-174
 70
     2
 62
     7
  6
Continuous
370
    -3
390
F
347
EE
  0
ENDTAB
  0
TABLE
  2
STYLE
  5
3
330
0
100
AcDbSymbolTable
 70
     1
  0
STYLE
  5
11
330
3
100
AcDbSymbolTableRecord
100
AcDbTextStyleTableRecord
  2
Standard
 70
     0
 40
0.0
 41
1.0
 50
0.0
 71
     0
 42
2.5
  3
txt
  4

  0
ENDTAB
  0
TABLE
  2
VIEW
  5
6
330
0
100
AcDbSymbolTable
 70
     0
  0
ENDTAB
  0
TABLE
  2
UCS
  5
7
330
0
100
AcDbSymbolTable
 70
     0
  0
ENDTAB
  0
TABLE
  2
APPID
  5
9
330
0
100
AcDbSymbolTable
 70
     4
  0
APPID
  5
12
330
9
100
AcDbSymbolTableRecord
100
AcDbRegAppTableRecord
  2
ACAD
 70
     0
  0
APPID
  5
9E
330
9
100
AcDbSymbolTableRecord
100
AcDbRegAppTableRecord
  2
ACAD_PSEXT
 70
     0
  0
APPID
  5
212
330
9
100
AcDbSymbolTableRecord
100
AcDbRegAppTableRecord
  2
ACAD_EXEMPT_FROM_CAD_STANDARDS
 70
     0
  0
APPID
  5
1AC8
330
9
100
AcDbSymbolTableRecord
100
AcDbRegAppTableRecord
  2
ACAD_NAV_VCDISPLAY
 70
     0
  0
ENDTAB
  0
TABLE
  2
DIMSTYLE
  5
A
330
0
100
AcDbSymbolTable
 70
     2
100
AcDbDimStyleTable
 71
     1
340
27
  0
DIMSTYLE
105
27
330
A
100
AcDbSymbolTableRecord
100
AcDbDimStyleTableRecord
  2
ISO-25
 70
     0
 41
2.5
 42
0.625
 43
3.75
 44
1.25
 73
     0
 74
     0
 77
     1
 78
     8
140
2.5
141
2.5
143
0.03937007874016
147
0.625
171
     3
172
     1
271
     2
272
     2
274
     3
278
    44
283
     0
284
     8
340
11
  0
DIMSTYLE
105
254
330
A
100
AcDbSymbolTableRecord
100
AcDbDimStyleTableRecord
  2
Standard
 70
     0
340
11
  0
ENDTAB
  0
TABLE
  2
BLOCK_RECORD
  5
1
330
0
100
AcDbSymbolTable
 70
     5
  0
BLOCK_RECORD
  5
1F
102
{ACAD_XDICTIONARY
360
116
102
}
330
1
100
AcDbSymbolTableRecord
100
AcDbBlockTableRecord
  2
*Model_Space
340
22
 70
     0
280
     1
281
     0
  0
BLOCK_RECORD
  5
D2
330
1
100
AcDbSymbolTableRecord
100
AcDbBlockTableRecord
  2
*Paper_Space
340
D3
 70
     0
280
     1
281
     0
  0
BLOCK_RECORD
  5
D6
330
1
100
AcDbSymbolTableRecord
100
AcDbBlockTableRecord
  2
*Paper_Space0
340
D7
 70
     0
280
     1
281
     0
  0
BLOCK_RECORD
  5
19CD
330
1
100
AcDbSymbolTableRecord
100
AcDbBlockTableRecord
  2
*D1
340
0
 70
     0
280
     1
281
     0
  0
BLOCK_RECORD
  5
19E5
330
1
100
AcDbSymbolTableRecord
100
AcDbBlockTableRecord
  2
*D2
340
0
 70
     0
280
     1
281
     0
  0
BLOCK_RECORD
  5
1A47
330
1
100
AcDbSymbolTableRecord
100
AcDbBlockTableRecord
  2
*D3
340
0
 70
     0
280
     1
281
     0
  0
BLOCK_RECORD
  5
1A6E
330
1
100
AcDbSymbolTableRecord
100
AcDbBlockTableRecord
  2
*D4
340
0
 70
     0
280
     1
281
     0
  0
ENDTAB
  0
ENDSEC
  0
SECTION
  2
BLOCKS
  0
BLOCK
  5
20
330
1F
100
AcDbEntity
  8
0
100
AcDbBlockBegin
  2
*Model_Space
 70
     0
 10
0.0
 20
0.0
 30
0.0
  3
*Model_Space
  1

  0
ENDBLK
  5
21
330
1F
100
AcDbEntity
  8
0
100
AcDbBlockEnd
  0
BLOCK
  5
D4
330
D2
100
AcDbEntity
 67
     1
  8
0
100
AcDbBlockBegin
  2
*Paper_Space
 70
     0
 10
0.0
 20
0.0
 30
0.0
  3
*Paper_Space
  1

  0
ENDBLK
  5
D5
330
D2
100
AcDbEntity
 67
     1
  8
0
100
AcDbBlockEnd
  0
BLOCK
  5
D8
330
D6
100
AcDbEntity
 67
     1
  8
0
100
AcDbBlockBegin
  2
*Paper_Space0
 70
     0
 10
0.0
 20
0.0
 30
0.0
  3
*Paper_Space0
  1

  0
ENDBLK
  5
D9
330
D6
100
AcDbEntity
 67
     1
  8
0
100
AcDbBlockEnd
  0
BLOCK
  5
19D7
330
19CD
100
AcDbEntity
  8
0
100
AcDbBlockBegin
  2
*D1
 70
     1
 10
0.0
 20
0.0
 30
0.0
  3
*D1
  1

  0
LINE
  5
19DA
330
19CD
100
AcDbEntity
  8
0
 62
     0
370
    -2
100
AcDbLine
 10
284.9998885190725
 20
-1016.062978975265
 30
0.0
 11
153.556827527662
 21
-1016.062978975265
 31
0.0
  0
LINE
  5
19DB
330
19CD
100
AcDbEntity
  8
0
 62
     0
370
    -2
100
AcDbLine
 10
389.3587401791883
 20
-1932.562978975265
 30
0.0
 11
153.5568275276618
 21
-1932.562978975265
 31
0.0
  0
LINE
  5
19DC
330
19CD
100
AcDbEntity
  8
0
 62
     0
370
    -2
100
AcDbLine
 10
154.806827527662
 20
-1018.562978975265
 30
0.0
 11
154.8068275276618
 21
-1930.062978975265
 31
0.0
  0
SOLID
  5
19DD
330
19CD
100
AcDbEntity
  8
0
 62
     0
100
AcDbTrace
 10
154.3901608609953
 20
-1018.562978975265
 30
0.0
 11
155.2234941943287
 21
-1018.562978975265
 31
0.0
 12
154.806827527662
 22
-1016.062978975265
 32
0.0
 13
154.806827527662
 23
-1016.062978975265
 33
0.0
  0
SOLID
  5
19DE
330
19CD
100
AcDbEntity
  8
0
 62
     0
100
AcDbTrace
 10
154.3901608609951
 20
-1930.062978975265
 30
0.0
 11
155.2234941943285
 21
-1930.062978975265
 31
0.0
 12
154.8068275276618
 22
-1932.562978975265
 32
0.0
 13
154.8068275276618
 23
-1932.562978975265
 33
0.0
  0
MTEXT
  5
19DF
330
19CD
100
AcDbEntity
  8
0
 62
     0
100
AcDbMText
 10
152.7234941943288
 20
-1474.312978975265
 30
0.0
 40
2.5
 41
0.0
 46
0.0
 71
     5
 72
     1
  1
916,5
 11
0.0000000000000001
 21
1.0
 31
0.0
 73
     1
 44
1.0
1001
ACAD
1000
MTEXTBEGIN
1070
    73
1070
     1
1070
    44
1040
1.0
1070
    74
1070
     0
1000
MTEXTEND
  0
POINT
  5
19E0
330
19CD
100
AcDbEntity
  8
Defpoints
 62
     0
100
AcDbPoint
 10
285.6248885190725
 20
-1016.062978975265
 30
0.0
  0
POINT
  5
19E1
330
19CD
100
AcDbEntity
  8
Defpoints
 62
     0
100
AcDbPoint
 10
389.9837401791883
 20
-1932.562978975265
 30
0.0000000000000016
  0
POINT
  5
19E2
330
19CD
100
AcDbEntity
  8
Defpoints
 62
     0
100
AcDbPoint
 10
154.8068275276618
 20
-1932.562978975265
 30
0.0
  0
ENDBLK
  5
19D8
330
19CD
100
AcDbEntity
  8
0
100
AcDbBlockEnd
  0
BLOCK
  5
19EF
330
19E5
100
AcDbEntity
  8
0
100
AcDbBlockBegin
  2
*D2
 70
     1
 10
0.0
 20
0.0
 30
0.0
  3
*D2
  1

  0
LINE
  5
19F2
330
19E5
100
AcDbEntity
  8
0
 62
     0
370
    -2
100
AcDbLine
 10
269.1248885190716
 20
-1723.221733758987
 30
0.0
 11
269.1248885190716
 21
-1658.300991221769
 31
0.0
  0
LINE
  5
19F3
330
19E5
100
AcDbEntity
  8
0
 62
     0
370
    -2
100
AcDbLine
 10
685.6248885190722
 20
-1915.437978975265
 30
0.0
 11
685.6248885190722
 21
-1658.300991221769
 31
0.0
  0
LINE
  5
19F4
330
19E5
100
AcDbEntity
  8
0
 62
     0
370
    -2
100
AcDbLine
 10
271.6248885190716
 20
-1659.550991221768
 30
0.0
 11
683.1248885190722
 21
-1659.550991221768
 31
0.0
  0
SOLID
  5
19F5
330
19E5
100
AcDbEntity
  8
0
 62
     0
100
AcDbTrace
 10
271.6248885190716
 20
-1659.134324555102
 30
0.0
 11
271.6248885190716
 21
-1659.967657888435
 31
0.0
 12
269.1248885190716
 22
-1659.550991221768
 32
0.0
 13
269.1248885190716
 23
-1659.550991221768
 33
0.0
  0
SOLID
  5
19F6
330
19E5
100
AcDbEntity
  8
0
 62
     0
100
AcDbTrace
 10
683.1248885190722
 20
-1659.134324555102
 30
0.0
 11
683.1248885190722
 21
-1659.967657888435
 31
0.0
 12
685.6248885190722
 22
-1659.550991221768
 32
0.0
 13
685.6248885190722
 23
-1659.550991221768
 33
0.0
  0
MTEXT
  5
19F7
330
19E5
100
AcDbEntity
  8
0
 62
     0
100
AcDbMText
 10
477.374888519072
 20
-1657.467657888435
 30
0.0
 40
2.5
 41
0.0
 46
0.0
 71
     5
 72
     1
  1
416,5
 73
     1
 44
1.0
1001
ACAD
1000
MTEXTBEGIN
1070
    73
1070
     1
1070
    44
1040
1.0
1070
    74
1070
     0
1000
MTEXTEND
  0
POINT
  5
19F8
330
19E5
100
AcDbEntity
  8
Defpoints
 62
     0
100
AcDbPoint
 10
269.1248885190716
 20
-1723.846733758987
 30
0.0000000000000015
  0
POINT
  5
19F9
330
19E5
100
AcDbEntity
  8
Defpoints
 62
     0
100
AcDbPoint
 10
685.6248885190722
 20
-1916.062978975265
 30
0.0
  0
POINT
  5
19FA
330
19E5
100
AcDbEntity
  8
Defpoints
 62
     0
100
AcDbPoint
 10
685.6248885190722
 20
-1659.550991221768
 30
0.0
  0
ENDBLK
  5
19F0
330
19E5
100
AcDbEntity
  8
0
100
AcDbBlockEnd
  0
BLOCK
  5
1A51
330
1A47
100
AcDbEntity
  8
0
100
AcDbBlockBegin
  2
*D3
 70
     1
 10
0.0
 20
0.0
 30
0.0
  3
*D3
  1

  0
LINE
  5
1A54
330
1A47
100
AcDbEntity
  8
0
 62
     0
370
    -2
100
AcDbLine
 10
285.6248885190725
 20
-2065.045101482445
 30
0.0
 11
285.6248885190725
 21
-2013.321997631082
 31
0.0
  0
LINE
  5
1A55
330
1A47
100
AcDbEntity
  8
0
 62
     0
370
    -2
100
AcDbLine
 10
684.9642085198047
 20
-2138.545101482446
 30
0.0
 11
684.9642085198047
 21
-2013.321997631082
 31
0.0
  0
LINE
  5
1A56
330
1A47
100
AcDbEntity
  8
0
 62
     0
370
    -2
100
AcDbLine
 10
288.1248885190725
 20
-2014.571997631082
 30
0.0
 11
682.4642085198047
 21
-2014.571997631082
 31
0.0
  0
SOLID
  5
1A57
330
1A47
100
AcDbEntity
  8
0
 62
     0
100
AcDbTrace
 10
288.1248885190725
 20
-2014.155330964415
 30
0.0
 11
288.1248885190725
 21
-2014.988664297749
 31
0.0
 12
285.6248885190725
 22
-2014.571997631082
 32
0.0
 13
285.6248885190725
 23
-2014.571997631082
 33
0.0
  0
SOLID
  5
1A58
330
1A47
100
AcDbEntity
  8
0
 62
     0
100
AcDbTrace
 10
682.4642085198047
 20
-2014.155330964415
 30
0.0
 11
682.4642085198047
 21
-2014.988664297749
 31
0.0
 12
684.9642085198047
 22
-2014.571997631082
 32
0.0
 13
684.9642085198047
 23
-2014.571997631082
 33
0.0
  0
MTEXT
  5
1A59
330
1A47
100
AcDbEntity
  8
0
 62
     0
100
AcDbMText
 10
485.2945485194386
 20
-2012.488664297749
 30
0.0
 40
2.5
 41
0.0
 46
0.0
 71
     5
 72
     1
  1
399,34
 73
     1
 44
1.0
1001
ACAD
1000
MTEXTBEGIN
1070
    73
1070
     1
1070
    44
1040
1.0
1070
    74
1070
     0
1000
MTEXTEND
  0
POINT
  5
1A5A
330
1A47
100
AcDbEntity
  8
Defpoints
 62
     0
100
AcDbPoint
 10
285.6248885190725
 20
-2065.670101482445
 30
0.0
  0
POINT
  5
1A5B
330
1A47
100
AcDbEntity
  8
Defpoints
 62
     0
100
AcDbPoint
 10
684.9642085198047
 20
-2139.170101482445
 30
0.0000000000000003
  0
POINT
  5
1A5C
330
1A47
100
AcDbEntity
  8
Defpoints
 62
     0
100
AcDbPoint
 10
684.9642085198047
 20
-2014.571997631082
 30
0.0
  0
ENDBLK
  5
1A52
330
1A47
100
AcDbEntity
  8
0
100
AcDbBlockEnd
  0
BLOCK
  5
1A78
330
1A6E
100
AcDbEntity
  8
0
100
AcDbBlockBegin
  2
*D4
 70
     1
 10
0.0
 20
0.0
 30
0.0
  3
*D4
  1

  0
LINE
  5
1A7B
330
1A6E
100
AcDbEntity
  8
0
 62
     0
370
    -2
100
AcDbLine
 10
835.3705427695967
 20
-1915.437978975265
 30
0.0
 11
835.3705427695969
 21
-573.242291667304
 31
0.0
  0
LINE
  5
1A7C
330
1A6E
100
AcDbEntity
  8
0
 62
     0
370
    -2
100
AcDbLine
 10
285.6248885190725
 20
-815.4379789752649
 30
0.0
 11
285.6248885190725
 21
-573.242291667304
 31
0.0
  0
LINE
  5
1A7D
330
1A6E
100
AcDbEntity
  8
0
 62
     0
370
    -2
100
AcDbLine
 10
832.8705427695966
 20
-574.492291667304
 30
0.0
 11
288.1248885190725
 21
-574.492291667304
 31
0.0
  0
SOLID
  5
1A7E
330
1A6E
100
AcDbEntity
  8
0
 62
     0
100
AcDbTrace
 10
832.8705427695966
 20
-574.0756250006374
 30
0.0
 11
832.8705427695966
 21
-574.9089583339706
 31
0.0
 12
835.3705427695969
 22
-574.492291667304
 32
0.0
 13
835.3705427695969
 23
-574.492291667304
 33
0.0
  0
SOLID
  5
1A7F
330
1A6E
100
AcDbEntity
  8
0
 62
     0
100
AcDbTrace
 10
288.1248885190725
 20
-574.0756250006374
 30
0.0
 11
288.1248885190725
 21
-574.9089583339706
 31
0.0
 12
285.6248885190725
 22
-574.492291667304
 32
0.0
 13
285.6248885190725
 23
-574.492291667304
 33
0.0
  0
MTEXT
  5
1A80
330
1A6E
100
AcDbEntity
  8
0
 62
     0
100
AcDbMText
 10
560.4977156443347
 20
-572.4089583339706
 30
0.0
 40
2.5
 41
0.0
 46
0.0
 71
     5
 72
     1
  1
549,75
 73
     1
 44
1.0
1001
ACAD
1000
MTEXTBEGIN
1070
    73
1070
     1
1070
    44
1040
1.0
1070
    74
1070
     0
1000
MTEXTEND
  0
POINT
  5
1A81
330
1A6E
100
AcDbEntity
  8
Defpoints
 62
     0
100
AcDbPoint
 10
835.3705427695967
 20
-1916.062978975265
 30
0.0
  0
POINT
  5
1A82
330
1A6E
100
AcDbEntity
  8
Defpoints
 62
     0
100
AcDbPoint
 10
285.6248885190725
 20
-816.0629789752649
 30
0.0
  0
POINT
  5
1A83
330
1A6E
100
AcDbEntity
  8
Defpoints
 62
     0
100
AcDbPoint
 10
285.6248885190725
 20
-574.492291667304
 30
0.0
  0
ENDBLK
  5
1A79
330
1A6E
100
AcDbEntity
  8
0
100
AcDbBlockEnd
  0
ENDSEC
  0
SECTION
  2
ENTITIES
  0
LINE
  5
136B
330
1F
100
AcDbEntity
  8
Hewi
  6
Continuous
100
AcDbLine
 10
882.1642085198018
 20
-2122.670835735451
 30
0.0000000000000003
 11
506.0947041885935
 21
-2122.670339050047
 31
0.0000000000000003
  0
LINE
  5
136C
330
1F
100
AcDbEntity
  8
Hewi
  6
Continuous
100
AcDbLine
 10
525.5577288440946
 20
-2122.670101482445
 30
0.0000000000000003
 11
506.0945090110769
 21
-2122.670101482445
 31
0.0000000000000003
  0
LINE
  5
136E
330
1F
100
AcDbEntity
  8
Hewi
  6
Continuous
100
AcDbLine
 10
512.1642085198039
 20
-2155.670101482445
 30
0.0000000000000003
 11
882.1642085198016
 21
-2155.670101482443
 31
0.0000000000000003
  0
LINE
  5
136F
330
1F
100
AcDbEntity
  8
Hewi
  6
Continuous
100
AcDbLine
 10
493.9642085198048
 20
-2114.308591219483
 30
0.0
 11
493.9642085198048
 21
-2078.670330722534
 31
0.0
  0
LINE
  5
1370
330
1F
100
AcDbEntity
  8
Hewi
  6
Continuous
100
AcDbLine
 10
475.9642085198048
 20
-2078.670653054428
 30
0.0
 11
475.9642085198048
 21
-2114.666703091896
 31
0.0
  0
LINE
  5
1371
330
1F
100
AcDbEntity
  8
Hewi
  6
Continuous
100
AcDbLine
 10
874.7098627703286
 20
-2076.670101482445
 30
0.0000000000000003
 11
874.7098627703286
 21
-2065.670101482445
 31
0.0000000000000003
  0
LINE
  5
1372
330
1F
100
AcDbEntity
  8
Hewi
  6
Continuous
100
AcDbLine
 10
794.7098627703286
 20
-2065.670101482445
 30
0.0000000000000003
 11
794.7098627703286
 21
-2076.670101482445
 31
0.0000000000000003
  0
LINE
  5
1373
330
1F
100
AcDbEntity
  8
Hewi
  6
Continuous
100
AcDbLine
 10
843.7098627703289
 20
-2122.663750184083
 30
0.0000000000000003
 11
843.7098627703289
 21
-2078.670531809413
 31
0.0000000000000003
  0
LINE
  5
1374
330
1F
100
AcDbEntity
  8
Hewi
  6
Continuous
100
AcDbLine
 10
825.7098627703289
 20
-2078.67047473149
 30
0.0000000000000003
 11
825.7098627703289
 21
-2122.670077403901
 31
0.0000000000000003
  0
LINE
  5
1375
330
1F
100
AcDbEntity
  8
Hewi
  6
Continuous
100
AcDbLine
 10
524.9642085198047
 20
-2076.670101482445
 30
0.0
 11
524.9642085198047
 21
-2065.670101482445
 31
0.0
  0
LINE
  5
1376
330
1F
100
AcDbEntity
  8
Hewi
  6
Continuous
100
AcDbLine
 10
444.9642085198047
 20
-2065.670101482445
 30
0.0
 11
444.9642085198047
 21
-2076.670101482445
 31
0.0
  0
LINE
  5
1379
330
1F
100
AcDbEntity
  8
Hewi
  6
Continuous
100
AcDbLine
 10
882.7748616883527
 20
-2122.670101482445
 30
0.0000000000000003
 11
882.6642085198018
 21
-2122.670101482445
 31
0.0000000000000003
  0
LINE
  5
137A
330
1F
100
AcDbEntity
  8
Hewi
  6
Continuous
100
AcDbLine
 10
882.6642085198018
 20
-2155.670101482445
 30
0.0000000000000003
 11
882.7748616883527
 21
-2155.670101482445
 31
0.0000000000000003
  0
LINE
  5
137B
330
1F
100
AcDbEntity
  8
Hewi
  6
Continuous
100
AcDbLine
 10
882.1642085198018
 20
-2139.170101482445
 30
0.0000000000000003
 11
882.1642085198018
 21
-2122.670101482445
 31
0.0000000000000003
  0
LINE
  5
137C
330
1F
100
AcDbEntity
  8
Hewi
  6
Continuous
100
AcDbLine
 10
882.1642085198018
 20
-2155.670101482445
 30
0.0000000000000003
 11
882.1642085198018
 21
-2139.170101482445
 31
0.0000000000000003
  0
LINE
  5
1380
330
1F
100
AcDbEntity
  8
Hewi
  6
Continuous
100
AcDbLine
 10
796.709862770329
 20
-2078.670101482445
 30
0.0000000000000003
 11
872.709862770329
 21
-2078.670101482445
 31
0.0000000000000003
  0
LINE
  5
1381
330
1F
100
AcDbEntity
  8
Hewi
  6
Continuous
100
AcDbLine
 10
794.7098627703286
 20
-2065.670101482445
 30
0.0000000000000003
 11
874.7098627703286
 21
-2065.670101482445
 31
0.0000000000000003
  0
LINE
  5
1382
330
1F
100
AcDbEntity
  8
Hewi
  6
Continuous
100
AcDbLine
 10
444.9642085198047
 20
-2065.670101482445
 30
0.0
 11
524.9642085198047
 21
-2065.670101482445
 31
0.0
  0
LINE
  5
1385
330
1F
100
AcDbEntity
  8
Hewi
  6
Continuous
100
AcDbLine
 10
446.9642085198047
 20
-2078.670101482445
 30
0.0
 11
522.9642085198048
 21
-2078.670101482445
 31
0.0
  0
LINE
  5
138E
330
1F
100
AcDbEntity
  8
Hewi
  6
Continuous
100
AcDbLine
 10
882.6642085198018
 20
-2155.670101482445
 30
0.0000000000000003
 11
882.6642085198018
 21
-2122.670101482445
 31
0.0000000000000003
  0
LINE
  5
138F
330
1F
100
AcDbEntity
  8
Hewi
100
AcDbLine
 10
882.8248885190696
 20
-1899.562978975265
 30
-0.0000000000000016
 11
533.4642085198048
 21
-1899.562978975265
 31
-0.0000000000000016
  0
LINE
  5
1390
330
1F
100
AcDbEntity
  8
Hewi
100
AcDbLine
 10
533.4642085198046
 20
-1932.562978975265
 30
0.0000000000000015
 11
882.8248885190696
 21
-1932.562978975267
 31
0.0000000000000014
  0
LINE
  5
1391
330
1F
100
AcDbEntity
  8
Hewi
100
AcDbLine
 10
832.9946257795818
 20
-1955.992316329772
 30
0.0000000000000003
 11
832.9963880137947
 21
-1956.104999268887
 31
0.0000000000000003
  0
LINE
  5
1392
330
1F
100
AcDbEntity
  8
Hewi
100
AcDbLine
 10
838.9956544252781
 20
-1956.011177501403
 30
0.0000000000000003
 11
838.9938925853494
 21
-1955.898519773757
 31
0.0000000000000003
  0
LINE
  5
1397
330
1F
100
AcDbEntity
  8
Hewi
100
AcDbLine
 10
833.5327194528654
 20
-1956.020735860796
 30
0.0000000000000003
 11
833.6097630104921
 21
-1956.095406775007
 31
0.0000000000000003
  0
LINE
  5
1398
330
1F
100
AcDbEntity
  8
Hewi
100
AcDbLine
 10
838.3822794285952
 20
-1956.020769995281
 30
0.0000000000000003
 11
838.4569503428064
 21
-1955.943726437655
 31
0.0000000000000003
  0
LINE
  5
139B
330
1F
100
AcDbEntity
  8
Hewi
100
AcDbLine
 10
883.4355416876205
 20
-1899.562978975265
 30
-0.0000000000000016
 11
883.3248885190696
 21
-1899.562978975265
 31
-0.0000000000000016
  0
LINE
  5
139C
330
1F
100
AcDbEntity
  8
Hewi
100
AcDbLine
 10
883.3248885190696
 20
-1932.562978975266
 30
0.0000000000000016
 11
883.4355416876205
 21
-1932.562978975266
 31
0.0000000000000016
  0
LINE
  5
139D
330
1F
100
AcDbEntity
  8
Hewi
100
AcDbLine
 10
833.6097630104921
 20
-1956.095406775007
 30
0.0000000000000003
 11
833.6085755787351
 21
-1956.019478559488
 31
0.0000000000000003
  0
LINE
  5
139E
330
1F
100
AcDbEntity
  8
Hewi
100
AcDbLine
 10
838.3822794285952
 20
-1956.020769995281
 30
0.0000000000000003
 11
838.3810919968528
 21
-1955.944841779762
 31
0.0000000000000003
  0
LINE
  5
13CB
330
1F
100
AcDbEntity
  8
Hewi
100
AcDbLine
 10
838.3822794285952
 20
-1956.020769995281
 30
0.0000000000000003
 11
833.6097630104921
 21
-1956.095406775007
 31
0.0000000000000003
  0
LINE
  5
13D3
330
1F
100
AcDbEntity
  8
Hewi
100
AcDbLine
 10
883.3248885190696
 20
-1932.562978975266
 30
0.0000000000000016
 11
883.3248885190696
 21
-1899.562978975265
 31
-0.0000000000000016
  0
ARC
  5
13DF
330
1F
100
AcDbEntity
  8
Hewi
  6
Continuous
100
AcDbCircle
 10
882.1642085198018
 20
-2155.170101482445
 30
0.0000000000000003
 40
0.5
100
AcDbArc
 50
270.0
 51
0.0
  0
ARC
  5
13E0
330
1F
100
AcDbEntity
  8
Hewi
  6
Continuous
100
AcDbCircle
 10
882.1642085198018
 20
-2123.170101482445
 30
0.0000000000000003
 40
0.5
100
AcDbArc
 50
0.0
 51
90.0
  0
ARC
  5
13E3
330
1F
100
AcDbEntity
  8
Hewi
  6
Continuous
100
AcDbCircle
 10
872.709862770329
 20
-2076.670101482445
 30
0.0000000000000003
 40
2.0
100
AcDbArc
 50
270.0
 51
0.0
  0
ARC
  5
13E4
330
1F
100
AcDbEntity
  8
Hewi
  6
Continuous
100
AcDbCircle
 10
796.709862770329
 20
-2076.670101482445
 30
0.0000000000000003
 40
2.0
100
AcDbArc
 50
180.0
 51
270.0
  0
ARC
  5
13E5
330
1F
100
AcDbEntity
  8
Hewi
  6
Continuous
100
AcDbCircle
 10
522.9642085198048
 20
-2076.670101482445
 30
0.0
 40
2.0
100
AcDbArc
 50
270.0
 51
0.0
  0
ARC
  5
13E6
330
1F
100
AcDbEntity
  8
Hewi
  6
Continuous
100
AcDbCircle
 10
446.9642085198047
 20
-2076.670101482445
 30
0.0
 40
2.0
100
AcDbArc
 50
180.0
 51
270.0
  0
ARC
  5
13EA
330
1F
100
AcDbEntity
  8
Hewi
  6
Continuous
100
AcDbCircle
 10
882.7748616883527
 20
-2154.470101482448
 30
0.0000000000000003
 40
1.199999999999999
100
AcDbArc
 50
270.0
 51
352.6004459106723
  0
ARC
  5
13EB
330
1F
100
AcDbEntity
  8
Hewi
  6
Continuous
100
AcDbCircle
 10
882.7748616883527
 20
-2123.870101482456
 30
0.0000000000000003
 40
1.199999999999999
100
AcDbArc
 50
7.399554089327725
 51
90.0
  0
ARC
  5
13EC
330
1F
100
AcDbEntity
  8
Hewi
  6
Continuous
100
AcDbCircle
 10
764.9642085198047
 20
-2139.170101482445
 30
0.0000000000000003
 40
120.0
100
AcDbArc
 50
352.6004459106723
 51
7.399554089327725
  0
ARC
  5
13ED
330
1F
100
AcDbEntity
  8
Hewi
100
AcDbCircle
 10
882.8248885190696
 20
-1932.062978975265
 30
0.0000000000000015
 40
0.5
100
AcDbArc
 50
270.0
 51
0.0
  0
ARC
  5
13EE
330
1F
100
AcDbEntity
  8
Hewi
100
AcDbCircle
 10
882.8248885190696
 20
-1900.062978975266
 30
-0.0000000000000015
 40
0.5
100
AcDbArc
 50
0.0
 51
90.0
  0
ARC
  5
13F4
330
1F
100
AcDbEntity
  8
Hewi
100
AcDbCircle
 10
883.4355416876205
 20
-1931.362978975253
 30
0.0000000000000015
 40
1.199999999999999
100
AcDbArc
 50
270.0
 51
352.6004459106723
  0
ARC
  5
13F5
330
1F
100
AcDbEntity
  8
Hewi
100
AcDbCircle
 10
883.4355416876205
 20
-1900.762978975263
 30
-0.0000000000000015
 40
1.199999999999999
100
AcDbArc
 50
7.39955408932773
 51
90.0
  0
ARC
  5
13F6
330
1F
100
AcDbEntity
  8
Hewi
100
AcDbCircle
 10
765.6248885190722
 20
-1916.062978975265
 30
0.0
 40
120.0
100
AcDbArc
 50
352.6004459106723
 51
7.39955408932773
  0
ARC
  5
13F7
330
1F
100
AcDbEntity
  8
Hewi
100
AcDbCircle
 10
-835.3705427695967
 20
-1916.062978975265
 30
0.0
 40
40.0
210
0.0
220
0.0
230
-1.0
100
AcDbArc
 50
89.99999875269006
 51
155.6381297070181
  0
ARC
  5
13F8
330
1F
100
AcDbEntity
  8
Hewi
100
AcDbCircle
 10
-835.3705427695967
 20
-1916.062978975265
 30
0.0
 40
40.0
210
0.0
220
0.0
230
-1.0
100
AcDbArc
 50
204.367505909317
 51
335.632509196797
  0
ARC
  5
13F9
330
1F
100
AcDbEntity
  8
Hewi
100
AcDbCircle
 10
-835.3705427695967
 20
-1916.062978975265
 30
0.0
 40
40.0
210
0.0
220
0.0
230
-1.0
100
AcDbArc
 50
24.36188212269672
 51
90.000013076744
  0
SPLINE
  5
1411
330
1F
100
AcDbEntity
  8
Hewi
  6
Continuous
100
AcDbSpline
210
0.0
220
0.0
230
1.0
 70
     8
 71
     3
 72
    14
 73
    10
 74
     0
 42
0.000000001
 43
0.0000000001
 40
0.0
 40
0.0
 40
0.0
 40
0.0
 40
0.2434469386710948
 40
0.2434469386710948
 40
0.4956312924473967
 40
0.4956312924473967
 40
0.7478156462236985
 40
0.7478156462236985
 40
1.0
 40
1.0
 40
1.0
 40
1.0
 10
825.7100888155747
 20
-2122.670364956629
 30
0.0000000000000003
 10
825.7217446800407
 20
-2122.670952329815
 30
0.0000000000000003
 10
826.6754866710451
 20
-2123.218966423005
 30
0.0000000000000003
 10
829.8183957404742
 20
-2124.50951406576
 30
0.0000000000000003
 10
832.1100916383347
 20
-2125.202932761773
 30
0.0000000000000003
 10
836.9209155771732
 20
-2125.221010003642
 30
0.0000000000000003
 10
839.2851363095742
 20
-2124.53183111251
 30
0.0000000000000003
 10
842.6129017436815
 20
-2123.216203670668
 30
0.0000000000000003
 10
843.6707743337375
 20
-2122.641737187785
 30
0.0000000000000003
 10
843.708762387561
 20
-2122.671325097583
 30
0.0000000000000003
  0
LINE
  5
1637
330
1F
100
AcDbEntity
  8
Hewi
  6
Continuous
100
AcDbLine
 10
843.7098627703289
 20
-2122.663750184083
 30
0.0000000000000003
 11
882.1642085198018
 21
-2122.663750184083
 31
0.0000000000000003
  0
LINE
  5
1682
330
1F
100
AcDbEntity
  8
Hewi
100
AcDbLine
 10
501.4642085198047
 20
-1867.562978975264
 30
0.0000000000000059
 11
501.4642085198034
 21
-1052.639580998721
 31
-0.0000000000000054
  0
LINE
  5
1683
330
1F
100
AcDbEntity
  8
Hewi
100
AcDbLine
 10
468.4642085198039
 20
-668.8629789752529
 30
0.0000000000000017
 11
468.4642085198039
 21
-944.639558454395
 31
0.0000000000000016
  0
LINE
  5
1684
330
1F
100
AcDbEntity
  8
Hewi
100
AcDbLine
 10
445.0388959708988
 20
-713.8740998600779
 30
0.0000000000000003
 11
444.9630659366569
 21
-713.9500028317499
 31
0.0000000000000003
  0
LINE
  5
1685
330
1F
100
AcDbEntity
  8
Hewi
100
AcDbLine
 10
444.9653603457018
 20
-718.723102280281
 30
0.0000000000000003
 11
445.0412633173598
 21
-718.7989323145237
 31
0.0000000000000003
  0
LINE
  5
1686
330
1F
100
AcDbEntity
  8
Hewi
100
AcDbLine
 10
445.0754677587588
 20
-713.336498729776
 30
0.0000000000000003
 11
444.9627710538389
 21
-713.336552902613
 31
0.0000000000000003
  0
LINE
  5
1687
330
1F
100
AcDbEntity
  8
Hewi
100
AcDbLine
 10
444.9656552285208
 20
-719.3365522094178
 30
0.0000000000000003
 11
445.0783267189009
 21
-719.336498048688
 31
0.0000000000000003
  0
LINE
  5
1688
330
1F
100
AcDbEntity
  8
Hewi
100
AcDbLine
 10
468.4642085198039
 20
-668.252325806717
 30
0.0000000000000016
 11
468.4642085198039
 21
-668.3629789752528
 31
0.0000000000000016
  0
LINE
  5
1689
330
1F
100
AcDbEntity
  8
Hewi
100
AcDbLine
 10
501.464208519804
 20
-668.3629789752528
 30
-0.0000000000000016
 11
501.464208519804
 21
-668.252325806717
 31
-0.0000000000000016
  0
LINE
  5
168A
330
1F
100
AcDbEntity
  8
Hewi
100
AcDbLine
 10
444.9630659366569
 20
-713.9500028317499
 30
0.0000000000000003
 11
445.0390034278878
 21
-713.9499663289107
 31
0.0000000000000003
  0
LINE
  5
168B
330
1F
100
AcDbEntity
  8
Hewi
100
AcDbLine
 10
444.9653603457018
 20
-718.723102280281
 30
0.0000000000000003
 11
445.041297836933
 21
-718.7230657774567
 31
0.0000000000000003
  0
LINE
  5
168C
330
1F
100
AcDbEntity
  8
Hewi
100
AcDbLine
 10
444.9653603457018
 20
-718.723102280281
 30
0.0000000000000003
 11
444.9630659366569
 21
-713.9500028317499
 31
0.0000000000000003
  0
LINE
  5
168D
330
1F
100
AcDbEntity
  8
Hewi
100
AcDbLine
 10
468.4642085198039
 20
-668.3629789752528
 30
0.0000000000000016
 11
501.464208519804
 21
-668.3629789752528
 31
-0.0000000000000016
  0
ARC
  5
168E
330
1F
100
AcDbEntity
  8
Hewi
100
AcDbCircle
 10
468.9642085198048
 20
-668.8629789752529
 30
0.0000000000000015
 40
0.5
100
AcDbArc
 50
90.0
 51
180.0
  0
ARC
  5
168F
330
1F
100
AcDbEntity
  8
Hewi
100
AcDbCircle
 10
500.9642085198038
 20
-668.8629789752529
 30
-0.0000000000000015
 40
0.5
100
AcDbArc
 50
0.0
 51
90.0
  0
ARC
  5
1690
330
1F
100
AcDbEntity
  8
Hewi
100
AcDbCircle
 10
500.2642085198067
 20
-668.252325806717
 30
-0.0000000000000015
 40
1.199999999999999
100
AcDbArc
 50
0.0
 51
82.6004459106724
  0
ARC
  5
1691
330
1F
100
AcDbEntity
  8
Hewi
100
AcDbCircle
 10
469.6642085198159
 20
-668.252325806717
 30
0.0000000000000015
 40
1.199999999999999
100
AcDbArc
 50
97.39955408932761
 51
180.0
  0
ARC
  5
1692
330
1F
100
AcDbEntity
  8
Hewi
100
AcDbCircle
 10
484.9642085198047
 20
-786.0629789752651
 30
0.0
 40
120.0
100
AcDbArc
 50
82.6004459106724
 51
97.39955408932761
  0
ARC
  5
1693
330
1F
100
AcDbEntity
  8
Hewi
100
AcDbCircle
 10
-484.9642085198047
 20
-716.3173247247258
 30
0.0
 40
40.0
210
0.0
220
0.0
230
-1.0
100
AcDbArc
 50
179.9999931814835
 51
245.6381241349077
  0
ARC
  5
1694
330
1F
100
AcDbEntity
  8
Hewi
100
AcDbCircle
 10
-484.9642085198047
 20
-716.3173247247258
 30
0.0
 40
40.0
210
0.0
220
0.0
230
-1.0
100
AcDbArc
 50
294.3675003378844
 51
65.63250362536589
  0
ARC
  5
1695
330
1F
100
AcDbEntity
  8
Hewi
100
AcDbCircle
 10
-484.9642085198047
 20
-716.3173247247258
 30
0.0
 40
40.0
210
0.0
220
0.0
230
-1.0
100
AcDbArc
 50
114.361876551515
 51
180.0000075055374
  0
ARC
  5
1754
330
1F
100
AcDbEntity
  8
Hewi
100
AcDbCircle
 10
533.4642085198048
 20
-1867.562978975264
 30
0.0000000000000059
 40
65.0
100
AcDbArc
 50
180.0
 51
270.0
  0
ARC
  5
1755
330
1F
100
AcDbEntity
  8
Hewi
100
AcDbCircle
 10
533.4642085198048
 20
-1867.562978975264
 30
0.0000000000000059
 40
32.0
100
AcDbArc
 50
180.0
 51
270.0
  0
ARC
  5
1761
330
1F
100
AcDbEntity
  8
Hewi
100
AcDbCircle
 10
484.9642085198047
 20
-1801.062978975265
 30
0.0
 40
40.0
100
AcDbArc
 50
114.3619779399813
 51
245.6380220600186
  0
ARC
  5
1762
330
1F
100
AcDbEntity
  8
Hewi
100
AcDbCircle
 10
484.9642085198047
 20
-1801.062978975265
 30
0.0
 40
40.0
100
AcDbArc
 50
294.3619779399796
 51
65.63802206002042
  0
CIRCLE
  5
1765
330
1F
100
AcDbEntity
  8
Hewi
100
AcDbCircle
 10
484.9642085198047
 20
-2139.119458450773
 30
0.0
 40
16.5
  0
LINE
  5
176B
330
1F
100
AcDbEntity
  8
Hewi
  6
Continuous
100
AcDbLine
 10
1020.397805661437
 20
-1876.062978975265
 30
0.0
 11
1009.397805661437
 21
-1876.062978975265
 31
0.0
  0
LINE
  5
176C
330
1F
100
AcDbEntity
  8
Hewi
  6
Continuous
100
AcDbLine
 10
1009.397805661437
 20
-1956.062978975265
 30
0.0
 11
1020.397805661437
 21
-1956.062978975265
 31
0.0
  0
LINE
  5
176D
330
1F
100
AcDbEntity
  8
Hewi
  6
Continuous
100
AcDbLine
 10
1066.391454363075
 20
-1907.062978975265
 30
0.0
 11
1022.398235988404
 21
-1907.062978975265
 31
0.0
  0
LINE
  5
176E
330
1F
100
AcDbEntity
  8
Hewi
  6
Continuous
100
AcDbLine
 10
1022.398178910481
 20
-1925.062978975265
 30
0.0
 11
1069.068488975497
 21
-1925.062978975265
 31
0.0
  0
LINE
  5
176F
330
1F
100
AcDbEntity
  8
Hewi
  6
Continuous
100
AcDbLine
 10
1022.397805661437
 20
-1954.062978975264
 30
0.0
 11
1022.397805661437
 21
-1878.062978975265
 31
0.0
  0
LINE
  5
1770
330
1F
100
AcDbEntity
  8
Hewi
  6
Continuous
100
AcDbLine
 10
1009.397805661437
 20
-1956.062978975265
 30
0.0
 11
1009.397805661437
 21
-1876.062978975265
 31
0.0
  0
ARC
  5
1771
330
1F
100
AcDbEntity
  8
Hewi
  6
Continuous
100
AcDbCircle
 10
1020.397805661437
 20
-1878.062978975265
 30
0.0
 40
2.0
100
AcDbArc
 50
0.0
 51
90.0
  0
ARC
  5
1772
330
1F
100
AcDbEntity
  8
Hewi
  6
Continuous
100
AcDbCircle
 10
1020.397805661437
 20
-1954.062978975264
 30
0.0
 40
2.0
100
AcDbArc
 50
270.0
 51
0.0
  0
LINE
  5
1775
330
1F
100
AcDbEntity
  8
Hewi
  6
Continuous
100
AcDbLine
 10
1020.397805661437
 20
-1761.062978975265
 30
0.0
 11
1009.397805661437
 21
-1761.062978975265
 31
0.0
  0
LINE
  5
1776
330
1F
100
AcDbEntity
  8
Hewi
  6
Continuous
100
AcDbLine
 10
1009.397805661437
 20
-1841.062978975265
 30
0.0
 11
1020.397805661437
 21
-1841.062978975265
 31
0.0
  0
LINE
  5
1777
330
1F
100
AcDbEntity
  8
Hewi
  6
Continuous
100
AcDbLine
 10
1066.391454363075
 20
-1792.062978975265
 30
0.0
 11
1022.398235988404
 21
-1792.062978975265
 31
0.0
  0
LINE
  5
1778
330
1F
100
AcDbEntity
  8
Hewi
  6
Continuous
100
AcDbLine
 10
1022.398178910481
 20
-1810.062978975265
 30
0.0
 11
1066.397781582892
 21
-1810.062978975265
 31
0.0
  0
LINE
  5
1779
330
1F
100
AcDbEntity
  8
Hewi
  6
Continuous
100
AcDbLine
 10
1022.397805661437
 20
-1839.062978975265
 30
0.0
 11
1022.397805661437
 21
-1763.062978975264
 31
0.0
  0
LINE
  5
177A
330
1F
100
AcDbEntity
  8
Hewi
  6
Continuous
100
AcDbLine
 10
1009.397805661437
 20
-1841.062978975265
 30
0.0
 11
1009.397805661437
 21
-1761.062978975265
 31
0.0
  0
ARC
  5
177B
330
1F
100
AcDbEntity
  8
Hewi
  6
Continuous
100
AcDbCircle
 10
1020.397805661437
 20
-1763.062978975264
 30
0.0
 40
2.0
100
AcDbArc
 50
0.0
 51
90.0
  0
ARC
  5
177C
330
1F
100
AcDbEntity
  8
Hewi
  6
Continuous
100
AcDbCircle
 10
1020.397805661437
 20
-1839.062978975265
 30
0.0
 40
2.0
100
AcDbArc
 50
270.0
 51
0.0
  0
SPLINE
  5
177D
330
1F
100
AcDbEntity
  8
Hewi
  6
Continuous
100
AcDbSpline
210
0.0
220
0.0
230
1.0
 70
     8
 71
     3
 72
    14
 73
    10
 74
     0
 42
0.000000001
 43
0.0000000001
 40
0.0
 40
0.0
 40
0.0
 40
0.0
 40
0.2434469386710948
 40
0.2434469386710948
 40
0.4956312924473967
 40
0.4956312924473967
 40
0.7478156462236985
 40
0.7478156462236985
 40
1.0
 40
1.0
 40
1.0
 40
1.0
 10
1066.39806913562
 20
-1810.062752930019
 30
0.0
 10
1066.398656508806
 20
-1810.051097065553
 30
0.0
 10
1066.946670601996
 20
-1809.097355074548
 30
0.0
 10
1068.237218244751
 20
-1805.954446005119
 30
0.0
 10
1068.930636940765
 20
-1803.662750107259
 30
0.0
 10
1068.948714182633
 20
-1798.851926168421
 30
0.0
 10
1068.259535291502
 20
-1796.487705436019
 30
0.0
 10
1066.943907849659
 20
-1793.159940001912
 30
0.0
 10
1066.369441366777
 20
-1792.102067411856
 30
0.0
 10
1066.399029276574
 20
-1792.064079358032
 30
0.0
  0
LINE
  5
177E
330
1F
100
AcDbEntity
  8
Hewi
  6
Continuous
100
AcDbLine
 10
1020.397805661437
 20
-676.3173299645789
 30
0.0
 11
1009.397805661437
 21
-676.3173299645789
 31
0.0
  0
LINE
  5
177F
330
1F
100
AcDbEntity
  8
Hewi
  6
Continuous
100
AcDbLine
 10
1009.397805661437
 20
-756.3173299645787
 30
0.0
 11
1020.397805661437
 21
-756.3173299645787
 31
0.0
  0
LINE
  5
1780
330
1F
100
AcDbEntity
  8
Hewi
  6
Continuous
100
AcDbLine
 10
1066.391454363075
 20
-707.3173299645788
 30
0.0
 11
1022.398235988404
 21
-707.3173299645788
 31
0.0
  0
LINE
  5
1781
330
1F
100
AcDbEntity
  8
Hewi
  6
Continuous
100
AcDbLine
 10
1022.398178910481
 20
-725.3173299645789
 30
0.0
 11
1066.397781582892
 21
-725.3173299645789
 31
0.0
  0
LINE
  5
1782
330
1F
100
AcDbEntity
  8
Hewi
  6
Continuous
100
AcDbLine
 10
1022.397805661437
 20
-754.3173299645786
 30
0.0
 11
1022.397805661437
 21
-678.3173299645786
 31
0.0
  0
LINE
  5
1783
330
1F
100
AcDbEntity
  8
Hewi
  6
Continuous
100
AcDbLine
 10
1009.397805661437
 20
-756.3173299645787
 30
0.0
 11
1009.397805661437
 21
-676.3173299645789
 31
0.0
  0
ARC
  5
1784
330
1F
100
AcDbEntity
  8
Hewi
  6
Continuous
100
AcDbCircle
 10
1020.397805661437
 20
-678.3173299645786
 30
0.0
 40
2.0
100
AcDbArc
 50
0.0
 51
90.0
  0
ARC
  5
1785
330
1F
100
AcDbEntity
  8
Hewi
  6
Continuous
100
AcDbCircle
 10
1020.397805661437
 20
-754.3173299645786
 30
0.0
 40
2.0
100
AcDbArc
 50
270.0
 51
0.0
  0
SPLINE
  5
1786
330
1F
100
AcDbEntity
  8
Hewi
  6
Continuous
100
AcDbSpline
210
0.0
220
0.0
230
1.0
 70
     8
 71
     3
 72
    14
 73
    10
 74
     0
 42
0.000000001
 43
0.0000000001
 40
0.0
 40
0.0
 40
0.0
 40
0.0
 40
0.2434469386710948
 40
0.2434469386710948
 40
0.4956312924473967
 40
0.4956312924473967
 40
0.7478156462236985
 40
0.7478156462236985
 40
1.0
 40
1.0
 40
1.0
 40
1.0
 10
1066.39806913562
 20
-725.3171039193339
 30
0.0
 10
1066.398656508806
 20
-725.305448054868
 30
0.0
 10
1066.946670601996
 20
-724.351706063863
 30
0.0
 10
1068.237218244751
 20
-721.2087969944342
 30
0.0
 10
1068.930636940765
 20
-718.9171010965739
 30
0.0
 10
1068.948714182633
 20
-714.1062771577347
 30
0.0
 10
1068.259535291502
 20
-711.7420564253341
 30
0.0
 10
1066.943907849659
 20
-708.414290991227
 30
0.0
 10
1066.369441366777
 20
-707.3564184011709
 30
0.0
 10
1066.399029276574
 20
-707.3184303473468
 30
0.0
  0
LINE
  5
1787
330
1F
100
AcDbEntity
  8
Hewi
100
AcDbLine
 10
1099.397805661438
 20
-1916.062978975265
 30
0.0000000000000076
 11
1099.397805661435
 21
-1052.651963536577
 31
-0.0000000000000041
  0
LINE
  5
1788
330
1F
100
AcDbEntity
  8
Hewi
100
AcDbLine
 10
1066.403194544637
 20
-668.7897680256847
 30
0.0
 11
1066.402609183842
 21
-707.344863467147
 31
0.0
  0
LINE
  5
1789
330
1F
100
AcDbEntity
  8
Hewi
100
AcDbLine
 10
1066.397805661437
 20
-668.252325806717
 30
0.0000000000000026
 11
1066.397805661437
 21
-668.3629789752528
 31
0.0000000000000026
  0
LINE
  5
178A
330
1F
100
AcDbEntity
  8
Hewi
100
AcDbLine
 10
1099.397805661437
 20
-668.3629789752528
 30
-0.0000000000000006
 11
1099.397805661437
 21
-668.252325806717
 31
-0.0000000000000006
  0
LINE
  5
178B
330
1F
100
AcDbEntity
  8
Hewi
100
AcDbLine
 10
1066.397805661437
 20
-668.3629789752528
 30
0.0000000000000026
 11
1099.397805661437
 21
-668.3629789752528
 31
-0.0000000000000006
  0
ARC
  5
178C
330
1F
100
AcDbEntity
  8
Hewi
100
AcDbCircle
 10
1066.897805661437
 20
-668.8629789752529
 30
0.0000000000000025
 40
0.5
100
AcDbArc
 50
90.0
 51
180.0
  0
ARC
  5
178D
330
1F
100
AcDbEntity
  8
Hewi
100
AcDbCircle
 10
1098.897805661437
 20
-668.8629789752529
 30
-0.0000000000000005
 40
0.5
100
AcDbArc
 50
0.0
 51
90.0
  0
ARC
  5
178E
330
1F
100
AcDbEntity
  8
Hewi
100
AcDbCircle
 10
1098.19780566144
 20
-668.252325806717
 30
-0.0000000000000005
 40
1.199999999999999
100
AcDbArc
 50
0.0
 51
82.6004459106724
  0
ARC
  5
178F
330
1F
100
AcDbEntity
  8
Hewi
100
AcDbCircle
 10
1067.597805661449
 20
-668.252325806717
 30
0.0000000000000025
 40
1.199999999999999
100
AcDbArc
 50
97.39955408932758
 51
180.0
  0
ARC
  5
1790
330
1F
100
AcDbEntity
  8
Hewi
100
AcDbCircle
 10
1082.897805661438
 20
-786.0629789752651
 30
0.000000000000001
 40
120.0
100
AcDbArc
 50
82.6004459106724
 51
97.39955408932758
  0
CIRCLE
  5
1792
330
1F
100
AcDbEntity
  8
Hewi
100
AcDbCircle
 10
1082.897805661437
 20
-1916.062978975265
 30
0.0
 40
16.5
  0
LINE
  5
1793
330
1F
100
AcDbEntity
  8
Hewi
100
AcDbLine
 10
1066.399029276574
 20
-707.3184303473468
 30
0.0
 11
1066.399029276574
 21
-668.897937778186
 31
0.0
  0
LINE
  5
1794
330
1F
100
AcDbEntity
  8
Hewi
100
AcDbLine
 10
1066.397781582892
 20
-1810.062978975265
 30
0.0
 11
1066.397805661437
 21
-1916.062978975265
 31
0.0
  0
LINE
  5
179E
330
1F
100
AcDbEntity
  8
Hewi
  6
Continuous
100
AcDbLine
 10
68.25328512884789
 20
-1876.062978975265
 30
0.0
 11
79.25328512884789
 21
-1876.062978975265
 31
0.0
  0
LINE
  5
179F
330
1F
100
AcDbEntity
  8
Hewi
  6
Continuous
100
AcDbLine
 10
79.25328512884789
 20
-1956.062978975265
 30
0.0
 11
68.25328512884789
 21
-1956.062978975265
 31
0.0
  0
LINE
  5
17A0
330
1F
100
AcDbEntity
  8
Hewi
  6
Continuous
100
AcDbLine
 10
22.2596364272099
 20
-1907.062978975265
 30
0.0
 11
66.2528548018804
 21
-1907.062978975265
 31
0.0
  0
LINE
  5
17A1
330
1F
100
AcDbEntity
  8
Hewi
  6
Continuous
100
AcDbLine
 10
66.25291187980337
 20
-1925.062978975265
 30
0.0
 11
19.58260181478715
 21
-1925.062978975265
 31
0.0
  0
LINE
  5
17A2
330
1F
100
AcDbEntity
  8
Hewi
  6
Continuous
100
AcDbLine
 10
66.25328512884789
 20
-1954.062978975264
 30
0.0
 11
66.25328512884789
 21
-1878.062978975265
 31
0.0
  0
LINE
  5
17A3
330
1F
100
AcDbEntity
  8
Hewi
  6
Continuous
100
AcDbLine
 10
79.25328512884789
 20
-1956.062978975265
 30
0.0
 11
79.25328512884789
 21
-1876.062978975265
 31
0.0
  0
ARC
  5
17A4
330
1F
100
AcDbEntity
  8
Hewi
  6
Continuous
100
AcDbCircle
 10
68.25328512884789
 20
-1878.062978975265
 30
0.0
 40
2.0
100
AcDbArc
 50
90.0
 51
180.0
  0
ARC
  5
17A5
330
1F
100
AcDbEntity
  8
Hewi
  6
Continuous
100
AcDbCircle
 10
68.25328512884789
 20
-1954.062978975264
 30
0.0
 40
2.0
100
AcDbArc
 50
180.0
 51
270.0
  0
LINE
  5
17A6
330
1F
100
AcDbEntity
  8
Hewi
  6
Continuous
100
AcDbLine
 10
68.25328512884789
 20
-1761.062978975265
 30
0.0
 11
79.25328512884789
 21
-1761.062978975265
 31
0.0
  0
LINE
  5
17A7
330
1F
100
AcDbEntity
  8
Hewi
  6
Continuous
100
AcDbLine
 10
79.25328512884789
 20
-1841.062978975265
 30
0.0
 11
68.25328512884789
 21
-1841.062978975265
 31
0.0
  0
LINE
  5
17A8
330
1F
100
AcDbEntity
  8
Hewi
  6
Continuous
100
AcDbLine
 10
22.2596364272099
 20
-1792.062978975265
 30
0.0
 11
66.2528548018804
 21
-1792.062978975265
 31
0.0
  0
LINE
  5
17A9
330
1F
100
AcDbEntity
  8
Hewi
  6
Continuous
100
AcDbLine
 10
66.25291187980337
 20
-1810.062978975265
 30
0.0
 11
22.25330920739271
 21
-1810.062978975265
 31
0.0
  0
LINE
  5
17AA
330
1F
100
AcDbEntity
  8
Hewi
  6
Continuous
100
AcDbLine
 10
66.25328512884789
 20
-1839.062978975265
 30
0.0
 11
66.25328512884789
 21
-1763.062978975264
 31
0.0
  0
LINE
  5
17AB
330
1F
100
AcDbEntity
  8
Hewi
  6
Continuous
100
AcDbLine
 10
79.25328512884789
 20
-1841.062978975265
 30
0.0
 11
79.25328512884789
 21
-1761.062978975265
 31
0.0
  0
ARC
  5
17AC
330
1F
100
AcDbEntity
  8
Hewi
  6
Continuous
100
AcDbCircle
 10
68.25328512884789
 20
-1763.062978975264
 30
0.0
 40
2.0
100
AcDbArc
 50
90.0
 51
180.0
  0
ARC
  5
17AD
330
1F
100
AcDbEntity
  8
Hewi
  6
Continuous
100
AcDbCircle
 10
68.25328512884789
 20
-1839.062978975265
 30
0.0
 40
2.0
100
AcDbArc
 50
180.0
 51
270.0
  0
SPLINE
  5
17AE
330
1F
100
AcDbEntity
  8
Hewi
  6
Continuous
100
AcDbSpline
210
0.0
220
0.0
230
1.0
 70
     8
 71
     3
 72
    14
 73
    10
 74
     0
 42
0.000000001
 43
0.0000000001
 40
0.0
 40
0.0
 40
0.0
 40
0.0
 40
0.2434469386710948
 40
0.2434469386710948
 40
0.4956312924473967
 40
0.4956312924473967
 40
0.7478156462236985
 40
0.7478156462236985
 40
1.0
 40
1.0
 40
1.0
 40
1.0
 10
22.25302165466473
 20
-1810.062752930019
 30
0.0
 10
22.2524342814786
 20
-1810.051097065553
 30
0.0
 10
21.70442018828862
 20
-1809.097355074548
 30
0.0
 10
20.41387254553365
 20
-1805.954446005119
 30
0.0
 10
19.7204538495198
 20
-1803.662750107259
 30
0.0
 10
19.70237660765178
 20
-1798.851926168421
 30
0.0
 10
20.39155549878296
 20
-1796.487705436019
 30
0.0
 10
21.70718294062544
 20
-1793.159940001912
 30
0.0
 10
22.28164942350804
 20
-1792.102067411856
 30
0.0
 10
22.25206151371049
 20
-1792.064079358032
 30
0.0
  0
LINE
  5
17AF
330
1F
100
AcDbEntity
  8
Hewi
  6
Continuous
100
AcDbLine
 10
68.25328512884789
 20
-676.3173299645789
 30
0.0
 11
79.25328512884789
 21
-676.3173299645789
 31
0.0
  0
LINE
  5
17B0
330
1F
100
AcDbEntity
  8
Hewi
  6
Continuous
100
AcDbLine
 10
79.25328512884789
 20
-756.3173299645787
 30
0.0
 11
68.25328512884789
 21
-756.3173299645787
 31
0.0
  0
LINE
  5
17B1
330
1F
100
AcDbEntity
  8
Hewi
  6
Continuous
100
AcDbLine
 10
22.2596364272099
 20
-707.3173299645788
 30
0.0
 11
66.2528548018804
 21
-707.3173299645788
 31
0.0
  0
LINE
  5
17B2
330
1F
100
AcDbEntity
  8
Hewi
  6
Continuous
100
AcDbLine
 10
66.25291187980337
 20
-725.3173299645789
 30
0.0
 11
22.25330920739271
 21
-725.3173299645789
 31
0.0
  0
LINE
  5
17B3
330
1F
100
AcDbEntity
  8
Hewi
  6
Continuous
100
AcDbLine
 10
66.25328512884789
 20
-754.3173299645786
 30
0.0
 11
66.25328512884789
 21
-678.3173299645786
 31
0.0
  0
LINE
  5
17B4
330
1F
100
AcDbEntity
  8
Hewi
  6
Continuous
100
AcDbLine
 10
79.25328512884789
 20
-756.3173299645787
 30
0.0
 11
79.25328512884789
 21
-676.3173299645789
 31
0.0
  0
ARC
  5
17B5
330
1F
100
AcDbEntity
  8
Hewi
  6
Continuous
100
AcDbCircle
 10
68.25328512884789
 20
-678.3173299645786
 30
0.0
 40
2.0
100
AcDbArc
 50
90.0
 51
180.0
  0
ARC
  5
17B6
330
1F
100
AcDbEntity
  8
Hewi
  6
Continuous
100
AcDbCircle
 10
68.25328512884789
 20
-754.3173299645786
 30
0.0
 40
2.0
100
AcDbArc
 50
180.0
 51
270.0
  0
SPLINE
  5
17B7
330
1F
100
AcDbEntity
  8
Hewi
  6
Continuous
100
AcDbSpline
210
0.0
220
0.0
230
1.0
 70
     8
 71
     3
 72
    14
 73
    10
 74
     0
 42
0.000000001
 43
0.0000000001
 40
0.0
 40
0.0
 40
0.0
 40
0.0
 40
0.2434469386710948
 40
0.2434469386710948
 40
0.4956312924473967
 40
0.4956312924473967
 40
0.7478156462236985
 40
0.7478156462236985
 40
1.0
 40
1.0
 40
1.0
 40
1.0
 10
22.25302165466473
 20
-725.3171039193339
 30
0.0
 10
22.2524342814786
 20
-725.305448054868
 30
0.0
 10
21.70442018828862
 20
-724.351706063863
 30
0.0
 10
20.41387254553365
 20
-721.2087969944342
 30
0.0
 10
19.7204538495198
 20
-718.9171010965739
 30
0.0
 10
19.70237660765178
 20
-714.1062771577347
 30
0.0
 10
20.39155549878296
 20
-711.7420564253341
 30
0.0
 10
21.70718294062544
 20
-708.414290991227
 30
0.0
 10
22.28164942350804
 20
-707.3564184011709
 30
0.0
 10
22.25206151371049
 20
-707.3184303473468
 30
0.0
  0
LINE
  5
17B8
330
1F
100
AcDbEntity
  8
Hewi
100
AcDbLine
 10
-10.74671487115313
 20
-1916.062978975265
 30
0.0000000000000076
 11
-10.74671487115163
 21
-1052.651963536577
 31
-0.0000000000000041
  0
LINE
  5
17B9
330
1F
100
AcDbEntity
  8
Hewi
100
AcDbLine
 10
22.24789624564822
 20
-668.7897680256847
 30
0.0
 11
22.24848160644205
 21
-707.3448634671462
 31
0.0
  0
LINE
  5
17BA
330
1F
100
AcDbEntity
  8
Hewi
100
AcDbLine
 10
22.25328512884789
 20
-668.252325806717
 30
0.0000000000000026
 11
22.25328512884789
 21
-668.3629789752528
 31
0.0000000000000026
  0
LINE
  5
17BB
330
1F
100
AcDbEntity
  8
Hewi
100
AcDbLine
 10
-10.7467148711521
 20
-668.3629789752528
 30
-0.0000000000000006
 11
-10.7467148711521
 21
-668.252325806717
 31
-0.0000000000000006
  0
LINE
  5
17BC
330
1F
100
AcDbEntity
  8
Hewi
100
AcDbLine
 10
22.25328512884789
 20
-668.3629789752528
 30
0.0000000000000026
 11
-10.7467148711521
 21
-668.3629789752528
 31
-0.0000000000000006
  0
ARC
  5
17BD
330
1F
100
AcDbEntity
  8
Hewi
100
AcDbCircle
 10
21.75328512884698
 20
-668.8629789752529
 30
0.0000000000000025
 40
0.5
100
AcDbArc
 50
0.0
 51
90.0
  0
ARC
  5
17BE
330
1F
100
AcDbEntity
  8
Hewi
100
AcDbCircle
 10
-10.2467148711521
 20
-668.8629789752529
 30
-0.0000000000000005
 40
0.5
100
AcDbArc
 50
90.0
 51
180.0
  0
ARC
  5
17BF
330
1F
100
AcDbEntity
  8
Hewi
100
AcDbCircle
 10
-9.546714871155018
 20
-668.252325806717
 30
-0.0000000000000005
 40
1.199999999999999
100
AcDbArc
 50
97.39955408932758
 51
180.0
  0
ARC
  5
17C0
330
1F
100
AcDbEntity
  8
Hewi
100
AcDbCircle
 10
21.0532851288358
 20
-668.252325806717
 30
0.0000000000000025
 40
1.199999999999999
100
AcDbArc
 50
0.0
 51
82.60044591067241
  0
ARC
  5
17C1
330
1F
100
AcDbEntity
  8
Hewi
100
AcDbCircle
 10
5.753285128846982
 20
-786.0629789752651
 30
0.000000000000001
 40
120.0
100
AcDbArc
 50
82.60044591067241
 51
97.39955408932758
  0
ARC
  5
17C2
330
1F
100
AcDbEntity
  8
Hewi
100
AcDbCircle
 10
5.753285128847892
 20
-1916.062978975265
 30
0.0
 40
16.5
100
AcDbArc
 50
180.0
 51
0.0
  0
LINE
  5
17C3
330
1F
100
AcDbEntity
  8
Hewi
100
AcDbLine
 10
22.25206151371049
 20
-707.3184303473468
 30
0.0
 11
22.25206151371049
 21
-668.897937778186
 31
0.0
  0
LINE
  5
17C4
330
1F
100
AcDbEntity
  8
Hewi
100
AcDbLine
 10
22.25330920739271
 20
-1810.062978975265
 30
0.0
 11
22.25328512884789
 21
-1916.062978975265
 31
0.0
  0
ARC
  5
17C5
330
1F
100
AcDbEntity
  8
Hewi
100
AcDbCircle
 10
5.753285128847892
 20
-1916.062978975265
 30
0.0
 40
16.5
100
AcDbArc
 50
180.0
 51
0.0
  0
LINE
  5
17C6
330
1F
100
AcDbEntity
  8
Hewi
100
AcDbLine
 10
22.25328512884789
 20
-1916.062978975265
 30
0.000000000000003
 11
22.25328512884789
 21
-1867.562978975264
 31
0.000000000000003
210
0.0
220
1.0
230
0.0
  0
LINE
  5
17C7
330
1F
100
AcDbEntity
  8
Hewi
100
AcDbLine
 10
-10.7467148711521
 20
-1867.562978975264
 30
-0.000000000000003
 11
-10.7467148711521
 21
-1916.062978975265
 31
-0.000000000000003
210
0.0
220
1.0
230
0.0
  0
LINE
  5
17DA
330
1F
100
AcDbEntity
  8
Hewi
100
AcDbLine
 10
22.24789624564822
 20
-668.7897680256847
 30
0.0
 11
22.25211487443069
 21
-946.6519635366001
 31
0.0
  0
LINE
  5
17DB
330
1F
100
AcDbEntity
  8
Hewi
100
AcDbLine
 10
1066.402336458216
 20
-725.3080798185109
 30
0.0
 11
1066.398975915854
 21
-946.6519635366001
 31
0.0
  0
LINE
  5
190B
330
1F
100
AcDbEntity
  8
Hewi
100
AcDbLine
 10
460.8646375525022
 20
-984.6395809987338
 30
-0.000000000000003
 11
452.3646375525022
 21
-984.6395809987338
 31
-0.000000000000004
210
0.0
220
1.0
230
0.0
  0
LINE
  5
190C
330
1F
100
AcDbEntity
  8
Hewi
100
AcDbLine
 10
460.8646375525022
 20
-944.6395809987338
 30
-0.000000000000003
 11
452.3646375525022
 21
-944.6395809987338
 31
-0.000000000000004
210
0.0
220
1.0
230
0.0
  0
ARC
  5
190D
330
1F
100
AcDbEntity
  8
Hewi
100
AcDbCircle
 10
427.7146375525035
 20
-945.639580998721
 30
-0.0000000000000071
 40
0.9999999999999998
100
AcDbArc
 50
90.0
 51
180.0
  0
ARC
  5
190E
330
1F
100
AcDbEntity
  8
Hewi
100
AcDbCircle
 10
427.7146375525035
 20
-983.6395809987218
 30
-0.0000000000000071
 40
0.9999999999999998
100
AcDbArc
 50
180.0
 51
270.0
  0
SPLINE
  5
190F
330
1F
100
AcDbEntity
  8
Hewi
100
AcDbSpline
210
0.0000000000000011
220
-0.0000000000000011
230
1.0
 70
     8
 71
     3
 72
    10
 73
     6
 74
     0
 42
0.000000001
 43
0.0000000001
 40
0.5238557413344813
 40
0.5238557413344813
 40
0.5238557413344813
 40
0.5238557413344813
 40
3.344927373450713
 40
3.344927373450713
 40
3.375545046730997
 40
3.375545046730997
 40
3.375545046730997
 40
3.375545046730997
 10
427.484635881111
 20
-960.876099721934
 30
-0.0000000000000071
 10
428.0826967310551
 20
-960.161942648931
 30
-0.000000000000007
 10
428.6947451632341
 20
-959.4653828521499
 30
-0.0000000000000069
 10
429.3230050991078
 20
-958.7815309899148
 30
-0.0000000000000069
 10
429.3297517609115
 20
-958.7741909214861
 30
-0.0000000000000069
 10
429.3364996541876
 20
-958.7668530853159
 30
-0.0000000000000069
  0
SPLINE
  5
1910
330
1F
100
AcDbEntity
  8
Hewi
100
AcDbSpline
210
-0.0000000000000002
220
0.0000000000000001
230
1.0
 70
     8
 71
     3
 72
    18
 73
    14
 74
     0
 42
0.000000001
 43
0.0000000001
 40
1.6540747858433
 40
1.6540747858433
 40
1.6540747858433
 40
1.6540747858433
 40
1.715582394495875
 40
1.715582394495875
 40
1.902970208297488
 40
1.902970208297488
 40
2.031734176382974
 40
2.031734176382974
 40
2.255265245202036
 40
2.255265245202036
 40
2.814065234951959
 40
2.814065234951959
 40
3.138692671095101
 40
3.138692671095101
 40
3.138692671095101
 40
3.138692671095101
 10
429.3364994794646
 20
-958.766852958878
 30
-0.0000000000000069
 10
429.3501710777611
 20
-958.7519861569189
 30
-0.0000000000000069
 10
429.3639767954292
 20
-958.7373381297121
 30
-0.0000000000000069
 10
429.4203043509952
 20
-958.678986835044
 30
-0.0000000000000069
 10
429.4638414835135
 20
-958.637097590072
 30
-0.0000000000000068
 10
429.5384360992139
 20
-958.5702614089841
 30
-0.0000000000000068
 10
429.5691745132899
 20
-958.544080839561
 30
-0.0000000000000068
 10
429.6539343190552
 20
-958.4754929253561
 30
-0.0000000000000068
 10
429.7085435617919
 20
-958.435231486327
 30
-0.0000000000000068
 10
429.901038365103
 20
-958.3070818400399
 30
-0.0000000000000068
 10
430.0310391192597
 20
-958.244573717141
 30
-0.0000000000000068
 10
430.2199381944193
 20
-958.187605105245
 30
-0.0000000000000068
 10
430.2998340583599
 20
-958.1713408749608
 30
-0.0000000000000067
 10
430.3838892989171
 20
-958.1713710810909
 30
-0.0000000000000067
  0
SPLINE
  5
1911
330
1F
100
AcDbEntity
  8
Hewi
100
AcDbSpline
210
-0.0000000000000003
220
0.0000000000000001
230
1.0
 70
     8
 71
     3
 72
    24
 73
    20
 74
     0
 42
0.000000001
 43
0.0000000001
 40
0.0
 40
0.0
 40
0.0
 40
0.0
 40
0.0756974007302869
 40
0.0756974007302869
 40
0.2789853411804089
 40
0.2789853411804089
 40
0.3497529015458669
 40
0.3497529015458669
 40
0.5919349001703657
 40
0.5919349001703657
 40
1.276514795648737
 40
1.276514795648737
 40
1.476316936862741
 40
1.476316936862741
 40
1.827563147716625
 40
1.827563147716625
 40
1.910592365237698
 40
1.910592365237698
 40
1.954297335670274
 40
1.954297335670274
 40
1.954297335670274
 40
1.954297335670274
 10
426.7146375525035
 20
-962.5478209966802
 30
-0.0000000000000072
 10
426.7146375525035
 20
-962.5267314799309
 30
-0.0000000000000072
 10
426.7154000861829
 20
-962.5055600978148
 30
-0.0000000000000072
 10
426.7205954127923
 20
-962.4275311017029
 30
-0.0000000000000072
 10
426.7290335711527
 20
-962.369950984139
 30
-0.0000000000000072
 10
426.7449314301638
 20
-962.2916060242379
 30
-0.0000000000000072
 10
426.749449083557
 20
-962.2713138323211
 30
-0.0000000000000072
 10
426.7710861569967
 20
-962.181341718567
 30
-0.0000000000000072
 10
426.7922128573798
 20
-962.1109584303219
 30
-0.0000000000000072
 10
426.8859867938609
 20
-961.8403529384529
 30
-0.0000000000000072
 10
426.9830923345671
 20
-961.6344942949549
 30
-0.0000000000000072
 10
427.1296764451518
 20
-961.3791703053609
 30
-0.0000000000000071
 10
427.1644048877906
 20
-961.321871716184
 30
-0.0000000000000071
 10
427.2641073854102
 20
-961.1660219067038
 30
-0.0000000000000071
 10
427.3325051684679
 20
-961.068392831889
 30
-0.0000000000000071
 10
427.42185691545
 20
-960.953212844832
 30
-0.0000000000000071
 10
427.4391801386847
 20
-960.931412801696
 30
-0.0000000000000071
 10
427.4659677832449
 20
-960.8985461934031
 30
-0.0000000000000071
 10
427.4752704916872
 20
-960.8872836273469
 30
-0.0000000000000071
 10
427.4846360990541
 20
-960.876099979438
 30
-0.0000000000000071
  0
SPLINE
  5
1912
330
1F
100
AcDbEntity
  8
Hewi
100
AcDbSpline
210
-0.0000000000000001
220
0.0
230
1.0
 70
     8
 71
     3
 72
    20
 73
    16
 74
     0
 42
0.000000001
 43
0.0000000001
 40
1.736023434719105
 40
1.736023434719105
 40
1.736023434719105
 40
1.736023434719105
 40
4.481724718716971
 40
4.481724718716971
 40
8.494256553288714
 40
8.494256553288714
 40
12.2302098530054
 40
12.2302098530054
 40
16.0190034065687
 40
16.0190034065687
 40
20.63191901924623
 40
20.63191901924623
 40
24.55726384241274
 40
24.55726384241274
 40
27.09366019960931
 40
27.09366019960931
 40
27.09366019960931
 40
27.09366019960931
 10
431.839788713648
 20
-958.4761063335891
 30
-0.0000000000000066
 10
432.5349617968923
 20
-959.0438642176779
 30
-0.0000000000000065
 10
433.2938120370327
 20
-959.5488900140368
 30
-0.0000000000000064
 10
435.2856817457996
 20
-960.5645023769259
 30
-0.0000000000000061
 10
436.5648676844467
 20
-960.9625468078091
 30
-0.000000000000006
 10
439.1399942015341
 20
-961.1867108778978
 30
-0.0000000000000057
 10
440.3689774504556
 20
-961.04539873636
 30
-0.0000000000000055
 10
442.7620568037928
 20
-960.311750200335
 30
-0.0000000000000052
 10
443.8889773696128
 20
-959.724668572316
 30
-0.0000000000000051
 10
446.1334902723284
 20
-958.1221750281549
 30
-0.0000000000000048
 10
447.2036106656005
 20
-957.0371563586888
 30
-0.0000000000000047
 10
448.7554788263369
 20
-954.895776762466
 30
-0.0000000000000045
 10
449.2979392076768
 20
-953.8641412297829
 30
-0.0000000000000044
 10
449.8452470302227
 20
-952.205325787934
 30
-0.0000000000000044
 10
449.9682918761773
 20
-951.5768657742849
 30
-0.0000000000000043
 10
449.9975240118356
 20
-950.9839329489167
 30
-0.0000000000000043
  0
SPLINE
  5
1913
330
1F
100
AcDbEntity
  8
Hewi
100
AcDbSpline
210
-0.0000000000000006
220
-0.0000000000000013
230
1.0
 70
     8
 71
     3
 72
    18
 73
    14
 74
     0
 42
0.000000001
 43
0.0000000001
 40
0.203900170074742
 40
0.203900170074742
 40
0.203900170074742
 40
0.203900170074742
 40
0.4140914887330024
 40
0.4140914887330024
 40
0.5531594004291947
 40
0.5531594004291947
 40
0.9342624836064976
 40
0.9342624836064976
 40
1.058715851533574
 40
1.058715851533574
 40
1.209079349970967
 40
1.209079349970967
 40
1.267392488679218
 40
1.267392488679218
 40
1.267392488679218
 40
1.267392488679218
 10
431.0364111605824
 20
-958.171286843798
 30
-0.0000000000000067
 10
431.0847897184312
 20
-958.1712796127559
 30
-0.0000000000000066
 10
431.1307265782025
 20
-958.1768367538959
 30
-0.0000000000000066
 10
431.1979885126275
 20
-958.188639113408
 30
-0.0000000000000066
 10
431.2249294816821
 20
-958.194524195944
 30
-0.0000000000000066
 10
431.3261320830398
 20
-958.2202632471272
 30
-0.0000000000000066
 10
431.4016066580225
 20
-958.2465939270772
 30
-0.0000000000000066
 10
431.5036863901724
 20
-958.288691555359
 30
-0.0000000000000066
 10
431.5289443764101
 20
-958.2996320929849
 30
-0.0000000000000066
 10
431.5849755396794
 20
-958.3249493656639
 30
-0.0000000000000066
 10
431.6158062512505
 20
-958.3395689948108
 30
-0.0000000000000066
 10
431.6587886233329
 20
-958.3608117809289
 30
-0.0000000000000066
 10
431.6708216365169
 20
-958.3668517977748
 30
-0.0000000000000066
 10
431.6828741882428
 20
-958.3729914086671
 30
-0.0000000000000066
  0
SPLINE
  5
1914
330
1F
100
AcDbEntity
  8
Hewi
100
AcDbSpline
210
0.0
220
0.0
230
1.0
 70
     8
 71
     3
 72
    24
 73
    20
 74
     0
 42
0.000000001
 43
0.0000000001
 40
0.0
 40
0.0
 40
0.0
 40
0.0
 40
0.0069048149749769
 40
0.0069048149749769
 40
0.0247659649317762
 40
0.0247659649317762
 40
0.0545552763944881
 40
0.0545552763944881
 40
0.0643559091378874
 40
0.0643559091378874
 40
0.0859949234863203
 40
0.0859949234863203
 40
0.1473005450050084
 40
0.1473005450050084
 40
0.1844538307831443
 40
0.1844538307831443
 40
0.2059422517223871
 40
0.2059422517223871
 40
0.2061965395260138
 40
0.2061965395260138
 40
0.2061965395260138
 40
0.2061965395260138
 10
431.6828741882264
 20
-958.3729914086591
 30
-0.0000000000000066
 10
431.6847625119035
 20
-958.37395332717
 30
-0.0000000000000066
 10
431.6866462504895
 20
-958.3749219575429
 30
-0.0000000000000066
 10
431.6933862635278
 20
-958.378420103555
 30
-0.0000000000000066
 10
431.6982164496876
 20
-958.380987600058
 30
-0.0000000000000066
 10
431.7110205251629
 20
-958.3879543891722
 30
-0.0000000000000066
 10
431.7189393269018
 20
-958.392431756456
 30
-0.0000000000000066
 10
431.7293506651629
 20
-958.398540427439
 30
-0.0000000000000066
 10
431.7319187676301
 20
-958.4000654916369
 30
-0.0000000000000066
 10
431.7401275188951
 20
-958.4049986578039
 30
-0.0000000000000066
 10
431.7457320645144
 20
-958.408455873022
 30
-0.0000000000000066
 10
431.7670445594457
 20
-958.4219411237191
 30
-0.0000000000000066
 10
431.7824268946663
 20
-958.4323884550469
 30
-0.0000000000000066
 10
431.8065863755289
 20
-958.449907958696
 30
-0.0000000000000066
 10
431.8155716074771
 20
-958.4566834669802
 30
-0.0000000000000066
 10
431.8295597543412
 20
-958.4676308207651
 30
-0.0000000000000066
 10
431.8346431222244
 20
-958.4716949447699
 30
-0.0000000000000066
 10
431.8397455517135
 20
-958.4758595607562
 30
-0.0000000000000066
 10
431.8398052203882
 20
-958.4759082743749
 30
-0.0000000000000066
 10
431.8398648832284
 20
-958.4759569951209
 30
-0.0000000000000066
  0
LINE
  5
1915
330
1F
100
AcDbEntity
  8
Hewi
100
AcDbLine
 10
452.2146375525031
 20
-947.239580998721
 30
-0.0000000000000041
 11
452.3646375525022
 21
-947.239580998721
 31
-0.000000000000004
210
0.0
220
1.0
230
0.0
  0
LINE
  5
1916
330
1F
100
AcDbEntity
  8
Hewi
100
AcDbLine
 10
452.2146375525031
 20
-982.0395809987219
 30
-0.0000000000000041
 11
452.3646375525022
 21
-982.0395809987219
 31
-0.000000000000004
210
0.0
220
1.0
230
0.0
  0
LINE
  5
1917
330
1F
100
AcDbEntity
  8
Hewi
100
AcDbLine
 10
431.0364514899875
 20
-958.1713824632011
 30
-0.0000000000000067
 11
430.3838763680463
 21
-958.1713824632011
 31
-0.0000000000000067
210
0.0
220
1.0
230
0.0
  0
LINE
  5
1918
330
1F
100
AcDbEntity
  8
Hewi
100
AcDbLine
 10
427.7146375525035
 20
-944.6395809987208
 30
-0.0000000000000071
 11
452.2146375525031
 21
-944.6395809987208
 31
-0.0000000000000041
210
0.0
220
1.0
230
0.0
  0
LINE
  5
1919
330
1F
100
AcDbEntity
  8
Hewi
100
AcDbLine
 10
427.7146375525035
 20
-984.6395809987209
 30
-0.0000000000000071
 11
452.2146375525031
 21
-984.6395809987209
 31
-0.0000000000000041
210
0.0
220
1.0
230
0.0
  0
LINE
  5
191A
330
1F
100
AcDbEntity
  8
Hewi
100
AcDbLine
 10
452.3646375525022
 20
-944.6395809987338
 30
-0.000000000000004
 11
452.3646375525022
 21
-964.6395809987339
 31
-0.000000000000004
210
0.0
220
1.0
230
0.0
  0
LINE
  5
191B
330
1F
100
AcDbEntity
  8
Hewi
100
AcDbLine
 10
452.3646375525022
 20
-964.6395809987339
 30
-0.000000000000004
 11
452.3646375525022
 21
-984.6395809987338
 31
-0.000000000000004
210
0.0
220
1.0
230
0.0
  0
LINE
  5
191C
330
1F
100
AcDbEntity
  8
Hewi
100
AcDbLine
 10
452.2146375525031
 20
-944.6395809987208
 30
-0.0000000000000041
 11
452.2146375525031
 21
-950.4974453749909
 31
-0.0000000000000041
210
0.0
220
1.0
230
0.0
  0
LINE
  5
191D
330
1F
100
AcDbEntity
  8
Hewi
100
AcDbLine
 10
452.2146375525031
 20
-950.49744537499
 30
-0.0000000000000041
 11
452.2146375525031
 21
-984.6395809987209
 31
-0.0000000000000041
210
0.0
220
1.0
230
0.0
  0
LINE
  5
191E
330
1F
100
AcDbEntity
  8
Hewi
100
AcDbLine
 10
426.7146375525035
 20
-962.5478209966802
 30
-0.0000000000000072
 11
426.7146375525035
 21
-983.6395809987218
 31
-0.0000000000000072
210
0.0
220
1.0
230
0.0
  0
LINE
  5
191F
330
1F
100
AcDbEntity
  8
Hewi
100
AcDbLine
 10
426.7146375525035
 20
-945.7550757075081
 30
-0.0000000000000072
 11
426.7146375525035
 21
-962.5478209966802
 31
-0.0000000000000072
210
0.0
220
1.0
230
0.0
  0
LINE
  5
1920
330
1F
100
AcDbEntity
  8
Hewi
100
AcDbLine
 10
426.7146375525035
 20
-945.639580998721
 30
-0.0000000000000072
 11
426.7146375525035
 21
-945.7550757075081
 31
-0.0000000000000072
210
0.0
220
1.0
230
0.0
  0
SPLINE
  5
1921
330
1F
100
AcDbEntity
  8
Hewi
100
AcDbSpline
210
-0.0000000000000001
220
0.0
230
1.0
 70
     8
 71
     3
 72
    35
 73
    31
 74
     0
 42
0.000000001
 43
0.0000000001
 40
132.3072857087947
 40
132.3072857087947
 40
132.3072857087947
 40
132.3072857087947
 40
136.7855331456034
 40
136.7855331456034
 40
141.7555702341805
 40
141.7555702341805
 40
141.7555702341805
 40
150.5350853176014
 40
150.5350853176014
 40
159.3158069937373
 40
159.3158069937373
 40
168.101503115555
 40
168.101503115555
 40
176.8930034281827
 40
176.8930034281827
 40
185.6877688664844
 40
185.6877688664844
 40
194.4814480186283
 40
194.4814480186283
 40
203.2703476028081
 40
203.2703476028081
 40
212.0534605094508
 40
212.0534605094508
 40
220.8330910535008
 40
220.8330910535008
 40
229.6136189378029
 40
229.6136189378029
 40
238.398942885138
 40
238.398942885138
 40
241.1243396664151
 40
241.1243396664151
 40
241.1243396664151
 40
241.1243396664151
 10
470.0646375616424
 20
-1013.172287636075
 30
-0.0000000000000019
 10
468.9523384076633
 20
-1014.16404493636
 30
-0.000000000000002
 10
467.9413999635523
 20
-1015.263991062816
 30
-0.0000000000000021
 10
466.0543648826583
 20
-1017.7790128346
 30
-0.0000000000000024
 10
465.2113416379461
 20
-1019.207335795751
 30
-0.0000000000000025
 10
464.5333278653033
 20
-1020.715030685634
 30
-0.0000000000000026
 10
463.3356240981912
 20
-1023.378356892464
 30
-0.0000000000000027
 10
462.6707900690801
 20
-1026.249425967503
 30
-0.0000000000000028
 10
462.481886172894
 20
-1032.08472697807
 30
-0.0000000000000028
 10
462.9597862417563
 20
-1034.99298591804
 30
-0.0000000000000027
 10
465.0069194980233
 20
-1040.464830835597
 30
-0.0000000000000025
 10
466.5571240438053
 20
-1042.975722567139
 30
-0.0000000000000023
 10
470.5365446463152
 20
-1047.265025461221
 30
-0.0000000000000018
 10
472.9282248605741
 20
-1049.00187706488
 30
-0.0000000000000015
 10
478.2453838652752
 20
-1051.463879234813
 30
-0.0000000000000009
 10
481.1202747149132
 20
-1052.165142230896
 30
-0.0000000000000005
 10
486.9772211236152
 20
-1052.428981251948
 30
0.0000000000000003
 10
489.9034339739162
 20
-1051.989183019614
 30
0.0000000000000007
 10
495.4204357690271
 20
-1050.01606691213
 30
0.0000000000000013
 10
497.9588158028821
 20
-1048.502149682072
 30
0.0000000000000016
 10
502.3093239274492
 20
-1044.590276690126
 30
0.0000000000000022
 10
504.0803752402162
 20
-1042.230259794144
 30
0.0000000000000024
 10
506.615279984782
 20
-1036.966875670026
 30
0.0000000000000027
 10
507.3552536633111
 20
-1034.114121688347
 30
0.0000000000000028
 10
507.6972492933803
 20
-1028.285797866712
 30
0.0000000000000028
 10
507.2958726115972
 20
-1025.366130055027
 30
0.0000000000000028
 10
505.393156095765
 20
-1019.842892825605
 30
0.0000000000000026
 10
503.9094776261382
 20
-1017.292491288998
 30
0.0000000000000024
 10
501.3781403398211
 20
-1014.41647373983
 30
0.0000000000000021
 10
500.7392091715963
 20
-1013.773757634227
 30
0.000000000000002
 10
500.0646339282532
 20
-1013.172291694027
 30
0.0000000000000019
  0
ARC
  5
1922
330
1F
100
AcDbEntity
  8
Hewi
100
AcDbCircle
 10
504.0646375525001
 20
-1051.939580998722
 30
0.0000000000000024
 40
0.6999999999999319
100
AcDbArc
 50
270.0
 51
0.0
  0
ARC
  5
1923
330
1F
100
AcDbEntity
  8
Hewi
100
AcDbCircle
 10
466.0646375525023
 20
-1051.939580998722
 30
-0.0000000000000024
 40
0.6999999999999319
100
AcDbArc
 50
180.0
 51
270.0
  0
ARC
  5
1924
330
1F
100
AcDbEntity
  8
Hewi
100
AcDbCircle
 10
517.914637552501
 20
-982.6395809987209
 30
0.0000000000000041
 40
1.999999999999999
100
AcDbArc
 50
270.0
 51
0.0
  0
ARC
  5
1925
330
1F
100
AcDbEntity
  8
Hewi
100
AcDbCircle
 10
517.9146375525021
 20
-946.6395809987218
 30
0.0000000000000041
 40
1.999999999999999
100
AcDbArc
 50
0.0
 51
90.0
  0
LINE
  5
1926
330
1F
100
AcDbEntity
  8
Hewi
100
AcDbLine
 10
502.5646375525024
 20
-984.639603543048
 30
0.0000000000000022
 11
500.0646375525024
 21
-984.639603543048
 31
0.0000000000000019
210
0.0
220
1.0
230
0.0
  0
LINE
  5
1927
330
1F
100
AcDbEntity
  8
Hewi
100
AcDbLine
 10
470.0646375525023
 20
-984.639603543048
 30
-0.0000000000000019
 11
467.5646375525023
 21
-984.639603543048
 31
-0.0000000000000022
210
0.0
220
1.0
230
0.0
  0
LINE
  5
1928
330
1F
100
AcDbEntity
  8
Hewi
100
AcDbLine
 10
502.5646375525024
 20
-944.639558454395
 30
0.0000000000000022
 11
467.5646375525023
 21
-944.639558454395
 31
-0.0000000000000022
210
0.0
220
1.0
230
0.0
  0
LINE
  5
1929
330
1F
100
AcDbEntity
  8
Hewi
100
AcDbLine
 10
509.0646375525023
 20
-984.6395809987209
 30
0.000000000000003
 11
502.5646375525024
 21
-984.6395809987209
 31
0.0000000000000022
210
0.0
220
1.0
230
0.0
  0
LINE
  5
192A
330
1F
100
AcDbEntity
  8
Hewi
100
AcDbLine
 10
509.0646375525023
 20
-944.6395809987208
 30
0.000000000000003
 11
502.5646375525024
 21
-944.6395809987208
 31
0.0000000000000022
210
0.0
220
1.0
230
0.0
  0
LINE
  5
192B
330
1F
100
AcDbEntity
  8
Hewi
100
AcDbLine
 10
467.5646375525023
 20
-984.6395809987209
 30
-0.0000000000000022
 11
461.0646375525023
 21
-984.6395809987209
 31
-0.000000000000003
210
0.0
220
1.0
230
0.0
  0
LINE
  5
192C
330
1F
100
AcDbEntity
  8
Hewi
100
AcDbLine
 10
467.5646375525023
 20
-944.6395809987208
 30
-0.0000000000000022
 11
461.0646375525023
 21
-944.6395809987208
 31
-0.000000000000003
210
0.0
220
1.0
230
0.0
  0
LINE
  5
192D
330
1F
100
AcDbEntity
  8
Hewi
100
AcDbLine
 10
465.3646375525013
 20
-1019.054192832163
 30
-0.0000000000000025
 11
465.3646375525023
 21
-984.6395809987209
 31
-0.0000000000000025
210
0.0
220
1.0
230
0.0
  0
LINE
  5
192E
330
1F
100
AcDbEntity
  8
Hewi
100
AcDbLine
 10
465.3646375525013
 20
-1051.939580998722
 30
-0.0000000000000025
 11
465.3646375525013
 21
-1040.726474615297
 31
-0.0000000000000025
210
0.0
220
1.0
230
0.0
  0
LINE
  5
192F
330
1F
100
AcDbEntity
  8
Hewi
100
AcDbLine
 10
504.7646375525001
 20
-1019.054192832161
 30
0.0000000000000025
 11
504.7646375525012
 21
-984.6395809987209
 31
0.0000000000000025
210
0.0
220
1.0
230
0.0
  0
LINE
  5
1930
330
1F
100
AcDbEntity
  8
Hewi
100
AcDbLine
 10
504.7646375525001
 20
-1051.939580998722
 30
0.0000000000000025
 11
504.7646375525001
 21
-1040.726474615301
 31
0.0000000000000025
210
0.0
220
1.0
230
0.0
  0
LINE
  5
1931
330
1F
100
AcDbEntity
  8
Hewi
100
AcDbLine
 10
517.7646375525012
 20
-984.6395809987338
 30
0.0000000000000041
 11
509.2646375525023
 21
-984.6395809987338
 31
0.000000000000003
210
0.0
220
1.0
230
0.0
  0
LINE
  5
1932
330
1F
100
AcDbEntity
  8
Hewi
100
AcDbLine
 10
517.7646375525012
 20
-944.6395809987338
 30
0.0000000000000041
 11
509.2646375525023
 21
-944.6395809987338
 31
0.000000000000003
210
0.0
220
1.0
230
0.0
  0
LINE
  5
1933
330
1F
100
AcDbEntity
  8
Hewi
100
AcDbLine
 10
517.7646375525012
 20
-947.239580998721
 30
0.0000000000000041
 11
517.9146375525021
 21
-947.239580998721
 31
0.0000000000000041
210
0.0
220
1.0
230
0.0
  0
LINE
  5
1934
330
1F
100
AcDbEntity
  8
Hewi
100
AcDbLine
 10
517.7646375525012
 20
-982.0395809987219
 30
0.0000000000000041
 11
517.914637552501
 21
-982.0395809987219
 31
0.0000000000000041
210
0.0
220
1.0
230
0.0
  0
LINE
  5
1935
330
1F
100
AcDbEntity
  8
Hewi
100
AcDbLine
 10
460.8646375525022
 20
-956.6395809987209
 30
-0.000000000000003
 11
461.0646375525023
 21
-956.6395809987218
 31
-0.000000000000003
210
0.0
220
1.0
230
0.0
  0
LINE
  5
1936
330
1F
100
AcDbEntity
  8
Hewi
100
AcDbLine
 10
509.0646375525023
 20
-956.6395809987218
 30
0.000000000000003
 11
509.2646375525023
 21
-956.6395809987218
 31
0.000000000000003
210
0.0
220
1.0
230
0.0
  0
LINE
  5
1937
330
1F
100
AcDbEntity
  8
Hewi
100
AcDbLine
 10
460.8646375525022
 20
-972.6395809987209
 30
-0.000000000000003
 11
461.0646375525023
 21
-972.6395809987209
 31
-0.000000000000003
210
0.0
220
1.0
230
0.0
  0
LINE
  5
1938
330
1F
100
AcDbEntity
  8
Hewi
100
AcDbLine
 10
509.0646375525023
 20
-972.6395809987209
 30
0.000000000000003
 11
509.2646375525023
 21
-972.6395809987209
 31
0.000000000000003
210
0.0
220
1.0
230
0.0
  0
LINE
  5
1939
330
1F
100
AcDbEntity
  8
Hewi
100
AcDbLine
 10
461.0646375525023
 20
-972.366987609033
 30
-0.000000000000003
 11
460.8646375525022
 21
-972.366987609033
 31
-0.000000000000003
210
0.0
220
1.0
230
0.0
  0
LINE
  5
193A
330
1F
100
AcDbEntity
  8
Hewi
100
AcDbLine
 10
460.8646375525022
 20
-970.435135956456
 30
-0.000000000000003
 11
461.0646375525023
 21
-970.435135956456
 31
-0.000000000000003
210
0.0
220
1.0
230
0.0
  0
LINE
  5
193B
330
1F
100
AcDbEntity
  8
Hewi
100
AcDbLine
 10
460.8646375525022
 20
-970.2964352482132
 30
-0.000000000000003
 11
461.0646375525023
 21
-970.2964352482132
 31
-0.000000000000003
210
0.0
220
1.0
230
0.0
  0
LINE
  5
193C
330
1F
100
AcDbEntity
  8
Hewi
100
AcDbLine
 10
517.9146375525021
 20
-944.6395809987208
 30
0.0000000000000041
 11
517.914637552501
 21
-984.6395809987209
 31
0.0000000000000041
210
0.0
220
1.0
230
0.0
  0
LINE
  5
193D
330
1F
100
AcDbEntity
  8
Hewi
100
AcDbLine
 10
519.9146375525022
 20
-946.6395809987218
 30
0.0000000000000043
 11
519.914637552501
 21
-982.6395809987209
 31
0.0000000000000043
210
0.0
220
1.0
230
0.0
  0
LINE
  5
193E
330
1F
100
AcDbEntity
  8
Hewi
100
AcDbLine
 10
460.8646375525022
 20
-984.6395809987338
 30
-0.000000000000003
 11
460.8646375525022
 21
-944.6395809987338
 31
-0.000000000000003
210
0.0
220
1.0
230
0.0
  0
LINE
  5
193F
330
1F
100
AcDbEntity
  8
Hewi
100
AcDbLine
 10
461.0646375525023
 20
-982.6395809987218
 30
-0.000000000000003
 11
460.8646375525022
 21
-982.6395809987218
 31
-0.000000000000003
210
0.0
220
1.0
230
0.0
  0
LINE
  5
1940
330
1F
100
AcDbEntity
  8
Hewi
100
AcDbLine
 10
509.2646375525023
 20
-982.6395809987218
 30
0.000000000000003
 11
509.0646375525023
 21
-982.6395809987218
 31
0.000000000000003
210
0.0
220
1.0
230
0.0
  0
LINE
  5
1941
330
1F
100
AcDbEntity
  8
Hewi
100
AcDbLine
 10
509.0646375525023
 20
-979.939580998722
 30
0.000000000000003
 11
509.2646375525013
 21
-979.939580998722
 31
0.000000000000003
210
0.0
220
1.0
230
0.0
  0
LINE
  5
1942
330
1F
100
AcDbEntity
  8
Hewi
100
AcDbLine
 10
460.8646375525032
 20
-979.939580998722
 30
-0.000000000000003
 11
461.0646375525023
 21
-979.939580998722
 31
-0.000000000000003
210
0.0
220
1.0
230
0.0
  0
LINE
  5
1943
330
1F
100
AcDbEntity
  8
Hewi
100
AcDbLine
 10
461.0646375525023
 20
-949.339580998744
 30
-0.000000000000003
 11
460.8646375525032
 21
-949.339580998744
 31
-0.000000000000003
210
0.0
220
1.0
230
0.0
  0
LINE
  5
1944
330
1F
100
AcDbEntity
  8
Hewi
100
AcDbLine
 10
509.2646375525013
 20
-949.339580998744
 30
0.000000000000003
 11
509.0646375525023
 21
-949.339580998744
 31
0.000000000000003
210
0.0
220
1.0
230
0.0
  0
LINE
  5
1945
330
1F
100
AcDbEntity
  8
Hewi
100
AcDbLine
 10
509.0646375525023
 20
-946.6395809987441
 30
0.000000000000003
 11
509.2646375525023
 21
-946.6395809987441
 31
0.000000000000003
210
0.0
220
1.0
230
0.0
  0
LINE
  5
1946
330
1F
100
AcDbEntity
  8
Hewi
100
AcDbLine
 10
460.8646375525022
 20
-946.6395809987441
 30
-0.000000000000003
 11
461.0646375525023
 21
-946.6395809987441
 31
-0.000000000000003
210
0.0
220
1.0
230
0.0
  0
LINE
  5
1947
330
1F
100
AcDbEntity
  8
Hewi
100
AcDbLine
 10
509.2646375525023
 20
-984.6395809987338
 30
0.000000000000003
 11
509.2646375525023
 21
-944.6395809987338
 31
0.000000000000003
210
0.0
220
1.0
230
0.0
  0
LINE
  5
1948
330
1F
100
AcDbEntity
  8
Hewi
100
AcDbLine
 10
517.7646375525012
 20
-944.6395809987338
 30
0.0000000000000041
 11
517.7646375525012
 21
-964.6395809987339
 31
0.0000000000000041
210
0.0
220
1.0
230
0.0
  0
LINE
  5
1949
330
1F
100
AcDbEntity
  8
Hewi
100
AcDbLine
 10
517.7646375525012
 20
-964.6395809987339
 30
0.0000000000000041
 11
517.7646375525012
 21
-984.6395809987338
 31
0.0000000000000041
210
0.0
220
1.0
230
0.0
  0
LINE
  5
194A
330
1F
100
AcDbEntity
  8
Hewi
100
AcDbLine
 10
504.0646375525001
 20
-1052.639580998721
 30
0.0000000000000024
 11
466.0646375525023
 21
-1052.639580998721
 31
-0.0000000000000024
210
0.0
220
1.0
230
0.0
  0
LINE
  5
194B
330
1F
100
AcDbEntity
  8
Hewi
100
AcDbLine
 10
461.0646375525023
 20
-944.6395809987208
 30
-0.000000000000003
 11
461.0646375525023
 21
-964.6395809987209
 31
-0.000000000000003
210
0.0
220
1.0
230
0.0
  0
LINE
  5
194C
330
1F
100
AcDbEntity
  8
Hewi
100
AcDbLine
 10
461.0646375525023
 20
-964.6395809987209
 30
-0.000000000000003
 11
461.0646375525023
 21
-984.6395809987209
 31
-0.000000000000003
210
0.0
220
1.0
230
0.0
  0
LINE
  5
194D
330
1F
100
AcDbEntity
  8
Hewi
100
AcDbLine
 10
467.5646375525023
 20
-944.639558454395
 30
-0.0000000000000022
 11
467.5646375525023
 21
-984.639603543048
 31
-0.0000000000000022
210
0.0
220
1.0
230
0.0
  0
LINE
  5
194E
330
1F
100
AcDbEntity
  8
Hewi
100
AcDbLine
 10
509.0646375525023
 20
-944.6395809987208
 30
0.000000000000003
 11
509.0646375525023
 21
-964.6395809987209
 31
0.000000000000003
210
0.0
220
1.0
230
0.0
  0
LINE
  5
194F
330
1F
100
AcDbEntity
  8
Hewi
100
AcDbLine
 10
509.0646375525023
 20
-964.6395809987209
 30
0.000000000000003
 11
509.0646375525023
 21
-984.6395809987209
 31
0.000000000000003
210
0.0
220
1.0
230
0.0
  0
LINE
  5
1950
330
1F
100
AcDbEntity
  8
Hewi
100
AcDbLine
 10
502.5646375525024
 20
-984.639603543048
 30
0.0000000000000022
 11
502.5646375525024
 21
-944.639558454395
 31
0.0000000000000022
210
0.0
220
1.0
230
0.0
  0
SPLINE
  5
1951
330
1F
100
AcDbEntity
  8
Hewi
100
AcDbSpline
210
-0.0000000000000002
220
-0.0000000000000004
230
1.0
 70
     8
 71
     3
 72
    14
 73
    10
 74
     0
 42
0.000000001
 43
0.0000000001
 40
-1.51819376772367
 40
-1.51819376772367
 40
-1.51819376772367
 40
-1.51819376772367
 40
-1.135751222155821
 40
-1.135751222155821
 40
-0.7533086765879721
 40
-0.7533086765879721
 40
-0.376654338293986
 40
-0.376654338293986
 40
0.0
 40
0.0
 40
0.0
 40
0.0
 10
500.0646375525024
 20
-984.076611445111
 30
0.0000000000000019
 10
500.0646375525024
 20
-984.0465771228098
 30
0.0000000000000019
 10
500.0393781107864
 20
-984.013221170581
 30
0.0000000000000019
 10
499.9366828236111
 20
-983.949442654562
 30
0.0000000000000019
 10
499.8592477026803
 20
-983.9190854647069
 30
0.0000000000000019
 10
499.6813601117972
 20
-983.8704277024652
 30
0.0000000000000019
 10
499.5694906411044
 20
-983.8487605029369
 30
0.0000000000000018
 10
499.3239116328741
 20
-983.8196733789729
 30
0.0000000000000018
 10
499.1901889986002
 20
-983.812330507706
 30
0.0000000000000018
 10
499.0646375525024
 20
-983.812330507706
 30
0.0000000000000018
  0
SPLINE
  5
1952
330
1F
100
AcDbEntity
  8
Hewi
100
AcDbSpline
210
0.0000000000000001
220
-0.0000000000000007
230
1.0
 70
     8
 71
     3
 72
    14
 73
    10
 74
     0
 42
0.000000001
 43
0.0000000001
 40
0.0
 40
0.0
 40
0.0
 40
0.0
 40
0.3766543382939877
 40
0.3766543382939877
 40
0.7533086765879756
 40
0.7533086765879756
 40
1.135751222155823
 40
1.135751222155823
 40
1.51819376772367
 40
1.51819376772367
 40
1.51819376772367
 40
1.51819376772367
 10
471.0646375525023
 20
-983.812330507706
 30
-0.0000000000000018
 10
470.939086106403
 20
-983.812330507706
 30
-0.0000000000000018
 10
470.8053634721303
 20
-983.8196733789729
 30
-0.0000000000000018
 10
470.5597844638992
 20
-983.8487605029369
 30
-0.0000000000000018
 10
470.4479149932072
 20
-983.8704277024652
 30
-0.0000000000000018
 10
470.2700274023241
 20
-983.9190854647069
 30
-0.0000000000000019
 10
470.1925922813921
 20
-983.949442654562
 30
-0.0000000000000019
 10
470.0898969942182
 20
-984.013221170581
 30
-0.0000000000000019
 10
470.0646375525023
 20
-984.0465771228098
 30
-0.0000000000000019
 10
470.0646375525023
 20
-984.076611445111
 30
-0.0000000000000019
  0
LINE
  5
1953
330
1F
100
AcDbEntity
  8
Hewi
100
AcDbLine
 10
499.0646375525024
 20
-983.812330507706
 30
0.0000000000000018
 11
471.0646375525023
 21
-983.812330507706
 31
-0.0000000000000018
210
0.0
220
1.0
230
0.0
  0
LINE
  5
1954
330
1F
100
AcDbEntity
  8
Hewi
100
AcDbLine
 10
500.0646375525024
 20
-984.076611445111
 30
0.0000000000000019
 11
500.0646375525024
 21
-1014.781126789437
 31
0.0000000000000019
210
0.0
220
1.0
230
0.0
  0
LINE
  5
1955
330
1F
100
AcDbEntity
  8
Hewi
100
AcDbLine
 10
470.0646375525023
 20
-984.076611445111
 30
-0.0000000000000019
 11
470.0646375525023
 21
-1014.781126789437
 31
-0.0000000000000019
210
0.0
220
1.0
230
0.0
  0
SPLINE
  5
1956
330
1F
100
AcDbEntity
  8
Hewi
100
AcDbSpline
210
-0.0000000000000003
220
0.0
230
1.0
 70
     8
 71
     3
 72
    14
 73
    10
 74
     0
 42
0.000000001
 43
0.0000000001
 40
0.649611117407552
 40
0.649611117407552
 40
0.649611117407552
 40
0.649611117407552
 40
0.7333587369340008
 40
0.7333587369340008
 40
1.466717473868001
 40
1.466717473868001
 40
2.251649856864295
 40
2.251649856864295
 40
3.036582239860591
 40
3.036582239860591
 40
3.036582239860591
 40
3.036582239860591
 10
470.7487686864822
 20
-1016.893468647802
 30
-0.0000000000000018
 10
470.7351760195493
 20
-1016.867079351741
 30
-0.0000000000000018
 10
470.7216534715904
 20
-1016.840695610427
 30
-0.0000000000000018
 10
470.590665238843
 20
-1016.583613995326
 30
-0.0000000000000018
 10
470.4812938240543
 20
-1016.355501974668
 30
-0.0000000000000018
 10
470.3002745980962
 20
-1015.928104889095
 30
-0.0000000000000018
 10
470.2135271764712
 20
-1015.68978293159
 30
-0.0000000000000019
 10
470.095331784246
 20
-1015.221244253177
 30
-0.0000000000000019
 10
470.0646375525023
 20
-1014.990453698095
 30
-0.0000000000000019
 10
470.0646375525023
 20
-1014.781126789437
 30
-0.0000000000000019
  0
SPLINE
  5
1957
330
1F
100
AcDbEntity
  8
Hewi
100
AcDbSpline
210
0.0
220
0.0
230
1.0
 70
     8
 71
     3
 72
    20
 73
    16
 74
     0
 42
0.000000001
 43
0.0000000001
 40
-2.081957642337048
 40
-2.081957642337048
 40
-2.081957642337048
 40
-2.081957642337048
 40
-2.029036545889133
 40
-2.029036545889133
 40
-1.976115449441223
 40
-1.976115449441223
 40
-1.938296586027501
 40
-1.938296586027501
 40
-1.900477722613779
 40
-1.900477722613779
 40
-1.79865290262327
 40
-1.79865290262327
 40
-1.696828082632761
 40
-1.696828082632761
 40
-1.658125044755919
 40
-1.658125044755919
 40
-1.658125044755919
 40
-1.658125044755919
 10
471.0646375525023
 20
-1017.014676802285
 30
-0.0000000000000018
 10
471.0528497830033
 20
-1017.02775054302
 30
-0.0000000000000018
 10
471.0389519893712
 20
-1017.041227978038
 30
-0.0000000000000018
 10
471.0083296879083
 20
-1017.063670382639
 30
-0.0000000000000018
 10
470.9915419293732
 20
-1017.072549671239
 30
-0.0000000000000018
 10
470.9624484656492
 20
-1017.08059186572
 30
-0.0000000000000018
 10
470.9488672640791
 20
-1017.082078230738
 30
-0.0000000000000018
 10
470.9222642444952
 20
-1017.079634641352
 30
-0.0000000000000018
 10
470.9092376844012
 20
-1017.075745401769
 30
-0.0000000000000018
 10
470.8675720945892
 20
-1017.056912453534
 30
-0.0000000000000018
 10
470.8448247734365
 20
-1017.035086728147
 30
-0.0000000000000018
 10
470.803022156148
 20
-1016.985862793797
 30
-0.0000000000000018
 10
470.7846104099372
 20
-1016.957929675807
 30
-0.0000000000000018
 10
470.7610762790091
 20
-1016.916790731186
 30
-0.0000000000000018
 10
470.7548181396543
 20
-1016.905213275368
 30
-0.0000000000000018
 10
470.7487686864822
 20
-1016.893468647802
 30
-0.0000000000000018
  0
SPLINE
  5
1958
330
1F
100
AcDbEntity
  8
Hewi
100
AcDbSpline
210
0.0
220
0.0
230
1.0
 70
     8
 71
     3
 72
    20
 73
    16
 74
     0
 42
0.000000001
 43
0.0000000001
 40
1.658125044755959
 40
1.658125044755959
 40
1.658125044755959
 40
1.658125044755959
 40
1.696828082632773
 40
1.696828082632773
 40
1.798652902623284
 40
1.798652902623284
 40
1.900477722613793
 40
1.900477722613793
 40
1.93829658602752
 40
1.93829658602752
 40
1.976115449441245
 40
1.976115449441245
 40
2.029036545889153
 40
2.029036545889153
 40
2.081957642337064
 40
2.081957642337064
 40
2.081957642337064
 40
2.081957642337064
 10
499.3805064185213
 20
-1016.893468647802
 30
0.0000000000000018
 10
499.3744569653502
 20
-1016.905213275368
 30
0.0000000000000018
 10
499.3681988259941
 20
-1016.916790731186
 30
0.0000000000000018
 10
499.3446646950672
 20
-1016.957929675807
 30
0.0000000000000018
 10
499.3262529488553
 20
-1016.985862793797
 30
0.0000000000000018
 10
499.2844503315682
 20
-1017.035086728147
 30
0.0000000000000018
 10
499.2617030104143
 20
-1017.056912453534
 30
0.0000000000000018
 10
499.2200374206031
 20
-1017.075745401769
 30
0.0000000000000018
 10
499.2070108605084
 20
-1017.079634641352
 30
0.0000000000000018
 10
499.1804078409252
 20
-1017.082078230738
 30
0.0000000000000018
 10
499.1668266393542
 20
-1017.08059186572
 30
0.0000000000000018
 10
499.13773317563
 20
-1017.072549671239
 30
0.0000000000000018
 10
499.1209454170951
 20
-1017.063670382639
 30
0.0000000000000018
 10
499.0903231156321
 20
-1017.041227978038
 30
0.0000000000000018
 10
499.0764253220002
 20
-1017.02775054302
 30
0.0000000000000018
 10
499.0646375525024
 20
-1017.014676802285
 30
0.0000000000000018
  0
SPLINE
  5
1959
330
1F
100
AcDbEntity
  8
Hewi
100
AcDbSpline
210
-0.0000000000000003
220
0.0
230
1.0
 70
     8
 71
     3
 72
    14
 73
    10
 74
     0
 42
0.000000001
 43
0.0000000001
 40
8.794524056531006
 40
8.794524056531006
 40
8.794524056531006
 40
8.794524056531006
 40
9.579456439527339
 40
9.579456439527339
 40
10.36438882252367
 40
10.36438882252367
 40
11.09774755945768
 40
11.09774755945768
 40
11.18149517898412
 40
11.18149517898412
 40
11.18149517898412
 40
11.18149517898412
 10
500.0646375525024
 20
-1014.781126789437
 30
0.0000000000000019
 10
500.0646375525024
 20
-1014.990453698095
 30
0.0000000000000019
 10
500.0339433207574
 20
-1015.221244253177
 30
0.0000000000000019
 10
499.9157479285334
 20
-1015.68978293159
 30
0.0000000000000019
 10
499.8290005069071
 20
-1015.928104889095
 30
0.0000000000000019
 10
499.64798128095
 20
-1016.355501974668
 30
0.0000000000000018
 10
499.5386098661611
 20
-1016.583613995326
 30
0.0000000000000018
 10
499.407621633414
 20
-1016.840695610427
 30
0.0000000000000018
 10
499.3940990854542
 20
-1016.867079351741
 30
0.0000000000000018
 10
499.3805064185213
 20
-1016.893468647802
 30
0.0000000000000018
  0
ELLIPSE
  5
195A
330
1F
100
AcDbEntity
  8
Hewi
100
AcDbEllipse
 10
485.0646375525023
 20
-1029.541710752741
 30
0.0000000000000001
 11
-18.81828199961667
 21
0.0
 31
-0.0000000000000023
210
-0.0000000000000001
220
0.0
230
1.0
 40
0.9961946980917455
 41
-2.409769549797642
 42
-0.7318231037921505
  0
ELLIPSE
  5
195B
330
1F
100
AcDbEntity
  8
Hewi
100
AcDbEllipse
 10
485.0646375525023
 20
-1029.471088081448
 30
0.0000000000000001
 11
12.70449773839052
 21
0.0
 31
0.0000000000000016
210
-0.0000000000000001
220
0.0
230
1.0
 40
0.9961946980917455
 41
0.0
 42
6.283185307179584
  0
ARC
  5
195C
330
1F
100
AcDbEntity
  8
Hewi
100
AcDbCircle
 10
1132.047414844381
 20
-1048.332318176284
 30
0.000000000000014
 40
4.000000000000073
100
AcDbArc
 50
194.1768749669893
 51
355.8231250330065
  0
ARC
  5
195D
330
1F
100
AcDbEntity
  8
Hewi
100
AcDbCircle
 10
1101.726332453578
 20
-1051.951963536577
 30
0.0000000000000084
 40
0.6999999999999319
100
AcDbArc
 50
270.0
 51
0.0
  0
ARC
  5
195E
330
1F
100
AcDbEntity
  8
Hewi
100
AcDbCircle
 10
1063.726332453579
 20
-1051.951963536577
 30
0.0000000000000014
 40
0.6999999999999319
100
AcDbArc
 50
180.0
 51
270.0
  0
ARC
  5
195F
330
1F
100
AcDbEntity
  8
Hewi
100
AcDbCircle
 10
1058.026332453579
 20
-948.651963536599
 30
0.0000000000000004
 40
1.999999999999995
100
AcDbArc
 50
90.0
 51
180.0
  0
ARC
  5
1960
330
1F
100
AcDbEntity
  8
Hewi
100
AcDbCircle
 10
1058.026332453579
 20
-980.6519635365781
 30
0.0000000000000004
 40
1.999999999999999
100
AcDbArc
 50
180.0
 51
270.0
  0
ARC
  5
1961
330
1F
100
AcDbEntity
  8
Hewi
100
AcDbCircle
 10
1016.355516004939
 20
-1039.883380791972
 30
-0.0000000000000073
 40
119.9999999999995
100
AcDbArc
 50
355.8231250330065
 51
358.9226597831566
  0
ARC
  5
1962
330
1F
100
AcDbEntity
  8
Hewi
100
AcDbCircle
 10
1016.355516004939
 20
-1039.883380791972
 30
-0.0000000000000073
 40
119.9999999999995
100
AcDbArc
 50
11.07734021684892
 51
14.0223085198776
  0
LINE
  5
1963
330
1F
100
AcDbEntity
  8
Hewi
100
AcDbLine
 10
1063.026332453578
 20
-1051.951963536577
 30
0.0000000000000013
 11
1063.026332453578
 21
-982.6519635365768
 31
0.0000000000000013
210
0.0
220
1.0
230
0.0
  0
LINE
  5
1964
330
1F
100
AcDbEntity
  8
Hewi
100
AcDbLine
 10
1102.426332453578
 20
-1051.951963536577
 30
0.0000000000000085
 11
1102.426332453578
 21
-982.6519635365768
 31
0.0000000000000085
210
0.0
220
1.0
230
0.0
  0
LINE
  5
1965
330
1F
100
AcDbEntity
  8
Hewi
100
AcDbLine
 10
1056.026332453579
 20
-980.6519635365781
 30
0.0
 11
1056.026332453579
 21
-948.651963536599
 31
0.0
210
0.0
220
1.0
230
0.0
  0
LINE
  5
1966
330
1F
100
AcDbEntity
  8
Hewi
100
AcDbLine
 10
1082.726332453579
 20
-982.6519635365759
 30
0.0000000000000049
 11
1116.008534566471
 21
-982.6519635365759
 31
0.000000000000011
210
0.0
220
1.0
230
0.0
  0
LINE
  5
1967
330
1F
100
AcDbEntity
  8
Hewi
100
AcDbLine
 10
1082.726332453579
 20
-946.651963536598
 30
0.0000000000000049
 11
1116.00853456648
 21
-946.651963536598
 31
0.000000000000011
210
0.0
220
1.0
230
0.0
  0
LINE
  5
1968
330
1F
100
AcDbEntity
  8
Hewi
100
AcDbLine
 10
1058.026332453579
 20
-946.6519635365989
 30
0.0000000000000004
 11
1082.726332453579
 21
-946.6519635365989
 31
0.0000000000000049
210
0.0
220
1.0
230
0.0
  0
LINE
  5
1969
330
1F
100
AcDbEntity
  8
Hewi
100
AcDbLine
 10
1058.026332453579
 20
-982.651963536578
 30
0.0000000000000004
 11
1082.726332453579
 21
-982.651963536578
 31
0.0000000000000049
210
0.0
220
1.0
230
0.0
  0
LINE
  5
196A
330
1F
100
AcDbEntity
  8
Hewi
100
AcDbLine
 10
1101.726332453578
 20
-1052.651963536577
 30
0.0000000000000084
 11
1063.726332453579
 21
-1052.651963536577
 31
0.0000000000000014
210
0.0
220
1.0
230
0.0
  0
ARC
  5
196B
330
1F
100
AcDbEntity
  8
Hewi
100
AcDbCircle
 10
1124.726332453578
 20
-964.6519635365768
 30
0.0000000000000126
 40
20.00002254432668
100
AcDbArc
 50
244.1579338865174
 51
115.8420661136568
  0
LINE
  5
196C
330
1F
100
AcDbEntity
  8
Hewi
100
AcDbLine
 10
1122.449452449676
 20
-984.521958987543
 30
0.0000000000000122
 11
1125.354281352914
 21
-1017.724305282122
 31
0.0000000000000127
210
0.0
220
1.0
230
0.0
  0
SPLINE
  5
196D
330
1F
100
AcDbEntity
  8
Hewi
100
AcDbSpline
210
0.0
220
0.0
230
1.0
 70
     8
 71
     3
 72
    20
 73
    16
 74
     0
 42
0.000000001
 43
0.0000000001
 40
1.658125044756507
 40
1.658125044756507
 40
1.658125044756507
 40
1.658125044756507
 40
1.696828082632723
 40
1.696828082632723
 40
1.798652902623234
 40
1.798652902623234
 40
1.900477722613745
 40
1.900477722613745
 40
1.938296586027634
 40
1.938296586027634
 40
1.97611544944152
 40
1.97611544944152
 40
2.029036545890053
 40
2.029036545890053
 40
2.081957642338585
 40
2.081957642338585
 40
2.081957642338585
 40
2.081957642338585
 10
1125.394288951556
 20
-1017.594172877409
 30
0.0000000000000127
 10
1125.39332555158
 20
-1017.606268558195
 30
0.0000000000000127
 10
1125.392342642908
 20
-1017.618197928248
 30
0.0000000000000127
 10
1125.388701933057
 20
-1017.660613462776
 30
0.0000000000000127
 10
1125.385952758205
 20
-1017.689462247837
 30
0.0000000000000127
 10
1125.38001034904
 20
-1017.740493347785
 30
0.0000000000000127
 10
1125.376883462773
 20
-1017.763207124581
 30
0.0000000000000127
 10
1125.37156812319
 20
-1017.783267839178
 30
0.0000000000000127
 10
1125.369945105787
 20
-1017.787503258309
 30
0.0000000000000127
 10
1125.366735808035
 20
-1017.790550429782
 30
0.0000000000000127
 10
1125.365149690037
 20
-1017.78932081059
 30
0.0000000000000127
 10
1125.36184521291
 20
-1017.78173722077
 30
0.0000000000000127
 10
1125.360019897935
 20
-1017.773042807108
 30
0.0000000000000127
 10
1125.356814335425
 20
-1017.750819419401
 30
0.0000000000000127
 10
1125.355425157018
 20
-1017.737379022856
 30
0.0000000000000127
 10
1125.354281352914
 20
-1017.724305282122
 30
0.0000000000000127
  0
SPLINE
  5
196E
330
1F
100
AcDbEntity
  8
Hewi
100
AcDbSpline
210
0.0000000000000001
220
-0.0000000000000001
230
1.0
 70
     8
 71
     3
 72
    14
 73
    10
 74
     0
 42
0.000000001
 43
0.0000000001
 40
8.778950683888792
 40
8.778950683888792
 40
8.778950683888792
 40
8.778950683888792
 40
9.563883066885145
 40
9.563883066885145
 40
10.34881544988149
 40
10.34881544988149
 40
11.08217418681549
 40
11.08217418681549
 40
11.16592180634194
 40
11.16592180634194
 40
11.16592180634194
 40
11.16592180634194
 10
1126.147440606012
 20
-1015.316443783779
 30
0.0000000000000129
 10
1126.0292035844
 20
-1015.549848274443
 30
0.0000000000000128
 10
1125.904926911994
 20
-1015.806112476263
 30
0.0000000000000128
 10
1125.689122045391
 20
-1016.319931339571
 30
0.0000000000000128
 10
1125.598281242892
 20
-1016.577947481849
 30
0.0000000000000128
 10
1125.473825396745
 20
-1017.033882779964
 30
0.0000000000000127
 10
1125.425820674417
 20
-1017.273978323979
 30
0.0000000000000127
 10
1125.398916758832
 20
-1017.539769723583
 30
0.0000000000000127
 10
1125.396453638947
 20
-1017.566994791127
 30
0.0000000000000127
 10
1125.394288951556
 20
-1017.594172877409
 30
0.0000000000000127
  0
SPLINE
  5
196F
330
1F
100
AcDbEntity
  8
Hewi
100
AcDbSpline
210
-0.0000000000000002
220
0.0
230
1.0
 70
     8
 71
     3
 72
    30
 73
    26
 74
     0
 42
0.000000001
 43
0.0000000001
 40
50.21703549202495
 40
50.21703549202495
 40
50.21703549202495
 40
50.21703549202495
 40
50.53039260880385
 40
50.53039260880385
 40
51.29598074329932
 40
51.29598074329932
 40
51.92914302530023
 40
51.92914302530023
 40
52.56230530730113
 40
52.56230530730113
 40
53.12551373138332
 40
53.12551373138332
 40
53.68872215546555
 40
53.68872215546555
 40
54.25193057954776
 40
54.25193057954776
 40
54.81513900362998
 40
54.81513900362998
 40
55.44830128563085
 40
55.44830128563085
 40
56.08146356763175
 40
56.08146356763175
 40
56.84705170212724
 40
56.84705170212724
 40
57.16040881890615
 40
57.16040881890615
 40
57.16040881890615
 40
57.16040881890615
 10
1132.124608794562
 20
-1014.793509327293
 30
0.000000000000014
 10
1132.057035731894
 20
-1014.703398030854
 30
0.000000000000014
 10
1131.985543784172
 20
-1014.614246608675
 30
0.0000000000000139
 10
1131.728862753243
 20
-1014.316636806981
 30
0.0000000000000139
 10
1131.527446166072
 20
-1014.122494753437
 30
0.0000000000000139
 10
1131.163626460259
 20
-1013.830905292684
 30
0.0000000000000138
 10
1130.972452939903
 20
-1013.699992955935
 30
0.0000000000000138
 10
1130.568172097341
 20
-1013.479218717052
 30
0.0000000000000137
 10
1130.354938928432
 20
-1013.389587342977
 30
0.0000000000000136
 10
1129.974249477917
 20
-1013.270805214329
 30
0.0000000000000136
 10
1129.77314826894
 20
-1013.226314019284
 30
0.0000000000000135
 10
1129.366233180553
 20
-1013.180696443441
 30
0.0000000000000135
 10
1129.160409111614
 20
-1013.17966100056
 30
0.0000000000000134
 10
1128.786365614287
 20
-1013.212385566242
 30
0.0000000000000134
 10
1128.583848278209
 20
-1013.24914625291
 30
0.0000000000000133
 10
1128.191036553262
 20
-1013.364730858837
 30
0.0000000000000132
 10
1128.000716338463
 20
-1013.443466991124
 30
0.0000000000000132
 10
1127.646436716284
 20
-1013.626550581675
 30
0.0000000000000131
 10
1127.452007363113
 20
-1013.751847804976
 30
0.0000000000000131
 10
1127.092205499222
 20
-1014.03947061867
 30
0.000000000000013
 10
1126.926669022917
 20
-1014.201591036293
 30
0.000000000000013
 10
1126.619010534419
 20
-1014.551927226853
 30
0.000000000000013
 10
1126.454366331594
 20
-1014.778095449683
 30
0.0000000000000129
 10
1126.253264262004
 20
-1015.115756083026
 30
0.0000000000000129
 10
1126.198339419607
 20
-1015.21596754122
 30
0.0000000000000129
 10
1126.147440606012
 20
-1015.316443783779
 30
0.0000000000000129
  0
SPLINE
  5
1970
330
1F
100
AcDbEntity
  8
Hewi
100
AcDbSpline
210
0.0000000000000001
220
0.0000000000000001
230
1.0
 70
     8
 71
     3
 72
    14
 73
    10
 74
     0
 42
0.000000001
 43
0.0000000001
 40
0.649611117407552
 40
0.649611117407552
 40
0.649611117407552
 40
0.649611117407552
 40
0.7333587369340008
 40
0.7333587369340008
 40
1.466717473868001
 40
1.466717473868001
 40
2.251649856864295
 40
2.251649856864295
 40
3.036582239860591
 40
3.036582239860591
 40
3.036582239860591
 40
3.036582239860591
 10
1133.261841889392
 20
-1016.905851185658
 30
0.0000000000000142
 10
1133.254990663311
 20
-1016.879461889596
 30
0.0000000000000142
 10
1133.247837380385
 20
-1016.853078148282
 30
0.0000000000000142
 10
1133.17518800355
 20
-1016.595996533181
 30
0.0000000000000142
 10
1133.086220427135
 20
-1016.367884512524
 30
0.0000000000000141
 10
1132.884483011291
 20
-1015.940487426951
 30
0.0000000000000141
 10
1132.750218251785
 20
-1015.702165469446
 30
0.0000000000000141
 10
1132.448468236752
 20
-1015.233626791033
 30
0.000000000000014
 10
1132.281579794601
 20
-1015.002836235951
 30
0.000000000000014
 10
1132.124608794562
 20
-1014.793509327293
 30
0.000000000000014
  0
SPLINE
  5
1971
330
1F
100
AcDbEntity
  8
Hewi
100
AcDbSpline
210
0.0
220
0.0
230
1.0
 70
     8
 71
     3
 72
    20
 73
    16
 74
     0
 42
0.000000001
 43
0.0000000001
 40
-2.081957642337048
 40
-2.081957642337048
 40
-2.081957642337048
 40
-2.081957642337048
 40
-2.029036545889133
 40
-2.029036545889133
 40
-1.976115449441223
 40
-1.976115449441223
 40
-1.938296586027501
 40
-1.938296586027501
 40
-1.900477722613779
 40
-1.900477722613779
 40
-1.79865290262327
 40
-1.79865290262327
 40
-1.696828082632761
 40
-1.696828082632761
 40
-1.658125044755919
 40
-1.658125044755919
 40
-1.658125044755919
 40
-1.658125044755919
 10
1133.323838937648
 20
-1017.027059340141
 30
0.0000000000000142
 10
1133.324982741752
 20
-1017.040133080875
 30
0.0000000000000142
 10
1133.325948568453
 20
-1017.053610515894
 30
0.0000000000000142
 10
1133.326650756418
 20
-1017.076052920495
 30
0.0000000000000142
 10
1133.326362941167
 20
-1017.084932209095
 30
0.0000000000000142
 10
1133.324425543024
 20
-1017.092974403576
 30
0.0000000000000142
 10
1133.323077042856
 20
-1017.094460768593
 30
0.0000000000000142
 10
1133.319387365774
 20
-1017.092017179208
 30
0.0000000000000142
 10
1133.317053532838
 20
-1017.088127939624
 30
0.0000000000000142
 10
1133.308335438675
 20
-1017.06929499139
 30
0.0000000000000142
 10
1133.301311850888
 20
-1017.047469266003
 30
0.0000000000000142
 10
1133.28659826276
 20
-1016.998245331652
 30
0.0000000000000142
 10
1133.278881315097
 20
-1016.970312213663
 30
0.0000000000000142
 10
1133.267930535535
 20
-1016.929173269041
 30
0.0000000000000142
 10
1133.264891046084
 20
-1016.917595813224
 30
0.0000000000000142
 10
1133.261841889392
 20
-1016.905851185658
 30
0.0000000000000142
  0
LINE
  5
1972
330
1F
100
AcDbEntity
  8
Hewi
100
AcDbLine
 10
1130.41901003441
 20
-983.824713045562
 30
0.0000000000000137
 11
1133.323838937648
 21
-1017.027059340141
 31
0.0000000000000142
210
0.0
220
1.0
230
0.0
  0
LINE
  5
1973
330
1F
100
AcDbEntity
  8
Hewi
100
AcDbLine
 10
1134.11976328592
 20
-1016.827317330401
 30
0.0000000000000143
 11
1136.33430315917
 21
-1042.139623908207
 31
0.0000000000000147
210
0.0
220
1.0
230
0.0
  0
LINE
  5
1974
330
1F
100
AcDbEntity
  8
Hewi
100
AcDbLine
 10
1124.53576404793
 20
-1017.665808614966
 30
0.0000000000000126
 11
1126.750303921181
 21
-1042.978115192772
 31
0.000000000000013
210
0.0
220
1.0
230
0.0
  0
SPLINE
  5
1975
330
1F
100
AcDbEntity
  8
Hewi
100
AcDbSpline
210
-0.0000000000000002
220
0.0
230
1.0
 70
     8
 71
     3
 72
    46
 73
    42
 74
     0
 42
0.000000001
 43
0.0000000001
 40
-26.25009051702358
 40
-26.25009051702358
 40
-26.25009051702358
 40
-26.25009051702358
 40
-25.19226716828405
 40
-25.19226716828405
 40
-24.06297385938894
 40
-24.06297385938894
 40
-22.97039393615168
 40
-22.97039393615168
 40
-21.87781401291442
 40
-21.87781401291442
 40
-20.78523408967716
 40
-20.78523408967716
 40
-19.6926541664399
 40
-19.6926541664399
 40
-18.59462246291696
 40
-18.59462246291696
 40
-17.49659075939401
 40
-17.49659075939401
 40
-16.39855905587109
 40
-16.39855905587109
 40
-15.30052735234815
 40
-15.30052735234815
 40
-14.20249564882519
 40
-14.20249564882519
 40
-13.10446394530224
 40
-13.10446394530224
 40
-12.00643224177928
 40
-12.00643224177928
 40
-10.90840053825633
 40
-10.90840053825633
 40
-9.815820615019132
 40
-9.815820615019132
 40
-8.723240691781931
 40
-8.723240691781931
 40
-7.630660768544732
 40
-7.630660768544732
 40
-6.538080845307532
 40
-6.538080845307532
 40
-5.408787536412319
 40
-5.408787536412319
 40
-4.350964187672493
 40
-4.350964187672493
 40
-4.350964187672493
 40
-4.350964187672493
 10
1118.970327897994
 20
-983.8057722810249
 30
0.0000000000000116
 10
1118.799058804209
 20
-983.7542980198891
 30
0.0000000000000115
 10
1118.607327010462
 20
-983.694137845001
 30
0.0000000000000115
 10
1118.18376398431
 20
-983.5529672568499
 30
0.0000000000000114
 10
1117.950160160498
 20
-983.47076876047
 30
0.0000000000000114
 10
1117.48423815836
 20
-983.2963171415782
 30
0.0000000000000113
 10
1117.231746127778
 20
-983.196960344887
 30
0.0000000000000112
 10
1116.69208011696
 20
-982.969619505795
 30
0.0000000000000111
 10
1116.404939041678
 20
-982.8415822017349
 30
0.0000000000000111
 10
1115.812323599644
 20
-982.5586176531752
 30
0.000000000000011
 10
1115.50671830443
 20
-982.403565354552
 30
0.0000000000000109
 10
1114.895862140775
 20
-982.0727128198939
 30
0.0000000000000108
 10
1114.590631357562
 20
-981.8968764467498
 30
0.0000000000000107
 10
1113.999359288763
 20
-981.5354673148579
 30
0.0000000000000106
 10
1113.686944136118
 20
-981.333744892934
 30
0.0000000000000106
 10
1113.049540213545
 20
-980.8939599233539
 30
0.0000000000000105
 10
1112.724575586185
 20
-980.655851283034
 30
0.0000000000000104
 10
1112.081632808086
 20
-980.1528719544901
 30
0.0000000000000103
 10
1111.763427449146
 20
-979.8877850794502
 30
0.0000000000000102
 10
1111.151590223364
 20
-979.345279623269
 30
0.0000000000000101
 10
1110.857958763079
 20
-979.0678610935399
 30
0.0000000000000101
 10
1110.310434896616
 20
-978.5203372270759
 30
0.00000000000001
 10
1110.033016366886
 20
-978.2267057667908
 30
0.0000000000000099
 10
1109.490510910705
 20
-977.6148685410092
 30
0.0000000000000098
 10
1109.225424035665
 20
-977.2966631820688
 30
0.0000000000000098
 10
1108.722444707122
 20
-976.6537204039698
 30
0.0000000000000097
 10
1108.484336066801
 20
-976.3287557766108
 30
0.0000000000000096
 10
1108.04455109722
 20
-975.691351854037
 30
0.0000000000000095
 10
1107.842828675297
 20
-975.3789367013931
 30
0.0000000000000095
 10
1107.481419543405
 20
-974.7876646325918
 30
0.0000000000000094
 10
1107.305583170262
 20
-974.4824338493799
 30
0.0000000000000094
 10
1106.974730635604
 20
-973.8715776857249
 30
0.0000000000000093
 10
1106.81967833698
 20
-973.565972390511
 30
0.0000000000000093
 10
1106.536713788421
 20
-972.9733569484769
 30
0.0000000000000093
 10
1106.40867648436
 20
-972.6862158731959
 30
0.0000000000000092
 10
1106.181335645268
 20
-972.146549862377
 30
0.0000000000000092
 10
1106.081978848577
 20
-971.8940578317941
 30
0.0000000000000092
 10
1105.907527229686
 20
-971.4281358296579
 30
0.0000000000000092
 10
1105.825328733306
 20
-971.1945320058459
 30
0.0000000000000091
 10
1105.684158145154
 20
-970.770968979694
 30
0.0000000000000091
 10
1105.623997970266
 20
-970.579237185947
 30
0.0000000000000091
 10
1105.57252370913
 20
-970.40796809216
 30
0.0000000000000091
  0
SPLINE
  5
1976
330
1F
100
AcDbEntity
  8
Hewi
100
AcDbSpline
210
-0.0000000000000002
220
0.0
230
1.0
 70
     8
 71
     3
 72
    38
 73
    34
 74
     0
 42
0.000000001
 43
0.0000000001
 40
7.989195374219312
 40
7.989195374219312
 40
7.989195374219312
 40
7.989195374219312
 40
8.254479951649056
 40
8.254479951649056
 40
9.559037833637082
 40
9.559037833637082
 40
10.8635957156251
 40
10.8635957156251
 40
12.16815359761313
 40
12.16815359761313
 40
13.47206133512371
 40
13.47206133512371
 40
14.77596907263429
 40
14.77596907263429
 40
16.07987681014486
 40
16.07987681014486
 40
17.38378454765544
 40
17.38378454765544
 40
18.68769228516606
 40
18.68769228516606
 40
19.99160002267668
 40
19.99160002267668
 40
21.29550776018729
 40
21.29550776018729
 40
22.59941549769791
 40
22.59941549769791
 40
23.90397337968593
 40
23.90397337968593
 40
25.20853126167392
 40
25.20853126167392
 40
26.51308914366193
 40
26.51308914366193
 40
26.77837372109179
 40
26.77837372109179
 40
26.77837372109179
 40
26.77837372109179
 10
1130.482357739431
 20
-945.4981609606541
 30
0.0000000000000137
 10
1130.546428122054
 20
-945.5174149312131
 30
0.0000000000000137
 10
1130.61169148558
 20
-945.5373778567709
 30
0.0000000000000137
 10
1131.004590232322
 20
-945.659848281376
 30
0.0000000000000138
 10
1131.358392758691
 20
-945.779442987636
 30
0.0000000000000138
 10
1132.098937613367
 20
-946.056239594802
 30
0.000000000000014
 10
1132.485865481987
 20
-946.2136185185419
 30
0.000000000000014
 10
1133.267003327064
 20
-946.5621912645481
 30
0.0000000000000142
 10
1133.661184294609
 20
-946.753461677599
 30
0.0000000000000142
 10
1134.428185820634
 20
-947.1573415007439
 30
0.0000000000000144
 10
1134.834104980941
 20
-947.3872314685671
 30
0.0000000000000145
 10
1135.663913844531
 20
-947.9006247195938
 30
0.0000000000000146
 10
1136.087761702473
 20
-948.184213130259
 30
0.0000000000000147
 10
1136.92583382531
 20
-948.795070893203
 30
0.0000000000000148
 10
1137.340458712608
 20
-949.1227092695281
 30
0.0000000000000149
 10
1138.135397418882
 20
-949.8037011424219
 30
0.0000000000000151
 10
1138.515704714378
 20
-950.1570645499159
 30
0.0000000000000151
 10
1139.22123144024
 20
-950.862591275777
 30
0.0000000000000153
 10
1139.574594847733
 20
-951.242898571273
 30
0.0000000000000153
 10
1140.255586720627
 20
-952.037837277547
 30
0.0000000000000155
 10
1140.583225096953
 20
-952.4524621648449
 30
0.0000000000000155
 10
1141.194082859896
 20
-953.2905342876828
 30
0.0000000000000156
 10
1141.47767127056
 20
-953.7143821456238
 30
0.0000000000000157
 10
1141.991064521588
 20
-954.5441910092149
 30
0.0000000000000158
 10
1142.220954489411
 20
-954.9501101695209
 30
0.0000000000000158
 10
1142.624834312557
 20
-955.717111695546
 30
0.0000000000000159
 10
1142.816104725606
 20
-956.1112926630919
 30
0.0000000000000159
 10
1143.164677471614
 20
-956.8924305081688
 30
0.000000000000016
 10
1143.322056395353
 20
-957.2793583767879
 30
0.000000000000016
 10
1143.59885300252
 20
-958.0199032314631
 30
0.0000000000000161
 10
1143.718447708779
 20
-958.3737057578309
 30
0.0000000000000161
 10
1143.840918133384
 20
-958.766604504574
 30
0.0000000000000161
 10
1143.860881058941
 20
-958.8318678681
 30
0.0000000000000161
 10
1143.880135029502
 20
-958.8959382507248
 30
0.0000000000000161
  0
ARC
  5
1977
330
1F
100
AcDbEntity
  8
Hewi
100
AcDbCircle
 10
1124.726332453578
 20
-964.6519635365768
 30
0.0000000000000126
 40
20.0
100
AcDbArc
 50
190.4432992891752
 51
196.7262863686399
  0
ARC
  5
1978
330
1F
100
AcDbEntity
  8
Hewi
100
AcDbCircle
 10
1124.726332453578
 20
-964.6519635365768
 30
0.0000000000000126
 40
20.0
100
AcDbArc
 50
79.55670071079818
 51
190.4432992891752
  0
ARC
  5
1979
330
1F
100
AcDbEntity
  8
Hewi
100
AcDbCircle
 10
1124.726332453578
 20
-964.6519635365768
 30
0.0000000000000126
 40
20.0
100
AcDbArc
 50
73.2737136313603
 51
79.55670071079818
  0
ARC
  5
197A
330
1F
100
AcDbEntity
  8
Hewi
100
AcDbCircle
 10
1124.726332453578
 20
-964.6519635365768
 30
0.0000000000000126
 40
20.0
100
AcDbArc
 50
10.44329928917524
 51
16.7262863686399
  0
ARC
  5
197B
330
1F
100
AcDbEntity
  8
Hewi
100
AcDbCircle
 10
1124.726332453578
 20
-964.6519635365768
 30
0.0000000000000126
 40
20.0
100
AcDbArc
 50
259.5567007107982
 51
10.44329928917524
  0
ARC
  5
197C
330
1F
100
AcDbEntity
  8
Hewi
100
AcDbCircle
 10
1124.726332453578
 20
-964.6519635365768
 30
0.0000000000000126
 40
20.0
100
AcDbArc
 50
253.2737136313603
 51
259.5567007107982
  0
ARC
  5
197D
330
1F
100
AcDbEntity
  8
Hewi
100
AcDbCircle
 10
1142.922453050456
 20
-959.1837650010571
 30
0.000000000000016
 40
1.000000000000051
100
AcDbArc
 50
16.7262863686399
 51
135.0000000000083
  0
ARC
  5
197E
330
1F
100
AcDbEntity
  8
Hewi
100
AcDbCircle
 10
1119.258133918058
 20
-982.848084133456
 30
0.0000000000000116
 40
1.000000000000051
100
AcDbArc
 50
135.0000000000083
 51
253.2737136313603
  0
LINE
  5
197F
330
1F
100
AcDbEntity
  8
Hewi
100
AcDbLine
 10
1142.21534626927
 20
-958.476658219871
 30
0.0000000000000158
 11
1118.551027136872
 21
-982.1409773522688
 31
0.0000000000000115
210
0.0
220
1.0
230
0.0
  0
ARC
  5
1980
330
1F
100
AcDbEntity
  8
Hewi
100
AcDbCircle
 10
1106.5302118567
 20
-970.1201620720969
 30
0.0000000000000093
 40
1.000000000000051
100
AcDbArc
 50
196.7262863686399
 51
315.0000000000083
  0
LINE
  5
1981
330
1F
100
AcDbEntity
  8
Hewi
100
AcDbLine
 10
1107.237318637886
 20
-970.827268853284
 30
0.0000000000000094
 11
1130.901637770285
 21
-947.162949720886
 31
0.0000000000000137
210
0.0
220
1.0
230
0.0
  0
ARC
  5
1982
330
1F
100
AcDbEntity
  8
Hewi
100
AcDbCircle
 10
1130.194530989098
 20
-946.4558429396989
 30
0.0000000000000136
 40
1.000000000000051
100
AcDbArc
 50
315.0000000000268
 51
73.2737136313603
  0
ARC
  5
1983
330
1F
100
AcDbEntity
  8
Hewi
100
AcDbCircle
 10
1244.514551202162
 20
-1019.922051731202
 30
0.0000000000000346
 40
120.0000000000005
100
AcDbArc
 50
175.9776914801458
 51
178.9226597831305
  0
ARC
  5
1984
330
1F
100
AcDbEntity
  8
Hewi
100
AcDbCircle
 10
1244.514551202162
 20
-1019.922051731202
 30
0.0000000000000346
 40
120.0000000000005
100
AcDbArc
 50
191.0773402168489
 51
194.1768749669893
  0
LINE
  5
1985
330
1F
100
AcDbEntity
  8
Hewi
100
AcDbLine
 10
509.4642085198048
 20
-2201.619458450772
 30
0.0
 11
502.9642085198048
 21
-2201.619458450772
 31
0.0
  0
LINE
  5
1986
330
1F
100
AcDbEntity
  8
Hewi
100
AcDbLine
 10
502.9642085198048
 20
-2172.901660563672
 30
0.0
 11
509.6642085198046
 21
-2172.901660563672
 31
0.0
  0
ARC
  5
1987
330
1F
100
AcDbEntity
  8
Hewi
100
AcDbCircle
 10
485.4642085198047
 20
-2139.619458450773
 30
0.0
 40
26.69999999999936
100
AcDbArc
 50
0.0
 51
110.8428039567471
  0
ARC
  5
1988
330
1F
100
AcDbEntity
  8
Hewi
100
AcDbCircle
 10
428.1142085198061
 20
-2162.619458450771
 30
0.0
 40
0.9999999999999998
100
AcDbArc
 50
90.0
 51
180.0
  0
SPLINE
  5
1989
330
1F
100
AcDbEntity
  8
Hewi
100
AcDbSpline
210
0.0
220
0.0
230
1.0
 70
     8
 71
     3
 72
    10
 73
     6
 74
     0
 42
0.000000001
 43
0.0000000001
 40
1.86139545575616
 40
1.86139545575616
 40
1.86139545575616
 40
1.86139545575616
 40
3.074047116240881
 40
3.074047116240881
 40
4.714235913710636
 40
4.714235913710636
 40
4.714235913710636
 40
4.714235913710636
 10
429.7360703679006
 20
-2187.492186734403
 30
0.0
 10
429.4687435900097
 20
-2187.201488552158
 30
0.0
 10
429.2033189130026
 20
-2186.907253113855
 30
0.0
 10
428.584109794755
 20
-2186.207118169617
 30
0.0
 10
428.2318320997547
 20
-2185.798045330299
 30
0.0
 10
427.884207012471
 20
-2185.382939529679
 30
0.0
  0
SPLINE
  5
198A
330
1F
100
AcDbEntity
  8
Hewi
100
AcDbSpline
210
0.0
220
0.0
230
1.0
 70
     8
 71
     3
 72
    22
 73
    18
 74
     0
 42
0.000000001
 43
0.0000000001
 40
0.0
 40
0.0
 40
0.0
 40
0.0
 40
0.1010342156325368
 40
0.1010342156325368
 40
0.3279516765630044
 40
0.3279516765630044
 40
0.5175559881790206
 40
0.5175559881790206
 40
0.7979184818379858
 40
0.7979184818379858
 40
1.199996365120317
 40
1.199996365120317
 40
1.322552189555461
 40
1.322552189555461
 40
1.603510848517379
 40
1.603510848517379
 40
2.026822376410208
 40
2.026822376410208
 40
2.026822376410208
 40
2.026822376410208
 10
427.8842070663568
 20
-2185.382939470055
 30
0.0
 10
427.8627598659922
 20
-2185.357328964709
 30
0.0
 10
427.841637642413
 20
-2185.331299202902
 30
0.0
 10
427.774206865446
 20
-2185.245720950326
 30
0.0
 10
427.7291713864042
 20
-2185.184651263047
 30
0.0
 10
427.6499604977435
 20
-2185.070610045738
 30
0.0
 10
427.6151091335905
 20
-2185.017800312241
 30
0.0
 10
427.5320867844822
 20
-2184.885619131154
 30
0.0
 10
427.485297436082
 20
-2184.805275274581
 30
0.0
 10
427.3793615644727
 20
-2184.608617636087
 30
0.0
 10
427.3230800509118
 20
-2184.49079998513
 30
0.0
 10
427.2604471371842
 20
-2184.338202030996
 30
0.0
 10
427.2465588488086
 20
-2184.302561107997
 30
0.0
 10
427.2035594700073
 20
-2184.185490767814
 30
0.0
 10
427.1778643453545
 20
-2184.104279700174
 30
0.0
 10
427.1276608311263
 20
-2183.903239012444
 30
0.0
 10
427.1142085198062
 20
-2183.799751339963
 30
0.0
 10
427.1142085198062
 20
-2183.711218452813
 30
0.0
  0
SPLINE
  5
198B
330
1F
100
AcDbEntity
  8
Hewi
100
AcDbSpline
210
0.0
220
0.0
230
1.0
 70
     8
 71
     3
 72
    16
 73
    12
 74
     0
 42
0.000000001
 43
0.0000000001
 40
0.2153933378818875
 40
0.2153933378818875
 40
0.2153933378818875
 40
0.2153933378818875
 40
0.4400106383128409
 40
0.4400106383128409
 40
0.7443622166473654
 40
0.7443622166473654
 40
0.7898558523517304
 40
0.7898558523517304
 40
0.8400475890234059
 40
0.8400475890234059
 40
0.9391014517164848
 40
0.9391014517164848
 40
0.9391014517164848
 40
0.9391014517164848
 10
430.7834509162594
 20
-2188.087659118928
 30
0.0
 10
430.6738239397692
 20
-2188.087680132273
 30
0.0
 10
430.5636739345337
 20
-2188.060084688298
 30
0.0
 10
430.3189330717041
 20
-2187.963125590751
 30
0.0
 10
430.169145980919
 20
-2187.874550690423
 30
0.0
 10
429.994784034071
 20
-2187.736250063595
 30
0.0
 10
429.9722336358991
 20
-2187.717670698647
 30
0.0
 10
429.9251521977693
 20
-2187.677399974944
 30
0.0
 10
429.9006422885851
 20
-2187.655572709847
 30
0.0
 10
429.8285141066445
 20
-2187.588689765687
 30
0.0
 10
429.7815300892671
 20
-2187.541620766881
 30
0.0
 10
429.7360706043392
 20
-2187.492186377637
 30
0.0
  0
ARC
  5
198C
330
1F
100
AcDbEntity
  8
Hewi
100
AcDbCircle
 10
428.1142085198061
 20
-2200.619458450772
 30
0.0
 40
0.9999999999999998
100
AcDbArc
 50
180.0
 51
270.0
  0
SPLINE
  5
198D
330
1F
100
AcDbEntity
  8
Hewi
100
AcDbSpline
210
0.0
220
0.0
230
1.0
 70
     8
 71
     3
 72
    22
 73
    18
 74
     0
 42
0.000000001
 43
0.0000000001
 40
3.061871436955371
 40
3.061871436955371
 40
3.061871436955371
 40
3.061871436955371
 40
3.560368615882661
 40
3.560368615882661
 40
7.493792974690866
 40
7.493792974690866
 40
12.10816926551457
 40
12.10816926551457
 40
16.79563105604579
 40
16.79563105604579
 40
20.70282533587922
 40
20.70282533587922
 40
24.42008836558175
 40
24.42008836558175
 40
27.33511547717966
 40
27.33511547717966
 40
28.43964690264884
 40
28.43964690264884
 40
28.43964690264884
 40
28.43964690264884
 10
450.3971285577309
 20
-2195.275061134344
 30
0.0
 10
450.3913416208452
 20
-2195.158711547685
 30
0.0
 10
450.3819249334811
 20
-2195.040557723519
 30
0.0
 10
450.2655627264203
 20
-2193.974296401488
 30
0.0
 10
449.9371560007567
 20
-2192.959825602941
 30
0.0
 10
448.7883696416247
 20
-2190.742636687295
 30
0.0
 10
447.9071103663228
 20
-2189.566191674332
 30
0.0
 10
445.744997182621
 20
-2187.484357077728
 30
0.0
 10
444.4524130587824
 20
-2186.578952025708
 30
0.0
 10
441.8324607556688
 20
-2185.460117880041
 30
0.0
 10
440.567250421338
 20
-2185.166954118287
 30
0.0
 10
438.0249313151936
 20
-2185.12626236776
 30
0.0
 10
436.8125178989649
 20
-2185.353711690078
 30
0.0
 10
434.7512020310314
 20
-2186.127382277761
 30
0.0
 10
433.8955916517506
 20
-2186.5879841062
 30
0.0
 10
432.808098983448
 20
-2187.337179966686
 30
0.0
 10
432.5186418419617
 20
-2187.555050570983
 30
0.0
 10
432.2394210058628
 20
-2187.783052325223
 30
0.0
  0
SPLINE
  5
198E
330
1F
100
AcDbEntity
  8
Hewi
100
AcDbSpline
210
0.0
220
0.0
230
1.0
 70
     8
 71
     3
 72
    14
 73
    10
 74
     0
 42
0.000000001
 43
0.0000000001
 40
0.0
 40
0.0
 40
0.0
 40
0.0
 40
0.1027022129701241
 40
0.1027022129701241
 40
0.7279570392031931
 40
0.7279570392031931
 40
0.878711546942449
 40
0.878711546942449
 40
1.007573759621968
 40
1.007573759621968
 40
1.007573759621968
 40
1.007573759621968
 10
432.0824451555454
 20
-2187.886048040826
 30
0.0
 10
432.0554324366294
 20
-2187.899808411831
 30
0.0
 10
432.0285165463992
 20
-2187.913069696784
 30
0.0
 10
431.8385993274168
 20
-2188.003176305462
 30
0.0
 10
431.7019870183476
 20
-2188.049969490867
 30
0.0
 10
431.5592342434366
 20
-2188.0774601963
 30
0.0
 10
431.5315479363244
 20
-2188.081600310743
 30
0.0
 10
431.4805070971179
 20
-2188.086536589921
 30
0.0
 10
431.4578448296187
 20
-2188.087684747861
 30
0.0
 10
431.4359556165473
 20
-2188.087701245753
 30
0.0
  0
SPLINE
  5
198F
330
1F
100
AcDbEntity
  8
Hewi
100
AcDbSpline
210
0.0
220
0.0
230
1.0
 70
     8
 71
     3
 72
    20
 73
    16
 74
     0
 42
0.000000001
 43
0.0000000001
 40
0.1476977204276086
 40
0.1476977204276086
 40
0.1476977204276086
 40
0.1476977204276086
 40
0.2758370288594389
 40
0.2758370288594389
 40
0.293331138459643
 40
0.293331138459643
 40
0.301426564545421
 40
0.301426564545421
 40
0.3203753852087088
 40
0.3203753852087088
 40
0.3465415963585574
 40
0.3465415963585574
 40
0.3510419892013851
 40
0.3510419892013851
 40
0.3544686228257871
 40
0.3544686228257871
 40
0.3544686228257871
 40
0.3544686228257871
 10
432.2394359110449
 20
-2187.78308267567
 30
0.0
 10
432.2094757477053
 20
-2187.807548750294
 30
0.0
 10
432.1781443013716
 20
-2187.83013643062
 30
0.0
 10
432.1405703251594
 20
-2187.853496410866
 30
0.0
 10
432.1360277121712
 20
-2187.856262554943
 30
0.0
 10
432.1293398712314
 20
-2187.860249522126
 30
0.0
 10
432.1272178662212
 20
-2187.861502126505
 30
0.0
 10
432.1201079066041
 20
-2187.865657429041
 30
0.0
 10
432.1150918823279
 20
-2187.868520847261
 30
0.0
 10
432.1030669734373
 20
-2187.87522209229
 30
0.0
 10
432.0960270048227
 20
-2187.879015490133
 30
0.0
 10
432.0876991594105
 20
-2187.883349489295
 30
0.0
 10
432.0864750790442
 20
-2187.883982693823
 30
0.0
 10
432.0843155458451
 20
-2187.885093035867
 30
0.0
 10
432.0833809156575
 20
-2187.885571361439
 30
0.0
 10
432.0824451555291
 20
-2187.886048040835
 30
0.0
  0
LINE
  5
1990
330
1F
100
AcDbEntity
  8
Hewi
100
AcDbLine
 10
452.6142085198062
 20
-2164.219458450772
 30
0.0
 11
452.7642085198049
 21
-2164.219458450772
 31
0.0
  0
LINE
  5
1991
330
1F
100
AcDbEntity
  8
Hewi
100
AcDbLine
 10
452.6142085198062
 20
-2199.019458450772
 30
0.0
 11
452.7642085198049
 21
-2199.019458450772
 31
0.0
  0
LINE
  5
1992
330
1F
100
AcDbEntity
  8
Hewi
100
AcDbLine
 10
430.7834473353487
 20
-2188.087656986292
 30
0.0
 11
431.4360224572903
 21
-2188.087656986292
 31
0.0
  0
LINE
  5
1993
330
1F
100
AcDbEntity
  8
Hewi
100
AcDbLine
 10
428.1142085198061
 20
-2161.619458450772
 30
0.0
 11
452.6142085198062
 21
-2161.619458450772
 31
0.0
  0
LINE
  5
1994
330
1F
100
AcDbEntity
  8
Hewi
100
AcDbLine
 10
428.1142085198061
 20
-2201.619458450772
 30
0.0
 11
452.6142085198062
 21
-2201.619458450772
 31
0.0
  0
LINE
  5
1995
330
1F
100
AcDbEntity
  8
Hewi
100
AcDbLine
 10
502.9642085198048
 20
-2201.619480995099
 30
0.0
 11
467.9642085198048
 21
-2201.619480995099
 31
0.0
  0
LINE
  5
1996
330
1F
100
AcDbEntity
  8
Hewi
100
AcDbLine
 10
467.9642085198048
 20
-2201.619458450772
 30
0.0
 11
461.4642085198048
 21
-2201.619458450772
 31
0.0
  0
LINE
  5
1997
330
1F
100
AcDbEntity
  8
Hewi
100
AcDbLine
 10
461.264208519805
 20
-2201.619458450773
 30
0.0
 11
452.7642085198049
 21
-2201.619458450773
 31
0.0
  0
LINE
  5
1998
330
1F
100
AcDbEntity
  8
Hewi
100
AcDbLine
 10
458.7642085198059
 20
-2161.619458450774
 30
0.0
 11
452.7642085198049
 21
-2161.619458450774
 31
0.0
  0
LINE
  5
1999
330
1F
100
AcDbEntity
  8
Hewi
100
AcDbLine
 10
461.264208519805
 20
-2173.619458450772
 30
0.0
 11
461.4642085198048
 21
-2173.619458450772
 31
0.0
  0
LINE
  5
199A
330
1F
100
AcDbEntity
  8
Hewi
100
AcDbLine
 10
461.264208519805
 20
-2189.619458450772
 30
0.0
 11
461.4642085198048
 21
-2189.619458450772
 31
0.0
  0
LINE
  5
199B
330
1F
100
AcDbEntity
  8
Hewi
100
AcDbLine
 10
461.4642085198048
 20
-2177.376817763652
 30
0.0
 11
461.264208519805
 21
-2177.376817763652
 31
0.0
  0
LINE
  5
199C
330
1F
100
AcDbEntity
  8
Hewi
100
AcDbLine
 10
461.4642085198048
 20
-2179.548906089951
 30
0.0
 11
461.264208519805
 21
-2179.548906089951
 31
0.0
  0
LINE
  5
199D
330
1F
100
AcDbEntity
  8
Hewi
100
AcDbLine
 10
461.264208519805
 20
-2175.96260420128
 30
0.0
 11
461.4642085198048
 21
-2175.96260420128
 31
0.0
  0
LINE
  5
199E
330
1F
100
AcDbEntity
  8
Hewi
100
AcDbLine
 10
460.7642085198059
 20
-2172.901660563672
 30
0.0
 11
461.264208519805
 21
-2172.901660563672
 31
0.0
  0
SPLINE
  5
199F
330
1F
100
AcDbEntity
  8
Hewi
100
AcDbSpline
210
0.0
220
0.0
230
1.0
 70
     8
 71
     3
 72
    18
 73
    14
 74
     0
 42
0.000000001
 43
0.0000000001
 40
-4.49455063240396
 40
-4.49455063240396
 40
-4.49455063240396
 40
-4.49455063240396
 40
-3.042993563053926
 40
-3.042993563053926
 40
-2.317215028378913
 40
-2.317215028378913
 40
-1.591436493703898
 40
-1.591436493703898
 40
-0.7957182468519495
 40
-0.7957182468519495
 40
-0.3978591234259738
 40
-0.3978591234259738
 40
0.0
 40
0.0
 40
0.0
 40
0.0
 10
458.7642085198059
 20
-2169.619458450762
 30
0.0
 10
458.7642085198059
 20
-2170.006540335922
 30
0.0
 10
458.829448831837
 20
-2170.437305322801
 30
0.0
 10
459.0243663529164
 20
-2171.077284911259
 30
0.0
 10
459.1051268572155
 20
-2171.289479185887
 30
0.0
 10
459.296660621174
 20
-2171.698350012922
 30
0.0
 10
459.4072783057391
 20
-2171.895075988441
 30
0.0
 10
459.6717565334993
 20
-2172.275382078032
 30
0.0
 10
459.8470123456955
 20
-2172.481080601588
 30
0.0
 10
460.1575167479087
 20
-2172.715734574528
 30
0.0
 10
460.2688408382646
 20
-2172.781612316733
 30
0.0
 10
460.5058944858147
 20
-2172.874546253508
 30
0.0
 10
460.6315888119971
 20
-2172.901660563674
 30
0.0
 10
460.7642085198059
 20
-2172.901660563674
 30
0.0
  0
LINE
  5
19A0
330
1F
100
AcDbEntity
  8
Hewi
100
AcDbLine
 10
461.264208519805
 20
-2201.619458450773
 30
0.0
 11
461.264208519805
 21
-2172.901660563672
 31
0.0
  0
LINE
  5
19A1
330
1F
100
AcDbEntity
  8
Hewi
100
AcDbLine
 10
452.7642085198049
 20
-2161.619458450774
 30
0.0
 11
452.7642085198049
 21
-2201.619458450773
 31
0.0
  0
LINE
  5
19A2
330
1F
100
AcDbEntity
  8
Hewi
100
AcDbLine
 10
461.264208519805
 20
-2172.901660563672
 30
0.0
 11
467.9642085198048
 21
-2172.901660563672
 31
0.0
  0
LINE
  5
19A3
330
1F
100
AcDbEntity
  8
Hewi
100
AcDbLine
 10
458.7642085198059
 20
-2139.619458450773
 30
0.0
 11
458.7642085198059
 21
-2169.619458450762
 31
0.0
  0
ARC
  5
19A4
330
1F
100
AcDbEntity
  8
Hewi
100
AcDbCircle
 10
485.4642085198047
 20
-2139.619458450773
 30
0.0
 40
26.69999999999936
100
AcDbArc
 50
110.8428039567471
 51
180.0
  0
LINE
  5
19A5
330
1F
100
AcDbEntity
  8
Hewi
100
AcDbLine
 10
461.4642085198048
 20
-2172.901660563658
 30
0.0
 11
461.4642085198048
 21
-2201.619458450772
 31
0.0
  0
LINE
  5
19A6
330
1F
100
AcDbEntity
  8
Hewi
100
AcDbLine
 10
467.9642085198048
 20
-2172.901608843536
 30
0.0
 11
467.9642085198048
 21
-2201.619480995099
 31
0.0
  0
LINE
  5
19A7
330
1F
100
AcDbEntity
  8
Hewi
100
AcDbLine
 10
502.9642085198048
 20
-2201.619480995099
 30
0.0
 11
502.9642085198048
 21
-2172.901608843536
 31
0.0
  0
LINE
  5
19A8
330
1F
100
AcDbEntity
  8
Hewi
100
AcDbLine
 10
452.6142085198062
 20
-2161.619458450772
 30
0.0
 11
452.6142085198062
 21
-2195.761594074502
 31
0.0
  0
LINE
  5
19A9
330
1F
100
AcDbEntity
  8
Hewi
100
AcDbLine
 10
452.6142085198062
 20
-2195.761594074502
 30
0.0
 11
452.6142085198062
 21
-2201.619458450772
 31
0.0
  0
LINE
  5
19AA
330
1F
100
AcDbEntity
  8
Hewi
100
AcDbLine
 10
427.1142085198062
 20
-2183.711218452813
 30
0.0
 11
427.1142085198062
 21
-2200.503963741985
 31
0.0
  0
LINE
  5
19AB
330
1F
100
AcDbEntity
  8
Hewi
100
AcDbLine
 10
427.1142085198062
 20
-2200.503963741985
 30
0.0
 11
427.1142085198062
 21
-2200.619458450772
 31
0.0
  0
LINE
  5
19AC
330
1F
100
AcDbEntity
  8
Hewi
100
AcDbLine
 10
427.1142085198062
 20
-2162.619458450771
 30
0.0
 11
427.1142085198062
 21
-2183.711218452813
 31
0.0
  0
ARC
  5
19AD
330
1F
100
AcDbEntity
  8
Hewi
100
AcDbCircle
 10
518.3142085198051
 20
-2199.619458450772
 30
0.0
 40
1.999999999999999
100
AcDbArc
 50
270.0
 51
0.0
  0
ARC
  5
19AE
330
1F
100
AcDbEntity
  8
Hewi
100
AcDbCircle
 10
518.3142085198051
 20
-2163.619458450772
 30
0.0
 40
1.999999999999999
100
AcDbArc
 50
0.0
 51
90.0
  0
LINE
  5
19AF
330
1F
100
AcDbEntity
  8
Hewi
100
AcDbLine
 10
518.1642085198046
 20
-2201.619458450773
 30
0.0
 11
509.6642085198046
 21
-2201.619458450773
 31
0.0
  0
LINE
  5
19B0
330
1F
100
AcDbEntity
  8
Hewi
100
AcDbLine
 10
518.1642085198046
 20
-2161.619458450774
 30
0.0
 11
512.1642085198037
 21
-2161.619458450774
 31
0.0
  0
LINE
  5
19B1
330
1F
100
AcDbEntity
  8
Hewi
100
AcDbLine
 10
518.1642085198046
 20
-2164.219458450772
 30
0.0
 11
518.3142085198051
 21
-2164.219458450772
 31
0.0
  0
LINE
  5
19B2
330
1F
100
AcDbEntity
  8
Hewi
100
AcDbLine
 10
518.1642085198046
 20
-2199.019458450772
 30
0.0
 11
518.3142085198051
 21
-2199.019458450772
 31
0.0
  0
LINE
  5
19B3
330
1F
100
AcDbEntity
  8
Hewi
100
AcDbLine
 10
509.4642085198048
 20
-2173.619458450772
 30
0.0
 11
509.6642085198046
 21
-2173.619458450772
 31
0.0
  0
LINE
  5
19B4
330
1F
100
AcDbEntity
  8
Hewi
100
AcDbLine
 10
509.4642085198048
 20
-2189.619458450772
 30
0.0
 11
509.6642085198046
 21
-2189.619458450772
 31
0.0
  0
LINE
  5
19B5
330
1F
100
AcDbEntity
  8
Hewi
100
AcDbLine
 10
518.3142085198051
 20
-2161.619458450772
 30
0.0
 11
518.3142085198051
 21
-2167.477322827041
 31
0.0
  0
LINE
  5
19B6
330
1F
100
AcDbEntity
  8
Hewi
100
AcDbLine
 10
518.3142085198051
 20
-2167.477322827041
 30
0.0
 11
518.3142085198051
 21
-2201.619458450772
 31
0.0
  0
LINE
  5
19B7
330
1F
100
AcDbEntity
  8
Hewi
100
AcDbLine
 10
520.314208519805
 20
-2163.619458450772
 30
0.0
 11
520.314208519805
 21
-2168.891536389415
 31
0.0
  0
LINE
  5
19B8
330
1F
100
AcDbEntity
  8
Hewi
100
AcDbLine
 10
520.314208519805
 20
-2168.891536389414
 30
0.0
 11
520.314208519805
 21
-2199.619458450772
 31
0.0
  0
LINE
  5
19B9
330
1F
100
AcDbEntity
  8
Hewi
100
AcDbLine
 10
509.6642085198046
 20
-2172.901660563672
 30
0.0
 11
510.1642085198037
 21
-2172.901660563672
 31
0.0
  0
LINE
  5
19BA
330
1F
100
AcDbEntity
  8
Hewi
100
AcDbLine
 10
509.6642085198046
 20
-2201.619458450773
 30
0.0
 11
509.6642085198046
 21
-2172.901660563672
 31
0.0
  0
SPLINE
  5
19BB
330
1F
100
AcDbEntity
  8
Hewi
100
AcDbSpline
210
0.0
220
0.0
230
1.0
 70
     8
 71
     3
 72
    18
 73
    14
 74
     0
 42
0.000000001
 43
0.0000000001
 40
0.0
 40
0.0
 40
0.0
 40
0.0
 40
0.3978591234259627
 40
0.3978591234259627
 40
0.7957182468519255
 40
0.7957182468519255
 40
1.59143649370385
 40
1.59143649370385
 40
2.31721502837871
 40
2.31721502837871
 40
3.042993563053578
 40
3.042993563053578
 40
4.494550632403308
 40
4.494550632403308
 40
4.494550632403308
 40
4.494550632403308
 10
510.1642085198037
 20
-2172.901660563673
 30
0.0
 10
510.2968282276123
 20
-2172.901660563673
 30
0.0
 10
510.4225225537948
 20
-2172.874546253507
 30
0.0
 10
510.6595762013449
 20
-2172.781612316732
 30
0.0
 10
510.7709002917009
 20
-2172.715734574528
 30
0.0
 10
511.081404693914
 20
-2172.481080601587
 30
0.0
 10
511.2566605061102
 20
-2172.275382078031
 30
0.0
 10
511.5211387338705
 20
-2171.895075988441
 30
0.0
 10
511.6317564184355
 20
-2171.698350012921
 30
0.0
 10
511.823290182394
 20
-2171.289479185886
 30
0.0
 10
511.9040506866932
 20
-2171.077284911259
 30
0.0
 10
512.0989682077726
 20
-2170.437305322801
 30
0.0
 10
512.1642085198037
 20
-2170.006540335922
 30
0.0
 10
512.1642085198037
 20
-2169.619458450762
 30
0.0
  0
LINE
  5
19BC
330
1F
100
AcDbEntity
  8
Hewi
100
AcDbLine
 10
518.1642085198046
 20
-2161.619458450774
 30
0.0
 11
518.1642085198046
 21
-2201.619458450773
 31
0.0
  0
LINE
  5
19BD
330
1F
100
AcDbEntity
  8
Hewi
100
AcDbLine
 10
512.1642085198037
 20
-2139.619458450773
 30
0.0
 11
512.1642085198037
 21
-2169.619458450762
 31
0.0
  0
LINE
  5
19BE
330
1F
100
AcDbEntity
  8
Hewi
100
AcDbLine
 10
509.4642085198048
 20
-2172.901660563658
 30
0.0
 11
509.4642085198048
 21
-2201.619458450772
 31
0.0
  0
LINE
  5
1A07
330
1F
100
AcDbEntity
  8
Hewi
100
AcDbLine
 10
468.464208519804
 20
-1052.639580998721
 30
0.0000000000000016
 11
468.4642085198038
 21
-1867.562978975264
 31
0.0000000000000015
  0
LINE
  5
1A08
330
1F
100
AcDbEntity
  8
Hewi
100
AcDbLine
 10
501.4642085198038
 20
-944.639558454395
 30
-0.0000000000000019
 11
501.4642085198034
 21
-668.8629789752529
 31
-0.0000000000000057
  0
LINE
  5
1A0B
330
1F
100
AcDbEntity
  8
Hewi
100
AcDbLine
 10
1099.397805661437
 20
-946.651963536598
 30
-0.0000000000000009
 11
1099.397805661436
 21
-668.8629789752529
 31
-0.0000000000000047
  0
LINE
  5
1A0C
330
1F
100
AcDbEntity
  8
Hewi
100
AcDbLine
 10
1066.40268043356
 20
-1052.651963536577
 30
0.0
 11
1066.391454363075
 21
-1792.062978975265
 31
0.0
  0
ARC
  5
1A0D
330
1F
100
AcDbEntity
  8
Hewi
100
AcDbCircle
 10
-43.40184045415549
 20
-1048.332318176284
 30
0.000000000000014
 40
4.000000000000073
100
AcDbArc
 50
184.1768749669934
 51
345.8231250330107
  0
ARC
  5
1A0E
330
1F
100
AcDbEntity
  8
Hewi
100
AcDbCircle
 10
-13.08075806335273
 20
-1051.951963536577
 30
0.0000000000000084
 40
0.6999999999999319
100
AcDbArc
 50
180.0
 51
270.0
  0
ARC
  5
1A0F
330
1F
100
AcDbEntity
  8
Hewi
100
AcDbCircle
 10
24.91924193664636
 20
-1051.951963536577
 30
0.0000000000000014
 40
0.6999999999999319
100
AcDbArc
 50
270.0
 51
0.0
  0
ARC
  5
1A10
330
1F
100
AcDbEntity
  8
Hewi
100
AcDbCircle
 10
30.61924193664641
 20
-948.651963536599
 30
0.0000000000000004
 40
1.999999999999995
100
AcDbArc
 50
0.0
 51
90.0
  0
ARC
  5
1A11
330
1F
100
AcDbEntity
  8
Hewi
100
AcDbCircle
 10
30.61924193664641
 20
-980.6519635365781
 30
0.0000000000000004
 40
1.999999999999999
100
AcDbArc
 50
270.0
 51
0.0
  0
ARC
  5
1A12
330
1F
100
AcDbEntity
  8
Hewi
100
AcDbCircle
 10
72.29005838528656
 20
-1039.883380791972
 30
-0.0000000000000073
 40
119.9999999999995
100
AcDbArc
 50
181.0773402168434
 51
184.1768749669934
  0
ARC
  5
1A13
330
1F
100
AcDbEntity
  8
Hewi
100
AcDbCircle
 10
72.29005838528656
 20
-1039.883380791972
 30
-0.0000000000000073
 40
119.9999999999995
100
AcDbArc
 50
165.9776914801224
 51
168.9226597831511
  0
LINE
  5
1A14
330
1F
100
AcDbEntity
  8
Hewi
100
AcDbLine
 10
25.61924193664732
 20
-1051.951963536577
 30
0.0000000000000013
 11
25.61924193664732
 21
-982.6519635365768
 31
0.0000000000000013
210
0.0
220
1.0
230
0.0
  0
LINE
  5
1A15
330
1F
100
AcDbEntity
  8
Hewi
100
AcDbLine
 10
-13.78075806335278
 20
-1051.951963536577
 30
0.0000000000000085
 11
-13.78075806335278
 21
-982.6519635365768
 31
0.0000000000000085
210
0.0
220
1.0
230
0.0
  0
LINE
  5
1A16
330
1F
100
AcDbEntity
  8
Hewi
100
AcDbLine
 10
32.6192419366464
 20
-980.6519635365781
 30
0.0
 11
32.6192419366464
 21
-948.651963536599
 31
0.0
210
0.0
220
1.0
230
0.0
  0
LINE
  5
1A17
330
1F
100
AcDbEntity
  8
Hewi
100
AcDbLine
 10
5.919241936646357
 20
-982.6519635365759
 30
0.0000000000000049
 11
-27.36296017624568
 21
-982.6519635365759
 31
0.000000000000011
210
0.0
220
1.0
230
0.0
  0
LINE
  5
1A18
330
1F
100
AcDbEntity
  8
Hewi
100
AcDbLine
 10
5.919241936646357
 20
-946.651963536598
 30
0.0000000000000049
 11
-27.36296017625455
 21
-946.651963536598
 31
0.000000000000011
210
0.0
220
1.0
230
0.0
  0
LINE
  5
1A19
330
1F
100
AcDbEntity
  8
Hewi
100
AcDbLine
 10
30.61924193664641
 20
-946.6519635365989
 30
0.0000000000000004
 11
5.919241936646357
 21
-946.6519635365989
 31
0.0000000000000049
210
0.0
220
1.0
230
0.0
  0
LINE
  5
1A1A
330
1F
100
AcDbEntity
  8
Hewi
100
AcDbLine
 10
30.61924193664641
 20
-982.651963536578
 30
0.0000000000000004
 11
5.919241936646357
 21
-982.651963536578
 31
0.0000000000000049
210
0.0
220
1.0
230
0.0
  0
LINE
  5
1A1B
330
1F
100
AcDbEntity
  8
Hewi
100
AcDbLine
 10
-13.08075806335273
 20
-1052.651963536577
 30
0.0000000000000084
 11
24.91924193664636
 21
-1052.651963536577
 31
0.0000000000000014
210
0.0
220
1.0
230
0.0
  0
ARC
  5
1A1C
330
1F
100
AcDbEntity
  8
Hewi
100
AcDbCircle
 10
-36.0807580633525
 20
-964.6519635365768
 30
0.0000000000000126
 40
20.00002254432668
100
AcDbArc
 50
64.15793388634309
 51
295.8420661134825
  0
LINE
  5
1A1D
330
1F
100
AcDbEntity
  8
Hewi
100
AcDbLine
 10
-33.80387805945043
 20
-984.521958987543
 30
0.0000000000000122
 11
-36.70870696268844
 21
-1017.724305282122
 31
0.0000000000000127
210
0.0
220
1.0
230
0.0
  0
SPLINE
  5
1A1E
330
1F
100
AcDbEntity
  8
Hewi
100
AcDbSpline
210
0.0
220
0.0
230
1.0
 70
     8
 71
     3
 72
    20
 73
    16
 74
     0
 42
0.000000001
 43
0.0000000001
 40
1.658125044756507
 40
1.658125044756507
 40
1.658125044756507
 40
1.658125044756507
 40
1.696828082632723
 40
1.696828082632723
 40
1.798652902623234
 40
1.798652902623234
 40
1.900477722613745
 40
1.900477722613745
 40
1.938296586027634
 40
1.938296586027634
 40
1.97611544944152
 40
1.97611544944152
 40
2.029036545890053
 40
2.029036545890053
 40
2.081957642338585
 40
2.081957642338585
 40
2.081957642338585
 40
2.081957642338585
 10
-36.74871456133065
 20
-1017.594172877409
 30
0.0000000000000127
 10
-36.74775116135447
 20
-1017.606268558195
 30
0.0000000000000127
 10
-36.74676825268239
 20
-1017.618197928248
 30
0.0000000000000127
 10
-36.74312754283143
 20
-1017.660613462776
 30
0.0000000000000127
 10
-36.74037836797948
 20
-1017.689462247837
 30
0.0000000000000127
 10
-36.73443595881439
 20
-1017.740493347785
 30
0.0000000000000127
 10
-36.73130907254768
 20
-1017.763207124581
 30
0.0000000000000127
 10
-36.72599373296522
 20
-1017.783267839178
 30
0.0000000000000127
 10
-36.72437071556146
 20
-1017.787503258309
 30
0.0000000000000127
 10
-36.7211614178093
 20
-1017.790550429782
 30
0.0000000000000127
 10
-36.7195752998116
 20
-1017.78932081059
 30
0.0000000000000127
 10
-36.71627082268447
 20
-1017.78173722077
 30
0.0000000000000127
 10
-36.7144455077098
 20
-1017.773042807108
 30
0.0000000000000127
 10
-36.71123994519962
 20
-1017.750819419401
 30
0.0000000000000127
 10
-36.70985076679268
 20
-1017.737379022856
 30
0.0000000000000127
 10
-36.70870696268844
 20
-1017.724305282122
 30
0.0000000000000127
  0
SPLINE
  5
1A1F
330
1F
100
AcDbEntity
  8
Hewi
100
AcDbSpline
210
-0.0000000000000001
220
-0.0000000000000001
230
1.0
 70
     8
 71
     3
 72
    14
 73
    10
 74
     0
 42
0.000000001
 43
0.0000000001
 40
8.778950683888792
 40
8.778950683888792
 40
8.778950683888792
 40
8.778950683888792
 40
9.563883066885145
 40
9.563883066885145
 40
10.34881544988149
 40
10.34881544988149
 40
11.08217418681549
 40
11.08217418681549
 40
11.16592180634194
 40
11.16592180634194
 40
11.16592180634194
 40
11.16592180634194
 10
-37.50186621578655
 20
-1015.316443783779
 30
0.0000000000000129
 10
-37.38362919417455
 20
-1015.549848274443
 30
0.0000000000000128
 10
-37.25935252176828
 20
-1015.806112476263
 30
0.0000000000000128
 10
-37.04354765516541
 20
-1016.319931339571
 30
0.0000000000000128
 10
-36.95270685266655
 20
-1016.577947481849
 30
0.0000000000000128
 10
-36.82825100651939
 20
-1017.033882779964
 30
0.0000000000000127
 10
-36.78024628419166
 20
-1017.273978323979
 30
0.0000000000000127
 10
-36.75334236860749
 20
-1017.539769723583
 30
0.0000000000000127
 10
-36.75087924872173
 20
-1017.566994791127
 30
0.0000000000000127
 10
-36.74871456133065
 20
-1017.594172877409
 30
0.0000000000000127
  0
SPLINE
  5
1A20
330
1F
100
AcDbEntity
  8
Hewi
100
AcDbSpline
210
0.0000000000000002
220
0.0
230
1.0
 70
     8
 71
     3
 72
    30
 73
    26
 74
     0
 42
0.000000001
 43
0.0000000001
 40
50.21703549202495
 40
50.21703549202495
 40
50.21703549202495
 40
50.21703549202495
 40
50.53039260880385
 40
50.53039260880385
 40
51.29598074329932
 40
51.29598074329932
 40
51.92914302530023
 40
51.92914302530023
 40
52.56230530730113
 40
52.56230530730113
 40
53.12551373138332
 40
53.12551373138332
 40
53.68872215546555
 40
53.68872215546555
 40
54.25193057954776
 40
54.25193057954776
 40
54.81513900362998
 40
54.81513900362998
 40
55.44830128563085
 40
55.44830128563085
 40
56.08146356763175
 40
56.08146356763175
 40
56.84705170212724
 40
56.84705170212724
 40
57.16040881890615
 40
57.16040881890615
 40
57.16040881890615
 40
57.16040881890615
 10
-43.4790344043365
 20
-1014.793509327293
 30
0.000000000000014
 10
-43.41146134166844
 20
-1014.703398030854
 30
0.000000000000014
 10
-43.3399693939466
 20
-1014.614246608675
 30
0.0000000000000139
 10
-43.08328836301757
 20
-1014.316636806981
 30
0.0000000000000139
 10
-42.88187177584743
 20
-1014.122494753437
 30
0.0000000000000139
 10
-42.51805207003349
 20
-1013.830905292684
 30
0.0000000000000138
 10
-42.32687854967728
 20
-1013.699992955935
 30
0.0000000000000138
 10
-41.92259770711621
 20
-1013.479218717052
 30
0.0000000000000137
 10
-41.70936453820718
 20
-1013.389587342977
 30
0.0000000000000136
 10
-41.32867508769161
 20
-1013.270805214329
 30
0.0000000000000136
 10
-41.12757387871464
 20
-1013.226314019284
 30
0.0000000000000135
 10
-40.72065879032765
 20
-1013.180696443441
 30
0.0000000000000135
 10
-40.51483472138875
 20
-1013.17966100056
 30
0.0000000000000134
 10
-40.14079122406179
 20
-1013.212385566242
 30
0.0000000000000134
 10
-39.93827388798332
 20
-1013.24914625291
 30
0.0000000000000133
 10
-39.54546216303629
 20
-1013.364730858837
 30
0.0000000000000132
 10
-39.3551419482376
 20
-1013.443466991124
 30
0.0000000000000132
 10
-39.0008623260585
 20
-1013.626550581675
 30
0.0000000000000131
 10
-38.80643297288748
 20
-1013.751847804976
 30
0.0000000000000131
 10
-38.44663110899751
 20
-1014.03947061867
 30
0.000000000000013
 10
-38.28109463269152
 20
-1014.201591036293
 30
0.000000000000013
 10
-37.97343614419356
 20
-1014.551927226853
 30
0.000000000000013
 10
-37.80879194136856
 20
-1014.778095449683
 30
0.0000000000000129
 10
-37.60768987177858
 20
-1015.115756083026
 30
0.0000000000000129
 10
-37.55276502938136
 20
-1015.21596754122
 30
0.0000000000000129
 10
-37.50186621578655
 20
-1015.316443783779
 30
0.0000000000000129
  0
SPLINE
  5
1A21
330
1F
100
AcDbEntity
  8
Hewi
100
AcDbSpline
210
-0.0000000000000001
220
0.0000000000000001
230
1.0
 70
     8
 71
     3
 72
    14
 73
    10
 74
     0
 42
0.000000001
 43
0.0000000001
 40
0.649611117407552
 40
0.649611117407552
 40
0.649611117407552
 40
0.649611117407552
 40
0.7333587369340008
 40
0.7333587369340008
 40
1.466717473868001
 40
1.466717473868001
 40
2.251649856864295
 40
2.251649856864295
 40
3.036582239860591
 40
3.036582239860591
 40
3.036582239860591
 40
3.036582239860591
 10
-44.61626749916669
 20
-1016.905851185658
 30
0.0000000000000142
 10
-44.60941627308534
 20
-1016.879461889596
 30
0.0000000000000142
 10
-44.6022629901597
 20
-1016.853078148282
 30
0.0000000000000142
 10
-44.5296136133245
 20
-1016.595996533181
 30
0.0000000000000142
 10
-44.44064603691026
 20
-1016.367884512524
 30
0.0000000000000141
 10
-44.23890862106532
 20
-1015.940487426951
 30
0.0000000000000141
 10
-44.10464386155966
 20
-1015.702165469446
 30
0.0000000000000141
 10
-43.80289384652654
 20
-1015.233626791033
 30
0.000000000000014
 10
-43.63600540437642
 20
-1015.002836235951
 30
0.000000000000014
 10
-43.4790344043365
 20
-1014.793509327293
 30
0.000000000000014
  0
SPLINE
  5
1A22
330
1F
100
AcDbEntity
  8
Hewi
100
AcDbSpline
210
0.0
220
0.0
230
1.0
 70
     8
 71
     3
 72
    20
 73
    16
 74
     0
 42
0.000000001
 43
0.0000000001
 40
-2.081957642337048
 40
-2.081957642337048
 40
-2.081957642337048
 40
-2.081957642337048
 40
-2.029036545889133
 40
-2.029036545889133
 40
-1.976115449441223
 40
-1.976115449441223
 40
-1.938296586027501
 40
-1.938296586027501
 40
-1.900477722613779
 40
-1.900477722613779
 40
-1.79865290262327
 40
-1.79865290262327
 40
-1.696828082632761
 40
-1.696828082632761
 40
-1.658125044755919
 40
-1.658125044755919
 40
-1.658125044755919
 40
-1.658125044755919
 10
-44.67826454742247
 20
-1017.027059340141
 30
0.0000000000000142
 10
-44.67940835152671
 20
-1017.040133080875
 30
0.0000000000000142
 10
-44.68037417822753
 20
-1017.053610515894
 30
0.0000000000000142
 10
-44.68107636619263
 20
-1017.076052920495
 30
0.0000000000000142
 10
-44.68078855094131
 20
-1017.084932209095
 30
0.0000000000000142
 10
-44.67885115279864
 20
-1017.092974403576
 30
0.0000000000000142
 10
-44.67750265263044
 20
-1017.094460768593
 30
0.0000000000000142
 10
-44.67381297554834
 20
-1017.092017179208
 30
0.0000000000000142
 10
-44.67147914261271
 20
-1017.088127939624
 30
0.0000000000000142
 10
-44.6627610484495
 20
-1017.06929499139
 30
0.0000000000000142
 10
-44.65573746066253
 20
-1017.047469266003
 30
0.0000000000000142
 10
-44.64102387253456
 20
-1016.998245331652
 30
0.0000000000000142
 10
-44.63330692487147
 20
-1016.970312213663
 30
0.0000000000000142
 10
-44.6223561453096
 20
-1016.929173269041
 30
0.0000000000000142
 10
-44.61931665585846
 20
-1016.917595813224
 30
0.0000000000000142
 10
-44.61626749916669
 20
-1016.905851185658
 30
0.0000000000000142
  0
LINE
  5
1A23
330
1F
100
AcDbEntity
  8
Hewi
100
AcDbLine
 10
-41.77343564418445
 20
-983.824713045562
 30
0.0000000000000137
 11
-44.67826454742247
 21
-1017.027059340141
 31
0.0000000000000142
210
0.0
220
1.0
230
0.0
  0
LINE
  5
1A24
330
1F
100
AcDbEntity
  8
Hewi
100
AcDbLine
 10
-45.47418889569438
 20
-1016.827317330401
 30
0.0000000000000143
 11
-47.68872876894442
 21
-1042.139623908207
 31
0.0000000000000147
210
0.0
220
1.0
230
0.0
  0
LINE
  5
1A25
330
1F
100
AcDbEntity
  8
Hewi
100
AcDbLine
 10
-35.8901896577047
 20
-1017.665808614966
 30
0.0000000000000126
 11
-38.10472953095564
 21
-1042.978115192772
 31
0.000000000000013
210
0.0
220
1.0
230
0.0
  0
SPLINE
  5
1A26
330
1F
100
AcDbEntity
  8
Hewi
100
AcDbSpline
210
0.0000000000000002
220
0.0
230
1.0
 70
     8
 71
     3
 72
    46
 73
    42
 74
     0
 42
0.000000001
 43
0.0000000001
 40
-26.25009051702358
 40
-26.25009051702358
 40
-26.25009051702358
 40
-26.25009051702358
 40
-25.19226716828405
 40
-25.19226716828405
 40
-24.06297385938894
 40
-24.06297385938894
 40
-22.97039393615168
 40
-22.97039393615168
 40
-21.87781401291442
 40
-21.87781401291442
 40
-20.78523408967716
 40
-20.78523408967716
 40
-19.6926541664399
 40
-19.6926541664399
 40
-18.59462246291696
 40
-18.59462246291696
 40
-17.49659075939401
 40
-17.49659075939401
 40
-16.39855905587109
 40
-16.39855905587109
 40
-15.30052735234815
 40
-15.30052735234815
 40
-14.20249564882519
 40
-14.20249564882519
 40
-13.10446394530224
 40
-13.10446394530224
 40
-12.00643224177928
 40
-12.00643224177928
 40
-10.90840053825633
 40
-10.90840053825633
 40
-9.815820615019132
 40
-9.815820615019132
 40
-8.723240691781931
 40
-8.723240691781931
 40
-7.630660768544732
 40
-7.630660768544732
 40
-6.538080845307532
 40
-6.538080845307532
 40
-5.408787536412319
 40
-5.408787536412319
 40
-4.350964187672493
 40
-4.350964187672493
 40
-4.350964187672493
 40
-4.350964187672493
 10
-30.3247535077694
 20
-983.8057722810249
 30
0.0000000000000116
 10
-30.15348441398352
 20
-983.7542980198891
 30
0.0000000000000115
 10
-29.96175262023644
 20
-983.694137845001
 30
0.0000000000000115
 10
-29.53818959408454
 20
-983.5529672568499
 30
0.0000000000000114
 10
-29.30458577027252
 20
-983.47076876047
 30
0.0000000000000114
 10
-28.83866376813535
 20
-983.2963171415782
 30
0.0000000000000113
 10
-28.58617173755261
 20
-983.196960344887
 30
0.0000000000000112
 10
-28.04650572673472
 20
-982.969619505795
 30
0.0000000000000111
 10
-27.75936465145264
 20
-982.8415822017349
 30
0.0000000000000111
 10
-27.16674920941864
 20
-982.5586176531752
 30
0.000000000000011
 10
-26.86114391420438
 20
-982.403565354552
 30
0.0000000000000109
 10
-26.25028775054966
 20
-982.0727128198939
 30
0.0000000000000108
 10
-25.94505696733654
 20
-981.8968764467498
 30
0.0000000000000107
 10
-25.3537848985377
 20
-981.5354673148579
 30
0.0000000000000106
 10
-25.04136974589255
 20
-981.333744892934
 30
0.0000000000000106
 10
-24.40396582331938
 20
-980.8939599233539
 30
0.0000000000000105
 10
-24.07900119595956
 20
-980.655851283034
 30
0.0000000000000104
 10
-23.43605841786052
 20
-980.1528719544901
 30
0.0000000000000103
 10
-23.11785305892067
 20
-979.8877850794502
 30
0.0000000000000102
 10
-22.50601583313846
 20
-979.345279623269
 30
0.0000000000000101
 10
-22.21238437285342
 20
-979.0678610935399
 30
0.0000000000000101
 10
-21.66486050639037
 20
-978.5203372270759
 30
0.00000000000001
 10
-21.38744197666051
 20
-978.2267057667908
 30
0.0000000000000099
 10
-20.84493652047945
 20
-977.6148685410092
 30
0.0000000000000098
 10
-20.57984964543948
 20
-977.2966631820688
 30
0.0000000000000098
 10
-20.0768703168967
 20
-976.6537204039698
 30
0.0000000000000097
 10
-19.83876167657559
 20
-976.3287557766108
 30
0.0000000000000096
 10
-19.39897670699474
 20
-975.691351854037
 30
0.0000000000000095
 10
-19.19725428507149
 20
-975.3789367013931
 30
0.0000000000000095
 10
-18.83584515317966
 20
-974.7876646325918
 30
0.0000000000000094
 10
-18.6600087800366
 20
-974.4824338493799
 30
0.0000000000000094
 10
-18.3291562453785
 20
-973.8715776857249
 30
0.0000000000000093
 10
-18.17410394675448
 20
-973.565972390511
 30
0.0000000000000093
 10
-17.89113939819548
 20
-972.9733569484769
 30
0.0000000000000093
 10
-17.76310209413464
 20
-972.6862158731959
 30
0.0000000000000092
 10
-17.53576125504241
 20
-972.146549862377
 30
0.0000000000000092
 10
-17.43640445835149
 20
-971.8940578317941
 30
0.0000000000000092
 10
-17.26195283946049
 20
-971.4281358296579
 30
0.0000000000000092
 10
-17.1797543430805
 20
-971.1945320058459
 30
0.0000000000000091
 10
-17.03858375492859
 20
-970.770968979694
 30
0.0000000000000091
 10
-16.9784235800405
 20
-970.579237185947
 30
0.0000000000000091
 10
-16.92694931890446
 20
-970.40796809216
 30
0.0000000000000091
  0
SPLINE
  5
1A27
330
1F
100
AcDbEntity
  8
Hewi
100
AcDbSpline
210
0.0000000000000002
220
0.0
230
1.0
 70
     8
 71
     3
 72
    38
 73
    34
 74
     0
 42
0.000000001
 43
0.0000000001
 40
7.989195374219312
 40
7.989195374219312
 40
7.989195374219312
 40
7.989195374219312
 40
8.254479951649056
 40
8.254479951649056
 40
9.559037833637082
 40
9.559037833637082
 40
10.8635957156251
 40
10.8635957156251
 40
12.16815359761313
 40
12.16815359761313
 40
13.47206133512371
 40
13.47206133512371
 40
14.77596907263429
 40
14.77596907263429
 40
16.07987681014486
 40
16.07987681014486
 40
17.38378454765544
 40
17.38378454765544
 40
18.68769228516606
 40
18.68769228516606
 40
19.99160002267668
 40
19.99160002267668
 40
21.29550776018729
 40
21.29550776018729
 40
22.59941549769791
 40
22.59941549769791
 40
23.90397337968593
 40
23.90397337968593
 40
25.20853126167392
 40
25.20853126167392
 40
26.51308914366193
 40
26.51308914366193
 40
26.77837372109179
 40
26.77837372109179
 40
26.77837372109179
 40
26.77837372109179
 10
-41.83678334920545
 20
-945.4981609606541
 30
0.0000000000000137
 10
-41.90085373182933
 20
-945.5174149312131
 30
0.0000000000000137
 10
-41.96611709535522
 20
-945.5373778567709
 30
0.0000000000000137
 10
-42.35901584209726
 20
-945.659848281376
 30
0.0000000000000138
 10
-42.71281836846561
 20
-945.779442987636
 30
0.0000000000000138
 10
-43.45336322314165
 20
-946.056239594802
 30
0.000000000000014
 10
-43.8402910917614
 20
-946.2136185185419
 30
0.000000000000014
 10
-44.62142893683835
 20
-946.5621912645481
 30
0.0000000000000142
 10
-45.01560990438361
 20
-946.753461677599
 30
0.0000000000000142
 10
-45.78261143040868
 20
-947.1573415007439
 30
0.0000000000000144
 10
-46.18853059071557
 20
-947.3872314685671
 30
0.0000000000000145
 10
-47.0183394543053
 20
-947.9006247195938
 30
0.0000000000000146
 10
-47.44218731224759
 20
-948.184213130259
 30
0.0000000000000147
 10
-48.28025943508442
 20
-948.795070893203
 30
0.0000000000000148
 10
-48.69488432238245
 20
-949.1227092695281
 30
0.0000000000000149
 10
-49.48982302865648
 20
-949.8037011424219
 30
0.0000000000000151
 10
-49.87013032415258
 20
-950.1570645499159
 30
0.0000000000000151
 10
-50.57565705001457
 20
-950.862591275777
 30
0.0000000000000153
 10
-50.92902045750747
 20
-951.242898571273
 30
0.0000000000000153
 10
-51.61001233040156
 20
-952.037837277547
 30
0.0000000000000155
 10
-51.93765070672746
 20
-952.4524621648449
 30
0.0000000000000155
 10
-52.54850846967041
 20
-953.2905342876828
 30
0.0000000000000156
 10
-52.83209688033526
 20
-953.7143821456238
 30
0.0000000000000157
 10
-53.34549013136279
 20
-954.5441910092149
 30
0.0000000000000158
 10
-53.57538009918538
 20
-954.9501101695209
 30
0.0000000000000158
 10
-53.97925992233171
 20
-955.717111695546
 30
0.0000000000000159
 10
-54.17053033538127
 20
-956.1112926630919
 30
0.0000000000000159
 10
-54.51910308138872
 20
-956.8924305081688
 30
0.000000000000016
 10
-54.67648200512826
 20
-957.2793583767879
 30
0.000000000000016
 10
-54.95327861229475
 20
-958.0199032314631
 30
0.0000000000000161
 10
-55.07287331855354
 20
-958.3737057578309
 30
0.0000000000000161
 10
-55.19534374315867
 20
-958.766604504574
 30
0.0000000000000161
 10
-55.21530666871626
 20
-958.8318678681
 30
0.0000000000000161
 10
-55.23456063927664
 20
-958.8959382507248
 30
0.0000000000000161
  0
ARC
  5
1A28
330
1F
100
AcDbEntity
  8
Hewi
100
AcDbCircle
 10
-36.0807580633525
 20
-964.6519635365768
 30
0.0000000000000126
 40
20.0
100
AcDbArc
 50
343.2737136313601
 51
349.5567007108264
  0
ARC
  5
1A29
330
1F
100
AcDbEntity
  8
Hewi
100
AcDbCircle
 10
-36.0807580633525
 20
-964.6519635365768
 30
0.0000000000000126
 40
20.0
100
AcDbArc
 50
349.5567007108264
 51
100.4432992892019
  0
ARC
  5
1A2A
330
1F
100
AcDbEntity
  8
Hewi
100
AcDbCircle
 10
-36.0807580633525
 20
-964.6519635365768
 30
0.0000000000000126
 40
20.0
100
AcDbArc
 50
100.4432992892019
 51
106.7262863686395
  0
ARC
  5
1A2B
330
1F
100
AcDbEntity
  8
Hewi
100
AcDbCircle
 10
-36.0807580633525
 20
-964.6519635365768
 30
0.0000000000000126
 40
20.0
100
AcDbArc
 50
163.2737136313601
 51
169.5567007108264
  0
ARC
  5
1A2C
330
1F
100
AcDbEntity
  8
Hewi
100
AcDbCircle
 10
-36.0807580633525
 20
-964.6519635365768
 30
0.0000000000000126
 40
20.0
100
AcDbArc
 50
169.5567007108264
 51
280.4432992892019
  0
ARC
  5
1A2D
330
1F
100
AcDbEntity
  8
Hewi
100
AcDbCircle
 10
-36.0807580633525
 20
-964.6519635365768
 30
0.0000000000000126
 40
20.0
100
AcDbArc
 50
280.4432992892019
 51
286.7262863686395
  0
ARC
  5
1A2E
330
1F
100
AcDbEntity
  8
Hewi
100
AcDbCircle
 10
-54.27687866023029
 20
-959.1837650010571
 30
0.000000000000016
 40
1.000000000000051
100
AcDbArc
 50
44.99999999999125
 51
163.2737136313601
  0
ARC
  5
1A2F
330
1F
100
AcDbEntity
  8
Hewi
100
AcDbCircle
 10
-30.61255952783267
 20
-982.848084133456
 30
0.0000000000000116
 40
1.000000000000051
100
AcDbArc
 50
286.7262863686395
 51
44.99999999999125
  0
ARC
  5
1A31
330
1F
100
AcDbEntity
  8
Hewi
100
AcDbCircle
 10
-17.88463746647471
 20
-970.1201620720969
 30
0.0000000000000093
 40
1.000000000000051
100
AcDbArc
 50
224.9999999999912
 51
343.2737136313601
  0
ARC
  5
1A33
330
1F
100
AcDbEntity
  8
Hewi
100
AcDbCircle
 10
-41.54895659887256
 20
-946.4558429396989
 30
0.0000000000000136
 40
1.000000000000051
100
AcDbArc
 50
106.7262863686395
 51
224.9999999999728
  0
ARC
  5
1A34
330
1F
100
AcDbEntity
  8
Hewi
100
AcDbCircle
 10
-155.8689768119366
 20
-1019.922051731202
 30
0.0000000000000346
 40
120.0000000000005
100
AcDbArc
 50
1.077340216869523
 51
4.022308519854139
  0
ARC
  5
1A35
330
1F
100
AcDbEntity
  8
Hewi
100
AcDbCircle
 10
-155.8689768119366
 20
-1019.922051731202
 30
0.0000000000000346
 40
120.0000000000005
100
AcDbArc
 50
345.8231250330107
 51
348.9226597831511
  0
LINE
  5
1A36
330
1F
100
AcDbEntity
  8
Hewi
100
AcDbLine
 10
22.24841035672532
 20
-1052.651963536577
 30
0.0
 11
22.2596364272099
 21
-1792.062978975265
 31
0.0
  0
LINE
  5
1A37
330
1F
100
AcDbEntity
  8
Hewi
100
AcDbLine
 10
-10.74671487115206
 20
-946.651963536598
 30
-0.0000000000000009
 11
-10.74671487115158
 21
-668.8629789752529
 31
-0.0000000000000047
  0
ENDSEC
  0
SECTION
  2
OBJECTS
  0
DICTIONARY
  5
C
330
0
100
AcDbDictionary
281
     1
  3
ACAD_CIP_PREVIOUS_PRODUCT_INFO
350
1AB7
  3
ACAD_COLOR
350
6B
  3
ACAD_DETAILVIEWSTYLE
350
1AB3
  3
ACAD_GROUP
350
D
  3
ACAD_LAYOUT
350
1A
  3
ACAD_MATERIAL
350
6A
  3
ACAD_MLEADERSTYLE
350
1AAF
  3
ACAD_MLINESTYLE
350
17
  3
ACAD_PLOTSETTINGS
350
19
  3
ACAD_PLOTSTYLENAME
350
E
  3
ACAD_SCALELIST
350
1A9D
  3
ACAD_SECTIONVIEWSTYLE
350
1AB1
  3
ACAD_TABLESTYLE
350
7E
  3
ACAD_VISUALSTYLE
350
EF
  3
ACDB_RECOMPOSE_DATA
350
1B41
  3
AcDbVariableDictionary
350
5E
  0
DICTIONARY
  5
141
330
2
100
AcDbDictionary
280
     1
281
     1
  3
ACAD_LAYERSTATES
360
142
  0
DICTIONARY
  5
1ABA
330
10
100
AcDbDictionary
280
     1
281
     1
  3
ADSK_XREC_LAYER_RECONCILED
360
1ABB
  0
DICTIONARY
  5
1ABC
330
13E
100
AcDbDictionary
280
     1
281
     1
  3
ADSK_XREC_LAYER_RECONCILED
360
1ABD
  0
DICTIONARY
  5
1ABE
330
17E5
100
AcDbDictionary
280
     1
281
     1
  3
ADSK_XREC_LAYER_RECONCILED
360
1ABF
  0
DICTIONARY
  5
116
330
1F
100
AcDbDictionary
280
     1
281
     1
  3
ACAD_SORTENTS
360
117
  0
XRECORD
  5
1AB7
102
{ACAD_REACTORS
330
C
102
}
330
C
100
AcDbXrecord
280
     1
300
ACDLT
300
2016
300
ACDLT_F_S
  0
DICTIONARY
  5
6B
102
{ACAD_REACTORS
330
C
102
}
330
C
100
AcDbDictionary
281
     1
  0
DICTIONARY
  5
1AB3
102
{ACAD_REACTORS
330
C
102
}
330
C
100
AcDbDictionary
281
     1
  3
Metric50
350
1AB4
  0
DICTIONARY
  5
D
102
{ACAD_REACTORS
330
C
102
}
330
C
100
AcDbDictionary
281
     1
  0
DICTIONARY
  5
1A
102
{ACAD_REACTORS
330
C
102
}
330
C
100
AcDbDictionary
281
     1
  3
Layout1
350
D3
  3
Layout2
350
D7
  3
Model
350
22
  0
DICTIONARY
  5
6A
102
{ACAD_REACTORS
330
C
102
}
330
C
100
AcDbDictionary
281
     1
  3
ByBlock
350
ED
  3
ByLayer
350
EC
  3
Global
350
EE
  0
DICTIONARY
  5
1AAF
102
{ACAD_REACTORS
330
C
102
}
330
C
100
AcDbDictionary
281
     1
  3
Standard
350
1AB0
  0
DICTIONARY
  5
17
102
{ACAD_REACTORS
330
C
102
}
330
C
100
AcDbDictionary
281
     1
  3
Standard
350
18
  0
DICTIONARY
  5
19
102
{ACAD_REACTORS
330
C
102
}
330
C
100
AcDbDictionary
281
     1
  0
ACDBDICTIONARYWDFLT
  5
E
102
{ACAD_REACTORS
330
C
102
}
330
C
100
AcDbDictionary
281
     1
  3
Normal
350
F
100
AcDbDictionaryWithDefault
340
F
  0
DICTIONARY
  5
1A9D
102
{ACAD_REACTORS
330
C
102
}
330
C
100
AcDbDictionary
281
     1
  3
A0
350
1A9E
  3
A1
350
1A9F
  3
A2
350
1AA0
  3
A3
350
1AA1
  3
A4
350
1AA2
  3
A5
350
1AA3
  3
A6
350
1AA4
  3
A7
350
1AA5
  3
A8
350
1AA6
  3
A9
350
1AA7
  3
B0
350
1AA8
  3
B1
350
1AA9
  3
B2
350
1AAA
  3
B3
350
1AAB
  3
B4
350
1AAC
  3
B5
350
1AAD
  3
B6
350
1AAE
  0
DICTIONARY
  5
1AB1
102
{ACAD_REACTORS
330
C
102
}
330
C
100
AcDbDictionary
281
     1
  3
Metric50
350
1AB2
  0
DICTIONARY
  5
7E
102
{ACAD_REACTORS
330
C
102
}
330
C
100
AcDbDictionary
281
     1
  3
Standard
350
7F
  0
DICTIONARY
  5
EF
102
{ACAD_REACTORS
330
C
102
}
330
C
100
AcDbDictionary
281
     1
  3
2dWireframe
350
F5
  3
3D Hidden
350
F7
  3
3dWireframe
350
F6
  3
Basic
350
F4
  3
Brighten
350
FB
  3
ColorChange
350
FF
  3
Conceptual
350
F8
  3
Dim
350
FA
  3
EdgeColorOff
350
1A9C
  3
Facepattern
350
FE
  3
Flat
350
F0
  3
FlatWithEdges
350
F1
  3
Gouraud
350
F2
  3
GouraudWithEdges
350
F3
  3
Hidden
350
1A94
  3
JitterOff
350
1A9A
  3
Linepattern
350
FD
  3
OverhangOff
350
1A9B
  3
Realistic
350
F9
  3
Shaded
350
1A99
  3
Shaded with edges
350
1A98
  3
Shades of Gray
350
1A95
  3
Sketchy
350
1A96
  3
Thicken
350
FC
  3
Wireframe
350
1A93
  3
X-Ray
350
1A97
  0
XRECORD
  5
1B41
102
{ACAD_REACTORS
330
C
102
}
330
C
100
AcDbXrecord
280
     1
 90
        1
330
7F
  0
DICTIONARY
  5
5E
102
{ACAD_REACTORS
330
C
102
}
330
C
100
AcDbDictionary
281
     1
  3
CANNOSCALE
350
1AC4
  3
CMLEADERSTYLE
350
1AC0
  3
CTABLESTYLE
350
84
  3
CVIEWDETAILSTYLE
350
1AC1
  3
CVIEWSECTIONSTYLE
350
1AC2
  3
DIMASSOC
350
5F
  3
HIDETEXT
350
63
  3
INDEXCTL
350
327
  3
LAYEREVAL
350
1AC6
  3
LAYERNOTIFY
350
1AC7
  3
LIGHTINGUNITS
350
1AC5
  3
MSLTSCALE
350
1AC3
  3
SORTENTS
350
326
  0
DICTIONARY
  5
142
102
{ACAD_REACTORS
330
141
102
}
330
141
100
AcDbDictionary
281
     1
  0
XRECORD
  5
1ABB
102
{ACAD_REACTORS
330
1ABA
102
}
330
1ABA
100
AcDbXrecord
280
     1
290
     1
  0
XRECORD
  5
1ABD
102
{ACAD_REACTORS
330
1ABC
102
}
330
1ABC
100
AcDbXrecord
280
     1
290
     1
  0
XRECORD
  5
1ABF
102
{ACAD_REACTORS
330
1ABE
102
}
330
1ABE
100
AcDbXrecord
280
     1
290
     1
  0
SORTENTSTABLE
  5
117
102
{ACAD_REACTORS
330
116
102
}
330
116
100
AcDbSortentsTable
330
1F
331
192E
  5
1935
331
177C
  5
1780
331
17B7
  5
17BD
331
19A4
  5
19AB
331
192A
  5
1931
331
1778
  5
177C
331
1965
  5
196C
331
17B3
  5
17B9
331
1A1F
  5
1A22
331
19A0
  5
19A7
331
1926
  5
192D
331
1961
  5
1968
331
1770
  5
1776
331
1A1B
  5
1A1E
331
1922
  5
1929
331
199C
  5
19A3
331
1998
  5
199F
331
17AF
  5
17B5
331
139E
  5
13CB
331
17AB
  5
17B1
331
1411
  5
1637
331
195D
  5
1964
331
1A17
  5
1A1A
331
191E
  5
1925
331
176C
  5
1770
331
1959
  5
1960
331
17A7
  5
17AD
331
1A13
  5
1A16
331
1994
  5
199B
331
191A
  5
1921
331
13F9
  5
1411
331
1955
  5
195C
331
17A3
  5
17A9
331
1392
  5
1397
331
1A0F
  5
1A12
331
1990
  5
1997
331
1916
  5
191D
331
1951
  5
1958
331
1912
  5
1919
331
198C
  5
1993
331
1A0B
  5
178C
331
1988
  5
198F
331
13F5
  5
13F6
331
179F
  5
17A5
331
138E
  5
138E
331
194D
  5
1954
331
1754
  5
1762
331
1A07
  5
168B
331
190E
  5
1915
331
1984
  5
198B
331
1949
  5
1950
331
13ED
  5
13EE
331
1793
  5
17A2
331
1980
  5
1987
331
1945
  5
194C
331
1694
  5
1760
331
1382
  5
1382
331
1941
  5
1948
331
1690
  5
16FA
331
19BB
  5
1A0A
331
17DA
  5
17C1
331
1A36
  5
17C2
331
197C
  5
1983
331
1978
  5
197F
331
178F
  5
179F
331
13E5
  5
13E6
331
178B
  5
1792
331
137A
  5
137A
331
193D
  5
1944
331
19B7
  5
19BE
331
17C6
  5
18BD
331
168C
  5
1694
331
1787
  5
178B
331
1939
  5
1940
331
1688
  5
1690
331
1376
  5
1376
331
19B3
  5
19BA
331
17C2
  5
18B9
331
1A2E
  5
1A31
331
1974
  5
197B
331
1783
  5
1787
331
1935
  5
193C
331
1684
  5
168C
331
1372
  5
1372
331
19AF
  5
19B6
331
1A2A
  5
1A2D
331
1970
  5
1977
331
17BE
  5
17C7
331
1931
  5
1938
331
19AB
  5
19B2
331
17BA
  5
17C3
331
1A26
  5
1A29
331
196C
  5
1973
331
1A22
  5
1A25
331
1968
  5
196F
331
136C
  5
136C
331
177F
  5
1783
331
19A7
  5
19AE
331
192D
  5
1934
331
177B
  5
177F
331
17B6
  5
17BC
331
19A3
  5
19AA
331
1929
  5
1930
331
1777
  5
177B
331
1964
  5
196B
331
17B2
  5
17B8
331
1A1E
  5
1A21
331
199F
  5
19A6
331
1925
  5
192C
331
1960
  5
1967
331
1A1A
  5
1A1D
331
1921
  5
1928
331
199B
  5
19A2
331
17AE
  5
17B4
331
139D
  5
139E
331
176F
  5
1773
331
17AA
  5
17B0
331
195C
  5
1963
331
176B
  5
176F
331
1A16
  5
1A19
331
191D
  5
1924
331
1997
  5
199E
331
1958
  5
195F
331
17A6
  5
17AC
331
1A12
  5
1A15
331
1993
  5
199A
331
1919
  5
1920
331
13F8
  5
13F9
331
1954
  5
195B
331
17A2
  5
17A8
331
1391
  5
1392
331
1A0E
  5
1A11
331
198F
  5
1996
331
1915
  5
191C
331
1950
  5
1957
331
198B
  5
1992
331
1911
  5
1918
331
179E
  5
17A4
331
13F4
  5
13F5
331
194C
  5
1953
331
1987
  5
198E
331
190D
  5
1914
331
13EC
  5
13ED
331
1983
  5
198A
331
1948
  5
194F
331
1385
  5
1385
331
1792
  5
17A1
331
19BE
  5
1A0F
331
1944
  5
194B
331
1693
  5
175F
331
1381
  5
1381
331
197F
  5
1986
331
19BA
  5
1A09
331
1940
  5
1947
331
1A35
  5
1AB8
331
197B
  5
1982
331
1A31
  5
1A35
331
178E
  5
179E
331
13E4
  5
13E5
331
168F
  5
16F9
331
13E0
  5
13E3
331
178A
  5
1791
331
1379
  5
1379
331
193C
  5
1943
331
19B6
  5
19BD
331
17C5
  5
18BC
331
1977
  5
197E
331
168B
  5
1693
331
1786
  5
178A
331
1938
  5
193F
331
1687
  5
168F
331
1375
  5
1375
331
19B2
  5
19B9
331
17C1
  5
18B8
331
1A2D
  5
1A30
331
1973
  5
197A
331
1782
  5
1786
331
1934
  5
193B
331
1683
  5
168A
331
1371
  5
1371
331
19AE
  5
19B5
331
1A29
  5
1A2C
331
196F
  5
1976
331
17BD
  5
17C6
331
1930
  5
1937
331
19AA
  5
19B1
331
17B9
  5
17C0
331
1A25
  5
1A28
331
196B
  5
1972
331
1A21
  5
1A24
331
136F
  5
136F
331
136B
  5
136B
331
177E
  5
1782
331
19A6
  5
19AD
331
192C
  5
1933
331
177A
  5
177E
331
1637
  5
1687
331
17B5
  5
17BB
331
1967
  5
196E
331
1776
  5
177A
331
19A2
  5
19A9
331
1928
  5
192F
331
17B1
  5
17B7
331
1963
  5
196A
331
1772
  5
1778
331
1A1D
  5
1A20
331
1924
  5
192B
331
199E
  5
19A5
331
1A19
  5
1A1C
331
1920
  5
1927
331
199A
  5
19A1
331
17AD
  5
17B3
331
139C
  5
139D
331
195F
  5
1966
331
176E
  5
1772
331
195B
  5
1962
331
17A9
  5
17AF
331
1398
  5
139B
331
1A15
  5
1A18
331
191C
  5
1923
331
1996
  5
199D
331
1957
  5
195E
331
17A5
  5
17AB
331
1A11
  5
1A14
331
1992
  5
1999
331
1918
  5
191F
331
17A1
  5
17A7
331
1390
  5
1391
331
1953
  5
195A
331
1762
  5
176D
331
1A0D
  5
1A10
331
198E
  5
1995
331
1914
  5
191B
331
198A
  5
1991
331
1910
  5
1917
331
13F7
  5
13F8
331
194F
  5
1956
331
194B
  5
1952
331
1986
  5
198D
331
190C
  5
1913
331
1982
  5
1989
331
1947
  5
194E
331
13EB
  5
13EC
331
19BD
  5
1A0C
331
1943
  5
194A
331
1692
  5
16FC
331
1380
  5
1380
331
197E
  5
1985
331
19B9
  5
1A08
331
1A34
  5
1A37
331
197A
  5
1981
331
13E3
  5
13E4
331
178D
  5
1794
331
137C
  5
137C
331
193F
  5
1946
331
168E
  5
16F8
331
1789
  5
1790
331
13DF
  5
13E0
331
193B
  5
1942
331
19B5
  5
19BC
331
17C4
  5
18BB
331
1976
  5
197D
331
168A
  5
1692
331
1785
  5
1789
331
1937
  5
193E
331
1686
  5
168E
331
1374
  5
1374
331
19B1
  5
19B8
331
1A2C
  5
1A2F
331
1972
  5
1979
331
17C0
  5
17DB
331
1781
  5
1785
331
1933
  5
193A
331
1682
  5
1688
331
1370
  5
1370
331
19AD
  5
19B4
331
1A28
  5
1A2B
331
196E
  5
1975
331
17BC
  5
17C5
331
19A9
  5
19B0
331
17B8
  5
17BE
331
1A24
  5
1A27
331
196A
  5
1971
331
1A20
  5
1A23
331
136E
  5
136E
331
192F
  5
1936
331
177D
  5
1781
331
13D3
  5
13DF
331
19A5
  5
19AC
331
192B
  5
1932
331
1779
  5
177D
331
17B4
  5
17BA
331
13CB
  5
13D3
331
1966
  5
196D
331
1775
  5
1779
331
19A1
  5
19A8
331
1927
  5
192E
331
17B0
  5
17B6
331
1962
  5
1969
331
1771
  5
1777
331
1A1C
  5
1A1F
331
1923
  5
192A
331
199D
  5
19A4
331
1A18
  5
1A1B
331
1999
  5
19A0
331
17AC
  5
17B2
331
139B
  5
139C
331
195E
  5
1965
331
191F
  5
1926
331
176D
  5
1771
331
195A
  5
1961
331
17A8
  5
17AE
331
1397
  5
1398
331
1A14
  5
1A17
331
191B
  5
1922
331
1995
  5
199C
331
17A4
  5
17AA
331
1956
  5
195D
331
1765
  5
176E
331
1A10
  5
1A13
331
1991
  5
1998
331
1917
  5
191E
331
17A0
  5
17A6
331
1952
  5
1959
331
1761
  5
176C
331
1913
  5
191A
331
198D
  5
1994
331
1A0C
  5
178F
331
1989
  5
1990
331
1A08
  5
1689
331
13F6
  5
13F7
331
138F
  5
138F
331
194E
  5
1955
331
1755
  5
1765
331
190F
  5
1916
331
194A
  5
1951
331
13EE
  5
13F4
331
1985
  5
198C
331
190B
  5
1912
331
1794
  5
17A3
331
13EA
  5
13EB
331
1981
  5
1988
331
1946
  5
194D
331
1695
  5
1761
331
1790
  5
17A0
331
1942
  5
1949
331
1691
  5
16FB
331
19BC
  5
1A0B
331
197D
  5
1984
331
1A37
  5
17BF
331
17DB
  5
178E
331
19B8
  5
1A07
331
1A33
  5
1A36
331
1979
  5
1980
331
13E6
  5
13EA
331
178C
  5
1793
331
137B
  5
137B
331
193E
  5
1945
331
17C7
  5
1911
331
168D
  5
1695
331
1788
  5
178D
331
193A
  5
1941
331
1689
  5
1691
331
19B4
  5
19BB
331
17C3
  5
18BA
331
1A2F
  5
1A33
331
1975
  5
197C
331
1784
  5
1788
331
1936
  5
193D
331
1685
  5
168D
331
1373
  5
1373
331
19B0
  5
19B7
331
1A2B
  5
1A2E
331
1971
  5
1978
331
17BF
  5
17DA
331
1932
  5
1939
331
1780
  5
1784
331
19AC
  5
19B3
331
1A27
  5
1A2A
331
196D
  5
1974
331
17BB
  5
17C4
331
19A8
  5
19AF
331
1A23
  5
1A26
331
1969
  5
1970
  0
ACDBDETAILVIEWSTYLE
  5
1AB4
102
{ACAD_XDICTIONARY
360
1B78
102
}
102
{ACAD_REACTORS
330
1AB3
102
}
330
1AB3
100
AcDbModelDocViewStyle
 70
     0
  3
Metric50
290
     0
100
AcDbDetailViewStyle
 70
     0
 71
     0
 90
        3
 71
     1
340
11
 62
   256
 40
5.0
340
0
 62
   256
 40
5.0
300

 40
0.0
280
     1
 71
     2
340
16
 90
       25
 62
   256
 71
     3
340
11
 62
   256
 40
5.0
 90
        0
 40
15.0
 90
        1
300
%<\AcVar ViewDetailId>% (%<\AcVar ViewScale \f "%sn">%)
 71
     4
340
16
 90
       25
 62
   256
340
16
 90
       25
 62
   256
280
     0
  0
LAYOUT
  5
D3
102
{ACAD_REACTORS
330
1A
102
}
330
1A
100
AcDbPlotSettings
  1

  2
C:\Documents and Settings\basas\Application Data\Autodesk\AutoCAD 2005\R16.1\enu\plotters\Default Windows System Printer.pc3
  4

  6

 40
0.0
 41
0.0
 42
0.0
 43
0.0
 44
0.0
 45
0.0
 46
0.0
 47
0.0
 48
0.0
 49
0.0
140
0.0
141
0.0
142
1.0
143
1.0
 70
   688
 72
     0
 73
     0
 74
     5
  7

 75
    16
147
1.0
 76
     0
 77
     2
 78
   300
148
0.0
149
0.0
100
AcDbLayout
  1
Layout1
 70
     1
 71
     1
 10
0.0
 20
0.0
 11
12.0
 21
9.0
 12
0.0
 22
0.0
 32
0.0
 14
0.0
 24
0.0
 34
0.0
 15
0.0
 25
0.0
 35
0.0
146
0.0
 13
0.0
 23
0.0
 33
0.0
 16
1.0
 26
0.0
 36
0.0
 17
0.0
 27
1.0
 37
0.0
 76
     0
330
D2
  0
LAYOUT
  5
D7
102
{ACAD_REACTORS
330
1A
102
}
330
1A
100
AcDbPlotSettings
  1

  2
C:\Documents and Settings\basas\Application Data\Autodesk\AutoCAD 2005\R16.1\enu\plotters\Default Windows System Printer.pc3
  4

  6

 40
0.0
 41
0.0
 42
0.0
 43
0.0
 44
0.0
 45
0.0
 46
0.0
 47
0.0
 48
0.0
 49
0.0
140
0.0
141
0.0
142
1.0
143
1.0
 70
   688
 72
     0
 73
     0
 74
     5
  7

 75
    16
147
1.0
 76
     0
 77
     2
 78
   300
148
0.0
149
0.0
100
AcDbLayout
  1
Layout2
 70
     1
 71
     2
 10
0.0
 20
0.0
 11
12.0
 21
9.0
 12
0.0
 22
0.0
 32
0.0
 14
0.0
 24
0.0
 34
0.0
 15
0.0
 25
0.0
 35
0.0
146
0.0
 13
0.0
 23
0.0
 33
0.0
 16
1.0
 26
0.0
 36
0.0
 17
0.0
 27
1.0
 37
0.0
 76
     0
330
D6
  0
LAYOUT
  5
22
102
{ACAD_REACTORS
330
1A
102
}
330
1A
100
AcDbPlotSettings
  1

  2
none_device
  4
ISO_A4_(210.00_x_297.00_MM)
  6

 40
7.5
 41
20.0
 42
7.5
 43
20.0
 44
210.0
 45
297.0
 46
11.54999923706054
 47
-13.65000009536743
 48
0.0
 49
0.0
140
0.0
141
0.0
142
1.0
143
8.704084754739808
 70
 11952
 72
     1
 73
     0
 74
     0
  7

 75
     0
147
0.1148885871608098
 76
     0
 77
     2
 78
   300
148
0.0
149
0.0
100
AcDbLayout
  1
Model
 70
     1
 71
     0
 10
0.0
 20
0.0
 11
12.0
 21
9.0
 12
0.0
 22
0.0
 32
0.0
 14
0.0
 24
0.0
 34
0.0
 15
0.0
 25
0.0
 35
0.0
146
0.0
 13
0.0
 23
0.0
 33
0.0
 16
1.0
 26
0.0
 36
0.0
 17
0.0
 27
1.0
 37
0.0
 76
     0
330
1F
331
EA
1001
ACAD_PSEXT
1000
None
1000
None
1000
Not applicable
1000
The layout will not be plotted unless a new plotter configuration name is selected.
1070
     0
  0
MATERIAL
  5
ED
102
{ACAD_XDICTIONARY
360
335
102
}
102
{ACAD_REACTORS
330
6A
102
}
330
6A
100
AcDbMaterial
  1
ByBlock
  0
MATERIAL
  5
EC
102
{ACAD_XDICTIONARY
360
333
102
}
102
{ACAD_REACTORS
330
6A
102
}
330
6A
100
AcDbMaterial
  1
ByLayer
  0
MATERIAL
  5
EE
102
{ACAD_XDICTIONARY
360
337
102
}
102
{ACAD_REACTORS
330
6A
102
}
330
6A
100
AcDbMaterial
  1
Global
  0
MLEADERSTYLE
  5
1AB0
102
{ACAD_REACTORS
330
1AAF
102
}
330
1AAF
100
AcDbMLeaderStyle
179
     2
170
     2
171
     1
172
     0
 90
        2
 40
0.0
 41
0.0
173
     1
 91
-1056964608
340
14
 92
       -2
290
     1
 42
2.0
291
     1
 43
0.36
  3
Standard
 44
4.0
300

342
11
174
     1
178
     6
175
     1
176
     0
 93
-1056964608
 45
4.0
292
     0
297
     0
 46
4.0
 94
-1056964608
 47
1.0
 49
1.0
140
1.0
293
     1
141
0.0
294
     1
177
     0
142
1.0
295
     0
296
     0
143
0.125
271
     0
272
     9
273
     9
  0
MLINESTYLE
  5
18
102
{ACAD_REACTORS
330
17
102
}
330
17
100
AcDbMlineStyle
  2
STANDARD
 70
     0
  3

 62
   256
 51
90.0
 52
90.0
 71
     2
 49
0.5
 62
   256
  6
BYLAYER
 49
-0.5
 62
   256
  6
BYLAYER
  0
ACDBPLACEHOLDER
  5
F
102
{ACAD_REACTORS
330
E
102
}
330
E
  0
SCALE
  5
1A9E
102
{ACAD_REACTORS
330
1A9D
102
}
330
1A9D
100
AcDbScale
 70
     0
300
1:1
140
1.0
141
1.0
290
     1
  0
SCALE
  5
1A9F
102
{ACAD_REACTORS
330
1A9D
102
}
330
1A9D
100
AcDbScale
 70
     0
300
1:2
140
1.0
141
2.0
290
     0
  0
SCALE
  5
1AA0
102
{ACAD_REACTORS
330
1A9D
102
}
330
1A9D
100
AcDbScale
 70
     0
300
1:4
140
1.0
141
4.0
290
     0
  0
SCALE
  5
1AA1
102
{ACAD_REACTORS
330
1A9D
102
}
330
1A9D
100
AcDbScale
 70
     0
300
1:5
140
1.0
141
5.0
290
     0
  0
SCALE
  5
1AA2
102
{ACAD_REACTORS
330
1A9D
102
}
330
1A9D
100
AcDbScale
 70
     0
300
1:8
140
1.0
141
8.0
290
     0
  0
SCALE
  5
1AA3
102
{ACAD_REACTORS
330
1A9D
102
}
330
1A9D
100
AcDbScale
 70
     0
300
1:10
140
1.0
141
10.0
290
     0
  0
SCALE
  5
1AA4
102
{ACAD_REACTORS
330
1A9D
102
}
330
1A9D
100
AcDbScale
 70
     0
300
1:16
140
1.0
141
16.0
290
     0
  0
SCALE
  5
1AA5
102
{ACAD_REACTORS
330
1A9D
102
}
330
1A9D
100
AcDbScale
 70
     0
300
1:20
140
1.0
141
20.0
290
     0
  0
SCALE
  5
1AA6
102
{ACAD_REACTORS
330
1A9D
102
}
330
1A9D
100
AcDbScale
 70
     0
300
1:30
140
1.0
141
30.0
290
     0
  0
SCALE
  5
1AA7
102
{ACAD_REACTORS
330
1A9D
102
}
330
1A9D
100
AcDbScale
 70
     0
300
1:40
140
1.0
141
40.0
290
     0
  0
SCALE
  5
1AA8
102
{ACAD_REACTORS
330
1A9D
102
}
330
1A9D
100
AcDbScale
 70
     0
300
1:50
140
1.0
141
50.0
290
     0
  0
SCALE
  5
1AA9
102
{ACAD_REACTORS
330
1A9D
102
}
330
1A9D
100
AcDbScale
 70
     0
300
1:100
140
1.0
141
100.0
290
     0
  0
SCALE
  5
1AAA
102
{ACAD_REACTORS
330
1A9D
102
}
330
1A9D
100
AcDbScale
 70
     0
300
2:1
140
2.0
141
1.0
290
     0
  0
SCALE
  5
1AAB
102
{ACAD_REACTORS
330
1A9D
102
}
330
1A9D
100
AcDbScale
 70
     0
300
4:1
140
4.0
141
1.0
290
     0
  0
SCALE
  5
1AAC
102
{ACAD_REACTORS
330
1A9D
102
}
330
1A9D
100
AcDbScale
 70
     0
300
8:1
140
8.0
141
1.0
290
     0
  0
SCALE
  5
1AAD
102
{ACAD_REACTORS
330
1A9D
102
}
330
1A9D
100
AcDbScale
 70
     0
300
10:1
140
10.0
141
1.0
290
     0
  0
SCALE
  5
1AAE
102
{ACAD_REACTORS
330
1A9D
102
}
330
1A9D
100
AcDbScale
 70
     0
300
100:1
140
100.0
141
1.0
290
     0
  0
ACDBSECTIONVIEWSTYLE
  5
1AB2
102
{ACAD_XDICTIONARY
360
1B76
102
}
102
{ACAD_REACTORS
330
1AB1
102
}
330
1AB1
100
AcDbModelDocViewStyle
 70
     0
  3
Metric50
290
     0
100
AcDbSectionViewStyle
 70
     0
 71
     0
 90
      102
 71
     1
340
11
 62
   256
 40
5.0
340
0
340
0
 62
   256
 40
5.0
300
I, O, Q, S, X, Z
 40
10.0
 90
        0
 40
2.5
 90
        0
 71
     2
340
16
 90
       25
 62
   256
340
16
 90
       50
 62
   256
 40
5.0
 40
2.5
 40
5.0
 71
     3
340
11
 62
   256
 40
5.0
 90
        0
 40
15.0
 90
        1
300
%<\AcVar ViewSectionStartId>%-%<\AcVar ViewSectionEndId>% (%<\AcVar ViewScale \f "%sn">%)
 71
     4
 62
   256
 62
   257
300
ANSI31
 40
1.0
 90
        0
290
     0
290
     0
 90
        6
 40
0.0
 40
1.570796326794896
 40
0.2617993877991494
 40
1.308996938995747
 40
-0.2617993877991494
 40
1.832595714594046
  0
TABLESTYLE
  5
7F
102
{ACAD_XDICTIONARY
360
1B3F
102
}
102
{ACAD_REACTORS
330
7E
102
}
330
7E
100
AcDbTableStyle
280
     0
  3
Standard
 70
     0
 71
     0
 40
1.5
 41
1.5
280
     0
281
     0
  7
Standard
140
4.5
170
     2
 62
     0
 63
     7
283
     0
 90
      512
 91
        0
  1

274
    -2
284
     1
 64
     0
275
    -2
285
     1
 65
     0
276
    -2
286
     1
 66
     0
277
    -2
287
     1
 67
     0
278
    -2
288
     1
 68
     0
279
    -2
289
     1
 69
     0
  7
Standard
140
6.0
170
     5
 62
     0
 63
     7
283
     0
 90
      512
 91
        0
  1

274
    -2
284
     1
 64
     0
275
    -2
285
     1
 65
     0
276
    -2
286
     1
 66
     0
277
    -2
287
     1
 67
     0
278
    -2
288
     1
 68
     0
279
    -2
289
     1
 69
     0
  7
Standard
140
4.5
170
     5
 62
     0
 63
     7
283
     0
 90
      512
 91
        0
  1

274
    -2
284
     1
 64
     0
275
    -2
285
     1
 65
     0
276
    -2
286
     1
 66
     0
277
    -2
287
     1
 67
     0
278
    -2
288
     1
 68
     0
279
    -2
289
     1
 69
     0
  0
VISUALSTYLE
  5
F5
102
{ACAD_XDICTIONARY
360
1B4C
102
}
102
{ACAD_REACTORS
330
EF
102
}
330
EF
100
AcDbVisualStyle
  2

 70
     4
177
     2
291
     0
 71
     0
176
     1
 72
     2
176
     1
 73
     1
176
     1
 90
        0
176
     1
 40
0.6
176
     1
 41
30.0
176
     1
 63
     7
176
     1
 74
     1
176
     1
 91
        4
176
     1
 64
     7
176
     1
 65
   257
176
     1
 75
     1
176
     1
175
     1
176
     1
 42
1.0
176
     1
 92
        0
176
     1
 66
   257
176
     1
 43
1.0
176
     1
 76
     1
176
     1
 77
     6
176
     1
 78
     2
176
     1
 67
     7
176
     1
 79
     5
176
     1
170
     0
176
     1
171
     0
176
     1
290
     0
176
     1
 93
        1
176
     1
 44
0.0
176
     1
173
     0
176
     1
1001
ACAD
1000
AcDbSavedByObjectVersion
1070
     0
  0
VISUALSTYLE
  5
F7
102
{ACAD_XDICTIONARY
360
1B50
102
}
102
{ACAD_REACTORS
330
EF
102
}
330
EF
100
AcDbVisualStyle
  2

 70
     6
177
     2
291
     0
 71
     1
176
     1
 72
     2
176
     1
 73
     2
176
     1
 90
        0
176
     1
 40
0.6
176
     1
 41
30.0
176
     1
 63
     7
176
     1
 74
     2
176
     1
 91
        2
176
     1
 64
     7
176
     1
 65
   257
176
     1
 75
     2
176
     1
175
     1
176
     1
 42
40.0
176
     1
 92
        0
176
     1
 66
   257
176
     1
 43
1.0
176
     1
 76
     1
176
     1
 77
     6
176
     1
 78
     2
176
     1
 67
     7
176
     1
 79
     3
176
     1
170
     0
176
     1
171
     0
176
     1
290
     0
176
     1
 93
        1
176
     1
 44
0.0
176
     1
173
     0
176
     1
1001
ACAD
1000
AcDbSavedByObjectVersion
1070
     0
  0
VISUALSTYLE
  5
F6
102
{ACAD_XDICTIONARY
360
1B4E
102
}
102
{ACAD_REACTORS
330
EF
102
}
330
EF
100
AcDbVisualStyle
  2

 70
     5
177
     2
291
     0
 71
     0
176
     1
 72
     2
176
     1
 73
     1
176
     1
 90
        0
176
     1
 40
0.6
176
     1
 41
30.0
176
     1
 63
     7
176
     1
 74
     1
176
     1
 91
        4
176
     1
 64
     7
176
     1
 65
   257
176
     1
 75
     1
176
     1
175
     1
176
     1
 42
1.0
176
     1
 92
        0
176
     1
 66
   257
176
     1
 43
1.0
176
     1
 76
     1
176
     1
 77
     6
176
     1
 78
     2
176
     1
 67
     7
176
     1
 79
     5
176
     1
170
     0
176
     1
171
     0
176
     1
290
     0
176
     1
 93
        1
176
     1
 44
0.0
176
     1
173
     0
176
     1
1001
ACAD
1000
AcDbSavedByObjectVersion
1070
     0
  0
VISUALSTYLE
  5
F4
102
{ACAD_XDICTIONARY
360
1B4A
102
}
102
{ACAD_REACTORS
330
EF
102
}
330
EF
100
AcDbVisualStyle
  2

 70
     7
177
     2
291
     1
 71
     1
176
     1
 72
     0
176
     1
 73
     1
176
     1
 90
        0
176
     1
 40
0.6
176
     1
 41
30.0
176
     1
 63
     7
176
     1
 74
     0
176
     1
 91
        4
176
     1
 64
     7
176
     1
 65
   257
176
     1
 75
     1
176
     1
175
     1
176
     1
 42
1.0
176
     1
 92
        8
176
     1
 66
     7
176
     1
 43
1.0
176
     1
 76
     1
176
     1
 77
     6
176
     1
 78
     2
176
     1
 67
     7
176
     1
 79
     5
176
     1
170
     0
176
     1
171
     0
176
     1
290
     0
176
     1
 93
        1
176
     1
 44
0.0
176
     1
173
     0
176
     1
1001
ACAD
1000
AcDbSavedByObjectVersion
1070
     0
  0
VISUALSTYLE
  5
FB
102
{ACAD_XDICTIONARY
360
1B58
102
}
102
{ACAD_REACTORS
330
EF
102
}
330
EF
100
AcDbVisualStyle
  2

 70
    12
177
     2
291
     1
 71
     2
176
     1
 72
     2
176
     1
 73
     1
176
     1
 90
        0
176
     1
 40
0.6
176
     1
 41
30.0
176
     1
 63
     7
176
     1
 74
     1
176
     1
 91
        4
176
     1
 64
     7
176
     1
 65
   257
176
     1
 75
     1
176
     1
175
     1
176
     1
 42
1.0
176
     1
 92
        8
176
     1
 66
     7
176
     1
 43
1.0
176
     1
 76
     1
176
     1
 77
     6
176
     1
 78
     2
176
     1
 67
     7
176
     1
 79
     5
176
     1
170
     0
176
     1
171
     0
176
     1
290
     0
176
     1
 93
        1
176
     1
 44
50.0
176
     1
173
     0
176
     1
1001
ACAD
1000
AcDbSavedByObjectVersion
1070
     0
  0
VISUALSTYLE
  5
FF
102
{ACAD_XDICTIONARY
360
1B60
102
}
102
{ACAD_REACTORS
330
EF
102
}
330
EF
100
AcDbVisualStyle
  2

 70
    16
177
     2
291
     1
 71
     2
176
     1
 72
     2
176
     1
 73
     3
176
     1
 90
        0
176
     1
 40
0.6
176
     1
 41
30.0
176
     1
 63
     8
176
     1
 74
     1
176
     1
 91
        4
176
     1
 64
     7
176
     1
 65
   257
176
     1
 75
     1
176
     1
175
     1
176
     1
 42
1.0
176
     1
 92
        8
176
     1
 66
     8
176
     1
 43
1.0
176
     1
 76
     1
176
     1
 77
     6
176
     1
 78
     2
176
     1
 67
     7
176
     1
 79
     5
176
     1
170
     0
176
     1
171
     0
176
     1
290
     0
176
     1
 93
        1
176
     1
 44
0.0
176
     1
173
     0
176
     1
1001
ACAD
1000
AcDbSavedByObjectVersion
1070
     0
  0
VISUALSTYLE
  5
F8
102
{ACAD_XDICTIONARY
360
1B52
102
}
102
{ACAD_REACTORS
330
EF
102
}
330
EF
100
AcDbVisualStyle
  2

 70
     9
177
     2
291
     0
 71
     3
176
     1
 72
     2
176
     1
 73
     1
176
     1
 90
        0
176
     1
 40
0.6
176
     1
 41
30.0
176
     1
 63
     7
176
     1
 74
     2
176
     1
 91
        2
176
     1
 64
     7
176
     1
 65
   257
176
     1
 75
     1
176
     1
175
     1
176
     1
 42
40.0
176
     1
 92
        8
176
     1
 66
     7
176
     1
 43
1.0
176
     1
 76
     1
176
     1
 77
     6
176
     1
 78
     2
176
     1
 67
     7
176
     1
 79
     3
176
     1
170
     0
176
     1
171
     0
176
     1
290
     0
176
     1
 93
        1
176
     1
 44
0.0
176
     1
173
     0
176
     1
1001
ACAD
1000
AcDbSavedByObjectVersion
1070
     0
  0
VISUALSTYLE
  5
FA
102
{ACAD_XDICTIONARY
360
1B56
102
}
102
{ACAD_REACTORS
330
EF
102
}
330
EF
100
AcDbVisualStyle
  2

 70
    11
177
     2
291
     1
 71
     2
176
     1
 72
     2
176
     1
 73
     1
176
     1
 90
        0
176
     1
 40
0.6
176
     1
 41
30.0
176
     1
 63
     7
176
     1
 74
     1
176
     1
 91
        4
176
     1
 64
     7
176
     1
 65
   257
176
     1
 75
     1
176
     1
175
     1
176
     1
 42
1.0
176
     1
 92
        8
176
     1
 66
     7
176
     1
 43
1.0
176
     1
 76
     1
176
     1
 77
     6
176
     1
 78
     2
176
     1
 67
     7
176
     1
 79
     5
176
     1
170
     0
176
     1
171
     0
176
     1
290
     0
176
     1
 93
        1
176
     1
 44
-50.0
176
     1
173
     0
176
     1
1001
ACAD
1000
AcDbSavedByObjectVersion
1070
     0
  0
VISUALSTYLE
  5
1A9C
102
{ACAD_XDICTIONARY
360
1B74
102
}
102
{ACAD_REACTORS
330
EF
102
}
330
EF
100
AcDbVisualStyle
  2
EdgeColorOff
 70
    22
177
     2
291
     1
 71
     2
176
     0
 72
     2
176
     0
 73
     0
176
     0
 90
        0
176
     0
 40
0.6
176
     0
 41
30.0
176
     0
 63
     7
421
 16777215
176
     0
 74
     1
176
     0
 91
        4
176
     0
 64
     7
176
     0
 65
   257
176
     0
 75
     1
176
     0
175
     1
176
     0
 42
1.0
176
     0
 92
        8
176
     2
 66
     7
176
     0
 43
1.0
176
     0
 76
     1
176
     0
 77
     6
176
     0
 78
     2
176
     0
 67
     7
176
     0
 79
     5
176
     0
170
     0
176
     0
171
     0
176
     0
290
     0
176
     0
 93
        1
176
     0
 44
0.0
176
     0
173
     0
176
     0
1001
ACAD
1000
AcDbSavedByObjectVersion
1070
     0
  0
VISUALSTYLE
  5
FE
102
{ACAD_XDICTIONARY
360
1B5E
102
}
102
{ACAD_REACTORS
330
EF
102
}
330
EF
100
AcDbVisualStyle
  2

 70
    15
177
     2
291
     1
 71
     2
176
     1
 72
     2
176
     1
 73
     1
176
     1
 90
        0
176
     1
 40
0.6
176
     1
 41
30.0
176
     1
 63
     7
176
     1
 74
     1
176
     1
 91
        4
176
     1
 64
     7
176
     1
 65
   257
176
     1
 75
     1
176
     1
175
     1
176
     1
 42
1.0
176
     1
 92
        8
176
     1
 66
     7
176
     1
 43
1.0
176
     1
 76
     1
176
     1
 77
     6
176
     1
 78
     2
176
     1
 67
     7
176
     1
 79
     5
176
     1
170
     0
176
     1
171
     0
176
     1
290
     0
176
     1
 93
        1
176
     1
 44
0.0
176
     1
173
     0
176
     1
1001
ACAD
1000
AcDbSavedByObjectVersion
1070
     0
  0
VISUALSTYLE
  5
F0
102
{ACAD_XDICTIONARY
360
1B42
102
}
102
{ACAD_REACTORS
330
EF
102
}
330
EF
100
AcDbVisualStyle
  2

 70
     0
177
     2
291
     1
 71
     2
176
     1
 72
     1
176
     1
 73
     1
176
     1
 90
        2
176
     1
 40
0.6
176
     1
 41
30.0
176
     1
 63
     7
176
     1
 74
     0
176
     1
 91
        4
176
     1
 64
     7
176
     1
 65
   257
176
     1
 75
     1
176
     1
175
     1
176
     1
 42
1.0
176
     1
 92
        8
176
     1
 66
     7
176
     1
 43
1.0
176
     1
 76
     1
176
     1
 77
     6
176
     1
 78
     2
176
     1
 67
     7
176
     1
 79
     5
176
     1
170
     0
176
     1
171
     0
176
     1
290
     0
176
     1
 93
       13
176
     1
 44
0.0
176
     1
173
     0
176
     1
1001
ACAD
1000
AcDbSavedByObjectVersion
1070
     0
  0
VISUALSTYLE
  5
F1
102
{ACAD_XDICTIONARY
360
1B44
102
}
102
{ACAD_REACTORS
330
EF
102
}
330
EF
100
AcDbVisualStyle
  2

 70
     1
177
     2
291
     1
 71
     2
176
     1
 72
     1
176
     1
 73
     1
176
     1
 90
        2
176
     1
 40
0.6
176
     1
 41
30.0
176
     1
 63
     7
176
     1
 74
     1
176
     1
 91
        4
176
     1
 64
     7
176
     1
 65
   257
176
     1
 75
     1
176
     1
175
     1
176
     1
 42
1.0
176
     1
 92
        0
176
     1
 66
   257
176
     1
 43
1.0
176
     1
 76
     1
176
     1
 77
     6
176
     1
 78
     2
176
     1
 67
     7
176
     1
 79
     5
176
     1
170
     0
176
     1
171
     0
176
     1
290
     0
176
     1
 93
       13
176
     1
 44
0.0
176
     1
173
     0
176
     1
1001
ACAD
1000
AcDbSavedByObjectVersion
1070
     0
  0
VISUALSTYLE
  5
F2
102
{ACAD_XDICTIONARY
360
1B46
102
}
102
{ACAD_REACTORS
330
EF
102
}
330
EF
100
AcDbVisualStyle
  2

 70
     2
177
     2
291
     1
 71
     2
176
     1
 72
     2
176
     1
 73
     1
176
     1
 90
        2
176
     1
 40
0.6
176
     1
 41
30.0
176
     1
 63
     7
176
     1
 74
     0
176
     1
 91
        4
176
     1
 64
     7
176
     1
 65
   257
176
     1
 75
     1
176
     1
175
     1
176
     1
 42
1.0
176
     1
 92
        0
176
     1
 66
     7
176
     1
 43
1.0
176
     1
 76
     1
176
     1
 77
     6
176
     1
 78
     2
176
     1
 67
     7
176
     1
 79
     5
176
     1
170
     0
176
     1
171
     0
176
     1
290
     0
176
     1
 93
       13
176
     1
 44
0.0
176
     1
173
     0
176
     1
1001
ACAD
1000
AcDbSavedByObjectVersion
1070
     0
  0
VISUALSTYLE
  5
F3
102
{ACAD_XDICTIONARY
360
1B48
102
}
102
{ACAD_REACTORS
330
EF
102
}
330
EF
100
AcDbVisualStyle
  2

 70
     3
177
     2
291
     1
 71
     2
176
     1
 72
     2
176
     1
 73
     1
176
     1
 90
        2
176
     1
 40
0.6
176
     1
 41
30.0
176
     1
 63
     7
176
     1
 74
     1
176
     1
 91
        4
176
     1
 64
     7
176
     1
 65
   257
176
     1
 75
     1
176
     1
175
     1
176
     1
 42
1.0
176
     1
 92
        0
176
     1
 66
   257
176
     1
 43
1.0
176
     1
 76
     1
176
     1
 77
     6
176
     1
 78
     2
176
     1
 67
     7
176
     1
 79
     5
176
     1
170
     0
176
     1
171
     0
176
     1
290
     0
176
     1
 93
       13
176
     1
 44
0.0
176
     1
173
     0
176
     1
1001
ACAD
1000
AcDbSavedByObjectVersion
1070
     0
  0
VISUALSTYLE
  5
1A94
102
{ACAD_XDICTIONARY
360
1B64
102
}
102
{ACAD_REACTORS
330
EF
102
}
330
EF
100
AcDbVisualStyle
  2
Hidden
 70
     6
177
     2
291
     0
 71
     1
176
     1
 72
     2
176
     1
 73
     2
176
     1
 90
        0
176
     1
 40
0.6
176
     1
 41
30.0
176
     1
 63
     7
421
 16777215
176
     1
 74
     2
176
     1
 91
        2
176
     1
 64
     7
176
     1
 65
   257
176
     1
 75
     2
176
     1
175
     1
176
     1
 42
40.0
176
     1
 92
        0
176
     1
 66
   257
176
     1
 43
1.0
176
     1
 76
     1
176
     1
 77
     6
176
     1
 78
     2
176
     1
 67
     7
176
     1
 79
     3
176
     1
170
     0
176
     1
171
     0
176
     1
290
     0
176
     1
 93
        1
176
     1
 44
0.0
176
     1
173
     0
176
     1
1001
ACAD
1000
AcDbSavedByObjectVersion
1070
     0
  0
VISUALSTYLE
  5
1A9A
102
{ACAD_XDICTIONARY
360
1B70
102
}
102
{ACAD_REACTORS
330
EF
102
}
330
EF
100
AcDbVisualStyle
  2
JitterOff
 70
    20
177
     2
291
     1
 71
     2
176
     0
 72
     2
176
     0
 73
     0
176
     0
 90
        0
176
     0
 40
0.6
176
     0
 41
30.0
176
     0
 63
     7
421
 16777215
176
     0
 74
     1
176
     0
 91
        4
176
     0
 64
     7
176
     0
 65
   257
176
     0
 75
     1
176
     0
175
     1
176
     0
 42
1.0
176
     0
 92
       10
176
     2
 66
     7
176
     0
 43
1.0
176
     0
 76
     1
176
     0
 77
     6
176
     0
 78
     2
176
     0
 67
     7
176
     0
 79
     5
176
     0
170
     0
176
     0
171
     0
176
     0
290
     0
176
     0
 93
        1
176
     0
 44
0.0
176
     0
173
     0
176
     0
1001
ACAD
1000
AcDbSavedByObjectVersion
1070
     0
  0
VISUALSTYLE
  5
FD
102
{ACAD_XDICTIONARY
360
1B5C
102
}
102
{ACAD_REACTORS
330
EF
102
}
330
EF
100
AcDbVisualStyle
  2

 70
    14
177
     2
291
     1
 71
     2
176
     1
 72
     2
176
     1
 73
     1
176
     1
 90
        0
176
     1
 40
0.6
176
     1
 41
30.0
176
     1
 63
     7
176
     1
 74
     1
176
     1
 91
        4
176
     1
 64
     7
176
     1
 65
   257
176
     1
 75
     7
176
     1
175
     7
176
     1
 42
1.0
176
     1
 92
        8
176
     1
 66
     7
176
     1
 43
1.0
176
     1
 76
     1
176
     1
 77
     6
176
     1
 78
     2
176
     1
 67
     7
176
     1
 79
     5
176
     1
170
     0
176
     1
171
     0
176
     1
290
     0
176
     1
 93
        1
176
     1
 44
0.0
176
     1
173
     0
176
     1
1001
ACAD
1000
AcDbSavedByObjectVersion
1070
     0
  0
VISUALSTYLE
  5
1A9B
102
{ACAD_XDICTIONARY
360
1B72
102
}
102
{ACAD_REACTORS
330
EF
102
}
330
EF
100
AcDbVisualStyle
  2
OverhangOff
 70
    21
177
     2
291
     1
 71
     2
176
     0
 72
     2
176
     0
 73
     0
176
     0
 90
        0
176
     0
 40
0.6
176
     0
 41
30.0
176
     0
 63
     7
421
 16777215
176
     0
 74
     1
176
     0
 91
        4
176
     0
 64
     7
176
     0
 65
   257
176
     0
 75
     1
176
     0
175
     1
176
     0
 42
1.0
176
     0
 92
        9
176
     2
 66
     7
176
     0
 43
1.0
176
     0
 76
     1
176
     0
 77
     6
176
     0
 78
     2
176
     0
 67
     7
176
     0
 79
     5
176
     0
170
     0
176
     0
171
     0
176
     0
290
     0
176
     0
 93
        1
176
     0
 44
0.0
176
     0
173
     0
176
     0
1001
ACAD
1000
AcDbSavedByObjectVersion
1070
     0
  0
VISUALSTYLE
  5
F9
102
{ACAD_XDICTIONARY
360
1B54
102
}
102
{ACAD_REACTORS
330
EF
102
}
330
EF
100
AcDbVisualStyle
  2

 70
     8
177
     2
291
     0
 71
     2
176
     1
 72
     2
176
     1
 73
     1
176
     1
 90
        0
176
     1
 40
0.6
176
     1
 41
30.0
176
     1
 63
     7
176
     1
 74
     1
176
     1
 91
        0
176
     1
 64
     7
176
     1
 65
   257
176
     1
 75
     1
176
     1
175
     1
176
     1
 42
1.0
176
     1
 92
        8
176
     1
 66
     8
176
     1
 43
1.0
176
     1
 76
     1
176
     1
 77
     6
176
     1
 78
     2
176
     1
 67
     7
176
     1
 79
     5
176
     1
170
     0
176
     1
171
     0
176
     1
290
     0
176
     1
 93
       13
176
     1
 44
0.0
176
     1
173
     0
176
     1
1001
ACAD
1000
AcDbSavedByObjectVersion
1070
     0
  0
VISUALSTYLE
  5
1A99
102
{ACAD_XDICTIONARY
360
1B6E
102
}
102
{ACAD_REACTORS
330
EF
102
}
330
EF
100
AcDbVisualStyle
  2
Shaded
 70
    27
177
     2
291
     0
 71
     2
176
     1
 72
     2
176
     1
 73
     1
176
     1
 90
        2
176
     1
 40
0.6
176
     1
 41
30.0
176
     1
 63
     7
421
 16777215
176
     1
 74
     0
176
     1
 91
        4
176
     1
 64
     7
176
     1
 65
   257
176
     1
 75
     1
176
     1
175
     1
176
     1
 42
1.0
176
     1
 92
        8
176
     1
 66
   257
176
     1
 43
1.0
176
     1
 76
     1
176
     1
 77
     6
176
     1
 78
     2
176
     1
 67
     8
425
  7895160
176
     1
 79
     3
176
     1
170
     0
176
     1
171
     0
176
     1
290
     0
176
     1
 93
        5
176
     1
 44
0.0
176
     1
173
     0
176
     1
1001
ACAD
1000
AcDbSavedByObjectVersion
1070
     0
  0
VISUALSTYLE
  5
1A98
102
{ACAD_XDICTIONARY
360
1B6C
102
}
102
{ACAD_REACTORS
330
EF
102
}
330
EF
100
AcDbVisualStyle
  2
Shaded with edges
 70
    26
177
     2
291
     0
 71
     2
176
     1
 72
     2
176
     1
 73
     1
176
     1
 90
        2
176
     1
 40
0.6
176
     1
 41
30.0
176
     1
 63
     7
421
 16777215
176
     1
 74
     1
176
     1
 91
       10
176
     1
 64
     7
176
     1
 65
   257
176
     1
 75
     2
176
     1
175
     1
176
     1
 42
1.0
176
     1
 92
        8
176
     1
 66
   257
176
     1
 43
1.0
176
     1
 76
     1
176
     1
 77
     6
176
     1
 78
     2
176
     1
 67
     7
176
     1
 79
     3
176
     1
170
     0
176
     1
171
     0
176
     1
290
     0
176
     1
 93
        5
176
     1
 44
0.0
176
     1
173
     0
176
     1
1001
ACAD
1000
AcDbSavedByObjectVersion
1070
     0
  0
VISUALSTYLE
  5
1A95
102
{ACAD_XDICTIONARY
360
1B66
102
}
102
{ACAD_REACTORS
330
EF
102
}
330
EF
100
AcDbVisualStyle
  2
Shades of Gray
 70
    23
177
     2
291
     0
 71
     2
176
     1
 72
     2
176
     1
 73
     3
176
     1
 90
        0
176
     1
 40
0.6
176
     1
 41
30.0
176
     1
 63
     7
421
 16777215
176
     1
 74
     2
176
     1
 91
        2
176
     1
 64
     7
176
     1
 65
     7
176
     1
 75
     1
176
     1
175
     1
176
     1
 42
40.0
176
     1
 92
        8
176
     1
 66
     7
176
     1
 43
1.0
176
     1
 76
     1
176
     1
 77
     6
176
     1
 78
     2
176
     1
 67
     7
176
     1
 79
     3
176
     1
170
     0
176
     1
171
     0
176
     1
290
     0
176
     1
 93
        1
176
     1
 44
0.0
176
     1
173
     0
176
     1
1001
ACAD
1000
AcDbSavedByObjectVersion
1070
     0
  0
VISUALSTYLE
  5
1A96
102
{ACAD_XDICTIONARY
360
1B68
102
}
102
{ACAD_REACTORS
330
EF
102
}
330
EF
100
AcDbVisualStyle
  2
Sketchy
 70
    24
177
     2
291
     0
 71
     1
176
     1
 72
     2
176
     1
 73
     2
176
     1
 90
        0
176
     1
 40
0.6
176
     1
 41
30.0
176
     1
 63
     7
421
 16777215
176
     1
 74
     2
176
     1
 91
        2
176
     1
 64
     7
176
     1
 65
     7
176
     1
 75
     1
176
     1
175
     1
176
     1
 42
40.0
176
     1
 92
       11
176
     1
 66
     7
176
     1
 43
1.0
176
     1
 76
     1
176
     1
 77
     6
176
     1
 78
     2
176
     1
 67
     7
176
     1
 79
     6
176
     1
170
     0
176
     1
171
     0
176
     1
290
     0
176
     1
 93
        1
176
     1
 44
0.0
176
     1
173
     0
176
     1
1001
ACAD
1000
AcDbSavedByObjectVersion
1070
     0
  0
VISUALSTYLE
  5
FC
102
{ACAD_XDICTIONARY
360
1B5A
102
}
102
{ACAD_REACTORS
330
EF
102
}
330
EF
100
AcDbVisualStyle
  2

 70
    13
177
     2
291
     1
 71
     2
176
     1
 72
     2
176
     1
 73
     1
176
     1
 90
        0
176
     1
 40
0.6
176
     1
 41
30.0
176
     1
 63
     7
176
     1
 74
     1
176
     1
 91
        4
176
     1
 64
     7
176
     1
 65
   257
176
     1
 75
     1
176
     1
175
     1
176
     1
 42
1.0
176
     1
 92
       12
176
     1
 66
     7
176
     1
 43
1.0
176
     1
 76
     1
176
     1
 77
     6
176
     1
 78
     2
176
     1
 67
     7
176
     1
 79
     5
176
     1
170
     0
176
     1
171
     0
176
     1
290
     0
176
     1
 93
        1
176
     1
 44
0.0
176
     1
173
     0
176
     1
1001
ACAD
1000
AcDbSavedByObjectVersion
1070
     0
  0
VISUALSTYLE
  5
1A93
102
{ACAD_XDICTIONARY
360
1B62
102
}
102
{ACAD_REACTORS
330
EF
102
}
330
EF
100
AcDbVisualStyle
  2
Wireframe
 70
     5
177
     2
291
     0
 71
     0
176
     1
 72
     2
176
     1
 73
     0
176
     1
 90
        0
176
     1
 40
0.6
176
     1
 41
30.0
176
     1
 63
     7
421
 16777215
176
     1
 74
     1
176
     1
 91
        4
176
     1
 64
     7
176
     1
 65
   257
176
     1
 75
     1
176
     1
175
     1
176
     1
 42
1.0
176
     1
 92
        0
176
     1
 66
   257
176
     1
 43
1.0
176
     1
 76
     1
176
     1
 77
     6
176
     1
 78
     2
176
     1
 67
     7
176
     1
 79
     3
176
     1
170
     0
176
     1
171
     0
176
     1
290
     0
176
     1
 93
        1
176
     1
 44
0.0
176
     1
173
     0
176
     1
1001
ACAD
1000
AcDbSavedByObjectVersion
1070
     0
  0
VISUALSTYLE
  5
1A97
102
{ACAD_XDICTIONARY
360
1B6A
102
}
102
{ACAD_REACTORS
330
EF
102
}
330
EF
100
AcDbVisualStyle
  2
X-Ray
 70
    25
177
     2
291
     0
 71
     2
176
     1
 72
     2
176
     1
 73
     1
176
     1
 90
        1
176
     1
 40
0.5
176
     1
 41
30.0
176
     1
 63
     7
421
 16777215
176
     1
 74
     1
176
     1
 91
        0
176
     1
 64
     7
176
     1
 65
   257
176
     1
 75
     1
176
     1
175
     1
176
     1
 42
1.0
176
     1
 92
        8
176
     1
 66
     7
176
     1
 43
1.0
176
     1
 76
     1
176
     1
 77
     6
176
     1
 78
     2
176
     1
 67
     7
176
     1
 79
     3
176
     1
170
     0
176
     1
171
     0
176
     1
290
     0
176
     1
 93
       13
176
     1
 44
0.0
176
     1
173
     0
176
     1
1001
ACAD
1000
AcDbSavedByObjectVersion
1070
     0
  0
DICTIONARYVAR
  5
1AC4
102
{ACAD_REACTORS
330
5E
102
}
330
5E
100
DictionaryVariables
280
     0
  1
1:1
  0
DICTIONARYVAR
  5
1AC0
102
{ACAD_REACTORS
330
5E
102
}
330
5E
100
DictionaryVariables
280
     0
  1
STANDARD
  0
DICTIONARYVAR
  5
84
102
{ACAD_REACTORS
330
5E
102
}
330
5E
100
DictionaryVariables
280
     0
  1
STANDARD
  0
DICTIONARYVAR
  5
1AC1
102
{ACAD_REACTORS
330
5E
102
}
330
5E
100
DictionaryVariables
280
     0
  1
Metric50
  0
DICTIONARYVAR
  5
1AC2
102
{ACAD_REACTORS
330
5E
102
}
330
5E
100
DictionaryVariables
280
     0
  1
Metric50
  0
DICTIONARYVAR
  5
5F
102
{ACAD_REACTORS
330
5E
102
}
330
5E
100
DictionaryVariables
280
     0
  1
2
  0
DICTIONARYVAR
  5
63
102
{ACAD_REACTORS
330
5E
102
}
330
5E
100
DictionaryVariables
280
     0
  1
1
  0
DICTIONARYVAR
  5
327
102
{ACAD_REACTORS
330
5E
102
}
330
5E
100
DictionaryVariables
280
     0
  1
0
  0
DICTIONARYVAR
  5
1AC6
102
{ACAD_REACTORS
330
5E
102
}
330
5E
100
DictionaryVariables
280
     0
  1
1
  0
DICTIONARYVAR
  5
1AC7
102
{ACAD_REACTORS
330
5E
102
}
330
5E
100
DictionaryVariables
280
     0
  1
15
  0
DICTIONARYVAR
  5
1AC5
102
{ACAD_REACTORS
330
5E
102
}
330
5E
100
DictionaryVariables
280
     0
  1
0
  0
DICTIONARYVAR
  5
1AC3
102
{ACAD_REACTORS
330
5E
102
}
330
5E
100
DictionaryVariables
280
     0
  1
0
  0
DICTIONARYVAR
  5
326
102
{ACAD_REACTORS
330
5E
102
}
330
5E
100
DictionaryVariables
280
     0
  1
127
  0
DICTIONARY
  5
1B78
330
1AB4
100
AcDbDictionary
280
     1
281
     1
  3
ACAD_XREC_ROUNDTRIP
360
1B79
  0
DICTIONARY
  5
335
330
ED
100
AcDbDictionary
280
     1
281
     1
  3
ACAD_XREC_ROUNDTRIP
360
336
  0
DICTIONARY
  5
333
330
EC
100
AcDbDictionary
280
     1
281
     1
  3
ACAD_XREC_ROUNDTRIP
360
334
  0
DICTIONARY
  5
337
330
EE
100
AcDbDictionary
280
     1
281
     1
  3
ACAD_XREC_ROUNDTRIP
360
338
  0
DICTIONARY
  5
1B76
330
1AB2
100
AcDbDictionary
280
     1
281
     1
  3
ACAD_XREC_ROUNDTRIP
360
1B77
  0
DICTIONARY
  5
1B3F
330
7F
100
AcDbDictionary
280
     1
281
     1
  3
ACAD_ROUNDTRIP_2008_TABLESTYLE_CELLSTYLEMAP
360
1B40
  0
DICTIONARY
  5
1B4C
330
F5
100
AcDbDictionary
280
     1
281
     1
  3
ACAD_XREC_ROUNDTRIP
360
1B4D
  0
DICTIONARY
  5
1B50
330
F7
100
AcDbDictionary
280
     1
281
     1
  3
ACAD_XREC_ROUNDTRIP
360
1B51
  0
DICTIONARY
  5
1B4E
330
F6
100
AcDbDictionary
280
     1
281
     1
  3
ACAD_XREC_ROUNDTRIP
360
1B4F
  0
DICTIONARY
  5
1B4A
330
F4
100
AcDbDictionary
280
     1
281
     1
  3
ACAD_XREC_ROUNDTRIP
360
1B4B
  0
DICTIONARY
  5
1B58
330
FB
100
AcDbDictionary
280
     1
281
     1
  3
ACAD_XREC_ROUNDTRIP
360
1B59
  0
DICTIONARY
  5
1B60
330
FF
100
AcDbDictionary
280
     1
281
     1
  3
ACAD_XREC_ROUNDTRIP
360
1B61
  0
DICTIONARY
  5
1B52
330
F8
100
AcDbDictionary
280
     1
281
     1
  3
ACAD_XREC_ROUNDTRIP
360
1B53
  0
DICTIONARY
  5
1B56
330
FA
100
AcDbDictionary
280
     1
281
     1
  3
ACAD_XREC_ROUNDTRIP
360
1B57
  0
DICTIONARY
  5
1B74
330
1A9C
100
AcDbDictionary
280
     1
281
     1
  3
ACAD_XREC_ROUNDTRIP
360
1B75
  0
DICTIONARY
  5
1B5E
330
FE
100
AcDbDictionary
280
     1
281
     1
  3
ACAD_XREC_ROUNDTRIP
360
1B5F
  0
DICTIONARY
  5
1B42
330
F0
100
AcDbDictionary
280
     1
281
     1
  3
ACAD_XREC_ROUNDTRIP
360
1B43
  0
DICTIONARY
  5
1B44
330
F1
100
AcDbDictionary
280
     1
281
     1
  3
ACAD_XREC_ROUNDTRIP
360
1B45
  0
DICTIONARY
  5
1B46
330
F2
100
AcDbDictionary
280
     1
281
     1
  3
ACAD_XREC_ROUNDTRIP
360
1B47
  0
DICTIONARY
  5
1B48
330
F3
100
AcDbDictionary
280
     1
281
     1
  3
ACAD_XREC_ROUNDTRIP
360
1B49
  0
DICTIONARY
  5
1B64
330
1A94
100
AcDbDictionary
280
     1
281
     1
  3
ACAD_XREC_ROUNDTRIP
360
1B65
  0
DICTIONARY
  5
1B70
330
1A9A
100
AcDbDictionary
280
     1
281
     1
  3
ACAD_XREC_ROUNDTRIP
360
1B71
  0
DICTIONARY
  5
1B5C
330
FD
100
AcDbDictionary
280
     1
281
     1
  3
ACAD_XREC_ROUNDTRIP
360
1B5D
  0
DICTIONARY
  5
1B72
330
1A9B
100
AcDbDictionary
280
     1
281
     1
  3
ACAD_XREC_ROUNDTRIP
360
1B73
  0
DICTIONARY
  5
1B54
330
F9
100
AcDbDictionary
280
     1
281
     1
  3
ACAD_XREC_ROUNDTRIP
360
1B55
  0
DICTIONARY
  5
1B6E
330
1A99
100
AcDbDictionary
280
     1
281
     1
  3
ACAD_XREC_ROUNDTRIP
360
1B6F
  0
DICTIONARY
  5
1B6C
330
1A98
100
AcDbDictionary
280
     1
281
     1
  3
ACAD_XREC_ROUNDTRIP
360
1B6D
  0
DICTIONARY
  5
1B66
330
1A95
100
AcDbDictionary
280
     1
281
     1
  3
ACAD_XREC_ROUNDTRIP
360
1B67
  0
DICTIONARY
  5
1B68
330
1A96
100
AcDbDictionary
280
     1
281
     1
  3
ACAD_XREC_ROUNDTRIP
360
1B69
  0
DICTIONARY
  5
1B5A
330
FC
100
AcDbDictionary
280
     1
281
     1
  3
ACAD_XREC_ROUNDTRIP
360
1B5B
  0
DICTIONARY
  5
1B62
330
1A93
100
AcDbDictionary
280
     1
281
     1
  3
ACAD_XREC_ROUNDTRIP
360
1B63
  0
DICTIONARY
  5
1B6A
330
1A97
100
AcDbDictionary
280
     1
281
     1
  3
ACAD_XREC_ROUNDTRIP
360
1B6B
  0
XRECORD
  5
1B79
102
{ACAD_REACTORS
330
1B78
102
}
330
1B78
100
AcDbXrecord
280
     1
102
DISPLAYNAME
  1
Metric50
102
FLAGS
 90
        0
  0
XRECORD
  5
336
102
{ACAD_REACTORS
330
335
102
}
330
335
100
AcDbXrecord
280
     1
102
MATERIAL
148
0.0
149
0.0
149
0.0
 93
        0
 94
       63
282
     0
 72
     1
 77
     1
171
     1
175
     1
179
     1
273
     0
  0
XRECORD
  5
334
102
{ACAD_REACTORS
330
333
102
}
330
333
100
AcDbXrecord
280
     1
102
MATERIAL
148
0.0
149
0.0
149
0.0
 93
        0
 94
       63
282
     0
 72
     1
 77
     1
171
     1
175
     1
179
     1
273
     0
  0
XRECORD
  5
338
102
{ACAD_REACTORS
330
337
102
}
330
337
100
AcDbXrecord
280
     1
102
MATERIAL
148
0.0
149
0.0
149
0.0
 93
        0
 94
       63
282
     0
 72
     1
 77
     1
171
     1
175
     1
179
     1
273
     0
  0
XRECORD
  5
1B77
102
{ACAD_REACTORS
330
1B76
102
}
330
1B76
100
AcDbXrecord
280
     1
102
DISPLAYNAME
  1
Metric50
102
FLAGS
 90
        0
  0
CELLSTYLEMAP
  5
1B40
102
{ACAD_REACTORS
330
1B3F
102
}
330
1B3F
100
AcDbCellStyleMap
 90
        3
300
CELLSTYLE
  1
TABLEFORMAT_BEGIN
 90
        5
170
     1
 91
        0
 92
    32768
 62
   257
 93
        1
300
CONTENTFORMAT
  1
CONTENTFORMAT_BEGIN
 90
        0
 91
        0
 92
      512
 93
        0
300

 40
0.0
140
1.0
 94
        5
 62
     0
340
11
144
6.0
309
CONTENTFORMAT_END
171
     1
301
MARGIN
  1
CELLMARGIN_BEGIN
 40
1.5
 40
1.5
 40
1.5
 40
1.5
 40
0.18
 40
0.18
309
CELLMARGIN_END
 94
        6
 95
        1
302
GRIDFORMAT
  1
GRIDFORMAT_BEGIN
 90
        0
 91
        1
 62
     0
 92
       -2
340
0
 93
        0
 40
0.045
309
GRIDFORMAT_END
 95
        2
302
GRIDFORMAT
  1
GRIDFORMAT_BEGIN
 90
        0
 91
        1
 62
     0
 92
       -2
340
0
 93
        0
 40
0.045
309
GRIDFORMAT_END
 95
        4
302
GRIDFORMAT
  1
GRIDFORMAT_BEGIN
 90
        0
 91
        1
 62
     0
 92
       -2
340
0
 93
        0
 40
0.045
309
GRIDFORMAT_END
 95
        8
302
GRIDFORMAT
  1
GRIDFORMAT_BEGIN
 90
        0
 91
        1
 62
     0
 92
       -2
340
0
 93
        0
 40
0.045
309
GRIDFORMAT_END
 95
       16
302
GRIDFORMAT
  1
GRIDFORMAT_BEGIN
 90
        0
 91
        1
 62
     0
 92
       -2
340
0
 93
        0
 40
0.045
309
GRIDFORMAT_END
 95
       32
302
GRIDFORMAT
  1
GRIDFORMAT_BEGIN
 90
        0
 91
        1
 62
     0
 92
       -2
340
0
 93
        0
 40
0.045
309
GRIDFORMAT_END
309
TABLEFORMAT_END
  1
CELLSTYLE_BEGIN
 90
        1
 91
        1
300
_TITLE
309
CELLSTYLE_END
300
CELLSTYLE
  1
TABLEFORMAT_BEGIN
 90
        5
170
     1
 91
        0
 92
        0
 62
   257
 93
        1
300
CONTENTFORMAT
  1
CONTENTFORMAT_BEGIN
 90
        0
 91
        0
 92
      512
 93
        0
300

 40
0.0
140
1.0
 94
        5
 62
     0
340
11
144
4.5
309
CONTENTFORMAT_END
171
     1
301
MARGIN
  1
CELLMARGIN_BEGIN
 40
1.5
 40
1.5
 40
1.5
 40
1.5
 40
0.18
 40
0.18
309
CELLMARGIN_END
 94
        6
 95
        1
302
GRIDFORMAT
  1
GRIDFORMAT_BEGIN
 90
        0
 91
        1
 62
     0
 92
       -2
340
0
 93
        0
 40
0.045
309
GRIDFORMAT_END
 95
        2
302
GRIDFORMAT
  1
GRIDFORMAT_BEGIN
 90
        0
 91
        1
 62
     0
 92
       -2
340
0
 93
        0
 40
0.045
309
GRIDFORMAT_END
 95
        4
302
GRIDFORMAT
  1
GRIDFORMAT_BEGIN
 90
        0
 91
        1
 62
     0
 92
       -2
340
0
 93
        0
 40
0.045
309
GRIDFORMAT_END
 95
        8
302
GRIDFORMAT
  1
GRIDFORMAT_BEGIN
 90
        0
 91
        1
 62
     0
 92
       -2
340
0
 93
        0
 40
0.045
309
GRIDFORMAT_END
 95
       16
302
GRIDFORMAT
  1
GRIDFORMAT_BEGIN
 90
        0
 91
        1
 62
     0
 92
       -2
340
0
 93
        0
 40
0.045
309
GRIDFORMAT_END
 95
       32
302
GRIDFORMAT
  1
GRIDFORMAT_BEGIN
 90
        0
 91
        1
 62
     0
 92
       -2
340
0
 93
        0
 40
0.045
309
GRIDFORMAT_END
309
TABLEFORMAT_END
  1
CELLSTYLE_BEGIN
 90
        2
 91
        1
300
_HEADER
309
CELLSTYLE_END
300
CELLSTYLE
  1
TABLEFORMAT_BEGIN
 90
        5
170
     1
 91
        0
 92
        0
 62
   257
 93
        1
300
CONTENTFORMAT
  1
CONTENTFORMAT_BEGIN
 90
        0
 91
        0
 92
      512
 93
        0
300

 40
0.0
140
1.0
 94
        2
 62
     0
340
11
144
4.5
309
CONTENTFORMAT_END
171
     1
301
MARGIN
  1
CELLMARGIN_BEGIN
 40
1.5
 40
1.5
 40
1.5
 40
1.5
 40
0.18
 40
0.18
309
CELLMARGIN_END
 94
        6
 95
        1
302
GRIDFORMAT
  1
GRIDFORMAT_BEGIN
 90
        0
 91
        1
 62
     0
 92
       -2
340
0
 93
        0
 40
0.045
309
GRIDFORMAT_END
 95
        2
302
GRIDFORMAT
  1
GRIDFORMAT_BEGIN
 90
        0
 91
        1
 62
     0
 92
       -2
340
0
 93
        0
 40
0.045
309
GRIDFORMAT_END
 95
        4
302
GRIDFORMAT
  1
GRIDFORMAT_BEGIN
 90
        0
 91
        1
 62
     0
 92
       -2
340
0
 93
        0
 40
0.045
309
GRIDFORMAT_END
 95
        8
302
GRIDFORMAT
  1
GRIDFORMAT_BEGIN
 90
        0
 91
        1
 62
     0
 92
       -2
340
0
 93
        0
 40
0.045
309
GRIDFORMAT_END
 95
       16
302
GRIDFORMAT
  1
GRIDFORMAT_BEGIN
 90
        0
 91
        1
 62
     0
 92
       -2
340
0
 93
        0
 40
0.045
309
GRIDFORMAT_END
 95
       32
302
GRIDFORMAT
  1
GRIDFORMAT_BEGIN
 90
        0
 91
        1
 62
     0
 92
       -2
340
0
 93
        0
 40
0.045
309
GRIDFORMAT_END
309
TABLEFORMAT_END
  1
CELLSTYLE_BEGIN
 90
        3
 91
        2
300
_DATA
309
CELLSTYLE_END
  0
XRECORD
  5
1B4D
102
{ACAD_REACTORS
330
1B4C
102
}
330
1B4C
100
AcDbXrecord
280
     1
102
RTVSPost2010Prop28
280
     1
102
RTVSPost2010PropOp28
 70
     1
102
RTVSPost2010Prop29
280
     1
102
RTVSPost2010PropOp29
 70
     1
102
RTVSPost2010Prop30
280
     0
102
RTVSPost2010PropOp30
 70
     1
102
RTVSPost2010Prop31
280
     0
102
RTVSPost2010PropOp31
 70
     1
102
RTVSPost2010Prop32
280
     0
102
RTVSPost2010PropOp32
 70
     1
102
RTVSPost2010Prop33
280
     0
102
RTVSPost2010PropOp33
 70
     1
102
RTVSPost2010Prop34
280
     0
102
RTVSPost2010PropOp34
 70
     1
102
RTVSPost2010Prop35
280
     0
102
RTVSPost2010PropOp35
 70
     1
102
RTVSPost2010Prop36
280
     0
102
RTVSPost2010PropOp36
 70
     1
102
RTVSPost2010Prop37
 90
       50
102
RTVSPost2010PropOp37
 70
     1
102
RTVSPost2010Prop38
140
0.0
102
RTVSPost2010PropOp38
 70
     1
102
RTVSPost2010Prop39
140
1.0
102
RTVSPost2010PropOp39
 70
     1
102
RTVSPost2010Prop40
 90
        0
102
RTVSPost2010PropOp40
 70
     1
102
RTVSPost2010Prop41ColorIndex
 90
       18
102
RTVSPost2010Prop41ColorRGB
 90
        0
102
RTVSPost2010PropOp41
 70
     1
102
RTVSPost2010Prop42
 90
       50
102
RTVSPost2010PropOp42
 70
     1
102
RTVSPost2010Prop43
 90
        3
102
RTVSPost2010PropOp43
 70
     1
102
RTVSPost2010Prop44ColorIndex
 90
        5
102
RTVSPost2010Prop44ColorRGB
 90
      255
102
RTVSPost2010PropOp44
 70
     1
102
RTVSPost2010Prop45
280
     0
102
RTVSPost2010PropOp45
 70
     1
102
RTVSPost2010Prop46
 90
       50
102
RTVSPost2010PropOp46
 70
     1
102
RTVSPost2010Prop47
 90
       50
102
RTVSPost2010PropOp47
 70
     1
102
RTVSPost2010Prop48
 90
       50
102
RTVSPost2010PropOp48
 70
     1
102
RTVSPost2010Prop49
280
     0
102
RTVSPost2010PropOp49
 70
     1
102
RTVSPost2010Prop50
 90
       50
102
RTVSPost2010PropOp50
 70
     1
102
RTVSPost2010Prop51ColorIndex
 90
      256
102
RTVSPost2010Prop51ColorRGB
 90
-16777216
102
RTVSPost2010PropOp51
 70
     0
102
RTVSPost2010Prop52
140
1.0
102
RTVSPost2010PropOp52
 70
     0
102
RTVSPost2010Prop53
 90
        2
102
RTVSPost2010PropOp53
 70
     1
102
RTVSPost2010Prop54
  1
strokes_ogs.tif
102
RTVSPost2010PropOp54
 70
     1
102
RTVSPost2010Prop55
280
     0
102
RTVSPost2010PropOp55
 70
     1
102
RTVSPost2010Prop56
140
1.0
102
RTVSPost2010PropOp56
 70
     1
102
RTVSPost2010Prop57
140
1.0
102
RTVSPost2010PropOp57
 70
     1
  0
XRECORD
  5
1B51
102
{ACAD_REACTORS
330
1B50
102
}
330
1B50
100
AcDbXrecord
280
     1
102
RTVSPost2010Prop28
280
     0
102
RTVSPost2010PropOp28
 70
     1
102
RTVSPost2010Prop29
280
     1
102
RTVSPost2010PropOp29
 70
     1
102
RTVSPost2010Prop30
280
     1
102
RTVSPost2010PropOp30
 70
     1
102
RTVSPost2010Prop31
280
     0
102
RTVSPost2010PropOp31
 70
     1
102
RTVSPost2010Prop32
280
     0
102
RTVSPost2010PropOp32
 70
     1
102
RTVSPost2010Prop33
280
     0
102
RTVSPost2010PropOp33
 70
     1
102
RTVSPost2010Prop34
280
     0
102
RTVSPost2010PropOp34
 70
     1
102
RTVSPost2010Prop35
280
     0
102
RTVSPost2010PropOp35
 70
     1
102
RTVSPost2010Prop36
280
     0
102
RTVSPost2010PropOp36
 70
     1
102
RTVSPost2010Prop37
 90
       50
102
RTVSPost2010PropOp37
 70
     1
102
RTVSPost2010Prop38
140
0.0
102
RTVSPost2010PropOp38
 70
     1
102
RTVSPost2010Prop39
140
1.0
102
RTVSPost2010PropOp39
 70
     1
102
RTVSPost2010Prop40
 90
        0
102
RTVSPost2010PropOp40
 70
     1
102
RTVSPost2010Prop41ColorIndex
 90
       18
102
RTVSPost2010Prop41ColorRGB
 90
        0
102
RTVSPost2010PropOp41
 70
     1
102
RTVSPost2010Prop42
 90
       50
102
RTVSPost2010PropOp42
 70
     1
102
RTVSPost2010Prop43
 90
        3
102
RTVSPost2010PropOp43
 70
     1
102
RTVSPost2010Prop44ColorIndex
 90
        5
102
RTVSPost2010Prop44ColorRGB
 90
      255
102
RTVSPost2010PropOp44
 70
     1
102
RTVSPost2010Prop45
280
     0
102
RTVSPost2010PropOp45
 70
     1
102
RTVSPost2010Prop46
 90
       50
102
RTVSPost2010PropOp46
 70
     1
102
RTVSPost2010Prop47
 90
       50
102
RTVSPost2010PropOp47
 70
     1
102
RTVSPost2010Prop48
 90
       50
102
RTVSPost2010PropOp48
 70
     1
102
RTVSPost2010Prop49
280
     0
102
RTVSPost2010PropOp49
 70
     1
102
RTVSPost2010Prop50
 90
       50
102
RTVSPost2010PropOp50
 70
     1
102
RTVSPost2010Prop51ColorIndex
 90
      256
102
RTVSPost2010Prop51ColorRGB
 90
-16777216
102
RTVSPost2010PropOp51
 70
     0
102
RTVSPost2010Prop52
140
1.0
102
RTVSPost2010PropOp52
 70
     0
102
RTVSPost2010Prop53
 90
        2
102
RTVSPost2010PropOp53
 70
     1
102
RTVSPost2010Prop54
  1
strokes_ogs.tif
102
RTVSPost2010PropOp54
 70
     1
102
RTVSPost2010Prop55
280
     0
102
RTVSPost2010PropOp55
 70
     1
102
RTVSPost2010Prop56
140
1.0
102
RTVSPost2010PropOp56
 70
     1
102
RTVSPost2010Prop57
140
1.0
102
RTVSPost2010PropOp57
 70
     1
  0
XRECORD
  5
1B4F
102
{ACAD_REACTORS
330
1B4E
102
}
330
1B4E
100
AcDbXrecord
280
     1
102
RTVSPost2010Prop28
280
     0
102
RTVSPost2010PropOp28
 70
     1
102
RTVSPost2010Prop29
280
     1
102
RTVSPost2010PropOp29
 70
     1
102
RTVSPost2010Prop30
280
     1
102
RTVSPost2010PropOp30
 70
     1
102
RTVSPost2010Prop31
280
     0
102
RTVSPost2010PropOp31
 70
     1
102
RTVSPost2010Prop32
280
     0
102
RTVSPost2010PropOp32
 70
     1
102
RTVSPost2010Prop33
280
     0
102
RTVSPost2010PropOp33
 70
     1
102
RTVSPost2010Prop34
280
     0
102
RTVSPost2010PropOp34
 70
     1
102
RTVSPost2010Prop35
280
     0
102
RTVSPost2010PropOp35
 70
     1
102
RTVSPost2010Prop36
280
     0
102
RTVSPost2010PropOp36
 70
     1
102
RTVSPost2010Prop37
 90
       50
102
RTVSPost2010PropOp37
 70
     1
102
RTVSPost2010Prop38
140
0.0
102
RTVSPost2010PropOp38
 70
     1
102
RTVSPost2010Prop39
140
1.0
102
RTVSPost2010PropOp39
 70
     1
102
RTVSPost2010Prop40
 90
        0
102
RTVSPost2010PropOp40
 70
     1
102
RTVSPost2010Prop41ColorIndex
 90
       18
102
RTVSPost2010Prop41ColorRGB
 90
        0
102
RTVSPost2010PropOp41
 70
     1
102
RTVSPost2010Prop42
 90
       50
102
RTVSPost2010PropOp42
 70
     1
102
RTVSPost2010Prop43
 90
        3
102
RTVSPost2010PropOp43
 70
     1
102
RTVSPost2010Prop44ColorIndex
 90
        5
102
RTVSPost2010Prop44ColorRGB
 90
      255
102
RTVSPost2010PropOp44
 70
     1
102
RTVSPost2010Prop45
280
     0
102
RTVSPost2010PropOp45
 70
     1
102
RTVSPost2010Prop46
 90
       50
102
RTVSPost2010PropOp46
 70
     1
102
RTVSPost2010Prop47
 90
       50
102
RTVSPost2010PropOp47
 70
     1
102
RTVSPost2010Prop48
 90
       50
102
RTVSPost2010PropOp48
 70
     1
102
RTVSPost2010Prop49
280
     0
102
RTVSPost2010PropOp49
 70
     1
102
RTVSPost2010Prop50
 90
       50
102
RTVSPost2010PropOp50
 70
     1
102
RTVSPost2010Prop51ColorIndex
 90
      256
102
RTVSPost2010Prop51ColorRGB
 90
-16777216
102
RTVSPost2010PropOp51
 70
     0
102
RTVSPost2010Prop52
140
1.0
102
RTVSPost2010PropOp52
 70
     0
102
RTVSPost2010Prop53
 90
        2
102
RTVSPost2010PropOp53
 70
     1
102
RTVSPost2010Prop54
  1
strokes_ogs.tif
102
RTVSPost2010PropOp54
 70
     1
102
RTVSPost2010Prop55
280
     0
102
RTVSPost2010PropOp55
 70
     1
102
RTVSPost2010Prop56
140
1.0
102
RTVSPost2010PropOp56
 70
     1
102
RTVSPost2010Prop57
140
1.0
102
RTVSPost2010PropOp57
 70
     1
  0
XRECORD
  5
1B4B
102
{ACAD_REACTORS
330
1B4A
102
}
330
1B4A
100
AcDbXrecord
280
     1
102
RTVSPost2010Prop28
280
     0
102
RTVSPost2010PropOp28
 70
     1
102
RTVSPost2010Prop29
280
     1
102
RTVSPost2010PropOp29
 70
     1
102
RTVSPost2010Prop30
280
     1
102
RTVSPost2010PropOp30
 70
     1
102
RTVSPost2010Prop31
280
     0
102
RTVSPost2010PropOp31
 70
     1
102
RTVSPost2010Prop32
280
     0
102
RTVSPost2010PropOp32
 70
     1
102
RTVSPost2010Prop33
280
     0
102
RTVSPost2010PropOp33
 70
     1
102
RTVSPost2010Prop34
280
     0
102
RTVSPost2010PropOp34
 70
     1
102
RTVSPost2010Prop35
280
     0
102
RTVSPost2010PropOp35
 70
     1
102
RTVSPost2010Prop36
280
     0
102
RTVSPost2010PropOp36
 70
     1
102
RTVSPost2010Prop37
 90
       50
102
RTVSPost2010PropOp37
 70
     1
102
RTVSPost2010Prop38
140
0.0
102
RTVSPost2010PropOp38
 70
     1
102
RTVSPost2010Prop39
140
1.0
102
RTVSPost2010PropOp39
 70
     1
102
RTVSPost2010Prop40
 90
        0
102
RTVSPost2010PropOp40
 70
     1
102
RTVSPost2010Prop41ColorIndex
 90
       18
102
RTVSPost2010Prop41ColorRGB
 90
        0
102
RTVSPost2010PropOp41
 70
     1
102
RTVSPost2010Prop42
 90
       50
102
RTVSPost2010PropOp42
 70
     1
102
RTVSPost2010Prop43
 90
        3
102
RTVSPost2010PropOp43
 70
     1
102
RTVSPost2010Prop44ColorIndex
 90
        5
102
RTVSPost2010Prop44ColorRGB
 90
      255
102
RTVSPost2010PropOp44
 70
     1
102
RTVSPost2010Prop45
280
     0
102
RTVSPost2010PropOp45
 70
     1
102
RTVSPost2010Prop46
 90
       50
102
RTVSPost2010PropOp46
 70
     1
102
RTVSPost2010Prop47
 90
       50
102
RTVSPost2010PropOp47
 70
     1
102
RTVSPost2010Prop48
 90
       50
102
RTVSPost2010PropOp48
 70
     1
102
RTVSPost2010Prop49
280
     0
102
RTVSPost2010PropOp49
 70
     1
102
RTVSPost2010Prop50
 90
       50
102
RTVSPost2010PropOp50
 70
     1
102
RTVSPost2010Prop51ColorIndex
 90
      256
102
RTVSPost2010Prop51ColorRGB
 90
-16777216
102
RTVSPost2010PropOp51
 70
     0
102
RTVSPost2010Prop52
140
1.0
102
RTVSPost2010PropOp52
 70
     0
102
RTVSPost2010Prop53
 90
        2
102
RTVSPost2010PropOp53
 70
     1
102
RTVSPost2010Prop54
  1
strokes_ogs.tif
102
RTVSPost2010PropOp54
 70
     1
102
RTVSPost2010Prop55
280
     0
102
RTVSPost2010PropOp55
 70
     1
102
RTVSPost2010Prop56
140
1.0
102
RTVSPost2010PropOp56
 70
     1
102
RTVSPost2010Prop57
140
1.0
102
RTVSPost2010PropOp57
 70
     1
  0
XRECORD
  5
1B59
102
{ACAD_REACTORS
330
1B58
102
}
330
1B58
100
AcDbXrecord
280
     1
102
RTVSPost2010Prop28
280
     0
102
RTVSPost2010PropOp28
 70
     1
102
RTVSPost2010Prop29
280
     1
102
RTVSPost2010PropOp29
 70
     1
102
RTVSPost2010Prop30
280
     1
102
RTVSPost2010PropOp30
 70
     1
102
RTVSPost2010Prop31
280
     0
102
RTVSPost2010PropOp31
 70
     1
102
RTVSPost2010Prop32
280
     0
102
RTVSPost2010PropOp32
 70
     1
102
RTVSPost2010Prop33
280
     0
102
RTVSPost2010PropOp33
 70
     1
102
RTVSPost2010Prop34
280
     0
102
RTVSPost2010PropOp34
 70
     1
102
RTVSPost2010Prop35
280
     0
102
RTVSPost2010PropOp35
 70
     1
102
RTVSPost2010Prop36
280
     0
102
RTVSPost2010PropOp36
 70
     1
102
RTVSPost2010Prop37
 90
       50
102
RTVSPost2010PropOp37
 70
     1
102
RTVSPost2010Prop38
140
0.0
102
RTVSPost2010PropOp38
 70
     1
102
RTVSPost2010Prop39
140
1.0
102
RTVSPost2010PropOp39
 70
     1
102
RTVSPost2010Prop40
 90
        0
102
RTVSPost2010PropOp40
 70
     1
102
RTVSPost2010Prop41ColorIndex
 90
       18
102
RTVSPost2010Prop41ColorRGB
 90
        0
102
RTVSPost2010PropOp41
 70
     1
102
RTVSPost2010Prop42
 90
       50
102
RTVSPost2010PropOp42
 70
     1
102
RTVSPost2010Prop43
 90
        3
102
RTVSPost2010PropOp43
 70
     1
102
RTVSPost2010Prop44ColorIndex
 90
        5
102
RTVSPost2010Prop44ColorRGB
 90
      255
102
RTVSPost2010PropOp44
 70
     1
102
RTVSPost2010Prop45
280
     0
102
RTVSPost2010PropOp45
 70
     1
102
RTVSPost2010Prop46
 90
       50
102
RTVSPost2010PropOp46
 70
     1
102
RTVSPost2010Prop47
 90
       50
102
RTVSPost2010PropOp47
 70
     1
102
RTVSPost2010Prop48
 90
       50
102
RTVSPost2010PropOp48
 70
     1
102
RTVSPost2010Prop49
280
     0
102
RTVSPost2010PropOp49
 70
     1
102
RTVSPost2010Prop50
 90
       50
102
RTVSPost2010PropOp50
 70
     1
102
RTVSPost2010Prop51ColorIndex
 90
      256
102
RTVSPost2010Prop51ColorRGB
 90
-16777216
102
RTVSPost2010PropOp51
 70
     0
102
RTVSPost2010Prop52
140
1.0
102
RTVSPost2010PropOp52
 70
     0
102
RTVSPost2010Prop53
 90
        2
102
RTVSPost2010PropOp53
 70
     1
102
RTVSPost2010Prop54
  1
strokes_ogs.tif
102
RTVSPost2010PropOp54
 70
     1
102
RTVSPost2010Prop55
280
     0
102
RTVSPost2010PropOp55
 70
     1
102
RTVSPost2010Prop56
140
1.0
102
RTVSPost2010PropOp56
 70
     1
102
RTVSPost2010Prop57
140
1.0
102
RTVSPost2010PropOp57
 70
     1
  0
XRECORD
  5
1B61
102
{ACAD_REACTORS
330
1B60
102
}
330
1B60
100
AcDbXrecord
280
     1
102
RTVSPost2010Prop28
280
     0
102
RTVSPost2010PropOp28
 70
     1
102
RTVSPost2010Prop29
280
     1
102
RTVSPost2010PropOp29
 70
     1
102
RTVSPost2010Prop30
280
     1
102
RTVSPost2010PropOp30
 70
     1
102
RTVSPost2010Prop31
280
     0
102
RTVSPost2010PropOp31
 70
     1
102
RTVSPost2010Prop32
280
     0
102
RTVSPost2010PropOp32
 70
     1
102
RTVSPost2010Prop33
280
     0
102
RTVSPost2010PropOp33
 70
     1
102
RTVSPost2010Prop34
280
     0
102
RTVSPost2010PropOp34
 70
     1
102
RTVSPost2010Prop35
280
     0
102
RTVSPost2010PropOp35
 70
     1
102
RTVSPost2010Prop36
280
     0
102
RTVSPost2010PropOp36
 70
     1
102
RTVSPost2010Prop37
 90
       50
102
RTVSPost2010PropOp37
 70
     1
102
RTVSPost2010Prop38
140
0.0
102
RTVSPost2010PropOp38
 70
     1
102
RTVSPost2010Prop39
140
1.0
102
RTVSPost2010PropOp39
 70
     1
102
RTVSPost2010Prop40
 90
        0
102
RTVSPost2010PropOp40
 70
     1
102
RTVSPost2010Prop41ColorIndex
 90
       18
102
RTVSPost2010Prop41ColorRGB
 90
        0
102
RTVSPost2010PropOp41
 70
     1
102
RTVSPost2010Prop42
 90
       50
102
RTVSPost2010PropOp42
 70
     1
102
RTVSPost2010Prop43
 90
        3
102
RTVSPost2010PropOp43
 70
     1
102
RTVSPost2010Prop44ColorIndex
 90
        5
102
RTVSPost2010Prop44ColorRGB
 90
      255
102
RTVSPost2010PropOp44
 70
     1
102
RTVSPost2010Prop45
280
     0
102
RTVSPost2010PropOp45
 70
     1
102
RTVSPost2010Prop46
 90
       50
102
RTVSPost2010PropOp46
 70
     1
102
RTVSPost2010Prop47
 90
       50
102
RTVSPost2010PropOp47
 70
     1
102
RTVSPost2010Prop48
 90
       50
102
RTVSPost2010PropOp48
 70
     1
102
RTVSPost2010Prop49
280
     0
102
RTVSPost2010PropOp49
 70
     1
102
RTVSPost2010Prop50
 90
       50
102
RTVSPost2010PropOp50
 70
     1
102
RTVSPost2010Prop51ColorIndex
 90
      256
102
RTVSPost2010Prop51ColorRGB
 90
-16777216
102
RTVSPost2010PropOp51
 70
     0
102
RTVSPost2010Prop52
140
1.0
102
RTVSPost2010PropOp52
 70
     0
102
RTVSPost2010Prop53
 90
        2
102
RTVSPost2010PropOp53
 70
     1
102
RTVSPost2010Prop54
  1
strokes_ogs.tif
102
RTVSPost2010PropOp54
 70
     1
102
RTVSPost2010Prop55
280
     0
102
RTVSPost2010PropOp55
 70
     1
102
RTVSPost2010Prop56
140
1.0
102
RTVSPost2010PropOp56
 70
     1
102
RTVSPost2010Prop57
140
1.0
102
RTVSPost2010PropOp57
 70
     1
  0
XRECORD
  5
1B53
102
{ACAD_REACTORS
330
1B52
102
}
330
1B52
100
AcDbXrecord
280
     1
102
RTVSPost2010Prop28
280
     0
102
RTVSPost2010PropOp28
 70
     1
102
RTVSPost2010Prop29
280
     1
102
RTVSPost2010PropOp29
 70
     1
102
RTVSPost2010Prop30
280
     1
102
RTVSPost2010PropOp30
 70
     1
102
RTVSPost2010Prop31
280
     0
102
RTVSPost2010PropOp31
 70
     1
102
RTVSPost2010Prop32
280
     0
102
RTVSPost2010PropOp32
 70
     1
102
RTVSPost2010Prop33
280
     0
102
RTVSPost2010PropOp33
 70
     1
102
RTVSPost2010Prop34
280
     0
102
RTVSPost2010PropOp34
 70
     1
102
RTVSPost2010Prop35
280
     0
102
RTVSPost2010PropOp35
 70
     1
102
RTVSPost2010Prop36
280
     0
102
RTVSPost2010PropOp36
 70
     1
102
RTVSPost2010Prop37
 90
       50
102
RTVSPost2010PropOp37
 70
     1
102
RTVSPost2010Prop38
140
0.0
102
RTVSPost2010PropOp38
 70
     1
102
RTVSPost2010Prop39
140
1.0
102
RTVSPost2010PropOp39
 70
     1
102
RTVSPost2010Prop40
 90
        0
102
RTVSPost2010PropOp40
 70
     1
102
RTVSPost2010Prop41ColorIndex
 90
       18
102
RTVSPost2010Prop41ColorRGB
 90
        0
102
RTVSPost2010PropOp41
 70
     1
102
RTVSPost2010Prop42
 90
       50
102
RTVSPost2010PropOp42
 70
     1
102
RTVSPost2010Prop43
 90
        3
102
RTVSPost2010PropOp43
 70
     1
102
RTVSPost2010Prop44ColorIndex
 90
        5
102
RTVSPost2010Prop44ColorRGB
 90
      255
102
RTVSPost2010PropOp44
 70
     1
102
RTVSPost2010Prop45
280
     0
102
RTVSPost2010PropOp45
 70
     1
102
RTVSPost2010Prop46
 90
       50
102
RTVSPost2010PropOp46
 70
     1
102
RTVSPost2010Prop47
 90
       50
102
RTVSPost2010PropOp47
 70
     1
102
RTVSPost2010Prop48
 90
       50
102
RTVSPost2010PropOp48
 70
     1
102
RTVSPost2010Prop49
280
     0
102
RTVSPost2010PropOp49
 70
     1
102
RTVSPost2010Prop50
 90
       50
102
RTVSPost2010PropOp50
 70
     1
102
RTVSPost2010Prop51ColorIndex
 90
      256
102
RTVSPost2010Prop51ColorRGB
 90
-16777216
102
RTVSPost2010PropOp51
 70
     0
102
RTVSPost2010Prop52
140
1.0
102
RTVSPost2010PropOp52
 70
     0
102
RTVSPost2010Prop53
 90
        2
102
RTVSPost2010PropOp53
 70
     1
102
RTVSPost2010Prop54
  1
strokes_ogs.tif
102
RTVSPost2010PropOp54
 70
     1
102
RTVSPost2010Prop55
280
     0
102
RTVSPost2010PropOp55
 70
     1
102
RTVSPost2010Prop56
140
1.0
102
RTVSPost2010PropOp56
 70
     1
102
RTVSPost2010Prop57
140
1.0
102
RTVSPost2010PropOp57
 70
     1
  0
XRECORD
  5
1B57
102
{ACAD_REACTORS
330
1B56
102
}
330
1B56
100
AcDbXrecord
280
     1
102
RTVSPost2010Prop28
280
     0
102
RTVSPost2010PropOp28
 70
     1
102
RTVSPost2010Prop29
280
     1
102
RTVSPost2010PropOp29
 70
     1
102
RTVSPost2010Prop30
280
     1
102
RTVSPost2010PropOp30
 70
     1
102
RTVSPost2010Prop31
280
     0
102
RTVSPost2010PropOp31
 70
     1
102
RTVSPost2010Prop32
280
     0
102
RTVSPost2010PropOp32
 70
     1
102
RTVSPost2010Prop33
280
     0
102
RTVSPost2010PropOp33
 70
     1
102
RTVSPost2010Prop34
280
     0
102
RTVSPost2010PropOp34
 70
     1
102
RTVSPost2010Prop35
280
     0
102
RTVSPost2010PropOp35
 70
     1
102
RTVSPost2010Prop36
280
     0
102
RTVSPost2010PropOp36
 70
     1
102
RTVSPost2010Prop37
 90
       50
102
RTVSPost2010PropOp37
 70
     1
102
RTVSPost2010Prop38
140
0.0
102
RTVSPost2010PropOp38
 70
     1
102
RTVSPost2010Prop39
140
1.0
102
RTVSPost2010PropOp39
 70
     1
102
RTVSPost2010Prop40
 90
        0
102
RTVSPost2010PropOp40
 70
     1
102
RTVSPost2010Prop41ColorIndex
 90
       18
102
RTVSPost2010Prop41ColorRGB
 90
        0
102
RTVSPost2010PropOp41
 70
     1
102
RTVSPost2010Prop42
 90
       50
102
RTVSPost2010PropOp42
 70
     1
102
RTVSPost2010Prop43
 90
        3
102
RTVSPost2010PropOp43
 70
     1
102
RTVSPost2010Prop44ColorIndex
 90
        5
102
RTVSPost2010Prop44ColorRGB
 90
      255
102
RTVSPost2010PropOp44
 70
     1
102
RTVSPost2010Prop45
280
     0
102
RTVSPost2010PropOp45
 70
     1
102
RTVSPost2010Prop46
 90
       50
102
RTVSPost2010PropOp46
 70
     1
102
RTVSPost2010Prop47
 90
       50
102
RTVSPost2010PropOp47
 70
     1
102
RTVSPost2010Prop48
 90
       50
102
RTVSPost2010PropOp48
 70
     1
102
RTVSPost2010Prop49
280
     0
102
RTVSPost2010PropOp49
 70
     1
102
RTVSPost2010Prop50
 90
       50
102
RTVSPost2010PropOp50
 70
     1
102
RTVSPost2010Prop51ColorIndex
 90
      256
102
RTVSPost2010Prop51ColorRGB
 90
-16777216
102
RTVSPost2010PropOp51
 70
     0
102
RTVSPost2010Prop52
140
1.0
102
RTVSPost2010PropOp52
 70
     0
102
RTVSPost2010Prop53
 90
        2
102
RTVSPost2010PropOp53
 70
     1
102
RTVSPost2010Prop54
  1
strokes_ogs.tif
102
RTVSPost2010PropOp54
 70
     1
102
RTVSPost2010Prop55
280
     0
102
RTVSPost2010PropOp55
 70
     1
102
RTVSPost2010Prop56
140
1.0
102
RTVSPost2010PropOp56
 70
     1
102
RTVSPost2010Prop57
140
1.0
102
RTVSPost2010PropOp57
 70
     1
  0
XRECORD
  5
1B75
102
{ACAD_REACTORS
330
1B74
102
}
330
1B74
100
AcDbXrecord
280
     1
102
RTVSPost2010Prop28
280
     0
102
RTVSPost2010PropOp28
 70
     1
102
RTVSPost2010Prop29
280
     1
102
RTVSPost2010PropOp29
 70
     1
102
RTVSPost2010Prop30
280
     1
102
RTVSPost2010PropOp30
 70
     1
102
RTVSPost2010Prop31
280
     0
102
RTVSPost2010PropOp31
 70
     1
102
RTVSPost2010Prop32
280
     0
102
RTVSPost2010PropOp32
 70
     1
102
RTVSPost2010Prop33
280
     0
102
RTVSPost2010PropOp33
 70
     1
102
RTVSPost2010Prop34
280
     0
102
RTVSPost2010PropOp34
 70
     1
102
RTVSPost2010Prop35
280
     0
102
RTVSPost2010PropOp35
 70
     1
102
RTVSPost2010Prop36
280
     0
102
RTVSPost2010PropOp36
 70
     1
102
RTVSPost2010Prop37
 90
       50
102
RTVSPost2010PropOp37
 70
     0
102
RTVSPost2010Prop38
140
0.0
102
RTVSPost2010PropOp38
 70
     0
102
RTVSPost2010Prop39
140
1.0
102
RTVSPost2010PropOp39
 70
     0
102
RTVSPost2010Prop40
 90
        0
102
RTVSPost2010PropOp40
 70
     0
102
RTVSPost2010Prop41ColorIndex
 90
       18
102
RTVSPost2010Prop41ColorRGB
 90
        0
102
RTVSPost2010PropOp41
 70
     0
102
RTVSPost2010Prop42
 90
       50
102
RTVSPost2010PropOp42
 70
     0
102
RTVSPost2010Prop43
 90
        3
102
RTVSPost2010PropOp43
 70
     0
102
RTVSPost2010Prop44ColorIndex
 90
        5
102
RTVSPost2010Prop44ColorRGB
 90
      255
102
RTVSPost2010PropOp44
 70
     0
102
RTVSPost2010Prop45
280
     0
102
RTVSPost2010PropOp45
 70
     1
102
RTVSPost2010Prop46
 90
       50
102
RTVSPost2010PropOp46
 70
     0
102
RTVSPost2010Prop47
 90
       50
102
RTVSPost2010PropOp47
 70
     0
102
RTVSPost2010Prop48
 90
       50
102
RTVSPost2010PropOp48
 70
     0
102
RTVSPost2010Prop49
280
     0
102
RTVSPost2010PropOp49
 70
     1
102
RTVSPost2010Prop50
 90
       50
102
RTVSPost2010PropOp50
 70
     0
102
RTVSPost2010Prop51ColorIndex
 90
      256
102
RTVSPost2010Prop51ColorRGB
 90
-16777216
102
RTVSPost2010PropOp51
 70
     0
102
RTVSPost2010Prop52
140
1.0
102
RTVSPost2010PropOp52
 70
     0
102
RTVSPost2010Prop53
 90
        2
102
RTVSPost2010PropOp53
 70
     0
102
RTVSPost2010Prop54
  1
strokes_ogs.tif
102
RTVSPost2010PropOp54
 70
     0
102
RTVSPost2010Prop55
280
     0
102
RTVSPost2010PropOp55
 70
     1
102
RTVSPost2010Prop56
140
1.0
102
RTVSPost2010PropOp56
 70
     0
102
RTVSPost2010Prop57
140
1.0
102
RTVSPost2010PropOp57
 70
     0
  0
XRECORD
  5
1B5F
102
{ACAD_REACTORS
330
1B5E
102
}
330
1B5E
100
AcDbXrecord
280
     1
102
RTVSPost2010Prop28
280
     0
102
RTVSPost2010PropOp28
 70
     1
102
RTVSPost2010Prop29
280
     1
102
RTVSPost2010PropOp29
 70
     1
102
RTVSPost2010Prop30
280
     1
102
RTVSPost2010PropOp30
 70
     1
102
RTVSPost2010Prop31
280
     0
102
RTVSPost2010PropOp31
 70
     1
102
RTVSPost2010Prop32
280
     0
102
RTVSPost2010PropOp32
 70
     1
102
RTVSPost2010Prop33
280
     0
102
RTVSPost2010PropOp33
 70
     1
102
RTVSPost2010Prop34
280
     0
102
RTVSPost2010PropOp34
 70
     1
102
RTVSPost2010Prop35
280
     0
102
RTVSPost2010PropOp35
 70
     1
102
RTVSPost2010Prop36
280
     0
102
RTVSPost2010PropOp36
 70
     1
102
RTVSPost2010Prop37
 90
       50
102
RTVSPost2010PropOp37
 70
     1
102
RTVSPost2010Prop38
140
0.0
102
RTVSPost2010PropOp38
 70
     1
102
RTVSPost2010Prop39
140
1.0
102
RTVSPost2010PropOp39
 70
     1
102
RTVSPost2010Prop40
 90
        0
102
RTVSPost2010PropOp40
 70
     1
102
RTVSPost2010Prop41ColorIndex
 90
       18
102
RTVSPost2010Prop41ColorRGB
 90
        0
102
RTVSPost2010PropOp41
 70
     1
102
RTVSPost2010Prop42
 90
       50
102
RTVSPost2010PropOp42
 70
     1
102
RTVSPost2010Prop43
 90
        3
102
RTVSPost2010PropOp43
 70
     1
102
RTVSPost2010Prop44ColorIndex
 90
        5
102
RTVSPost2010Prop44ColorRGB
 90
      255
102
RTVSPost2010PropOp44
 70
     1
102
RTVSPost2010Prop45
280
     0
102
RTVSPost2010PropOp45
 70
     1
102
RTVSPost2010Prop46
 90
       50
102
RTVSPost2010PropOp46
 70
     1
102
RTVSPost2010Prop47
 90
       50
102
RTVSPost2010PropOp47
 70
     1
102
RTVSPost2010Prop48
 90
       50
102
RTVSPost2010PropOp48
 70
     1
102
RTVSPost2010Prop49
280
     0
102
RTVSPost2010PropOp49
 70
     1
102
RTVSPost2010Prop50
 90
       50
102
RTVSPost2010PropOp50
 70
     1
102
RTVSPost2010Prop51ColorIndex
 90
      256
102
RTVSPost2010Prop51ColorRGB
 90
-16777216
102
RTVSPost2010PropOp51
 70
     0
102
RTVSPost2010Prop52
140
1.0
102
RTVSPost2010PropOp52
 70
     0
102
RTVSPost2010Prop53
 90
        2
102
RTVSPost2010PropOp53
 70
     1
102
RTVSPost2010Prop54
  1
strokes_ogs.tif
102
RTVSPost2010PropOp54
 70
     1
102
RTVSPost2010Prop55
280
     0
102
RTVSPost2010PropOp55
 70
     1
102
RTVSPost2010Prop56
140
1.0
102
RTVSPost2010PropOp56
 70
     1
102
RTVSPost2010Prop57
140
1.0
102
RTVSPost2010PropOp57
 70
     1
  0
XRECORD
  5
1B43
102
{ACAD_REACTORS
330
1B42
102
}
330
1B42
100
AcDbXrecord
280
     1
102
RTVSPost2010Prop28
280
     0
102
RTVSPost2010PropOp28
 70
     1
102
RTVSPost2010Prop29
280
     1
102
RTVSPost2010PropOp29
 70
     1
102
RTVSPost2010Prop30
280
     1
102
RTVSPost2010PropOp30
 70
     1
102
RTVSPost2010Prop31
280
     0
102
RTVSPost2010PropOp31
 70
     1
102
RTVSPost2010Prop32
280
     0
102
RTVSPost2010PropOp32
 70
     1
102
RTVSPost2010Prop33
280
     0
102
RTVSPost2010PropOp33
 70
     1
102
RTVSPost2010Prop34
280
     0
102
RTVSPost2010PropOp34
 70
     1
102
RTVSPost2010Prop35
280
     0
102
RTVSPost2010PropOp35
 70
     1
102
RTVSPost2010Prop36
280
     0
102
RTVSPost2010PropOp36
 70
     1
102
RTVSPost2010Prop37
 90
       50
102
RTVSPost2010PropOp37
 70
     1
102
RTVSPost2010Prop38
140
0.0
102
RTVSPost2010PropOp38
 70
     1
102
RTVSPost2010Prop39
140
1.0
102
RTVSPost2010PropOp39
 70
     1
102
RTVSPost2010Prop40
 90
        0
102
RTVSPost2010PropOp40
 70
     1
102
RTVSPost2010Prop41ColorIndex
 90
       18
102
RTVSPost2010Prop41ColorRGB
 90
        0
102
RTVSPost2010PropOp41
 70
     1
102
RTVSPost2010Prop42
 90
       50
102
RTVSPost2010PropOp42
 70
     1
102
RTVSPost2010Prop43
 90
        3
102
RTVSPost2010PropOp43
 70
     1
102
RTVSPost2010Prop44ColorIndex
 90
        5
102
RTVSPost2010Prop44ColorRGB
 90
      255
102
RTVSPost2010PropOp44
 70
     1
102
RTVSPost2010Prop45
280
     0
102
RTVSPost2010PropOp45
 70
     1
102
RTVSPost2010Prop46
 90
       50
102
RTVSPost2010PropOp46
 70
     1
102
RTVSPost2010Prop47
 90
       50
102
RTVSPost2010PropOp47
 70
     1
102
RTVSPost2010Prop48
 90
       50
102
RTVSPost2010PropOp48
 70
     1
102
RTVSPost2010Prop49
280
     0
102
RTVSPost2010PropOp49
 70
     1
102
RTVSPost2010Prop50
 90
       50
102
RTVSPost2010PropOp50
 70
     1
102
RTVSPost2010Prop51ColorIndex
 90
      256
102
RTVSPost2010Prop51ColorRGB
 90
-16777216
102
RTVSPost2010PropOp51
 70
     0
102
RTVSPost2010Prop52
140
1.0
102
RTVSPost2010PropOp52
 70
     0
102
RTVSPost2010Prop53
 90
        2
102
RTVSPost2010PropOp53
 70
     1
102
RTVSPost2010Prop54
  1
strokes_ogs.tif
102
RTVSPost2010PropOp54
 70
     1
102
RTVSPost2010Prop55
280
     0
102
RTVSPost2010PropOp55
 70
     1
102
RTVSPost2010Prop56
140
1.0
102
RTVSPost2010PropOp56
 70
     1
102
RTVSPost2010Prop57
140
1.0
102
RTVSPost2010PropOp57
 70
     1
  0
XRECORD
  5
1B45
102
{ACAD_REACTORS
330
1B44
102
}
330
1B44
100
AcDbXrecord
280
     1
102
RTVSPost2010Prop28
280
     0
102
RTVSPost2010PropOp28
 70
     1
102
RTVSPost2010Prop29
280
     1
102
RTVSPost2010PropOp29
 70
     1
102
RTVSPost2010Prop30
280
     1
102
RTVSPost2010PropOp30
 70
     1
102
RTVSPost2010Prop31
280
     0
102
RTVSPost2010PropOp31
 70
     1
102
RTVSPost2010Prop32
280
     0
102
RTVSPost2010PropOp32
 70
     1
102
RTVSPost2010Prop33
280
     0
102
RTVSPost2010PropOp33
 70
     1
102
RTVSPost2010Prop34
280
     0
102
RTVSPost2010PropOp34
 70
     1
102
RTVSPost2010Prop35
280
     0
102
RTVSPost2010PropOp35
 70
     1
102
RTVSPost2010Prop36
280
     0
102
RTVSPost2010PropOp36
 70
     1
102
RTVSPost2010Prop37
 90
       50
102
RTVSPost2010PropOp37
 70
     1
102
RTVSPost2010Prop38
140
0.0
102
RTVSPost2010PropOp38
 70
     1
102
RTVSPost2010Prop39
140
1.0
102
RTVSPost2010PropOp39
 70
     1
102
RTVSPost2010Prop40
 90
        0
102
RTVSPost2010PropOp40
 70
     1
102
RTVSPost2010Prop41ColorIndex
 90
       18
102
RTVSPost2010Prop41ColorRGB
 90
        0
102
RTVSPost2010PropOp41
 70
     1
102
RTVSPost2010Prop42
 90
       50
102
RTVSPost2010PropOp42
 70
     1
102
RTVSPost2010Prop43
 90
        3
102
RTVSPost2010PropOp43
 70
     1
102
RTVSPost2010Prop44ColorIndex
 90
        5
102
RTVSPost2010Prop44ColorRGB
 90
      255
102
RTVSPost2010PropOp44
 70
     1
102
RTVSPost2010Prop45
280
     0
102
RTVSPost2010PropOp45
 70
     1
102
RTVSPost2010Prop46
 90
       50
102
RTVSPost2010PropOp46
 70
     1
102
RTVSPost2010Prop47
 90
       50
102
RTVSPost2010PropOp47
 70
     1
102
RTVSPost2010Prop48
 90
       50
102
RTVSPost2010PropOp48
 70
     1
102
RTVSPost2010Prop49
280
     0
102
RTVSPost2010PropOp49
 70
     1
102
RTVSPost2010Prop50
 90
       50
102
RTVSPost2010PropOp50
 70
     1
102
RTVSPost2010Prop51ColorIndex
 90
      256
102
RTVSPost2010Prop51ColorRGB
 90
-16777216
102
RTVSPost2010PropOp51
 70
     0
102
RTVSPost2010Prop52
140
1.0
102
RTVSPost2010PropOp52
 70
     0
102
RTVSPost2010Prop53
 90
        2
102
RTVSPost2010PropOp53
 70
     1
102
RTVSPost2010Prop54
  1
strokes_ogs.tif
102
RTVSPost2010PropOp54
 70
     1
102
RTVSPost2010Prop55
280
     0
102
RTVSPost2010PropOp55
 70
     1
102
RTVSPost2010Prop56
140
1.0
102
RTVSPost2010PropOp56
 70
     1
102
RTVSPost2010Prop57
140
1.0
102
RTVSPost2010PropOp57
 70
     1
  0
XRECORD
  5
1B47
102
{ACAD_REACTORS
330
1B46
102
}
330
1B46
100
AcDbXrecord
280
     1
102
RTVSPost2010Prop28
280
     0
102
RTVSPost2010PropOp28
 70
     1
102
RTVSPost2010Prop29
280
     1
102
RTVSPost2010PropOp29
 70
     1
102
RTVSPost2010Prop30
280
     1
102
RTVSPost2010PropOp30
 70
     1
102
RTVSPost2010Prop31
280
     0
102
RTVSPost2010PropOp31
 70
     1
102
RTVSPost2010Prop32
280
     0
102
RTVSPost2010PropOp32
 70
     1
102
RTVSPost2010Prop33
280
     0
102
RTVSPost2010PropOp33
 70
     1
102
RTVSPost2010Prop34
280
     0
102
RTVSPost2010PropOp34
 70
     1
102
RTVSPost2010Prop35
280
     0
102
RTVSPost2010PropOp35
 70
     1
102
RTVSPost2010Prop36
280
     0
102
RTVSPost2010PropOp36
 70
     1
102
RTVSPost2010Prop37
 90
       50
102
RTVSPost2010PropOp37
 70
     1
102
RTVSPost2010Prop38
140
0.0
102
RTVSPost2010PropOp38
 70
     1
102
RTVSPost2010Prop39
140
1.0
102
RTVSPost2010PropOp39
 70
     1
102
RTVSPost2010Prop40
 90
        0
102
RTVSPost2010PropOp40
 70
     1
102
RTVSPost2010Prop41ColorIndex
 90
       18
102
RTVSPost2010Prop41ColorRGB
 90
        0
102
RTVSPost2010PropOp41
 70
     1
102
RTVSPost2010Prop42
 90
       50
102
RTVSPost2010PropOp42
 70
     1
102
RTVSPost2010Prop43
 90
        3
102
RTVSPost2010PropOp43
 70
     1
102
RTVSPost2010Prop44ColorIndex
 90
        5
102
RTVSPost2010Prop44ColorRGB
 90
      255
102
RTVSPost2010PropOp44
 70
     1
102
RTVSPost2010Prop45
280
     0
102
RTVSPost2010PropOp45
 70
     1
102
RTVSPost2010Prop46
 90
       50
102
RTVSPost2010PropOp46
 70
     1
102
RTVSPost2010Prop47
 90
       50
102
RTVSPost2010PropOp47
 70
     1
102
RTVSPost2010Prop48
 90
       50
102
RTVSPost2010PropOp48
 70
     1
102
RTVSPost2010Prop49
280
     0
102
RTVSPost2010PropOp49
 70
     1
102
RTVSPost2010Prop50
 90
       50
102
RTVSPost2010PropOp50
 70
     1
102
RTVSPost2010Prop51ColorIndex
 90
      256
102
RTVSPost2010Prop51ColorRGB
 90
-16777216
102
RTVSPost2010PropOp51
 70
     0
102
RTVSPost2010Prop52
140
1.0
102
RTVSPost2010PropOp52
 70
     0
102
RTVSPost2010Prop53
 90
        2
102
RTVSPost2010PropOp53
 70
     1
102
RTVSPost2010Prop54
  1
strokes_ogs.tif
102
RTVSPost2010PropOp54
 70
     1
102
RTVSPost2010Prop55
280
     0
102
RTVSPost2010PropOp55
 70
     1
102
RTVSPost2010Prop56
140
1.0
102
RTVSPost2010PropOp56
 70
     1
102
RTVSPost2010Prop57
140
1.0
102
RTVSPost2010PropOp57
 70
     1
  0
XRECORD
  5
1B49
102
{ACAD_REACTORS
330
1B48
102
}
330
1B48
100
AcDbXrecord
280
     1
102
RTVSPost2010Prop28
280
     0
102
RTVSPost2010PropOp28
 70
     1
102
RTVSPost2010Prop29
280
     1
102
RTVSPost2010PropOp29
 70
     1
102
RTVSPost2010Prop30
280
     1
102
RTVSPost2010PropOp30
 70
     1
102
RTVSPost2010Prop31
280
     0
102
RTVSPost2010PropOp31
 70
     1
102
RTVSPost2010Prop32
280
     0
102
RTVSPost2010PropOp32
 70
     1
102
RTVSPost2010Prop33
280
     0
102
RTVSPost2010PropOp33
 70
     1
102
RTVSPost2010Prop34
280
     0
102
RTVSPost2010PropOp34
 70
     1
102
RTVSPost2010Prop35
280
     0
102
RTVSPost2010PropOp35
 70
     1
102
RTVSPost2010Prop36
280
     0
102
RTVSPost2010PropOp36
 70
     1
102
RTVSPost2010Prop37
 90
       50
102
RTVSPost2010PropOp37
 70
     1
102
RTVSPost2010Prop38
140
0.0
102
RTVSPost2010PropOp38
 70
     1
102
RTVSPost2010Prop39
140
1.0
102
RTVSPost2010PropOp39
 70
     1
102
RTVSPost2010Prop40
 90
        0
102
RTVSPost2010PropOp40
 70
     1
102
RTVSPost2010Prop41ColorIndex
 90
       18
102
RTVSPost2010Prop41ColorRGB
 90
        0
102
RTVSPost2010PropOp41
 70
     1
102
RTVSPost2010Prop42
 90
       50
102
RTVSPost2010PropOp42
 70
     1
102
RTVSPost2010Prop43
 90
        3
102
RTVSPost2010PropOp43
 70
     1
102
RTVSPost2010Prop44ColorIndex
 90
        5
102
RTVSPost2010Prop44ColorRGB
 90
      255
102
RTVSPost2010PropOp44
 70
     1
102
RTVSPost2010Prop45
280
     0
102
RTVSPost2010PropOp45
 70
     1
102
RTVSPost2010Prop46
 90
       50
102
RTVSPost2010PropOp46
 70
     1
102
RTVSPost2010Prop47
 90
       50
102
RTVSPost2010PropOp47
 70
     1
102
RTVSPost2010Prop48
 90
       50
102
RTVSPost2010PropOp48
 70
     1
102
RTVSPost2010Prop49
280
     0
102
RTVSPost2010PropOp49
 70
     1
102
RTVSPost2010Prop50
 90
       50
102
RTVSPost2010PropOp50
 70
     1
102
RTVSPost2010Prop51ColorIndex
 90
      256
102
RTVSPost2010Prop51ColorRGB
 90
-16777216
102
RTVSPost2010PropOp51
 70
     0
102
RTVSPost2010Prop52
140
1.0
102
RTVSPost2010PropOp52
 70
     0
102
RTVSPost2010Prop53
 90
        2
102
RTVSPost2010PropOp53
 70
     1
102
RTVSPost2010Prop54
  1
strokes_ogs.tif
102
RTVSPost2010PropOp54
 70
     1
102
RTVSPost2010Prop55
280
     0
102
RTVSPost2010PropOp55
 70
     1
102
RTVSPost2010Prop56
140
1.0
102
RTVSPost2010PropOp56
 70
     1
102
RTVSPost2010Prop57
140
1.0
102
RTVSPost2010PropOp57
 70
     1
  0
XRECORD
  5
1B65
102
{ACAD_REACTORS
330
1B64
102
}
330
1B64
100
AcDbXrecord
280
     1
102
RTVSPost2010Prop28
280
     0
102
RTVSPost2010PropOp28
 70
     1
102
RTVSPost2010Prop29
280
     1
102
RTVSPost2010PropOp29
 70
     1
102
RTVSPost2010Prop30
280
     1
102
RTVSPost2010PropOp30
 70
     1
102
RTVSPost2010Prop31
280
     0
102
RTVSPost2010PropOp31
 70
     1
102
RTVSPost2010Prop32
280
     0
102
RTVSPost2010PropOp32
 70
     1
102
RTVSPost2010Prop33
280
     0
102
RTVSPost2010PropOp33
 70
     1
102
RTVSPost2010Prop34
280
     0
102
RTVSPost2010PropOp34
 70
     1
102
RTVSPost2010Prop35
280
     0
102
RTVSPost2010PropOp35
 70
     1
102
RTVSPost2010Prop36
280
     0
102
RTVSPost2010PropOp36
 70
     1
102
RTVSPost2010Prop37
 90
       50
102
RTVSPost2010PropOp37
 70
     1
102
RTVSPost2010Prop38
140
0.0
102
RTVSPost2010PropOp38
 70
     1
102
RTVSPost2010Prop39
140
1.0
102
RTVSPost2010PropOp39
 70
     1
102
RTVSPost2010Prop40
 90
        0
102
RTVSPost2010PropOp40
 70
     1
102
RTVSPost2010Prop41ColorIndex
 90
       18
102
RTVSPost2010Prop41ColorRGB
 90
        0
102
RTVSPost2010PropOp41
 70
     1
102
RTVSPost2010Prop42
 90
       50
102
RTVSPost2010PropOp42
 70
     1
102
RTVSPost2010Prop43
 90
        3
102
RTVSPost2010PropOp43
 70
     1
102
RTVSPost2010Prop44ColorIndex
 90
        5
102
RTVSPost2010Prop44ColorRGB
 90
      255
102
RTVSPost2010PropOp44
 70
     1
102
RTVSPost2010Prop45
280
     0
102
RTVSPost2010PropOp45
 70
     1
102
RTVSPost2010Prop46
 90
       50
102
RTVSPost2010PropOp46
 70
     1
102
RTVSPost2010Prop47
 90
       50
102
RTVSPost2010PropOp47
 70
     1
102
RTVSPost2010Prop48
 90
       50
102
RTVSPost2010PropOp48
 70
     1
102
RTVSPost2010Prop49
280
     0
102
RTVSPost2010PropOp49
 70
     1
102
RTVSPost2010Prop50
 90
       50
102
RTVSPost2010PropOp50
 70
     1
102
RTVSPost2010Prop51ColorIndex
 90
      256
102
RTVSPost2010Prop51ColorRGB
 90
-16777216
102
RTVSPost2010PropOp51
 70
     0
102
RTVSPost2010Prop52
140
1.0
102
RTVSPost2010PropOp52
 70
     0
102
RTVSPost2010Prop53
 90
        2
102
RTVSPost2010PropOp53
 70
     1
102
RTVSPost2010Prop54
  1
strokes_ogs.tif
102
RTVSPost2010PropOp54
 70
     1
102
RTVSPost2010Prop55
280
     0
102
RTVSPost2010PropOp55
 70
     1
102
RTVSPost2010Prop56
140
1.0
102
RTVSPost2010PropOp56
 70
     1
102
RTVSPost2010Prop57
140
1.0
102
RTVSPost2010PropOp57
 70
     1
  0
XRECORD
  5
1B71
102
{ACAD_REACTORS
330
1B70
102
}
330
1B70
100
AcDbXrecord
280
     1
102
RTVSPost2010Prop28
280
     0
102
RTVSPost2010PropOp28
 70
     1
102
RTVSPost2010Prop29
280
     1
102
RTVSPost2010PropOp29
 70
     1
102
RTVSPost2010Prop30
280
     1
102
RTVSPost2010PropOp30
 70
     1
102
RTVSPost2010Prop31
280
     0
102
RTVSPost2010PropOp31
 70
     1
102
RTVSPost2010Prop32
280
     0
102
RTVSPost2010PropOp32
 70
     1
102
RTVSPost2010Prop33
280
     0
102
RTVSPost2010PropOp33
 70
     1
102
RTVSPost2010Prop34
280
     0
102
RTVSPost2010PropOp34
 70
     1
102
RTVSPost2010Prop35
280
     0
102
RTVSPost2010PropOp35
 70
     1
102
RTVSPost2010Prop36
280
     0
102
RTVSPost2010PropOp36
 70
     1
102
RTVSPost2010Prop37
 90
       50
102
RTVSPost2010PropOp37
 70
     0
102
RTVSPost2010Prop38
140
0.0
102
RTVSPost2010PropOp38
 70
     0
102
RTVSPost2010Prop39
140
1.0
102
RTVSPost2010PropOp39
 70
     0
102
RTVSPost2010Prop40
 90
        0
102
RTVSPost2010PropOp40
 70
     0
102
RTVSPost2010Prop41ColorIndex
 90
       18
102
RTVSPost2010Prop41ColorRGB
 90
        0
102
RTVSPost2010PropOp41
 70
     0
102
RTVSPost2010Prop42
 90
       50
102
RTVSPost2010PropOp42
 70
     0
102
RTVSPost2010Prop43
 90
        3
102
RTVSPost2010PropOp43
 70
     0
102
RTVSPost2010Prop44ColorIndex
 90
        5
102
RTVSPost2010Prop44ColorRGB
 90
      255
102
RTVSPost2010PropOp44
 70
     0
102
RTVSPost2010Prop45
280
     0
102
RTVSPost2010PropOp45
 70
     1
102
RTVSPost2010Prop46
 90
       50
102
RTVSPost2010PropOp46
 70
     0
102
RTVSPost2010Prop47
 90
       50
102
RTVSPost2010PropOp47
 70
     0
102
RTVSPost2010Prop48
 90
       50
102
RTVSPost2010PropOp48
 70
     0
102
RTVSPost2010Prop49
280
     0
102
RTVSPost2010PropOp49
 70
     1
102
RTVSPost2010Prop50
 90
       50
102
RTVSPost2010PropOp50
 70
     0
102
RTVSPost2010Prop51ColorIndex
 90
      256
102
RTVSPost2010Prop51ColorRGB
 90
-16777216
102
RTVSPost2010PropOp51
 70
     0
102
RTVSPost2010Prop52
140
1.0
102
RTVSPost2010PropOp52
 70
     0
102
RTVSPost2010Prop53
 90
        2
102
RTVSPost2010PropOp53
 70
     0
102
RTVSPost2010Prop54
  1
strokes_ogs.tif
102
RTVSPost2010PropOp54
 70
     0
102
RTVSPost2010Prop55
280
     0
102
RTVSPost2010PropOp55
 70
     1
102
RTVSPost2010Prop56
140
1.0
102
RTVSPost2010PropOp56
 70
     0
102
RTVSPost2010Prop57
140
1.0
102
RTVSPost2010PropOp57
 70
     0
  0
XRECORD
  5
1B5D
102
{ACAD_REACTORS
330
1B5C
102
}
330
1B5C
100
AcDbXrecord
280
     1
102
RTVSPost2010Prop28
280
     0
102
RTVSPost2010PropOp28
 70
     1
102
RTVSPost2010Prop29
280
     1
102
RTVSPost2010PropOp29
 70
     1
102
RTVSPost2010Prop30
280
     1
102
RTVSPost2010PropOp30
 70
     1
102
RTVSPost2010Prop31
280
     0
102
RTVSPost2010PropOp31
 70
     1
102
RTVSPost2010Prop32
280
     0
102
RTVSPost2010PropOp32
 70
     1
102
RTVSPost2010Prop33
280
     0
102
RTVSPost2010PropOp33
 70
     1
102
RTVSPost2010Prop34
280
     0
102
RTVSPost2010PropOp34
 70
     1
102
RTVSPost2010Prop35
280
     0
102
RTVSPost2010PropOp35
 70
     1
102
RTVSPost2010Prop36
280
     0
102
RTVSPost2010PropOp36
 70
     1
102
RTVSPost2010Prop37
 90
       50
102
RTVSPost2010PropOp37
 70
     1
102
RTVSPost2010Prop38
140
0.0
102
RTVSPost2010PropOp38
 70
     1
102
RTVSPost2010Prop39
140
1.0
102
RTVSPost2010PropOp39
 70
     1
102
RTVSPost2010Prop40
 90
        0
102
RTVSPost2010PropOp40
 70
     1
102
RTVSPost2010Prop41ColorIndex
 90
       18
102
RTVSPost2010Prop41ColorRGB
 90
        0
102
RTVSPost2010PropOp41
 70
     1
102
RTVSPost2010Prop42
 90
       50
102
RTVSPost2010PropOp42
 70
     1
102
RTVSPost2010Prop43
 90
        3
102
RTVSPost2010PropOp43
 70
     1
102
RTVSPost2010Prop44ColorIndex
 90
        5
102
RTVSPost2010Prop44ColorRGB
 90
      255
102
RTVSPost2010PropOp44
 70
     1
102
RTVSPost2010Prop45
280
     0
102
RTVSPost2010PropOp45
 70
     1
102
RTVSPost2010Prop46
 90
       50
102
RTVSPost2010PropOp46
 70
     1
102
RTVSPost2010Prop47
 90
       50
102
RTVSPost2010PropOp47
 70
     1
102
RTVSPost2010Prop48
 90
       50
102
RTVSPost2010PropOp48
 70
     1
102
RTVSPost2010Prop49
280
     0
102
RTVSPost2010PropOp49
 70
     1
102
RTVSPost2010Prop50
 90
       50
102
RTVSPost2010PropOp50
 70
     1
102
RTVSPost2010Prop51ColorIndex
 90
      256
102
RTVSPost2010Prop51ColorRGB
 90
-16777216
102
RTVSPost2010PropOp51
 70
     0
102
RTVSPost2010Prop52
140
1.0
102
RTVSPost2010PropOp52
 70
     0
102
RTVSPost2010Prop53
 90
        2
102
RTVSPost2010PropOp53
 70
     1
102
RTVSPost2010Prop54
  1
strokes_ogs.tif
102
RTVSPost2010PropOp54
 70
     1
102
RTVSPost2010Prop55
280
     0
102
RTVSPost2010PropOp55
 70
     1
102
RTVSPost2010Prop56
140
1.0
102
RTVSPost2010PropOp56
 70
     1
102
RTVSPost2010Prop57
140
1.0
102
RTVSPost2010PropOp57
 70
     1
  0
XRECORD
  5
1B73
102
{ACAD_REACTORS
330
1B72
102
}
330
1B72
100
AcDbXrecord
280
     1
102
RTVSPost2010Prop28
280
     0
102
RTVSPost2010PropOp28
 70
     1
102
RTVSPost2010Prop29
280
     1
102
RTVSPost2010PropOp29
 70
     1
102
RTVSPost2010Prop30
280
     1
102
RTVSPost2010PropOp30
 70
     1
102
RTVSPost2010Prop31
280
     0
102
RTVSPost2010PropOp31
 70
     1
102
RTVSPost2010Prop32
280
     0
102
RTVSPost2010PropOp32
 70
     1
102
RTVSPost2010Prop33
280
     0
102
RTVSPost2010PropOp33
 70
     1
102
RTVSPost2010Prop34
280
     0
102
RTVSPost2010PropOp34
 70
     1
102
RTVSPost2010Prop35
280
     0
102
RTVSPost2010PropOp35
 70
     1
102
RTVSPost2010Prop36
280
     0
102
RTVSPost2010PropOp36
 70
     1
102
RTVSPost2010Prop37
 90
       50
102
RTVSPost2010PropOp37
 70
     0
102
RTVSPost2010Prop38
140
0.0
102
RTVSPost2010PropOp38
 70
     0
102
RTVSPost2010Prop39
140
1.0
102
RTVSPost2010PropOp39
 70
     0
102
RTVSPost2010Prop40
 90
        0
102
RTVSPost2010PropOp40
 70
     0
102
RTVSPost2010Prop41ColorIndex
 90
       18
102
RTVSPost2010Prop41ColorRGB
 90
        0
102
RTVSPost2010PropOp41
 70
     0
102
RTVSPost2010Prop42
 90
       50
102
RTVSPost2010PropOp42
 70
     0
102
RTVSPost2010Prop43
 90
        3
102
RTVSPost2010PropOp43
 70
     0
102
RTVSPost2010Prop44ColorIndex
 90
        5
102
RTVSPost2010Prop44ColorRGB
 90
      255
102
RTVSPost2010PropOp44
 70
     0
102
RTVSPost2010Prop45
280
     0
102
RTVSPost2010PropOp45
 70
     1
102
RTVSPost2010Prop46
 90
       50
102
RTVSPost2010PropOp46
 70
     0
102
RTVSPost2010Prop47
 90
       50
102
RTVSPost2010PropOp47
 70
     0
102
RTVSPost2010Prop48
 90
       50
102
RTVSPost2010PropOp48
 70
     0
102
RTVSPost2010Prop49
280
     0
102
RTVSPost2010PropOp49
 70
     1
102
RTVSPost2010Prop50
 90
       50
102
RTVSPost2010PropOp50
 70
     0
102
RTVSPost2010Prop51ColorIndex
 90
      256
102
RTVSPost2010Prop51ColorRGB
 90
-16777216
102
RTVSPost2010PropOp51
 70
     0
102
RTVSPost2010Prop52
140
1.0
102
RTVSPost2010PropOp52
 70
     0
102
RTVSPost2010Prop53
 90
        2
102
RTVSPost2010PropOp53
 70
     0
102
RTVSPost2010Prop54
  1
strokes_ogs.tif
102
RTVSPost2010PropOp54
 70
     0
102
RTVSPost2010Prop55
280
     0
102
RTVSPost2010PropOp55
 70
     1
102
RTVSPost2010Prop56
140
1.0
102
RTVSPost2010PropOp56
 70
     0
102
RTVSPost2010Prop57
140
1.0
102
RTVSPost2010PropOp57
 70
     0
  0
XRECORD
  5
1B55
102
{ACAD_REACTORS
330
1B54
102
}
330
1B54
100
AcDbXrecord
280
     1
102
RTVSPost2010Prop28
280
     0
102
RTVSPost2010PropOp28
 70
     1
102
RTVSPost2010Prop29
280
     1
102
RTVSPost2010PropOp29
 70
     1
102
RTVSPost2010Prop30
280
     1
102
RTVSPost2010PropOp30
 70
     1
102
RTVSPost2010Prop31
280
     0
102
RTVSPost2010PropOp31
 70
     1
102
RTVSPost2010Prop32
280
     0
102
RTVSPost2010PropOp32
 70
     1
102
RTVSPost2010Prop33
280
     0
102
RTVSPost2010PropOp33
 70
     1
102
RTVSPost2010Prop34
280
     0
102
RTVSPost2010PropOp34
 70
     1
102
RTVSPost2010Prop35
280
     0
102
RTVSPost2010PropOp35
 70
     1
102
RTVSPost2010Prop36
280
     0
102
RTVSPost2010PropOp36
 70
     1
102
RTVSPost2010Prop37
 90
       50
102
RTVSPost2010PropOp37
 70
     1
102
RTVSPost2010Prop38
140
0.0
102
RTVSPost2010PropOp38
 70
     1
102
RTVSPost2010Prop39
140
1.0
102
RTVSPost2010PropOp39
 70
     1
102
RTVSPost2010Prop40
 90
        0
102
RTVSPost2010PropOp40
 70
     1
102
RTVSPost2010Prop41ColorIndex
 90
       18
102
RTVSPost2010Prop41ColorRGB
 90
        0
102
RTVSPost2010PropOp41
 70
     1
102
RTVSPost2010Prop42
 90
       50
102
RTVSPost2010PropOp42
 70
     1
102
RTVSPost2010Prop43
 90
        3
102
RTVSPost2010PropOp43
 70
     1
102
RTVSPost2010Prop44ColorIndex
 90
        5
102
RTVSPost2010Prop44ColorRGB
 90
      255
102
RTVSPost2010PropOp44
 70
     1
102
RTVSPost2010Prop45
280
     0
102
RTVSPost2010PropOp45
 70
     1
102
RTVSPost2010Prop46
 90
       50
102
RTVSPost2010PropOp46
 70
     1
102
RTVSPost2010Prop47
 90
       50
102
RTVSPost2010PropOp47
 70
     1
102
RTVSPost2010Prop48
 90
       50
102
RTVSPost2010PropOp48
 70
     1
102
RTVSPost2010Prop49
280
     0
102
RTVSPost2010PropOp49
 70
     1
102
RTVSPost2010Prop50
 90
       50
102
RTVSPost2010PropOp50
 70
     1
102
RTVSPost2010Prop51ColorIndex
 90
      256
102
RTVSPost2010Prop51ColorRGB
 90
-16777216
102
RTVSPost2010PropOp51
 70
     0
102
RTVSPost2010Prop52
140
1.0
102
RTVSPost2010PropOp52
 70
     0
102
RTVSPost2010Prop53
 90
        2
102
RTVSPost2010PropOp53
 70
     1
102
RTVSPost2010Prop54
  1
strokes_ogs.tif
102
RTVSPost2010PropOp54
 70
     1
102
RTVSPost2010Prop55
280
     0
102
RTVSPost2010PropOp55
 70
     1
102
RTVSPost2010Prop56
140
1.0
102
RTVSPost2010PropOp56
 70
     1
102
RTVSPost2010Prop57
140
1.0
102
RTVSPost2010PropOp57
 70
     1
  0
XRECORD
  5
1B6F
102
{ACAD_REACTORS
330
1B6E
102
}
330
1B6E
100
AcDbXrecord
280
     1
102
RTVSPost2010Prop28
280
     0
102
RTVSPost2010PropOp28
 70
     1
102
RTVSPost2010Prop29
280
     1
102
RTVSPost2010PropOp29
 70
     1
102
RTVSPost2010Prop30
280
     1
102
RTVSPost2010PropOp30
 70
     1
102
RTVSPost2010Prop31
280
     0
102
RTVSPost2010PropOp31
 70
     1
102
RTVSPost2010Prop32
280
     0
102
RTVSPost2010PropOp32
 70
     1
102
RTVSPost2010Prop33
280
     0
102
RTVSPost2010PropOp33
 70
     1
102
RTVSPost2010Prop34
280
     0
102
RTVSPost2010PropOp34
 70
     1
102
RTVSPost2010Prop35
280
     0
102
RTVSPost2010PropOp35
 70
     1
102
RTVSPost2010Prop36
280
     0
102
RTVSPost2010PropOp36
 70
     1
102
RTVSPost2010Prop37
 90
       50
102
RTVSPost2010PropOp37
 70
     1
102
RTVSPost2010Prop38
140
0.0
102
RTVSPost2010PropOp38
 70
     1
102
RTVSPost2010Prop39
140
1.0
102
RTVSPost2010PropOp39
 70
     1
102
RTVSPost2010Prop40
 90
        0
102
RTVSPost2010PropOp40
 70
     1
102
RTVSPost2010Prop41ColorIndex
 90
       18
102
RTVSPost2010Prop41ColorRGB
 90
        0
102
RTVSPost2010PropOp41
 70
     1
102
RTVSPost2010Prop42
 90
       50
102
RTVSPost2010PropOp42
 70
     1
102
RTVSPost2010Prop43
 90
        3
102
RTVSPost2010PropOp43
 70
     1
102
RTVSPost2010Prop44ColorIndex
 90
        5
102
RTVSPost2010Prop44ColorRGB
 90
      255
102
RTVSPost2010PropOp44
 70
     1
102
RTVSPost2010Prop45
280
     0
102
RTVSPost2010PropOp45
 70
     1
102
RTVSPost2010Prop46
 90
       50
102
RTVSPost2010PropOp46
 70
     1
102
RTVSPost2010Prop47
 90
       50
102
RTVSPost2010PropOp47
 70
     1
102
RTVSPost2010Prop48
 90
       50
102
RTVSPost2010PropOp48
 70
     1
102
RTVSPost2010Prop49
280
     0
102
RTVSPost2010PropOp49
 70
     1
102
RTVSPost2010Prop50
 90
       50
102
RTVSPost2010PropOp50
 70
     1
102
RTVSPost2010Prop51ColorIndex
 90
      256
102
RTVSPost2010Prop51ColorRGB
 90
-16777216
102
RTVSPost2010PropOp51
 70
     0
102
RTVSPost2010Prop52
140
1.0
102
RTVSPost2010PropOp52
 70
     0
102
RTVSPost2010Prop53
 90
        2
102
RTVSPost2010PropOp53
 70
     1
102
RTVSPost2010Prop54
  1
strokes_ogs.tif
102
RTVSPost2010PropOp54
 70
     1
102
RTVSPost2010Prop55
280
     0
102
RTVSPost2010PropOp55
 70
     1
102
RTVSPost2010Prop56
140
1.0
102
RTVSPost2010PropOp56
 70
     1
102
RTVSPost2010Prop57
140
1.0
102
RTVSPost2010PropOp57
 70
     1
  0
XRECORD
  5
1B6D
102
{ACAD_REACTORS
330
1B6C
102
}
330
1B6C
100
AcDbXrecord
280
     1
102
RTVSPost2010Prop28
280
     0
102
RTVSPost2010PropOp28
 70
     1
102
RTVSPost2010Prop29
280
     1
102
RTVSPost2010PropOp29
 70
     1
102
RTVSPost2010Prop30
280
     1
102
RTVSPost2010PropOp30
 70
     1
102
RTVSPost2010Prop31
280
     0
102
RTVSPost2010PropOp31
 70
     1
102
RTVSPost2010Prop32
280
     0
102
RTVSPost2010PropOp32
 70
     1
102
RTVSPost2010Prop33
280
     0
102
RTVSPost2010PropOp33
 70
     1
102
RTVSPost2010Prop34
280
     0
102
RTVSPost2010PropOp34
 70
     1
102
RTVSPost2010Prop35
280
     0
102
RTVSPost2010PropOp35
 70
     1
102
RTVSPost2010Prop36
280
     0
102
RTVSPost2010PropOp36
 70
     1
102
RTVSPost2010Prop37
 90
       50
102
RTVSPost2010PropOp37
 70
     1
102
RTVSPost2010Prop38
140
0.0
102
RTVSPost2010PropOp38
 70
     1
102
RTVSPost2010Prop39
140
1.0
102
RTVSPost2010PropOp39
 70
     1
102
RTVSPost2010Prop40
 90
        0
102
RTVSPost2010PropOp40
 70
     1
102
RTVSPost2010Prop41ColorIndex
 90
       18
102
RTVSPost2010Prop41ColorRGB
 90
        0
102
RTVSPost2010PropOp41
 70
     1
102
RTVSPost2010Prop42
 90
       50
102
RTVSPost2010PropOp42
 70
     1
102
RTVSPost2010Prop43
 90
        3
102
RTVSPost2010PropOp43
 70
     1
102
RTVSPost2010Prop44ColorIndex
 90
        5
102
RTVSPost2010Prop44ColorRGB
 90
      255
102
RTVSPost2010PropOp44
 70
     1
102
RTVSPost2010Prop45
280
     0
102
RTVSPost2010PropOp45
 70
     1
102
RTVSPost2010Prop46
 90
       50
102
RTVSPost2010PropOp46
 70
     1
102
RTVSPost2010Prop47
 90
       50
102
RTVSPost2010PropOp47
 70
     1
102
RTVSPost2010Prop48
 90
       50
102
RTVSPost2010PropOp48
 70
     1
102
RTVSPost2010Prop49
280
     0
102
RTVSPost2010PropOp49
 70
     1
102
RTVSPost2010Prop50
 90
       50
102
RTVSPost2010PropOp50
 70
     1
102
RTVSPost2010Prop51ColorIndex
 90
      256
102
RTVSPost2010Prop51ColorRGB
 90
-16777216
102
RTVSPost2010PropOp51
 70
     0
102
RTVSPost2010Prop52
140
1.0
102
RTVSPost2010PropOp52
 70
     0
102
RTVSPost2010Prop53
 90
        2
102
RTVSPost2010PropOp53
 70
     1
102
RTVSPost2010Prop54
  1
strokes_ogs.tif
102
RTVSPost2010PropOp54
 70
     1
102
RTVSPost2010Prop55
280
     0
102
RTVSPost2010PropOp55
 70
     1
102
RTVSPost2010Prop56
140
1.0
102
RTVSPost2010PropOp56
 70
     1
102
RTVSPost2010Prop57
140
1.0
102
RTVSPost2010PropOp57
 70
     1
  0
XRECORD
  5
1B67
102
{ACAD_REACTORS
330
1B66
102
}
330
1B66
100
AcDbXrecord
280
     1
102
RTVSPost2010Prop28
280
     0
102
RTVSPost2010PropOp28
 70
     1
102
RTVSPost2010Prop29
280
     1
102
RTVSPost2010PropOp29
 70
     1
102
RTVSPost2010Prop30
280
     1
102
RTVSPost2010PropOp30
 70
     1
102
RTVSPost2010Prop31
280
     0
102
RTVSPost2010PropOp31
 70
     1
102
RTVSPost2010Prop32
280
     0
102
RTVSPost2010PropOp32
 70
     1
102
RTVSPost2010Prop33
280
     0
102
RTVSPost2010PropOp33
 70
     1
102
RTVSPost2010Prop34
280
     0
102
RTVSPost2010PropOp34
 70
     1
102
RTVSPost2010Prop35
280
     0
102
RTVSPost2010PropOp35
 70
     1
102
RTVSPost2010Prop36
280
     0
102
RTVSPost2010PropOp36
 70
     1
102
RTVSPost2010Prop37
 90
       50
102
RTVSPost2010PropOp37
 70
     1
102
RTVSPost2010Prop38
140
0.0
102
RTVSPost2010PropOp38
 70
     1
102
RTVSPost2010Prop39
140
1.0
102
RTVSPost2010PropOp39
 70
     1
102
RTVSPost2010Prop40
 90
        0
102
RTVSPost2010PropOp40
 70
     1
102
RTVSPost2010Prop41ColorIndex
 90
       18
102
RTVSPost2010Prop41ColorRGB
 90
        0
102
RTVSPost2010PropOp41
 70
     1
102
RTVSPost2010Prop42
 90
       50
102
RTVSPost2010PropOp42
 70
     1
102
RTVSPost2010Prop43
 90
        3
102
RTVSPost2010PropOp43
 70
     1
102
RTVSPost2010Prop44ColorIndex
 90
        5
102
RTVSPost2010Prop44ColorRGB
 90
      255
102
RTVSPost2010PropOp44
 70
     1
102
RTVSPost2010Prop45
280
     0
102
RTVSPost2010PropOp45
 70
     1
102
RTVSPost2010Prop46
 90
       50
102
RTVSPost2010PropOp46
 70
     1
102
RTVSPost2010Prop47
 90
       50
102
RTVSPost2010PropOp47
 70
     1
102
RTVSPost2010Prop48
 90
       50
102
RTVSPost2010PropOp48
 70
     1
102
RTVSPost2010Prop49
280
     0
102
RTVSPost2010PropOp49
 70
     1
102
RTVSPost2010Prop50
 90
       50
102
RTVSPost2010PropOp50
 70
     1
102
RTVSPost2010Prop51ColorIndex
 90
      256
102
RTVSPost2010Prop51ColorRGB
 90
-16777216
102
RTVSPost2010PropOp51
 70
     0
102
RTVSPost2010Prop52
140
1.0
102
RTVSPost2010PropOp52
 70
     0
102
RTVSPost2010Prop53
 90
        2
102
RTVSPost2010PropOp53
 70
     1
102
RTVSPost2010Prop54
  1
strokes_ogs.tif
102
RTVSPost2010PropOp54
 70
     1
102
RTVSPost2010Prop55
280
     0
102
RTVSPost2010PropOp55
 70
     1
102
RTVSPost2010Prop56
140
1.0
102
RTVSPost2010PropOp56
 70
     1
102
RTVSPost2010Prop57
140
1.0
102
RTVSPost2010PropOp57
 70
     1
  0
XRECORD
  5
1B69
102
{ACAD_REACTORS
330
1B68
102
}
330
1B68
100
AcDbXrecord
280
     1
102
RTVSPost2010Prop28
280
     0
102
RTVSPost2010PropOp28
 70
     1
102
RTVSPost2010Prop29
280
     1
102
RTVSPost2010PropOp29
 70
     1
102
RTVSPost2010Prop30
280
     1
102
RTVSPost2010PropOp30
 70
     1
102
RTVSPost2010Prop31
280
     0
102
RTVSPost2010PropOp31
 70
     1
102
RTVSPost2010Prop32
280
     0
102
RTVSPost2010PropOp32
 70
     1
102
RTVSPost2010Prop33
280
     0
102
RTVSPost2010PropOp33
 70
     1
102
RTVSPost2010Prop34
280
     0
102
RTVSPost2010PropOp34
 70
     1
102
RTVSPost2010Prop35
280
     0
102
RTVSPost2010PropOp35
 70
     1
102
RTVSPost2010Prop36
280
     0
102
RTVSPost2010PropOp36
 70
     1
102
RTVSPost2010Prop37
 90
       50
102
RTVSPost2010PropOp37
 70
     1
102
RTVSPost2010Prop38
140
0.0
102
RTVSPost2010PropOp38
 70
     1
102
RTVSPost2010Prop39
140
1.0
102
RTVSPost2010PropOp39
 70
     1
102
RTVSPost2010Prop40
 90
        0
102
RTVSPost2010PropOp40
 70
     1
102
RTVSPost2010Prop41ColorIndex
 90
       18
102
RTVSPost2010Prop41ColorRGB
 90
        0
102
RTVSPost2010PropOp41
 70
     1
102
RTVSPost2010Prop42
 90
       50
102
RTVSPost2010PropOp42
 70
     1
102
RTVSPost2010Prop43
 90
        3
102
RTVSPost2010PropOp43
 70
     1
102
RTVSPost2010Prop44ColorIndex
 90
        5
102
RTVSPost2010Prop44ColorRGB
 90
      255
102
RTVSPost2010PropOp44
 70
     1
102
RTVSPost2010Prop45
280
     0
102
RTVSPost2010PropOp45
 70
     1
102
RTVSPost2010Prop46
 90
       50
102
RTVSPost2010PropOp46
 70
     1
102
RTVSPost2010Prop47
 90
       50
102
RTVSPost2010PropOp47
 70
     1
102
RTVSPost2010Prop48
 90
       50
102
RTVSPost2010PropOp48
 70
     1
102
RTVSPost2010Prop49
280
     0
102
RTVSPost2010PropOp49
 70
     1
102
RTVSPost2010Prop50
 90
       50
102
RTVSPost2010PropOp50
 70
     1
102
RTVSPost2010Prop51ColorIndex
 90
      256
102
RTVSPost2010Prop51ColorRGB
 90
-16777216
102
RTVSPost2010PropOp51
 70
     0
102
RTVSPost2010Prop52
140
1.0
102
RTVSPost2010PropOp52
 70
     0
102
RTVSPost2010Prop53
 90
        2
102
RTVSPost2010PropOp53
 70
     1
102
RTVSPost2010Prop54
  1
strokes_ogs.tif
102
RTVSPost2010PropOp54
 70
     1
102
RTVSPost2010Prop55
280
     0
102
RTVSPost2010PropOp55
 70
     1
102
RTVSPost2010Prop56
140
1.0
102
RTVSPost2010PropOp56
 70
     1
102
RTVSPost2010Prop57
140
1.0
102
RTVSPost2010PropOp57
 70
     1
  0
XRECORD
  5
1B5B
102
{ACAD_REACTORS
330
1B5A
102
}
330
1B5A
100
AcDbXrecord
280
     1
102
RTVSPost2010Prop28
280
     0
102
RTVSPost2010PropOp28
 70
     1
102
RTVSPost2010Prop29
280
     1
102
RTVSPost2010PropOp29
 70
     1
102
RTVSPost2010Prop30
280
     1
102
RTVSPost2010PropOp30
 70
     1
102
RTVSPost2010Prop31
280
     0
102
RTVSPost2010PropOp31
 70
     1
102
RTVSPost2010Prop32
280
     0
102
RTVSPost2010PropOp32
 70
     1
102
RTVSPost2010Prop33
280
     0
102
RTVSPost2010PropOp33
 70
     1
102
RTVSPost2010Prop34
280
     0
102
RTVSPost2010PropOp34
 70
     1
102
RTVSPost2010Prop35
280
     0
102
RTVSPost2010PropOp35
 70
     1
102
RTVSPost2010Prop36
280
     0
102
RTVSPost2010PropOp36
 70
     1
102
RTVSPost2010Prop37
 90
       50
102
RTVSPost2010PropOp37
 70
     1
102
RTVSPost2010Prop38
140
0.0
102
RTVSPost2010PropOp38
 70
     1
102
RTVSPost2010Prop39
140
1.0
102
RTVSPost2010PropOp39
 70
     1
102
RTVSPost2010Prop40
 90
        0
102
RTVSPost2010PropOp40
 70
     1
102
RTVSPost2010Prop41ColorIndex
 90
       18
102
RTVSPost2010Prop41ColorRGB
 90
        0
102
RTVSPost2010PropOp41
 70
     1
102
RTVSPost2010Prop42
 90
       50
102
RTVSPost2010PropOp42
 70
     1
102
RTVSPost2010Prop43
 90
        3
102
RTVSPost2010PropOp43
 70
     1
102
RTVSPost2010Prop44ColorIndex
 90
        5
102
RTVSPost2010Prop44ColorRGB
 90
      255
102
RTVSPost2010PropOp44
 70
     1
102
RTVSPost2010Prop45
280
     0
102
RTVSPost2010PropOp45
 70
     1
102
RTVSPost2010Prop46
 90
       50
102
RTVSPost2010PropOp46
 70
     1
102
RTVSPost2010Prop47
 90
       50
102
RTVSPost2010PropOp47
 70
     1
102
RTVSPost2010Prop48
 90
       50
102
RTVSPost2010PropOp48
 70
     1
102
RTVSPost2010Prop49
280
     0
102
RTVSPost2010PropOp49
 70
     1
102
RTVSPost2010Prop50
 90
       50
102
RTVSPost2010PropOp50
 70
     1
102
RTVSPost2010Prop51ColorIndex
 90
      256
102
RTVSPost2010Prop51ColorRGB
 90
-16777216
102
RTVSPost2010PropOp51
 70
     0
102
RTVSPost2010Prop52
140
1.0
102
RTVSPost2010PropOp52
 70
     0
102
RTVSPost2010Prop53
 90
        2
102
RTVSPost2010PropOp53
 70
     1
102
RTVSPost2010Prop54
  1
strokes_ogs.tif
102
RTVSPost2010PropOp54
 70
     1
102
RTVSPost2010Prop55
280
     0
102
RTVSPost2010PropOp55
 70
     1
102
RTVSPost2010Prop56
140
1.0
102
RTVSPost2010PropOp56
 70
     1
102
RTVSPost2010Prop57
140
1.0
102
RTVSPost2010PropOp57
 70
     1
  0
XRECORD
  5
1B63
102
{ACAD_REACTORS
330
1B62
102
}
330
1B62
100
AcDbXrecord
280
     1
102
RTVSPost2010Prop28
280
     0
102
RTVSPost2010PropOp28
 70
     1
102
RTVSPost2010Prop29
280
     1
102
RTVSPost2010PropOp29
 70
     1
102
RTVSPost2010Prop30
280
     1
102
RTVSPost2010PropOp30
 70
     1
102
RTVSPost2010Prop31
280
     0
102
RTVSPost2010PropOp31
 70
     1
102
RTVSPost2010Prop32
280
     0
102
RTVSPost2010PropOp32
 70
     1
102
RTVSPost2010Prop33
280
     0
102
RTVSPost2010PropOp33
 70
     1
102
RTVSPost2010Prop34
280
     0
102
RTVSPost2010PropOp34
 70
     1
102
RTVSPost2010Prop35
280
     0
102
RTVSPost2010PropOp35
 70
     1
102
RTVSPost2010Prop36
280
     0
102
RTVSPost2010PropOp36
 70
     1
102
RTVSPost2010Prop37
 90
       50
102
RTVSPost2010PropOp37
 70
     1
102
RTVSPost2010Prop38
140
0.0
102
RTVSPost2010PropOp38
 70
     1
102
RTVSPost2010Prop39
140
1.0
102
RTVSPost2010PropOp39
 70
     1
102
RTVSPost2010Prop40
 90
        0
102
RTVSPost2010PropOp40
 70
     1
102
RTVSPost2010Prop41ColorIndex
 90
       18
102
RTVSPost2010Prop41ColorRGB
 90
        0
102
RTVSPost2010PropOp41
 70
     1
102
RTVSPost2010Prop42
 90
       50
102
RTVSPost2010PropOp42
 70
     1
102
RTVSPost2010Prop43
 90
        3
102
RTVSPost2010PropOp43
 70
     1
102
RTVSPost2010Prop44ColorIndex
 90
        5
102
RTVSPost2010Prop44ColorRGB
 90
      255
102
RTVSPost2010PropOp44
 70
     1
102
RTVSPost2010Prop45
280
     0
102
RTVSPost2010PropOp45
 70
     1
102
RTVSPost2010Prop46
 90
       50
102
RTVSPost2010PropOp46
 70
     1
102
RTVSPost2010Prop47
 90
       50
102
RTVSPost2010PropOp47
 70
     1
102
RTVSPost2010Prop48
 90
       50
102
RTVSPost2010PropOp48
 70
     1
102
RTVSPost2010Prop49
280
     0
102
RTVSPost2010PropOp49
 70
     1
102
RTVSPost2010Prop50
 90
       50
102
RTVSPost2010PropOp50
 70
     1
102
RTVSPost2010Prop51ColorIndex
 90
      256
102
RTVSPost2010Prop51ColorRGB
 90
-16777216
102
RTVSPost2010PropOp51
 70
     0
102
RTVSPost2010Prop52
140
1.0
102
RTVSPost2010PropOp52
 70
     0
102
RTVSPost2010Prop53
 90
        2
102
RTVSPost2010PropOp53
 70
     1
102
RTVSPost2010Prop54
  1
strokes_ogs.tif
102
RTVSPost2010PropOp54
 70
     1
102
RTVSPost2010Prop55
280
     0
102
RTVSPost2010PropOp55
 70
     1
102
RTVSPost2010Prop56
140
1.0
102
RTVSPost2010PropOp56
 70
     1
102
RTVSPost2010Prop57
140
1.0
102
RTVSPost2010PropOp57
 70
     1
  0
XRECORD
  5
1B6B
102
{ACAD_REACTORS
330
1B6A
102
}
330
1B6A
100
AcDbXrecord
280
     1
102
RTVSPost2010Prop28
280
     0
102
RTVSPost2010PropOp28
 70
     1
102
RTVSPost2010Prop29
280
     1
102
RTVSPost2010PropOp29
 70
     1
102
RTVSPost2010Prop30
280
     1
102
RTVSPost2010PropOp30
 70
     1
102
RTVSPost2010Prop31
280
     0
102
RTVSPost2010PropOp31
 70
     1
102
RTVSPost2010Prop32
280
     0
102
RTVSPost2010PropOp32
 70
     1
102
RTVSPost2010Prop33
280
     0
102
RTVSPost2010PropOp33
 70
     1
102
RTVSPost2010Prop34
280
     0
102
RTVSPost2010PropOp34
 70
     1
102
RTVSPost2010Prop35
280
     0
102
RTVSPost2010PropOp35
 70
     1
102
RTVSPost2010Prop36
280
     0
102
RTVSPost2010PropOp36
 70
     1
102
RTVSPost2010Prop37
 90
       50
102
RTVSPost2010PropOp37
 70
     1
102
RTVSPost2010Prop38
140
0.0
102
RTVSPost2010PropOp38
 70
     1
102
RTVSPost2010Prop39
140
1.0
102
RTVSPost2010PropOp39
 70
     1
102
RTVSPost2010Prop40
 90
        0
102
RTVSPost2010PropOp40
 70
     1
102
RTVSPost2010Prop41ColorIndex
 90
       18
102
RTVSPost2010Prop41ColorRGB
 90
        0
102
RTVSPost2010PropOp41
 70
     1
102
RTVSPost2010Prop42
 90
       50
102
RTVSPost2010PropOp42
 70
     1
102
RTVSPost2010Prop43
 90
        3
102
RTVSPost2010PropOp43
 70
     1
102
RTVSPost2010Prop44ColorIndex
 90
        5
102
RTVSPost2010Prop44ColorRGB
 90
      255
102
RTVSPost2010PropOp44
 70
     1
102
RTVSPost2010Prop45
280
     0
102
RTVSPost2010PropOp45
 70
     1
102
RTVSPost2010Prop46
 90
       50
102
RTVSPost2010PropOp46
 70
     1
102
RTVSPost2010Prop47
 90
       50
102
RTVSPost2010PropOp47
 70
     1
102
RTVSPost2010Prop48
 90
       50
102
RTVSPost2010PropOp48
 70
     1
102
RTVSPost2010Prop49
280
     0
102
RTVSPost2010PropOp49
 70
     1
102
RTVSPost2010Prop50
 90
       50
102
RTVSPost2010PropOp50
 70
     1
102
RTVSPost2010Prop51ColorIndex
 90
      256
102
RTVSPost2010Prop51ColorRGB
 90
-16777216
102
RTVSPost2010PropOp51
 70
     0
102
RTVSPost2010Prop52
140
1.0
102
RTVSPost2010PropOp52
 70
     0
102
RTVSPost2010Prop53
 90
        2
102
RTVSPost2010PropOp53
 70
     1
102
RTVSPost2010Prop54
  1
strokes_ogs.tif
102
RTVSPost2010PropOp54
 70
     1
102
RTVSPost2010Prop55
280
     0
102
RTVSPost2010PropOp55
 70
     1
102
RTVSPost2010Prop56
140
1.0
102
RTVSPost2010PropOp56
 70
     1
102
RTVSPost2010Prop57
140
1.0
102
RTVSPost2010PropOp57
 70
     1
  0
ENDSEC
  0
EOF
