  0
SECTION
  2
HEADER
  9
$ACADVER
  1
AC1015
  9
$ACADMAINTVER
 70
    20
  9
$DWGCODEPAGE
  3
ANSI_1252
  9
$INSBASE
 10
0.0
 20
0.0
 30
0.0
  9
$EXTMIN
 10
-431.2029170049564
 20
-1074.654038063909
 30
-0.0000000000002681
  9
$EXTMAX
 10
4539.862606103669
 20
2784.345642751745
 30
0.0000000000002574
  9
$LIMMIN
 10
0.0
 20
0.0
  9
$LIMMAX
 10
420.0
 20
297.0
  9
$ORTHOMODE
 70
     0
  9
$REGENMODE
 70
     1
  9
$FILLMODE
 70
     1
  9
$QTEXTMODE
 70
     0
  9
$MIRRTEXT
 70
     0
  9
$LTSCALE
 40
1.0
  9
$ATTMODE
 70
     1
  9
$TEXTSIZE
 40
2.5
  9
$TRACEWID
 40
1.0
  9
$TEXTSTYLE
  7
Standard
  9
$CLAYER
  8
0
  9
$CELTYPE
  6
ByLayer
  9
$CECOLOR
 62
   256
  9
$CELTSCALE
 40
1.0
  9
$DISPSILH
 70
     0
  9
$DIMSCALE
 40
1.0
  9
$DIMASZ
 40
2.5
  9
$DIMEXO
 40
0.625
  9
$DIMDLI
 40
3.75
  9
$DIMRND
 40
0.0
  9
$DIMDLE
 40
0.0
  9
$DIMEXE
 40
1.25
  9
$DIMTP
 40
0.0
  9
$DIMTM
 40
0.0
  9
$DIMTXT
 40
2.5
  9
$DIMCEN
 40
2.5
  9
$DIMTSZ
 40
0.0
  9
$DIMTOL
 70
     0
  9
$DIMLIM
 70
     0
  9
$DIMTIH
 70
     0
  9
$DIMTOH
 70
     0
  9
$DIMSE1
 70
     0
  9
$DIMSE2
 70
     0
  9
$DIMTAD
 70
     1
  9
$DIMZIN
 70
     8
  9
$DIMBLK
  1

  9
$DIMASO
 70
     1
  9
$DIMSHO
 70
     1
  9
$DIMPOST
  1

  9
$DIMAPOST
  1

  9
$DIMALT
 70
     0
  9
$DIMALTD
 70
     3
  9
$DIMALTF
 40
0.03937007874016
  9
$DIMLFAC
 40
1.0
  9
$DIMTOFL
 70
     1
  9
$DIMTVP
 40
0.0
  9
$DIMTIX
 70
     0
  9
$DIMSOXD
 70
     0
  9
$DIMSAH
 70
     0
  9
$DIMBLK1
  1

  9
$DIMBLK2
  1

  9
$DIMSTYLE
  2
ISO-25
  9
$DIMCLRD
 70
     0
  9
$DIMCLRE
 70
     0
  9
$DIMCLRT
 70
     0
  9
$DIMTFAC
 40
1.0
  9
$DIMGAP
 40
0.625
  9
$DIMJUST
 70
     0
  9
$DIMSD1
 70
     0
  9
$DIMSD2
 70
     0
  9
$DIMTOLJ
 70
     0
  9
$DIMTZIN
 70
     8
  9
$DIMALTZ
 70
     0
  9
$DIMALTTZ
 70
     0
  9
$DIMUPT
 70
     0
  9
$DIMDEC
 70
     2
  9
$DIMTDEC
 70
     2
  9
$DIMALTU
 70
     2
  9
$DIMALTTD
 70
     3
  9
$DIMTXSTY
  7
Standard
  9
$DIMAUNIT
 70
     0
  9
$DIMADEC
 70
     0
  9
$DIMALTRND
 40
0.0
  9
$DIMAZIN
 70
     0
  9
$DIMDSEP
 70
    44
  9
$DIMATFIT
 70
     3
  9
$DIMFRAC
 70
     0
  9
$DIMLDRBLK
  1

  9
$DIMLUNIT
 70
     2
  9
$DIMLWD
 70
    -2
  9
$DIMLWE
 70
    -2
  9
$DIMTMOVE
 70
     0
  9
$LUNITS
 70
     2
  9
$LUPREC
 70
     4
  9
$SKETCHINC
 40
1.0
  9
$FILLETRAD
 40
0.0
  9
$AUNITS
 70
     0
  9
$AUPREC
 70
     0
  9
$MENU
  1
.
  9
$ELEVATION
 40
0.0
  9
$PELEVATION
 40
0.0
  9
$THICKNESS
 40
0.0
  9
$LIMCHECK
 70
     0
  9
$CHAMFERA
 40
0.0
  9
$CHAMFERB
 40
0.0
  9
$CHAMFERC
 40
0.0
  9
$CHAMFERD
 40
0.0
  9
$SKPOLY
 70
     0
  9
$TDCREATE
 40
2454768.510881991
  9
$TDUCREATE
 40
2454768.469215324
  9
$TDUPDATE
 40
2455609.665978704
  9
$TDUUPDATE
 40
2455609.624312037
  9
$TDINDWG
 40
0.1260874421
  9
$TDUSRTIMER
 40
0.1260854745
  9
$USRTIMER
 70
     1
  9
$ANGBASE
 50
0.0
  9
$ANGDIR
 70
     0
  9
$PDMODE
 70
     0
  9
$PDSIZE
 40
0.0
  9
$PLINEWID
 40
0.0
  9
$SPLFRAME
 70
     0
  9
$SPLINETYPE
 70
     6
  9
$SPLINESEGS
 70
     8
  9
$HANDSEED
  5
1E9F
  9
$SURFTAB1
 70
     6
  9
$SURFTAB2
 70
     6
  9
$SURFTYPE
 70
     6
  9
$SURFU
 70
     6
  9
$SURFV
 70
     6
  9
$UCSBASE
  2

  9
$UCSNAME
  2

  9
$UCSORG
 10
0.0
 20
0.0
 30
0.0
  9
$UCSXDIR
 10
1.0
 20
0.0
 30
0.0
  9
$UCSYDIR
 10
0.0
 20
1.0
 30
0.0
  9
$UCSORTHOREF
  2

  9
$UCSORTHOVIEW
 70
     0
  9
$UCSORGTOP
 10
0.0
 20
0.0
 30
0.0
  9
$UCSORGBOTTOM
 10
0.0
 20
0.0
 30
0.0
  9
$UCSORGLEFT
 10
0.0
 20
0.0
 30
0.0
  9
$UCSORGRIGHT
 10
0.0
 20
0.0
 30
0.0
  9
$UCSORGFRONT
 10
0.0
 20
0.0
 30
0.0
  9
$UCSORGBACK
 10
0.0
 20
0.0
 30
0.0
  9
$PUCSBASE
  2

  9
$PUCSNAME
  2

  9
$PUCSORG
 10
0.0
 20
0.0
 30
0.0
  9
$PUCSXDIR
 10
1.0
 20
0.0
 30
0.0
  9
$PUCSYDIR
 10
0.0
 20
1.0
 30
0.0
  9
$PUCSORTHOREF
  2

  9
$PUCSORTHOVIEW
 70
     0
  9
$PUCSORGTOP
 10
0.0
 20
0.0
 30
0.0
  9
$PUCSORGBOTTOM
 10
0.0
 20
0.0
 30
0.0
  9
$PUCSORGLEFT
 10
0.0
 20
0.0
 30
0.0
  9
$PUCSORGRIGHT
 10
0.0
 20
0.0
 30
0.0
  9
$PUCSORGFRONT
 10
0.0
 20
0.0
 30
0.0
  9
$PUCSORGBACK
 10
0.0
 20
0.0
 30
0.0
  9
$USERI1
 70
     0
  9
$USERI2
 70
     0
  9
$USERI3
 70
     0
  9
$USERI4
 70
     0
  9
$USERI5
 70
     0
  9
$USERR1
 40
0.0
  9
$USERR2
 40
0.0
  9
$USERR3
 40
0.0
  9
$USERR4
 40
0.0
  9
$USERR5
 40
0.0
  9
$WORLDVIEW
 70
     1
  9
$SHADEDGE
 70
     3
  9
$SHADEDIF
 70
    70
  9
$TILEMODE
 70
     1
  9
$MAXACTVP
 70
    64
  9
$PINSBASE
 10
0.0
 20
0.0
 30
0.0
  9
$PLIMCHECK
 70
     0
  9
$PEXTMIN
 10
0.0
 20
0.0
 30
0.0
  9
$PEXTMAX
 10
0.0
 20
0.0
 30
0.0
  9
$PLIMMIN
 10
0.0
 20
0.0
  9
$PLIMMAX
 10
12.0
 20
9.0
  9
$UNITMODE
 70
     0
  9
$VISRETAIN
 70
     1
  9
$PLINEGEN
 70
     0
  9
$PSLTSCALE
 70
     1
  9
$TREEDEPTH
 70
  3020
  9
$CMLSTYLE
  2
Standard
  9
$CMLJUST
 70
     0
  9
$CMLSCALE
 40
20.0
  9
$PROXYGRAPHICS
 70
     1
  9
$MEASUREMENT
 70
     1
  9
$CELWEIGHT
370
    -1
  9
$ENDCAPS
280
     0
  9
$JOINSTYLE
280
     0
  9
$LWDISPLAY
290
     0
  9
$INSUNITS
 70
     4
  9
$HYPERLINKBASE
  1

  9
$STYLESHEET
  1

  9
$XEDIT
290
     1
  9
$CEPSNTYPE
380
     0
  9
$PSTYLEMODE
290
     1
  9
$FINGERPRINTGUID
  2
{A9F5D530-972F-4813-857A-78B9B08CAD27}
  9
$VERSIONGUID
  2
{4FE8C6C5-8097-4F32-960F-A27DED407EB2}
  9
$EXTNAMES
290
     1
  9
$PSVPSCALE
 40
0.0
  9
$OLESTARTUP
290
     0
  0
ENDSEC
  0
SECTION
  2
CLASSES
  0
CLASS
  1
ACDBDICTIONARYWDFLT
  2
AcDbDictionaryWithDefault
  3
ObjectDBX Classes
 90
        0
280
     0
281
     0
  0
CLASS
  1
DICTIONARYVAR
  2
AcDbDictionaryVar
  3
ObjectDBX Classes
 90
        0
280
     0
281
     0
  0
CLASS
  1
TABLESTYLE
  2
AcDbTableStyle
  3
ObjectDBX Classes
 90
     4095
280
     0
281
     0
  0
CLASS
  1
MATERIAL
  2
AcDbMaterial
  3
ObjectDBX Classes
 90
     1024
280
     0
281
     0
  0
CLASS
  1
VISUALSTYLE
  2
AcDbVisualStyle
  3
ObjectDBX Classes
 90
     4095
280
     0
281
     0
  0
CLASS
  1
SORTENTSTABLE
  2
AcDbSortentsTable
  3
ObjectDBX Classes
 90
        0
280
     0
281
     0
  0
CLASS
  1
DIMASSOC
  2
AcDbDimAssoc
  3
"AcDbDimAssoc|Product Desc:     AcDim ARX App For Dimension|Company:          Autodesk, Inc.|WEB Address:      www.autodesk.com"
 90
        0
280
     0
281
     0
  0
CLASS
  1
ACDBPLACEHOLDER
  2
AcDbPlaceHolder
  3
ObjectDBX Classes
 90
        0
280
     0
281
     0
  0
CLASS
  1
LAYOUT
  2
AcDbLayout
  3
ObjectDBX Classes
 90
        0
280
     0
281
     0
  0
ENDSEC
  0
SECTION
  2
TABLES
  0
TABLE
  2
VPORT
  5
8
330
0
100
AcDbSymbolTable
 70
     1
  0
VPORT
  5
EA
330
8
100
AcDbSymbolTableRecord
100
AcDbViewportTableRecord
  2
*Active
 70
     0
 10
0.0
 20
0.0
 11
1.0
 21
1.0
 12
1402.362755133052
 22
959.5352540441464
 13
0.0
 23
0.0
 14
10.0
 24
10.0
 15
10.0
 25
10.0
 16
0.0
 26
0.0
 36
1.0
 17
0.0
 27
0.0
 37
0.0
 40
2347.681728249831
 41
1.858662613981762
 42
50.0
 43
0.0
 44
0.0
 50
0.0
 51
0.0
 71
     0
 72
  1000
 73
     1
 74
     3
 75
     0
 76
     0
 77
     0
 78
     0
281
     0
 65
     1
110
0.0
120
0.0
130
0.0
111
1.0
121
0.0
131
0.0
112
0.0
122
1.0
132
0.0
 79
     0
146
0.0
  0
ENDTAB
  0
TABLE
  2
LTYPE
  5
5
330
0
100
AcDbSymbolTable
 70
     3
  0
LTYPE
  5
14
330
5
100
AcDbSymbolTableRecord
100
AcDbLinetypeTableRecord
  2
ByBlock
 70
     0
  3

 72
    65
 73
     0
 40
0.0
  0
LTYPE
  5
15
330
5
100
AcDbSymbolTableRecord
100
AcDbLinetypeTableRecord
  2
ByLayer
 70
     0
  3

 72
    65
 73
     0
 40
0.0
  0
LTYPE
  5
16
330
5
100
AcDbSymbolTableRecord
100
AcDbLinetypeTableRecord
  2
Continuous
 70
     0
  3
Solid line
 72
    65
 73
     0
 40
0.0
  0
ENDTAB
  0
TABLE
  2
LAYER
  5
2
102
{ACAD_XDICTIONARY
360
141
102
}
330
0
100
AcDbSymbolTable
 70
     9
  0
LAYER
  5
10
330
2
100
AcDbSymbolTableRecord
100
AcDbLayerTableRecord
  2
0
 70
     0
 62
     7
  6
Continuous
370
    -3
390
F
  0
LAYER
  5
124
330
2
100
AcDbSymbolTableRecord
100
AcDbLayerTableRecord
  2
Defpoints
 70
     0
 62
     7
  6
Continuous
290
     0
370
    -3
390
F
  0
LAYER
  5
13E
330
2
100
AcDbSymbolTableRecord
100
AcDbLayerTableRecord
  2
Hewi
 70
     0
 62
     7
  6
Continuous
370
    -3
390
F
  0
ENDTAB
  0
TABLE
  2
STYLE
  5
3
330
0
100
AcDbSymbolTable
 70
     5
  0
STYLE
  5
11
330
3
100
AcDbSymbolTableRecord
100
AcDbTextStyleTableRecord
  2
Standard
 70
     0
 40
0.0
 41
1.0
 50
0.0
 71
     0
 42
2.5
  3
txt
  4

  0
ENDTAB
  0
TABLE
  2
VIEW
  5
6
330
0
100
AcDbSymbolTable
 70
     0
  0
ENDTAB
  0
TABLE
  2
UCS
  5
7
330
0
100
AcDbSymbolTable
 70
     0
  0
ENDTAB
  0
TABLE
  2
APPID
  5
9
330
0
100
AcDbSymbolTable
 70
     3
  0
APPID
  5
12
330
9
100
AcDbSymbolTableRecord
100
AcDbRegAppTableRecord
  2
ACAD
 70
     0
  0
APPID
  5
9E
330
9
100
AcDbSymbolTableRecord
100
AcDbRegAppTableRecord
  2
ACAD_PSEXT
 70
     0
  0
APPID
  5
212
330
9
100
AcDbSymbolTableRecord
100
AcDbRegAppTableRecord
  2
ACAD_EXEMPT_FROM_CAD_STANDARDS
 70
     0
  0
ENDTAB
  0
TABLE
  2
DIMSTYLE
  5
A
330
0
100
AcDbSymbolTable
 70
     5
100
AcDbDimStyleTable
 71
     1
340
27
  0
DIMSTYLE
105
27
330
A
100
AcDbSymbolTableRecord
100
AcDbDimStyleTableRecord
  2
ISO-25
 70
     0
 41
2.5
 42
0.625
 43
3.75
 44
1.25
 73
     0
 74
     0
 77
     1
 78
     8
140
2.5
141
2.5
143
0.03937007874016
147
0.625
171
     3
172
     1
271
     2
272
     2
274
     3
278
    44
283
     0
284
     8
340
11
  0
DIMSTYLE
105
254
330
A
100
AcDbSymbolTableRecord
100
AcDbDimStyleTableRecord
  2
Standard
 70
     0
340
11
  0
ENDTAB
  0
TABLE
  2
BLOCK_RECORD
  5
1
330
0
100
AcDbSymbolTable
 70
   116
  0
BLOCK_RECORD
  5
1F
102
{ACAD_XDICTIONARY
360
116
102
}
330
1
100
AcDbSymbolTableRecord
100
AcDbBlockTableRecord
  2
*Model_Space
340
22
  0
BLOCK_RECORD
  5
D2
330
1
100
AcDbSymbolTableRecord
100
AcDbBlockTableRecord
  2
*Paper_Space
340
D3
  0
BLOCK_RECORD
  5
D6
330
1
100
AcDbSymbolTableRecord
100
AcDbBlockTableRecord
  2
*Paper_Space0
340
D7
  0
ENDTAB
  0
ENDSEC
  0
SECTION
  2
BLOCKS
  0
BLOCK
  5
20
330
1F
100
AcDbEntity
  8
0
100
AcDbBlockBegin
  2
*Model_Space
 70
     0
 10
0.0
 20
0.0
 30
0.0
  3
*Model_Space
  1

  0
ENDBLK
  5
21
330
1F
100
AcDbEntity
  8
0
100
AcDbBlockEnd
  0
BLOCK
  5
D4
330
D2
100
AcDbEntity
 67
     1
  8
0
100
AcDbBlockBegin
  2
*Paper_Space
 70
     0
 10
0.0
 20
0.0
 30
0.0
  3
*Paper_Space
  1

  0
ENDBLK
  5
D5
330
D2
100
AcDbEntity
 67
     1
  8
0
100
AcDbBlockEnd
  0
BLOCK
  5
D8
330
D6
100
AcDbEntity
 67
     1
  8
0
100
AcDbBlockBegin
  2
*Paper_Space0
 70
     0
 10
0.0
 20
0.0
 30
0.0
  3
*Paper_Space0
  1

  0
ENDBLK
  5
D9
330
D6
100
AcDbEntity
 67
     1
  8
0
100
AcDbBlockEnd
  0
ENDSEC
  0
SECTION
  2
ENTITIES
  0
LINE
  5
10AD
330
1F
100
AcDbEntity
  8
Hewi
100
AcDbLine
 10
817.5583611205794
 20
828.7588598267713
 30
0.0
 11
817.5583611205794
 21
872.7494934473318
 31
0.0
  0
LINE
  5
10AE
330
1F
100
AcDbEntity
  8
Hewi
100
AcDbLine
 10
799.5583611205792
 20
872.7494456716621
 30
0.0
 11
799.5583611205792
 21
828.7503679514729
 31
0.0
  0
LINE
  5
10B3
330
1F
100
AcDbEntity
  8
Hewi
100
AcDbLine
 10
327.7062975394392
 20
795.7497181118768
 30
0.0
 11
490.8550132392674
 21
795.7497181118768
 31
0.0
  0
LINE
  5
10B5
330
1F
100
AcDbEntity
  8
Hewi
100
AcDbLine
 10
799.555975897877
 20
828.7497181118768
 30
0.0
 11
496.9245547938283
 21
828.7495258524968
 31
0.0
  0
LINE
  5
10B6
330
1F
100
AcDbEntity
  8
Hewi
100
AcDbLine
 10
874.5602637715341
 20
828.7497181118768
 30
0.0
 11
817.3851216498286
 21
828.7497181118768
 31
0.0
  0
LINE
  5
10BB
330
1F
100
AcDbEntity
  8
Hewi
100
AcDbLine
 10
848.5583611205791
 20
874.7497181118768
 30
0.0
 11
848.5583611205791
 21
885.749718111877
 31
0.0
  0
LINE
  5
10BC
330
1F
100
AcDbEntity
  8
Hewi
100
AcDbLine
 10
768.5583611205794
 20
885.749718111877
 30
0.0
 11
768.5583611205794
 21
874.7497181118768
 31
0.0
  0
LINE
  5
10C1
330
1F
100
AcDbEntity
  8
Hewi
100
AcDbLine
 10
875.060263771534
 20
796.2497181118768
 30
0.0
 11
875.060263771534
 21
828.2497181118769
 31
0.0
  0
LINE
  5
10CB
330
1F
100
AcDbEntity
  8
Hewi
100
AcDbLine
 10
875.0583611205792
 20
812.2497181118768
 30
0.0
 11
875.0583611205792
 21
828.2497161842284
 31
0.0
  0
LINE
  5
10CC
330
1F
100
AcDbEntity
  8
Hewi
100
AcDbLine
 10
875.0583611205792
 20
812.2497181118768
 30
0.0
 11
875.0583611205792
 21
828.2497181118769
 31
0.0
  0
LINE
  5
10CE
330
1F
100
AcDbEntity
  8
Hewi
100
AcDbLine
 10
770.5583611205794
 20
872.7497181118769
 30
0.0
 11
846.5583611205794
 21
872.7497181118769
 31
0.0
  0
LINE
  5
10CF
330
1F
100
AcDbEntity
  8
Hewi
100
AcDbLine
 10
768.5583611205794
 20
885.749718111877
 30
0.0
 11
848.5583611205791
 21
885.749718111877
 31
0.0
  0
LINE
  5
1129
330
1F
100
AcDbEntity
  8
Hewi
100
AcDbLine
 10
941.1926144211747
 20
1142.499337367421
 30
-0.0000000000000102
 11
957.1025169978666
 21
1142.499337367421
 31
0.0000000000000085
  0
LINE
  5
112A
330
1F
100
AcDbEntity
  8
Hewi
100
AcDbLine
 10
957.1025169978666
 20
1175.49933736742
 30
0.0000000000000105
 11
941.1926144211747
 21
1175.49933736742
 31
-0.0000000000000081
  0
LINE
  5
112B
330
1F
100
AcDbEntity
  8
Hewi
100
AcDbLine
 10
996.389521457705
 20
1118.99933736742
 30
-0.0000000000000038
 11
997.5583611205793
 21
1118.99933736742
 31
-0.0000000000000024
  0
LINE
  5
112C
330
1F
100
AcDbEntity
  8
Hewi
100
AcDbLine
 10
986.5583611205792
 20
1118.99933736742
 30
-0.0000000000000154
 11
996.389521457705
 21
1118.99933736742
 31
-0.0000000000000038
  0
LINE
  5
112D
330
1F
100
AcDbEntity
  8
Hewi
100
AcDbLine
 10
997.5583611205793
 20
1198.99933736742
 30
0.0000000000000025
 11
986.5583611205792
 21
1198.99933736742
 31
-0.0000000000000105
  0
LINE
  5
112E
330
1F
100
AcDbEntity
  8
Hewi
100
AcDbLine
 10
967.2348193003699
 20
1149.99933736742
 30
-0.0000000000000126
 11
984.5576487126955
 21
1149.99933736742
 31
-0.0000000000000119
  0
LINE
  5
112F
330
1F
100
AcDbEntity
  8
Hewi
100
AcDbLine
 10
984.557602840533
 20
1167.99933736742
 30
-0.0000000000000107
 11
967.2343192890684
 21
1167.99933736742
 31
-0.0000000000000113
  0
LINE
  5
1130
330
1F
100
AcDbEntity
  8
Hewi
100
AcDbLine
 10
924.0583611205792
 20
1142.499337367421
 30
-0.0000000000000019
 11
941.1926144211747
 21
1142.499337367421
 31
-0.0000000000000102
  0
LINE
  5
1131
330
1F
100
AcDbEntity
  8
Hewi
100
AcDbLine
 10
941.1926144211747
 20
1175.49933736742
 30
-0.0000000000000081
 11
924.0583611205792
 21
1175.49933736742
 31
0.0000000000000002
  0
LINE
  5
1133
330
1F
100
AcDbEntity
  8
Hewi
100
AcDbLine
 10
984.5583611205793
 20
1196.999337367421
 30
-0.0000000000000129
 11
984.5583611205793
 21
1120.99933736742
 31
-0.0000000000000176
  0
LINE
  5
1134
330
1F
100
AcDbEntity
  8
Hewi
100
AcDbLine
 10
997.5583611205793
 20
1198.99933736742
 30
0.0000000000000025
 11
997.5583611205793
 21
1118.99933736742
 31
-0.0000000000000024
  0
ARC
  5
113A
330
1F
100
AcDbEntity
  8
Hewi
100
AcDbCircle
 10
875.5583611205791
 20
796.2497181118768
 30
0.0
 40
0.5
100
AcDbArc
 50
183.5349391366616
 51
270.0
  0
ARC
  5
113B
330
1F
100
AcDbEntity
  8
Hewi
100
AcDbCircle
 10
875.5583611205791
 20
828.2497181118769
 30
0.0
 40
0.5
100
AcDbArc
 50
90.0
 51
176.4650608633384
  0
ARC
  5
1140
330
1F
100
AcDbEntity
  8
Hewi
100
AcDbCircle
 10
846.5583611205794
 20
874.7497181118768
 30
0.0
 40
2.0
100
AcDbArc
 50
270.0
 51
0.0
  0
ARC
  5
1141
330
1F
100
AcDbEntity
  8
Hewi
100
AcDbCircle
 10
770.5583611205794
 20
874.7497181118768
 30
0.0
 40
2.0
100
AcDbArc
 50
180.0
 51
270.0
  0
ARC
  5
1152
330
1F
100
AcDbEntity
  8
Hewi
100
AcDbCircle
 10
874.5602637715341
 20
828.2497181118769
 30
0.0
 40
0.5
100
AcDbArc
 50
3.53493913666162
 51
90.0
  0
ARC
  5
1153
330
1F
100
AcDbEntity
  8
Hewi
100
AcDbCircle
 10
874.5602637715341
 20
796.2497181118768
 30
0.0
 40
0.5
100
AcDbArc
 50
270.0
 51
356.4650608633384
  0
ARC
  5
116A
330
1F
100
AcDbEntity
  8
Hewi
100
AcDbCircle
 10
986.5583611205792
 20
1120.99933736742
 30
-0.0000000000001858
 40
2.0
100
AcDbArc
 50
180.0
 51
270.0
  0
ARC
  5
116B
330
1F
100
AcDbEntity
  8
Hewi
100
AcDbCircle
 10
986.5583611205792
 20
1196.999337367421
 30
-0.0000000000001811
 40
2.0
100
AcDbArc
 50
90.0
 51
180.0
  0
ARC
  5
116C
330
1F
100
AcDbEntity
  8
Hewi
100
AcDbCircle
 10
-924.0583611205792
 20
1158.99933736742
 30
0.0000000000002567
 40
16.5
210
0.0
220
0.0
230
-1.0
100
AcDbArc
 50
269.9999978889112
 51
0.0
  0
ARC
  5
116D
330
1F
100
AcDbEntity
  8
Hewi
100
AcDbCircle
 10
-924.0583611205792
 20
1158.99933736742
 30
0.0000000000002567
 40
16.5
210
0.0
220
0.0
230
-1.0
100
AcDbArc
 50
0.0
 51
90.00000211108874
  0
ARC
  5
116E
330
1F
100
AcDbEntity
  8
Hewi
100
AcDbCircle
 10
924.0583611205792
 20
1158.99933736742
 30
-0.0000000000002567
 40
16.5
100
AcDbArc
 50
90.0
 51
270.0000042213437
  0
ELLIPSE
  5
1176
330
1F
100
AcDbEntity
  8
Hewi
100
AcDbEllipse
 10
941.1926144211747
 20
1158.99933736742
 30
-0.0000000000000091
 11
0.0000000000000051
 21
16.5
 31
0.0
210
0.0
220
0.0
230
1.0
 40
0.7071067811865485
 41
0.0
 42
3.141592818617966
  0
ELLIPSE
  5
1178
330
1F
100
AcDbEntity
  8
Hewi
100
AcDbEllipse
 10
958.2967202219725
 20
1158.99933736742
 30
0.0000000000000109
 11
-0.0000000000000047
 21
-15.46314323411495
 31
0.0
210
0.0
220
0.0
230
1.0
 40
0.7071067811865487
 41
0.0
 42
6.283185307179585
  0
ELLIPSE
  5
1179
330
1F
100
AcDbEntity
  8
Hewi
100
AcDbEllipse
 10
957.4560703884626
 20
1158.99933736742
 30
0.0000000000000099
 11
-0.0000000000000051
 21
-16.5
 31
0.0
210
0.0
220
0.0
230
1.0
 40
0.7071067811865485
 41
2.064124468782268
 42
6.283185307179585
  0
ELLIPSE
  5
117A
330
1F
100
AcDbEntity
  8
Hewi
100
AcDbEllipse
 10
957.4560703884626
 20
1158.99933736742
 30
0.0000000000000099
 11
-0.0000000000000051
 21
-16.5
 31
0.0
210
0.0
220
0.0
230
1.0
 40
0.7071067811865485
 41
0.0
 42
1.077566468341812
  0
SPLINE
  5
1184
330
1F
100
AcDbEntity
  8
Hewi
100
AcDbSpline
210
0.0
220
0.0
230
1.0
 70
     8
 71
     3
 72
    14
 73
    10
 74
     0
 42
0.0000000001
 43
0.0000000001
 40
0.0
 40
0.0
 40
0.0
 40
0.0
 40
0.2432394719143855
 40
0.2432394719143855
 40
0.495492981276257
 40
0.495492981276257
 40
0.7477464906381287
 40
0.7477464906381287
 40
1.0
 40
1.0
 40
1.0
 40
1.0
 10
799.5585403064169
 20
828.7494505713357
 30
0.0
 10
799.5588747420979
 20
828.7476328933507
 30
0.0
 10
800.4991503843909
 20
828.2001393239434
 30
0.0
 10
803.6214037995078
 20
826.910305528577
 30
0.0
 10
805.9070248241178
 20
826.2168868325634
 30
0.0
 10
810.7171692249384
 20
826.1988095906808
 30
0.0
 10
813.086906233074
 20
826.8879884818261
 30
0.0
 10
816.4330822429029
 20
828.2036159236694
 30
0.0
 10
817.5042985363823
 20
828.7780824065514
 30
0.0
 10
817.5562991175819
 20
828.7484944967539
 30
0.0
  0
LINE
  5
1341
330
1F
100
AcDbEntity
  8
Hewi
  6
Continuous
100
AcDbLine
 10
1242.707381050899
 20
1167.99933736742
 30
0.0
 11
1225.337223484993
 21
1167.99933736742
 31
0.0
  0
LINE
  5
1342
330
1F
100
AcDbEntity
  8
Hewi
  6
Continuous
100
AcDbLine
 10
1225.337545816886
 20
1149.99933736742
 30
0.0
 11
1242.707381050899
 21
1149.99933736742
 31
0.0
  0
LINE
  5
1347
330
1F
100
AcDbEntity
  8
Hewi
  6
Continuous
100
AcDbLine
 10
1223.336994244903
 20
1198.99933736742
 30
0.0
 11
1212.336994244903
 21
1198.99933736742
 31
0.0
  0
LINE
  5
1348
330
1F
100
AcDbEntity
  8
Hewi
  6
Continuous
100
AcDbLine
 10
1212.336994244903
 20
1118.99933736742
 30
0.0
 11
1223.336994244903
 21
1118.99933736742
 31
0.0
  0
LINE
  5
1352
330
1F
100
AcDbEntity
  8
Hewi
  6
Continuous
100
AcDbLine
 10
1212.336994244903
 20
1118.99933736742
 30
0.0
 11
1212.336994244903
 21
1198.99933736742
 31
0.0
  0
LINE
  5
1353
330
1F
100
AcDbEntity
  8
Hewi
  6
Continuous
100
AcDbLine
 10
1225.336994244903
 20
1120.99933736742
 30
0.0
 11
1225.336994244903
 21
1196.999337367421
 31
0.0
  0
ARC
  5
1376
330
1F
100
AcDbEntity
  8
Hewi
  6
Continuous
100
AcDbCircle
 10
1223.336994244903
 20
1196.999337367421
 30
0.0
 40
2.0
100
AcDbArc
 50
0.0
 51
90.0
  0
ARC
  5
1377
330
1F
100
AcDbEntity
  8
Hewi
  6
Continuous
100
AcDbCircle
 10
1223.336994244903
 20
1120.99933736742
 30
0.0
 40
2.0
100
AcDbArc
 50
270.0
 51
0.0
  0
LINE
  5
1469
330
1F
100
AcDbEntity
  8
Hewi
100
AcDbLine
 10
907.5583611205791
 20
215.8976545307369
 30
0.0
 11
907.5583611205791
 21
193.3976545307368
 31
0.0
  0
LINE
  5
146A
330
1F
100
AcDbEntity
  8
Hewi
100
AcDbLine
 10
940.5583611205791
 20
193.3976545307368
 30
0.0
 11
940.5583611205791
 21
215.8976545307369
 31
0.0
  0
LINE
  5
146B
330
1F
100
AcDbEntity
  8
Hewi
100
AcDbLine
 10
929.5253525315921
 20
140.364645941735
 30
0.0
 11
945.4352551082983
 21
124.454743365043
 31
0.0
  0
LINE
  5
146C
330
1F
100
AcDbEntity
  8
Hewi
100
AcDbLine
 10
968.7697788874492
 20
147.7892671441939
 30
0.0
 11
952.859876310743
 21
163.6991697208998
 31
0.0
  0
LINE
  5
146D
330
1F
100
AcDbEntity
  8
Hewi
100
AcDbLine
 10
908.058361120579
 20
216.395751879782
 30
0.0
 11
940.0583611205791
 21
216.395751879782
 31
0.0
  0
LINE
  5
146E
330
1F
100
AcDbEntity
  8
Hewi
100
AcDbLine
 10
907.5583611205791
 20
193.3976545307368
 30
0.0
 11
907.5583611205791
 21
193.3976545307368
 31
0.0
  0
LINE
  5
146F
330
1F
100
AcDbEntity
  8
Hewi
100
AcDbLine
 10
924.058361120579
 20
216.3976545307369
 30
0.0
 11
940.0583591929308
 21
216.3976545307369
 31
0.0
  0
LINE
  5
1470
330
1F
100
AcDbEntity
  8
Hewi
100
AcDbLine
 10
924.058361120579
 20
216.3976545307369
 30
0.0
 11
940.0583611205791
 21
216.3976545307369
 31
0.0
  0
LINE
  5
1471
330
1F
100
AcDbEntity
  8
Hewi
100
AcDbLine
 10
969.1233322780451
 20
147.4357137536119
 30
0.0
 11
969.1233322780451
 21
147.4357137536119
 31
0.0
  0
ARC
  5
1473
330
1F
100
AcDbEntity
  8
Hewi
100
AcDbCircle
 10
908.058361120579
 20
215.8976545307369
 30
0.0
 40
0.5
100
AcDbArc
 50
93.53493913666147
 51
180.0
  0
ARC
  5
1474
330
1F
100
AcDbEntity
  8
Hewi
100
AcDbCircle
 10
940.0583611205791
 20
215.8976545307369
 30
0.0
 40
0.5
100
AcDbArc
 50
0.0
 51
86.46506086333843
  0
ARC
  5
1475
330
1F
100
AcDbEntity
  8
Hewi
100
AcDbCircle
 10
-982.5583611205791
 20
193.3976545307368
 30
0.0
 40
42.00000000000001
210
0.0
220
0.0
230
-1.0
100
AcDbArc
 50
314.9999999999351
 51
0.0
  0
ARC
  5
1476
330
1F
100
AcDbEntity
  8
Hewi
100
AcDbCircle
 10
982.5583611205791
 20
193.3976545307368
 30
0.0
 40
75.00000000000001
100
AcDbArc
 50
180.0
 51
225.0000000000648
  0
ARC
  5
1477
330
1F
100
AcDbEntity
  8
Hewi
100
AcDbCircle
 10
968.4162254968532
 20
147.4357137535981
 30
0.0
 40
0.5
100
AcDbArc
 50
314.9999999999351
 51
45.00000000006482
  0
ARC
  5
1478
330
1F
100
AcDbEntity
  8
Hewi
100
AcDbCircle
 10
945.7888084988796
 20
124.808296755639
 30
0.0
 40
0.5
100
AcDbArc
 50
225.0000000000648
 51
314.9999999999351
  0
ARC
  5
1479
330
1F
100
AcDbEntity
  8
Hewi
100
AcDbCircle
 10
946.6373366363104
 20
124.949718111877
 30
0.0
 40
1.199999999999999
100
AcDbArc
 50
225.0000000000648
 51
307.1862867722023
  0
ARC
  5
147A
330
1F
100
AcDbEntity
  8
Hewi
100
AcDbCircle
 10
968.2748041406147
 20
146.587185616182
 30
0.0
 40
1.199999999999999
100
AcDbArc
 50
322.8137132280937
 51
45.00000000006482
  0
ARC
  5
147B
330
1F
100
AcDbEntity
  8
Hewi
100
AcDbCircle
 10
873.6298615954865
 20
218.3909101061277
 30
0.0
 40
120.0
100
AcDbArc
 50
315.4064120063234
 51
322.8137132280937
  0
ARC
  5
147C
330
1F
100
AcDbEntity
  8
Hewi
100
AcDbCircle
 10
874.8336121463644
 20
219.5946606570055
 30
0.0
 40
120.0
100
AcDbArc
 50
307.1862867722023
 51
314.5935879935121
  0
ARC
  5
147D
330
1F
100
AcDbEntity
  8
Hewi
100
AcDbCircle
 10
940.0583611205791
 20
216.895751879782
 30
0.0
 40
0.5
100
AcDbArc
 50
273.5349391366615
 51
0.0
  0
ARC
  5
147E
330
1F
100
AcDbEntity
  8
Hewi
100
AcDbCircle
 10
908.058361120579
 20
216.895751879782
 30
0.0
 40
0.5
100
AcDbArc
 50
180.0
 51
266.4650608633384
  0
LINE
  5
1720
330
1F
100
AcDbEntity
  8
Hewi
100
AcDbLine
 10
940.5583611205791
 20
713.2497181118768
 30
0.0
 11
940.5583611205791
 21
763.7497181118768
 31
0.0
  0
LINE
  5
1721
330
1F
100
AcDbEntity
  8
Hewi
100
AcDbLine
 10
907.5583611205793
 20
193.3976545307368
 30
0.0
 11
907.5583611205791
 21
763.7497181118768
 31
0.0
  0
ARC
  5
1722
330
1F
100
AcDbEntity
  8
Hewi
100
AcDbCircle
 10
875.5583611205791
 20
763.7497181118768
 30
0.0
 40
65.0
100
AcDbArc
 50
0.0
 51
90.0
  0
ARC
  5
1723
330
1F
100
AcDbEntity
  8
Hewi
100
AcDbCircle
 10
875.5583611205791
 20
763.7497181118768
 30
0.0
 40
32.0
100
AcDbArc
 50
0.0
 51
90.0
  0
LINE
  5
1725
330
1F
100
AcDbEntity
  8
Hewi
100
AcDbLine
 10
940.5752639786069
 20
687.7497181118769
 30
0.0
 11
984.5579665531541
 21
687.7497181118769
 31
0.0
  0
LINE
  5
1726
330
1F
100
AcDbEntity
  8
Hewi
100
AcDbLine
 10
984.5579619396879
 20
705.7497181118769
 30
0.0
 11
940.5589914589208
 21
705.7497181118769
 31
0.0
  0
LINE
  5
1727
330
1F
100
AcDbEntity
  8
Hewi
100
AcDbLine
 10
986.5583611205792
 20
656.749718111877
 30
0.0
 11
997.5583611205793
 21
656.749718111877
 31
0.0
  0
LINE
  5
1728
330
1F
100
AcDbEntity
  8
Hewi
100
AcDbLine
 10
997.5583611205793
 20
736.7497181118769
 30
0.0
 11
986.5583611205792
 21
736.7497181118769
 31
0.0
  0
LINE
  5
1729
330
1F
100
AcDbEntity
  8
Hewi
100
AcDbLine
 10
984.5583611205793
 20
658.7497181118769
 30
0.0
 11
984.5583611205793
 21
734.7497181118769
 31
0.0
  0
LINE
  5
172A
330
1F
100
AcDbEntity
  8
Hewi
100
AcDbLine
 10
997.5583611205793
 20
656.749718111877
 30
0.0
 11
997.5583611205793
 21
736.7497181118769
 31
0.0
  0
ARC
  5
172B
330
1F
100
AcDbEntity
  8
Hewi
100
AcDbCircle
 10
986.5583611205792
 20
658.7497181118769
 30
0.0
 40
2.0
100
AcDbArc
 50
180.0
 51
270.0
  0
ARC
  5
172C
330
1F
100
AcDbEntity
  8
Hewi
100
AcDbCircle
 10
986.5583611205792
 20
734.7497181118769
 30
0.0
 40
2.0
100
AcDbArc
 50
90.0
 51
180.0
  0
SPLINE
  5
172D
330
1F
100
AcDbEntity
  8
Hewi
100
AcDbSpline
210
0.0
220
0.0
230
1.0
 70
     8
 71
     3
 72
    14
 73
    10
 74
     0
 42
0.0000000001
 43
0.0000000001
 40
0.0
 40
0.0
 40
0.0
 40
0.0
 40
0.2434300440914431
 40
0.2434300440914431
 40
0.4956200293942956
 40
0.4956200293942956
 40
0.7478100146971479
 40
0.7478100146971479
 40
1.0
 40
1.0
 40
1.0
 40
1.0
 10
940.5580974709582
 20
705.7420442244283
 30
0.0
 10
940.5574097378696
 20
705.6439305272315
 30
0.0
 10
940.0094380348591
 20
704.6070485059853
 30
0.0
 10
938.7189485372793
 20
701.345265305582
 30
0.0
 10
938.0255298412658
 20
699.016386600716
 30
0.0
 10
938.0074525993832
 20
694.2050145497005
 30
0.0
 10
938.6966314905285
 20
691.8780821101054
 30
0.0
 10
940.0122589323718
 20
688.6711485962105
 30
0.0
 10
940.5867254152537
 20
687.6997795336892
 30
0.0
 10
940.5571375054561
 20
687.7517801148742
 30
0.0
  0
LINE
  5
1747
330
1F
100
AcDbEntity
  8
Hewi
100
AcDbLine
 10
940.5583611205793
 20
193.3976545307368
 30
0.0
 11
940.5583611205791
 21
763.7497181118768
 31
0.0
  0
LINE
  5
1749
330
1F
100
AcDbEntity
  8
Hewi
100
AcDbLine
 10
940.5583611205791
 20
280.2497181118769
 30
0.0
 11
940.5583611205791
 21
330.7497181118769
 31
0.0
  0
LINE
  5
174A
330
1F
100
AcDbEntity
  8
Hewi
100
AcDbLine
 10
940.5752639786069
 20
254.749718111877
 30
0.0
 11
984.5579665531539
 21
254.749718111877
 31
0.0
  0
LINE
  5
174B
330
1F
100
AcDbEntity
  8
Hewi
100
AcDbLine
 10
984.5579619396877
 20
272.749718111877
 30
0.0
 11
940.5589914589208
 21
272.749718111877
 31
0.0
  0
LINE
  5
174C
330
1F
100
AcDbEntity
  8
Hewi
100
AcDbLine
 10
986.5583611205792
 20
223.749718111877
 30
0.0
 11
997.5583611205792
 21
223.749718111877
 31
0.0
  0
LINE
  5
174D
330
1F
100
AcDbEntity
  8
Hewi
100
AcDbLine
 10
997.5583611205792
 20
303.749718111877
 30
0.0
 11
986.5583611205792
 21
303.749718111877
 31
0.0
  0
LINE
  5
174E
330
1F
100
AcDbEntity
  8
Hewi
100
AcDbLine
 10
984.5583611205793
 20
225.749718111877
 30
0.0
 11
984.5583611205793
 21
301.749718111877
 31
0.0
  0
LINE
  5
174F
330
1F
100
AcDbEntity
  8
Hewi
100
AcDbLine
 10
997.5583611205792
 20
223.749718111877
 30
0.0
 11
997.5583611205792
 21
303.749718111877
 31
0.0
  0
ARC
  5
1750
330
1F
100
AcDbEntity
  8
Hewi
100
AcDbCircle
 10
986.5583611205792
 20
225.749718111877
 30
0.0
 40
2.0
100
AcDbArc
 50
180.0
 51
270.0
  0
ARC
  5
1751
330
1F
100
AcDbEntity
  8
Hewi
100
AcDbCircle
 10
986.5583611205792
 20
301.749718111877
 30
0.0
 40
2.0
100
AcDbArc
 50
90.0
 51
180.0
  0
SPLINE
  5
1752
330
1F
100
AcDbEntity
  8
Hewi
100
AcDbSpline
210
0.0
220
0.0
230
1.0
 70
     8
 71
     3
 72
    14
 73
    10
 74
     0
 42
0.0000000001
 43
0.0000000001
 40
0.0
 40
0.0
 40
0.0
 40
0.0
 40
0.2434300440914431
 40
0.2434300440914431
 40
0.4956200293942956
 40
0.4956200293942956
 40
0.7478100146971479
 40
0.7478100146971479
 40
1.0
 40
1.0
 40
1.0
 40
1.0
 10
940.5580974709581
 20
272.7420442244284
 30
0.0
 10
940.5574097378694
 20
272.6439305272315
 30
0.0
 10
940.0094380348591
 20
271.6070485059854
 30
0.0
 10
938.7189485372793
 20
268.345265305582
 30
0.0
 10
938.0255298412656
 20
266.016386600716
 30
0.0
 10
938.0074525993832
 20
261.2050145497005
 30
0.0
 10
938.6966314905283
 20
258.8780821101054
 30
0.0
 10
940.0122589323718
 20
255.6711485962105
 30
0.0
 10
940.5867254152537
 20
254.6997795336892
 30
0.0
 10
940.5571375054561
 20
254.7517801148742
 30
0.0
  0
ARC
  5
180A
330
1F
100
AcDbEntity
  8
Hewi
100
AcDbCircle
 10
808.5583611205793
 20
1158.99933736742
 30
0.0
 40
40.0
100
AcDbArc
 50
24.36197793997992
 51
155.63802206002
  0
LINE
  5
1856
330
1F
100
AcDbEntity
  8
Hewi
100
AcDbLine
 10
1285.836994244903
 20
1175.49933736742
 30
0.0000000000000134
 11
1885.255717839717
 21
1175.49933736742
 31
0.0
  0
LINE
  5
1857
330
1F
100
AcDbEntity
  8
Hewi
100
AcDbLine
 10
1285.836994244903
 20
1142.499337367421
 30
0.0
 11
1885.255717839717
 21
1142.499337367421
 31
0.0
  0
ARC
  5
18B5
330
1F
100
AcDbEntity
  8
Hewi
100
AcDbCircle
 10
1401.336994244903
 20
1158.99933736742
 30
0.0
 40
40.0
100
AcDbArc
 50
204.3619779399811
 51
335.6380220600189
  0
ARC
  5
18B7
330
1F
100
AcDbEntity
  8
Hewi
100
AcDbCircle
 10
1834.336994244903
 20
1158.99933736742
 30
0.0
 40
40.0
100
AcDbArc
 50
204.3619779399811
 51
335.6380220600189
  0
LINE
  5
18B9
330
1F
100
AcDbEntity
  8
Hewi
100
AcDbLine
 10
1882.394083079215
 20
1142.499336405339
 30
-0.0000000000000092
 11
1904.894083079215
 21
1142.499336405339
 31
-0.0000000000000113
  0
LINE
  5
18BA
330
1F
100
AcDbEntity
  8
Hewi
100
AcDbLine
 10
1904.894083079215
 20
1175.499336405339
 30
-0.0000000000000093
 11
1882.394083079215
 21
1175.499336405339
 31
-0.0000000000000072
  0
LINE
  5
18BB
330
1F
100
AcDbEntity
  8
Hewi
100
AcDbLine
 10
1946.259829778634
 20
1142.499336405339
 30
0.0000000000000087
 11
1962.169732355325
 21
1142.499336405339
 31
-0.000000000000001
  0
LINE
  5
18BC
330
1F
100
AcDbEntity
  8
Hewi
100
AcDbLine
 10
1962.169732355325
 20
1175.499336405339
 30
0.000000000000001
 11
1946.259829778634
 21
1175.499336405339
 31
0.0000000000000108
  0
LINE
  5
18BD
330
1F
100
AcDbEntity
  8
Hewi
100
AcDbLine
 10
1904.894083079215
 20
1142.499336405339
 30
-0.0000000000000113
 11
1946.259829778634
 21
1142.499336405339
 31
0.0000000000000087
  0
LINE
  5
18BE
330
1F
100
AcDbEntity
  8
Hewi
100
AcDbLine
 10
1946.259829778634
 20
1175.499336405339
 30
0.0000000000000108
 11
1904.894083079215
 21
1175.499336405339
 31
-0.0000000000000093
  0
LINE
  5
18BF
330
1F
100
AcDbEntity
  8
Hewi
100
AcDbLine
 10
1881.895985730169
 20
1142.999336405339
 30
-0.0000000000000098
 11
1881.895985730169
 21
1174.999336405339
 31
-0.0000000000000078
  0
LINE
  5
18C0
330
1F
100
AcDbEntity
  8
Hewi
100
AcDbLine
 10
1904.894083079215
 20
1142.499336405339
 30
-0.0000000000000113
 11
1904.894083079215
 21
1142.499336405339
 31
-0.0000000000000113
  0
LINE
  5
18C1
330
1F
100
AcDbEntity
  8
Hewi
100
AcDbLine
 10
1881.894083079215
 20
1174.999336405339
 30
-0.0000000000000078
 11
1881.894083079215
 21
1142.999336405339
 31
-0.0000000000000098
  0
ARC
  5
18C2
330
1F
100
AcDbEntity
  8
Hewi
100
AcDbCircle
 10
1882.394083079215
 20
1142.999336405339
 30
0.0000000000002466
 40
0.5
100
AcDbArc
 50
183.5349391366616
 51
270.0
  0
ARC
  5
18C3
330
1F
100
AcDbEntity
  8
Hewi
100
AcDbCircle
 10
1882.394083079215
 20
1174.999336405339
 30
0.0000000000002486
 40
0.5
100
AcDbArc
 50
90.0
 51
176.4650608633384
  0
ARC
  5
18C4
330
1F
100
AcDbEntity
  8
Hewi
100
AcDbCircle
 10
1881.39598573017
 20
1174.999336405339
 30
0.0000000000002474
 40
0.5
100
AcDbArc
 50
3.53493913666162
 51
90.0
  0
ARC
  5
18C5
330
1F
100
AcDbEntity
  8
Hewi
100
AcDbCircle
 10
1881.39598573017
 20
1142.999336405339
 30
0.0000000000002454
 40
0.5
100
AcDbArc
 50
270.0
 51
356.4650608633384
  0
ELLIPSE
  5
18C6
330
1F
100
AcDbEntity
  8
Hewi
100
AcDbEllipse
 10
1962.169732355325
 20
1158.999336405339
 30
0.0
 11
-0.000000000000002
 21
-16.5
 31
0.0
210
0.0
220
0.0
230
1.0
 40
0.7071067811865463
 41
0.0
 42
3.141592818617971
  0
ELLIPSE
  5
18C7
330
1F
100
AcDbEntity
  8
Hewi
100
AcDbEllipse
 10
1962.523285745922
 20
1158.999336405339
 30
0.0000000000000004
 11
-0.000000000000002
 21
-16.5
 31
0.0
210
0.0
220
0.0
230
1.0
 40
0.7071067811865466
 41
6.267968099393152
 42
6.283185307179585
  0
ARC
  5
18C9
330
1F
100
AcDbEntity
  8
Hewi
100
AcDbCircle
 10
1401.336994244903
 20
1158.99933736742
 30
0.0
 40
40.0
100
AcDbArc
 50
24.36197793998113
 51
155.6380220600188
  0
ARC
  5
18CA
330
1F
100
AcDbEntity
  8
Hewi
100
AcDbCircle
 10
1834.336994244903
 20
1158.99933736742
 30
0.0
 40
40.0
100
AcDbArc
 50
24.36197793998113
 51
155.6380220600188
  0
LINE
  5
1D47
330
1F
100
AcDbEntity
  8
Hewi
100
AcDbLine
 10
327.7062975394392
 20
795.7497181118768
 30
0.0
 11
305.2062975394392
 21
795.7497181118768
 31
0.0
  0
LINE
  5
1D48
330
1F
100
AcDbEntity
  8
Hewi
100
AcDbLine
 10
305.2062975394392
 20
828.7497181118768
 30
0.0
 11
327.7062975394392
 21
828.7497181118768
 31
0.0
  0
LINE
  5
1D49
330
1F
100
AcDbEntity
  8
Hewi
100
AcDbLine
 10
252.1732889504374
 20
817.7167095228897
 30
0.0
 11
236.2633863737453
 21
833.6266120995961
 31
0.0
  0
LINE
  5
1D4A
330
1F
100
AcDbEntity
  8
Hewi
100
AcDbLine
 10
259.5979101528962
 20
856.961135878747
 30
0.0
 11
275.5078127296022
 21
841.0512333020406
 31
0.0
  0
LINE
  5
1D4B
330
1F
100
AcDbEntity
  8
Hewi
100
AcDbLine
 10
328.2043948884843
 20
796.2497181118768
 30
0.0
 11
328.2043948884843
 21
828.2497181118769
 31
0.0
  0
LINE
  5
1D4C
330
1F
100
AcDbEntity
  8
Hewi
100
AcDbLine
 10
305.2062975394392
 20
795.7497181118768
 30
0.0
 11
305.2062975394392
 21
795.7497181118768
 31
0.0
  0
LINE
  5
1D4D
330
1F
100
AcDbEntity
  8
Hewi
100
AcDbLine
 10
328.2062975394392
 20
812.2497181118768
 30
0.0
 11
328.2062975394392
 21
828.2497161842284
 31
0.0
  0
LINE
  5
1D4E
330
1F
100
AcDbEntity
  8
Hewi
100
AcDbLine
 10
328.2062975394392
 20
812.2497181118768
 30
0.0
 11
328.2062975394392
 21
828.2497181118769
 31
0.0
  0
LINE
  5
1D4F
330
1F
100
AcDbEntity
  8
Hewi
100
AcDbLine
 10
259.2443567623143
 20
857.3146892693429
 30
0.0
 11
259.2443567623143
 21
857.3146892693429
 31
0.0
  0
ARC
  5
1D50
330
1F
100
AcDbEntity
  8
Hewi
100
AcDbCircle
 10
327.7062975394392
 20
796.2497181118768
 30
0.0
 40
0.5
100
AcDbArc
 50
270.0
 51
356.4650608633384
  0
ARC
  5
1D51
330
1F
100
AcDbEntity
  8
Hewi
100
AcDbCircle
 10
327.7062975394392
 20
828.2497181118769
 30
0.0
 40
0.5
100
AcDbArc
 50
3.534939136661619
 51
90.0
  0
ARC
  5
1D52
330
1F
100
AcDbEntity
  8
Hewi
100
AcDbCircle
 10
-305.2062975394392
 20
870.7497181118768
 30
0.0
 40
42.00000000000001
210
0.0
220
0.0
230
-1.0
100
AcDbArc
 50
270.0
 51
315.0000000000642
  0
ARC
  5
1D53
330
1F
100
AcDbEntity
  8
Hewi
100
AcDbCircle
 10
305.2062975394392
 20
870.7497181118768
 30
0.0
 40
75.00000000000001
100
AcDbArc
 50
224.9999999999357
 51
270.0
  0
ARC
  5
1D54
330
1F
100
AcDbEntity
  8
Hewi
100
AcDbCircle
 10
259.2443567623004
 20
856.607582488151
 30
0.0
 40
0.5
100
AcDbArc
 50
44.99999999993574
 51
135.0000000000642
  0
ARC
  5
1D55
330
1F
100
AcDbEntity
  8
Hewi
100
AcDbCircle
 10
236.6169397643414
 20
833.9801654901775
 30
0.0
 40
0.5
100
AcDbArc
 50
135.0000000000642
 51
224.9999999999357
  0
ARC
  5
1D56
330
1F
100
AcDbEntity
  8
Hewi
100
AcDbCircle
 10
236.7583611205794
 20
834.8286936276082
 30
0.0
 40
1.199999999999999
100
AcDbArc
 50
142.813713227797
 51
224.9999999999357
  0
ARC
  5
1D57
330
1F
100
AcDbEntity
  8
Hewi
100
AcDbCircle
 10
258.3958286248844
 20
856.4661611319126
 30
0.0
 40
1.199999999999999
100
AcDbArc
 50
44.99999999993574
 51
127.1862867719065
  0
ARC
  5
1D58
330
1F
100
AcDbEntity
  8
Hewi
100
AcDbCircle
 10
330.19955311483
 20
761.8212185867844
 30
0.0
 40
120.0
100
AcDbArc
 50
127.1862867719065
 51
134.5935879936767
  0
ARC
  5
1D59
330
1F
100
AcDbEntity
  8
Hewi
100
AcDbCircle
 10
331.4033036657079
 20
763.0249691376623
 30
0.0
 40
120.0
100
AcDbArc
 50
135.4064120064883
 51
142.813713227797
  0
ARC
  5
1D5A
330
1F
100
AcDbEntity
  8
Hewi
100
AcDbCircle
 10
328.7043948884843
 20
828.2497181118769
 30
0.0
 40
0.5
100
AcDbArc
 50
90.0
 51
176.4650608633384
  0
ARC
  5
1D5B
330
1F
100
AcDbEntity
  8
Hewi
100
AcDbCircle
 10
328.7043948884843
 20
796.2497181118768
 30
0.0
 40
0.5
100
AcDbArc
 50
183.5349391366616
 51
270.0
  0
LINE
  5
1D5C
330
1F
100
AcDbEntity
  8
Hewi
100
AcDbLine
 10
392.0583611205792
 20
828.7497181118768
 30
0.0
 11
442.5583611205792
 21
828.7497181118768
 31
0.0
  0
LINE
  5
1D5D
330
1F
100
AcDbEntity
  8
Hewi
100
AcDbLine
 10
366.5583611205793
 20
828.7666209699045
 30
0.0
 11
366.5583611205793
 21
872.7493235444518
 31
0.0
  0
LINE
  5
1D5E
330
1F
100
AcDbEntity
  8
Hewi
100
AcDbLine
 10
384.5583611205793
 20
872.7493189309855
 30
0.0
 11
384.5583611205793
 21
828.7503484502185
 31
0.0
  0
LINE
  5
1D5F
330
1F
100
AcDbEntity
  8
Hewi
100
AcDbLine
 10
335.5583611205793
 20
874.749718111877
 30
0.0
 11
335.5583611205793
 21
885.749718111877
 31
0.0
  0
LINE
  5
1D60
330
1F
100
AcDbEntity
  8
Hewi
100
AcDbLine
 10
415.5583611205793
 20
885.749718111877
 30
0.0
 11
415.5583611205793
 21
874.749718111877
 31
0.0
  0
LINE
  5
1D61
330
1F
100
AcDbEntity
  8
Hewi
100
AcDbLine
 10
337.5583611205793
 20
872.7497181118769
 30
0.0
 11
413.5583611205793
 21
872.7497181118769
 31
0.0
  0
LINE
  5
1D62
330
1F
100
AcDbEntity
  8
Hewi
100
AcDbLine
 10
335.5583611205793
 20
885.749718111877
 30
0.0
 11
415.5583611205793
 21
885.749718111877
 31
0.0
  0
ARC
  5
1D63
330
1F
100
AcDbEntity
  8
Hewi
100
AcDbCircle
 10
337.5583611205793
 20
874.749718111877
 30
0.0
 40
2.0
100
AcDbArc
 50
180.0
 51
270.0
  0
ARC
  5
1D64
330
1F
100
AcDbEntity
  8
Hewi
100
AcDbCircle
 10
413.5583611205793
 20
874.749718111877
 30
0.0
 40
2.0
100
AcDbArc
 50
270.0
 51
0.0
  0
SPLINE
  5
1D65
330
1F
100
AcDbEntity
  8
Hewi
100
AcDbSpline
210
0.0
220
0.0
230
1.0
 70
     8
 71
     3
 72
    14
 73
    10
 74
     0
 42
0.0000000001
 43
0.0000000001
 40
0.0
 40
0.0
 40
0.0
 40
0.0
 40
0.2434300440914431
 40
0.2434300440914431
 40
0.4956200293942956
 40
0.4956200293942956
 40
0.7478100146971479
 40
0.7478100146971479
 40
1.0
 40
1.0
 40
1.0
 40
1.0
 10
384.5506872331307
 20
828.7494544622559
 30
0.0
 10
384.4525735359339
 20
828.7487667291673
 30
0.0
 10
383.4156915146877
 20
828.2007950261569
 30
0.0
 10
380.1539083142843
 20
826.910305528577
 30
0.0
 10
377.8250296094184
 20
826.2168868325634
 30
0.0
 10
373.0136575584029
 20
826.1988095906808
 30
0.0
 10
370.6867251188078
 20
826.8879884818261
 30
0.0
 10
367.4797916049129
 20
828.2036159236694
 30
0.0
 10
366.5084225423916
 20
828.7780824065514
 30
0.0
 10
366.5604231235766
 20
828.7484944967539
 30
0.0
  0
LINE
  5
1D68
330
1F
100
AcDbEntity
  8
Hewi
100
AcDbLine
 10
328.7043948884843
 20
828.7497181118768
 30
0.0
 11
366.5583611205793
 21
828.7666209699045
 31
0.0
  0
LINE
  5
1D6A
330
1F
100
AcDbEntity
  8
Hewi
100
AcDbLine
 10
496.9245547938283
 20
828.7495258524968
 30
0.0
 11
384.5506872331307
 21
828.7494544622559
 31
0.0
  0
LINE
  5
1D6B
330
1F
100
AcDbEntity
  8
Hewi
100
AcDbLine
 10
490.8550132392674
 20
795.7497181118768
 30
0.0
 11
874.5602637715341
 21
795.7497181118768
 31
0.0
  0
ARC
  5
1DC5
330
1F
100
AcDbEntity
  8
Hewi
100
AcDbCircle
 10
375.0583611205791
 20
1158.99933736742
 30
0.0
 40
40.0
100
AcDbArc
 50
24.36197793997393
 51
155.6380220600261
  0
ARC
  5
1DC6
330
1F
100
AcDbEntity
  8
Hewi
100
AcDbCircle
 10
375.0583611205791
 20
1158.99933736742
 30
0.0
 40
40.0
100
AcDbArc
 50
204.3619779399739
 51
335.638022060026
  0
LINE
  5
1DC7
330
1F
100
AcDbEntity
  8
Hewi
100
AcDbLine
 10
327.0012722862682
 20
1175.499338329501
 30
-0.0000000000000092
 11
304.5012722862683
 21
1175.499338329501
 31
-0.0000000000000113
  0
LINE
  5
1DC8
330
1F
100
AcDbEntity
  8
Hewi
100
AcDbLine
 10
304.5012722862683
 20
1142.499338329501
 30
-0.0000000000000093
 11
327.0012722862682
 21
1142.499338329501
 31
-0.0000000000000072
  0
LINE
  5
1DC9
330
1F
100
AcDbEntity
  8
Hewi
100
AcDbLine
 10
263.1355255868482
 20
1175.499338329501
 30
0.0000000000000087
 11
247.2256230101574
 21
1175.499338329501
 31
-0.000000000000001
  0
LINE
  5
1DCA
330
1F
100
AcDbEntity
  8
Hewi
100
AcDbLine
 10
247.2256230101573
 20
1142.499338329501
 30
0.000000000000001
 11
263.1355255868482
 21
1142.499338329501
 31
0.0000000000000108
  0
LINE
  5
1DCB
330
1F
100
AcDbEntity
  8
Hewi
100
AcDbLine
 10
304.5012722862683
 20
1175.499338329501
 30
-0.0000000000000113
 11
263.1355255868482
 21
1175.499338329501
 31
0.0000000000000087
  0
LINE
  5
1DCC
330
1F
100
AcDbEntity
  8
Hewi
100
AcDbLine
 10
263.1355255868482
 20
1142.499338329501
 30
0.0000000000000108
 11
304.5012722862683
 21
1142.499338329501
 31
-0.0000000000000093
  0
LINE
  5
1DCD
330
1F
100
AcDbEntity
  8
Hewi
100
AcDbLine
 10
327.4993696353134
 20
1174.999338329501
 30
-0.0000000000000098
 11
327.4993696353134
 21
1142.999338329501
 31
-0.0000000000000078
  0
LINE
  5
1DCE
330
1F
100
AcDbEntity
  8
Hewi
100
AcDbLine
 10
304.5012722862683
 20
1175.499338329501
 30
-0.0000000000000113
 11
304.5012722862683
 21
1175.499338329501
 31
-0.0000000000000113
  0
LINE
  5
1DCF
330
1F
100
AcDbEntity
  8
Hewi
100
AcDbLine
 10
327.5012722862683
 20
1142.999338329501
 30
-0.0000000000000078
 11
327.5012722862683
 21
1174.999338329501
 31
-0.0000000000000098
  0
ARC
  5
1DD0
330
1F
100
AcDbEntity
  8
Hewi
100
AcDbCircle
 10
327.0012722862682
 20
1174.999338329501
 30
0.0000000000002466
 40
0.5
100
AcDbArc
 50
3.534939136661567
 51
90.0
  0
ARC
  5
1DD1
330
1F
100
AcDbEntity
  8
Hewi
100
AcDbCircle
 10
327.0012722862682
 20
1142.999338329501
 30
0.0000000000002486
 40
0.5
100
AcDbArc
 50
270.0
 51
356.4650608633385
  0
ARC
  5
1DD2
330
1F
100
AcDbEntity
  8
Hewi
100
AcDbCircle
 10
327.9993696353134
 20
1142.999338329501
 30
0.0000000000002474
 40
0.5
100
AcDbArc
 50
183.5349391366615
 51
270.0
  0
ARC
  5
1DD3
330
1F
100
AcDbEntity
  8
Hewi
100
AcDbCircle
 10
327.9993696353134
 20
1174.999338329501
 30
0.0000000000002454
 40
0.5
100
AcDbArc
 50
90.0
 51
176.4650608633384
  0
ELLIPSE
  5
1DD4
330
1F
100
AcDbEntity
  8
Hewi
100
AcDbEllipse
 10
247.2256230101574
 20
1158.999338329501
 30
0.0
 11
0.000000000000004
 21
16.5
 31
0.0
210
0.0
220
0.0
230
1.0
 40
0.7071067811865463
 41
0.0
 42
3.141592818617971
  0
ELLIPSE
  5
1DD5
330
1F
100
AcDbEntity
  8
Hewi
100
AcDbEllipse
 10
246.8720696195613
 20
1158.999338329501
 30
0.0000000000000004
 11
0.000000000000004
 21
16.5
 31
0.0
210
0.0
220
0.0
230
1.0
 40
0.7071067811865466
 41
6.267968099393152
 42
6.283185307179585
  0
LINE
  5
1DD6
330
1F
100
AcDbEntity
  8
Hewi
100
AcDbLine
 10
1268.702740944308
 20
1175.49933736742
 30
0.000000000000005
 11
1252.792838367616
 21
1175.49933736742
 31
0.0000000000000237
  0
LINE
  5
1DD7
330
1F
100
AcDbEntity
  8
Hewi
100
AcDbLine
 10
1252.792838367616
 20
1142.499337367421
 30
0.0000000000000257
 11
1268.702740944308
 21
1142.499337367421
 31
0.0000000000000071
  0
LINE
  5
1DD8
330
1F
100
AcDbEntity
  8
Hewi
100
AcDbLine
 10
1223.336994244903
 20
1198.99933736742
 30
-0.0000000000000002
 11
1219.191430133051
 21
1198.99933736742
 31
0.0000000000000047
  0
LINE
  5
1DD9
330
1F
100
AcDbEntity
  8
Hewi
100
AcDbLine
 10
1242.660536065113
 20
1167.99933736742
 30
0.0000000000000027
 11
1225.337706652787
 21
1167.99933736742
 31
0.0000000000000034
  0
LINE
  5
1DDA
330
1F
100
AcDbEntity
  8
Hewi
100
AcDbLine
 10
1225.33775252495
 20
1149.999337367421
 30
0.0000000000000046
 11
1242.661036076414
 21
1149.999337367421
 31
0.0000000000000039
  0
LINE
  5
1DDB
330
1F
100
AcDbEntity
  8
Hewi
100
AcDbLine
 10
1285.836994244903
 20
1175.49933736742
 30
0.0000000000000134
 11
1268.702740944308
 21
1175.49933736742
 31
0.000000000000005
  0
LINE
  5
1DDC
330
1F
100
AcDbEntity
  8
Hewi
100
AcDbLine
 10
1268.702740944308
 20
1142.499337367421
 30
0.0000000000000071
 11
1285.836994244903
 21
1142.499337367421
 31
0.0000000000000154
  0
LINE
  5
1DDD
330
1F
100
AcDbEntity
  8
Hewi
100
AcDbLine
 10
1225.336994244903
 20
1120.999337367421
 30
0.0000000000000023
 11
1225.336994244903
 21
1196.999337367421
 31
-0.0000000000000023
  0
ARC
  5
1DDE
330
1F
100
AcDbEntity
  8
Hewi
100
AcDbCircle
 10
1223.336994244903
 20
1196.999337367421
 30
-0.0000000000001706
 40
2.0
100
AcDbArc
 50
0.0
 51
90.0
  0
ARC
  5
1DDF
330
1F
100
AcDbEntity
  8
Hewi
100
AcDbCircle
 10
1223.336994244903
 20
1120.999337367421
 30
-0.0000000000001659
 40
2.0
100
AcDbArc
 50
270.0
 51
0.0
  0
ARC
  5
1DE0
330
1F
100
AcDbEntity
  8
Hewi
100
AcDbCircle
 10
-1285.836994244903
 20
1158.999337367421
 30
0.0000000000002415
 40
16.5
210
0.0
220
0.0
230
-1.0
100
AcDbArc
 50
89.99999788891125
 51
180.0
  0
ARC
  5
1DE1
330
1F
100
AcDbEntity
  8
Hewi
100
AcDbCircle
 10
-1285.836994244903
 20
1158.999337367421
 30
0.0000000000002415
 40
16.5
210
0.0
220
0.0
230
-1.0
100
AcDbArc
 50
180.0
 51
270.0000021110887
  0
ARC
  5
1DE2
330
1F
100
AcDbEntity
  8
Hewi
100
AcDbCircle
 10
1285.836994244903
 20
1158.999337367421
 30
-0.0000000000002415
 40
16.5
100
AcDbArc
 50
270.0
 51
90.00000422134371
  0
ELLIPSE
  5
1DE3
330
1F
100
AcDbEntity
  8
Hewi
100
AcDbEllipse
 10
1268.702740944308
 20
1158.999337367421
 30
0.0000000000000061
 11
-0.0000000000000071
 21
-16.5
 31
0.0
210
0.0
220
0.0
230
1.0
 40
0.7071067811865485
 41
0.0
 42
3.141592818617966
  0
ELLIPSE
  5
1DE4
330
1F
100
AcDbEntity
  8
Hewi
100
AcDbEllipse
 10
1251.59863514351
 20
1158.999337367421
 30
0.0000000000000261
 11
0.0000000000000066
 21
15.46314323411495
 31
0.0
210
0.0
220
0.0
230
1.0
 40
0.7071067811865487
 41
0.0
 42
6.283185307179585
  0
ELLIPSE
  5
1DE5
330
1F
100
AcDbEntity
  8
Hewi
100
AcDbEllipse
 10
1252.43928497702
 20
1158.999337367421
 30
0.0000000000000251
 11
0.0000000000000071
 21
16.5
 31
0.0
210
0.0
220
0.0
230
1.0
 40
0.7071067811865485
 41
2.064124468782268
 42
6.283185307179585
  0
ELLIPSE
  5
1DE6
330
1F
100
AcDbEntity
  8
Hewi
100
AcDbEllipse
 10
1252.43928497702
 20
1158.999337367421
 30
0.0000000000000251
 11
0.0000000000000071
 21
16.5
 31
0.0
210
0.0
220
0.0
230
1.0
 40
0.7071067811865485
 41
0.0
 42
1.077566468341812
  0
ELLIPSE
  5
1DE7
330
1F
100
AcDbEntity
  8
Hewi
100
AcDbEllipse
 10
1216.336994244903
 20
1198.990172909629
 30
0.000000000000008
 11
1.73205
 21
-0.0000000000000007
 31
0.0
210
0.0
220
0.0
230
1.0
 40
0.0214049152598428
 41
5.627783360602745
 42
6.674982526938742
  0
SPLINE
  5
1DE8
330
1F
100
AcDbEntity
  8
Hewi
100
AcDbSpline
210
-0.0000000000000004
220
0.0000000000000423
230
1.0
 70
     8
 71
     3
 72
    10
 73
     6
 74
     0
 42
0.0000000001
 43
0.0000000001
 40
0.0
 40
0.0
 40
0.0
 40
0.0
 40
0.5130136982945209
 40
0.5130136982945209
 40
1.0
 40
1.0
 40
1.0
 40
1.0
 10
1219.336994244903
 20
1198.990149265371
 30
0.0000000000000046
 10
1219.336994244903
 20
1198.997348838222
 30
0.0000000000000046
 10
1219.279195663749
 20
1199.000178732936
 30
0.0000000000000046
 10
1219.063286004018
 20
1198.998092739375
 30
0.0000000000000049
 10
1218.907676807311
 20
1198.993591938588
 30
0.000000000000005
 10
1218.713405800427
 20
1198.987444637327
 30
0.0000000000000053
  0
LINE
  5
1DE9
330
1F
100
AcDbEntity
  8
Hewi
100
AcDbLine
 10
907.5583611205791
 20
763.7497181118768
 30
0.0
 11
940.5583611205791
 21
763.7497181118768
 31
0.0
  0
ARC
  5
1E62
330
1F
100
AcDbEntity
  8
Hewi
100
AcDbCircle
 10
808.5583611205793
 20
1158.99933736742
 30
0.0
 40
40.0
100
AcDbArc
 50
204.3619779399799
 51
335.6380220600201
  0
LWPOLYLINE
  5
1E63
330
1F
100
AcDbEntity
  8
Hewi
100
AcDbPolyline
 90
        4
 70
     0
 43
0.0
 10
941.1926144211747
 20
1175.499338329501
 10
327.5012722862683
 20
1175.499338329501
 10
327.5012722862683
 20
1142.499338329501
 10
941.1926144211747
 20
1142.499338329501
  0
ENDSEC
  0
SECTION
  2
OBJECTS
  0
DICTIONARY
  5
C
330
0
100
AcDbDictionary
281
     1
  3
ACAD_COLOR
350
6B
  3
ACAD_GROUP
350
D
  3
ACAD_LAYOUT
350
1A
  3
ACAD_MATERIAL
350
6A
  3
ACAD_MLINESTYLE
350
17
  3
ACAD_PLOTSETTINGS
350
19
  3
ACAD_PLOTSTYLENAME
350
E
  3
ACAD_TABLESTYLE
350
7E
  3
ACAD_VISUALSTYLE
350
EF
  3
AcDbVariableDictionary
350
5E
  3
DWGPROPS
350
1E65
  0
DICTIONARY
  5
141
330
2
100
AcDbDictionary
280
     1
281
     1
  3
ACAD_LAYERSTATES
360
142
  0
DICTIONARY
  5
116
330
1F
100
AcDbDictionary
280
     1
281
     1
  3
ACAD_SORTENTS
360
117
  0
DICTIONARY
  5
6B
102
{ACAD_REACTORS
330
C
102
}
330
C
100
AcDbDictionary
281
     1
  0
DICTIONARY
  5
D
102
{ACAD_REACTORS
330
C
102
}
330
C
100
AcDbDictionary
281
     1
  0
DICTIONARY
  5
1A
102
{ACAD_REACTORS
330
C
102
}
330
C
100
AcDbDictionary
281
     1
  3
Layout1
350
D3
  3
Layout2
350
D7
  3
Model
350
22
  0
DICTIONARY
  5
6A
102
{ACAD_REACTORS
330
C
102
}
330
C
100
AcDbDictionary
281
     1
  3
ByBlock
350
ED
  3
ByLayer
350
EC
  3
Global
350
EE
  0
DICTIONARY
  5
17
102
{ACAD_REACTORS
330
C
102
}
330
C
100
AcDbDictionary
281
     1
  3
Standard
350
18
  0
DICTIONARY
  5
19
102
{ACAD_REACTORS
330
C
102
}
330
C
100
AcDbDictionary
281
     1
  0
ACDBDICTIONARYWDFLT
  5
E
102
{ACAD_REACTORS
330
C
102
}
330
C
100
AcDbDictionary
281
     1
  3
Normal
350
F
100
AcDbDictionaryWithDefault
340
F
  0
DICTIONARY
  5
7E
102
{ACAD_REACTORS
330
C
102
}
330
C
100
AcDbDictionary
281
     1
  3
Standard
350
7F
  0
DICTIONARY
  5
EF
102
{ACAD_REACTORS
330
C
102
}
330
C
100
AcDbDictionary
281
     1
  3
2dWireframe
350
F5
  3
3D Hidden
350
F7
  3
3dWireframe
350
F6
  3
Basic
350
F4
  3
Brighten
350
FB
  3
ColorChange
350
FF
  3
Conceptual
350
F8
  3
Dim
350
FA
  3
Facepattern
350
FE
  3
Flat
350
F0
  3
FlatWithEdges
350
F1
  3
Gouraud
350
F2
  3
GouraudWithEdges
350
F3
  3
Linepattern
350
FD
  3
Realistic
350
F9
  3
Thicken
350
FC
  0
DICTIONARY
  5
5E
102
{ACAD_REACTORS
330
C
102
}
330
C
100
AcDbDictionary
281
     1
  3
CTABLESTYLE
350
84
  3
DIMASSOC
350
5F
  3
HIDETEXT
350
63
  3
INDEXCTL
350
327
  3
PSOLHEIGHT
350
11E4
  3
PSOLWIDTH
350
11E3
  3
SORTENTS
350
326
  0
XRECORD
  5
1E65
102
{ACAD_REACTORS
330
C
102
}
330
C
100
AcDbXrecord
280
     1
  1
DWGPROPS COOKIE
  2

  3

  4

  6

  7

  8
kaschu
  9

300
=
301
=
302
=
303
=
304
=
305
=
306
=
307
=
308
=
309
=
 40
0.1260868981481481
 41
2454768.510881991
 42
2455609.665978704
  1

 90
        0
  0
DICTIONARY
  5
142
102
{ACAD_REACTORS
330
141
102
}
330
141
100
AcDbDictionary
281
     1
  0
SORTENTSTABLE
  5
117
102
{ACAD_REACTORS
330
116
102
}
330
116
100
AcDbSortentsTable
330
1F
331
1DCC
  5
1DCD
331
1140
  5
1153
331
18C7
  5
1D4C
331
1728
  5
174A
331
1D5D
  5
1D63
331
1747
  5
172C
331
112F
  5
1133
331
1476
  5
15D3
331
1DDD
  5
1DDE
331
116C
  5
1176
331
1DCA
  5
1DCB
331
18C5
  5
1B65
331
1726
  5
1748
331
1D5B
  5
1D61
331
10C1
  5
10CE
331
1856
  5
18B2
331
112D
  5
1130
331
1DDB
  5
1DDC
331
116A
  5
116D
331
1474
  5
147E
331
1DC8
  5
1DC9
331
1179
  5
117C
331
18C3
  5
1B63
331
1D59
  5
1D5F
331
1DD9
  5
1DDA
331
112B
  5
112E
331
10B6
  5
10C1
331
1D6A
  5
10BC
331
1DE8
  5
1DE9
331
18C1
  5
18CA
331
1722
  5
172D
331
1D57
  5
1D5D
331
1348
  5
1351
331
1DD7
  5
1DD8
331
1129
  5
112C
331
1470
  5
147B
331
1D68
  5
1DC5
331
1D4E
  5
1D54
331
10CE
  5
112A
331
1752
  5
1855
331
113A
  5
1141
331
1720
  5
172A
331
1D55
  5
1D5B
331
10BB
  5
10CB
331
1DD5
  5
1DD6
331
1D4C
  5
1D52
331
10CC
  5
1129
331
146E
  5
1479
331
1DE6
  5
1DE7
331
18BF
  5
18C7
331
1750
  5
180B
331
1D53
  5
1D59
331
1DD3
  5
1DD4
331
146C
  5
1477
331
1184
  5
1187
331
1D64
  5
1DA6
331
1D4A
  5
1D50
331
174E
  5
1809
331
147D
  5
1728
331
1DE4
  5
1DE5
331
18BD
  5
18C5
331
1377
  5
1389
331
1D51
  5
1D57
331
1E62
  5
185A
331
146A
  5
1474
331
1342
  5
1349
331
1DD1
  5
1DD2
331
172D
  5
174F
331
1D62
  5
1D68
331
1D48
  5
1D4E
331
1353
  5
135E
331
174C
  5
1753
331
1134
  5
113A
331
147B
  5
15D8
331
1DE2
  5
1DE3
331
18BB
  5
18C3
331
10AE
  5
10AE
331
1DCF
  5
1DD0
331
18CA
  5
18C0
331
172B
  5
174D
331
1D60
  5
1D66
331
1DE0
  5
1DE1
331
1DC6
  5
1DC7
331
18B9
  5
18C1
331
174A
  5
1751
331
1479
  5
15D6
331
1DCD
  5
1DCE
331
1141
  5
116A
331
1729
  5
174B
331
1D5E
  5
1D64
331
1130
  5
1134
331
1477
  5
15D4
331
1152
  5
116B
331
1DDE
  5
1DDF
331
18B7
  5
18BF
331
116D
  5
1178
331
1DCB
  5
1DCC
331
18C6
  5
1B66
331
1727
  5
1749
331
1D5C
  5
1D62
331
1857
  5
185E
331
112E
  5
1131
331
1475
  5
15D2
331
1DDC
  5
1DDD
331
18B5
  5
18BD
331
180A
  5
1858
331
116B
  5
116E
331
1DC9
  5
1DCA
331
117A
  5
117D
331
18C4
  5
1B64
331
1725
  5
1747
331
1D5A
  5
1D60
331
1DDA
  5
1DDB
331
112C
  5
112F
331
1473
  5
147D
331
1D6B
  5
10B5
331
1DE9
  5
1E62
331
1178
  5
117B
331
18C2
  5
1B62
331
1723
  5
172E
331
1D58
  5
1D5E
331
1DD8
  5
1DD9
331
112A
  5
112D
331
1471
  5
147C
331
10B5
  5
10B6
331
1D4F
  5
1D55
331
113B
  5
1152
331
10CF
  5
112B
331
18C0
  5
18C9
331
1721
  5
172B
331
1D56
  5
1D5C
331
10BC
  5
10CC
331
1DD6
  5
1DD7
331
1347
  5
1350
331
146F
  5
147A
331
1D4D
  5
1D53
331
1751
  5
1854
331
1DE7
  5
1DE8
331
1176
  5
117A
331
10B3
  5
10B3
331
1D54
  5
1D5A
331
1DD4
  5
1DD5
331
146D
  5
1478
331
1D65
  5
1DA7
331
1D4B
  5
1D51
331
10CB
  5
10CF
331
174F
  5
180A
331
1DE5
  5
1DE6
331
18BE
  5
18C6
331
147E
  5
1729
331
1D52
  5
1D58
331
146B
  5
1475
331
1DD2
  5
1DD3
331
1D63
  5
1D6B
331
1D49
  5
1D4F
331
174D
  5
17CE
331
147C
  5
1727
331
1DE3
  5
1DE4
331
18BC
  5
18C4
331
1376
  5
1383
331
1D50
  5
1D56
331
1469
  5
1473
331
1DD0
  5
1DD1
331
1341
  5
1348
331
172C
  5
174E
331
1D61
  5
1D67
331
1D47
  5
1D4D
331
1352
  5
135D
331
174B
  5
1752
331
1133
  5
1136
331
147A
  5
15D7
331
1DE1
  5
1DE2
331
1DC7
  5
1DC8
331
18BA
  5
18C2
331
10AD
  5
10AD
331
1DCE
  5
1DCF
331
18C9
  5
18BE
331
172A
  5
174C
331
1D5F
  5
1D65
331
1749
  5
1750
331
1131
  5
1135
331
1478
  5
15D5
331
1DC5
  5
1DC6
331
1DDF
  5
1DE0
331
116E
  5
1179
331
1153
  5
116C
  0
LAYOUT
  5
D3
102
{ACAD_XDICTIONARY
360
1E6A
102
}
102
{ACAD_REACTORS
330
1A
102
}
330
1A
100
AcDbPlotSettings
  1

  2
C:\Documents and Settings\basas\Application Data\Autodesk\AutoCAD 2005\R16.1\enu\plotters\Default Windows System Printer.pc3
  4

  6

 40
0.0
 41
0.0
 42
0.0
 43
0.0
 44
0.0
 45
0.0
 46
0.0
 47
0.0
 48
0.0
 49
0.0
140
0.0
141
0.0
142
1.0
143
1.0
 70
   688
 72
     0
 73
     0
 74
     5
  7

 75
    16
147
1.0
148
0.0
149
0.0
100
AcDbLayout
  1
Layout1
 70
     1
 71
     1
 10
0.0
 20
0.0
 11
12.0
 21
9.0
 12
0.0
 22
0.0
 32
0.0
 14
0.0
 24
0.0
 34
0.0
 15
0.0
 25
0.0
 35
0.0
146
0.0
 13
0.0
 23
0.0
 33
0.0
 16
1.0
 26
0.0
 36
0.0
 17
0.0
 27
1.0
 37
0.0
 76
     0
330
D2
  0
LAYOUT
  5
D7
102
{ACAD_XDICTIONARY
360
1E6C
102
}
102
{ACAD_REACTORS
330
1A
102
}
330
1A
100
AcDbPlotSettings
  1

  2
C:\Documents and Settings\basas\Application Data\Autodesk\AutoCAD 2005\R16.1\enu\plotters\Default Windows System Printer.pc3
  4

  6

 40
0.0
 41
0.0
 42
0.0
 43
0.0
 44
0.0
 45
0.0
 46
0.0
 47
0.0
 48
0.0
 49
0.0
140
0.0
141
0.0
142
1.0
143
1.0
 70
   688
 72
     0
 73
     0
 74
     5
  7

 75
    16
147
1.0
148
0.0
149
0.0
100
AcDbLayout
  1
Layout2
 70
     1
 71
     2
 10
0.0
 20
0.0
 11
12.0
 21
9.0
 12
0.0
 22
0.0
 32
0.0
 14
0.0
 24
0.0
 34
0.0
 15
0.0
 25
0.0
 35
0.0
146
0.0
 13
0.0
 23
0.0
 33
0.0
 16
1.0
 26
0.0
 36
0.0
 17
0.0
 27
1.0
 37
0.0
 76
     0
330
D6
  0
LAYOUT
  5
22
102
{ACAD_XDICTIONARY
360
1E66
102
}
102
{ACAD_REACTORS
330
1A
102
}
330
1A
100
AcDbPlotSettings
  1

  2
none_device
  4
ISO_A4_(210.00_x_297.00_MM)
  6

 40
7.5
 41
20.0
 42
7.5
 43
20.0
 44
210.0
 45
297.0
 46
11.54999923706054
 47
-13.65000009536743
 48
0.0
 49
0.0
140
0.0
141
0.0
142
1.0
143
8.704084754739808
 70
 11952
 72
     1
 73
     0
 74
     0
  7

 75
     0
147
0.1148885871608098
148
0.0
149
0.0
100
AcDbLayout
  1
Model
 70
     1
 71
     0
 10
0.0
 20
0.0
 11
12.0
 21
9.0
 12
0.0
 22
0.0
 32
0.0
 14
0.0
 24
0.0
 34
0.0
 15
0.0
 25
0.0
 35
0.0
146
0.0
 13
0.0
 23
0.0
 33
0.0
 16
1.0
 26
0.0
 36
0.0
 17
0.0
 27
1.0
 37
0.0
 76
     0
330
1F
331
EA
1001
ACAD_PSEXT
1000
None
1000
None
1000
Not applicable
1000
The layout will not be plotted unless a new plotter configuration name is selected.
1070
     0
  0
MATERIAL
  5
ED
102
{ACAD_XDICTIONARY
360
335
102
}
102
{ACAD_REACTORS
330
6A
102
}
330
6A
100
AcDbMaterial
  1
ByBlock
  0
MATERIAL
  5
EC
102
{ACAD_XDICTIONARY
360
333
102
}
102
{ACAD_REACTORS
330
6A
102
}
330
6A
100
AcDbMaterial
  1
ByLayer
  0
MATERIAL
  5
EE
102
{ACAD_XDICTIONARY
360
337
102
}
102
{ACAD_REACTORS
330
6A
102
}
330
6A
100
AcDbMaterial
  1
Global
  0
MLINESTYLE
  5
18
102
{ACAD_REACTORS
330
17
102
}
330
17
100
AcDbMlineStyle
  2
STANDARD
 70
     0
  3

 62
   256
 51
90.0
 52
90.0
 71
     2
 49
0.5
 62
   256
  6
BYLAYER
 49
-0.5
 62
   256
  6
BYLAYER
  0
ACDBPLACEHOLDER
  5
F
102
{ACAD_REACTORS
330
E
102
}
330
E
  0
TABLESTYLE
  5
7F
102
{ACAD_XDICTIONARY
360
1E68
102
}
102
{ACAD_REACTORS
330
7E
102
}
330
7E
100
AcDbTableStyle
  3
Standard
 70
     0
 71
     0
 40
1.5
 41
1.5
280
     0
281
     0
  7
Standard
140
4.5
170
     2
 62
     0
 63
     7
283
     0
274
    -2
284
     1
 64
     0
275
    -2
285
     1
 65
     0
276
    -2
286
     1
 66
     0
277
    -2
287
     1
 67
     0
278
    -2
288
     1
 68
     0
279
    -2
289
     1
 69
     0
  7
Standard
140
6.0
170
     5
 62
     0
 63
     7
283
     0
274
    -2
284
     1
 64
     0
275
    -2
285
     1
 65
     0
276
    -2
286
     1
 66
     0
277
    -2
287
     1
 67
     0
278
    -2
288
     1
 68
     0
279
    -2
289
     1
 69
     0
  7
Standard
140
4.5
170
     5
 62
     0
 63
     7
283
     0
274
    -2
284
     1
 64
     0
275
    -2
285
     1
 65
     0
276
    -2
286
     1
 66
     0
277
    -2
287
     1
 67
     0
278
    -2
288
     1
 68
     0
279
    -2
289
     1
 69
     0
  0
VISUALSTYLE
  5
F5
102
{ACAD_REACTORS
330
EF
102
}
330
EF
100
AcDbVisualStyle
  2
2dWireframe
 70
     4
 71
     0
 72
     2
 73
     1
 90
        0
 40
-0.6
 41
-30.0
 62
     5
 63
     7
 74
     1
 91
        4
 64
     7
 65
   257
 75
     1
175
     1
 42
1.0
 92
        0
 66
   257
 43
1.0
 76
     1
 77
     6
 78
     2
 67
     7
 79
     5
170
     0
171
     0
290
     0
174
     0
 93
        1
 44
0.0
173
     0
291
     0
 45
0.0
1001
ACAD
1000
AcDbSavedByObjectVersion
1070
     0
1000
AcDbSavedByObjectVersion
1070
     0
1000
AcDbSavedByObjectVersion
1070
     0
1000
AcDbSavedByObjectVersion
1070
     0
1000
AcDbSavedByObjectVersion
1070
     0
1000
AcDbSavedByObjectVersion
1070
     0
  0
VISUALSTYLE
  5
F7
102
{ACAD_REACTORS
330
EF
102
}
330
EF
100
AcDbVisualStyle
  2
3D Hidden
 70
     6
 71
     1
 72
     2
 73
     2
 90
        0
 40
-0.6
 41
-30.0
 62
     5
 63
     7
 74
     2
 91
        2
 64
     7
 65
   257
 75
     2
175
     1
 42
40.0
 92
        0
 66
   257
 43
1.0
 76
     1
 77
     6
 78
     2
 67
     7
 79
     3
170
     0
171
     0
290
     0
174
     0
 93
        1
 44
0.0
173
     0
291
     0
 45
0.0
1001
ACAD
1000
AcDbSavedByObjectVersion
1070
     0
1000
AcDbSavedByObjectVersion
1070
     0
1000
AcDbSavedByObjectVersion
1070
     0
1000
AcDbSavedByObjectVersion
1070
     0
1000
AcDbSavedByObjectVersion
1070
     0
1000
AcDbSavedByObjectVersion
1070
     0
  0
VISUALSTYLE
  5
F6
102
{ACAD_REACTORS
330
EF
102
}
330
EF
100
AcDbVisualStyle
  2
3dWireframe
 70
     5
 71
     0
 72
     2
 73
     1
 90
        0
 40
-0.6
 41
-30.0
 62
     5
 63
     7
 74
     1
 91
        4
 64
     7
 65
   257
 75
     1
175
     1
 42
1.0
 92
        0
 66
   257
 43
1.0
 76
     1
 77
     6
 78
     2
 67
     7
 79
     5
170
     0
171
     0
290
     0
174
     0
 93
        1
 44
0.0
173
     0
291
     0
 45
0.0
1001
ACAD
1000
AcDbSavedByObjectVersion
1070
     0
1000
AcDbSavedByObjectVersion
1070
     0
1000
AcDbSavedByObjectVersion
1070
     0
1000
AcDbSavedByObjectVersion
1070
     0
1000
AcDbSavedByObjectVersion
1070
     0
1000
AcDbSavedByObjectVersion
1070
     0
  0
VISUALSTYLE
  5
F4
102
{ACAD_REACTORS
330
EF
102
}
330
EF
100
AcDbVisualStyle
  2
Basic
 70
     7
 71
     1
 72
     0
 73
     1
 90
        0
 40
-0.6
 41
-30.0
 62
     5
 63
     7
 74
     0
 91
        4
 64
     7
 65
   257
 75
     1
175
     1
 42
1.0
 92
        8
 66
     7
 43
1.0
 76
     1
 77
     6
 78
     2
 67
     7
 79
     5
170
     0
171
     0
290
     0
174
     0
 93
        1
 44
0.0
173
     0
291
     1
 45
0.0
1001
ACAD
1000
AcDbSavedByObjectVersion
1070
     0
1000
AcDbSavedByObjectVersion
1070
     0
1000
AcDbSavedByObjectVersion
1070
     0
1000
AcDbSavedByObjectVersion
1070
     0
1000
AcDbSavedByObjectVersion
1070
     0
1000
AcDbSavedByObjectVersion
1070
     0
  0
VISUALSTYLE
  5
FB
102
{ACAD_REACTORS
330
EF
102
}
330
EF
100
AcDbVisualStyle
  2
Brighten
 70
    12
 71
     2
 72
     2
 73
     1
 90
        0
 40
-0.6
 41
-30.0
 62
     5
 63
     7
 74
     1
 91
        4
 64
     7
 65
   257
 75
     1
175
     1
 42
1.0
 92
        8
 66
     7
 43
1.0
 76
     1
 77
     6
 78
     2
 67
     7
 79
     5
170
     0
171
     0
290
     0
174
     0
 93
        1
 44
50.0
173
     0
291
     1
 45
0.0
1001
ACAD
1000
AcDbSavedByObjectVersion
1070
     0
1000
AcDbSavedByObjectVersion
1070
     0
1000
AcDbSavedByObjectVersion
1070
     0
1000
AcDbSavedByObjectVersion
1070
     0
1000
AcDbSavedByObjectVersion
1070
     0
1000
AcDbSavedByObjectVersion
1070
     0
  0
VISUALSTYLE
  5
FF
102
{ACAD_REACTORS
330
EF
102
}
330
EF
100
AcDbVisualStyle
  2
ColorChange
 70
    16
 71
     2
 72
     2
 73
     3
 90
        0
 40
-0.6
 41
-30.0
 62
     5
 63
     8
 74
     1
 91
        4
 64
     7
 65
   257
 75
     1
175
     1
 42
1.0
 92
        8
 66
     8
 43
1.0
 76
     1
 77
     6
 78
     2
 67
     7
 79
     5
170
     0
171
     0
290
     0
174
     0
 93
        1
 44
0.0
173
     0
291
     1
 45
0.0
1001
ACAD
1000
AcDbSavedByObjectVersion
1070
     0
1000
AcDbSavedByObjectVersion
1070
     0
1000
AcDbSavedByObjectVersion
1070
     0
1000
AcDbSavedByObjectVersion
1070
     0
1000
AcDbSavedByObjectVersion
1070
     0
1000
AcDbSavedByObjectVersion
1070
     0
  0
VISUALSTYLE
  5
F8
102
{ACAD_REACTORS
330
EF
102
}
330
EF
100
AcDbVisualStyle
  2
Conceptual
 70
     9
 71
     3
 72
     2
 73
     1
 90
        0
 40
-0.6
 41
-30.0
 62
     5
 63
     7
 74
     2
 91
        2
 64
     7
 65
   257
 75
     1
175
     1
 42
40.0
 92
        8
 66
     7
 43
1.0
 76
     1
 77
     6
 78
     2
 67
     7
 79
     3
170
     0
171
     0
290
     0
174
     0
 93
        1
 44
0.0
173
     0
291
     0
 45
0.0
1001
ACAD
1000
AcDbSavedByObjectVersion
1070
     0
1000
AcDbSavedByObjectVersion
1070
     0
1000
AcDbSavedByObjectVersion
1070
     0
1000
AcDbSavedByObjectVersion
1070
     0
1000
AcDbSavedByObjectVersion
1070
     0
1000
AcDbSavedByObjectVersion
1070
     0
  0
VISUALSTYLE
  5
FA
102
{ACAD_REACTORS
330
EF
102
}
330
EF
100
AcDbVisualStyle
  2
Dim
 70
    11
 71
     2
 72
     2
 73
     1
 90
        0
 40
-0.6
 41
-30.0
 62
     5
 63
     7
 74
     1
 91
        4
 64
     7
 65
   257
 75
     1
175
     1
 42
1.0
 92
        8
 66
     7
 43
1.0
 76
     1
 77
     6
 78
     2
 67
     7
 79
     5
170
     0
171
     0
290
     0
174
     0
 93
        1
 44
-50.0
173
     0
291
     1
 45
0.0
1001
ACAD
1000
AcDbSavedByObjectVersion
1070
     0
1000
AcDbSavedByObjectVersion
1070
     0
1000
AcDbSavedByObjectVersion
1070
     0
1000
AcDbSavedByObjectVersion
1070
     0
1000
AcDbSavedByObjectVersion
1070
     0
1000
AcDbSavedByObjectVersion
1070
     0
  0
VISUALSTYLE
  5
FE
102
{ACAD_REACTORS
330
EF
102
}
330
EF
100
AcDbVisualStyle
  2
Facepattern
 70
    15
 71
     2
 72
     2
 73
     1
 90
        0
 40
-0.6
 41
-30.0
 62
     5
 63
     7
 74
     1
 91
        4
 64
     7
 65
   257
 75
     1
175
     1
 42
1.0
 92
        8
 66
     7
 43
1.0
 76
     1
 77
     6
 78
     2
 67
     7
 79
     5
170
     0
171
     0
290
     0
174
     0
 93
        1
 44
0.0
173
     0
291
     1
 45
0.0
1001
ACAD
1000
AcDbSavedByObjectVersion
1070
     0
1000
AcDbSavedByObjectVersion
1070
     0
1000
AcDbSavedByObjectVersion
1070
     0
1000
AcDbSavedByObjectVersion
1070
     0
1000
AcDbSavedByObjectVersion
1070
     0
1000
AcDbSavedByObjectVersion
1070
     0
  0
VISUALSTYLE
  5
F0
102
{ACAD_REACTORS
330
EF
102
}
330
EF
100
AcDbVisualStyle
  2
Flat
 70
     0
 71
     2
 72
     1
 73
     1
 90
        2
 40
-0.6
 41
30.0
 62
     5
 63
     7
 74
     0
 91
        4
 64
     7
 65
   257
 75
     1
175
     1
 42
1.0
 92
        8
 66
     7
 43
1.0
 76
     1
 77
     6
 78
     2
 67
     7
 79
     5
170
     0
171
     0
290
     0
174
     0
 93
       13
 44
0.0
173
     0
291
     1
 45
0.0
1001
ACAD
1000
AcDbSavedByObjectVersion
1070
     0
1000
AcDbSavedByObjectVersion
1070
     0
1000
AcDbSavedByObjectVersion
1070
     0
1000
AcDbSavedByObjectVersion
1070
     0
1000
AcDbSavedByObjectVersion
1070
     0
1000
AcDbSavedByObjectVersion
1070
     0
  0
VISUALSTYLE
  5
F1
102
{ACAD_REACTORS
330
EF
102
}
330
EF
100
AcDbVisualStyle
  2
FlatWithEdges
 70
     1
 71
     2
 72
     1
 73
     1
 90
        2
 40
-0.6
 41
30.0
 62
     5
 63
     7
 74
     1
 91
        4
 64
     7
 65
   257
 75
     1
175
     1
 42
1.0
 92
        0
 66
   257
 43
1.0
 76
     1
 77
     6
 78
     2
 67
     7
 79
     5
170
     0
171
     0
290
     0
174
     0
 93
       13
 44
0.0
173
     0
291
     1
 45
0.0
1001
ACAD
1000
AcDbSavedByObjectVersion
1070
     0
1000
AcDbSavedByObjectVersion
1070
     0
1000
AcDbSavedByObjectVersion
1070
     0
1000
AcDbSavedByObjectVersion
1070
     0
1000
AcDbSavedByObjectVersion
1070
     0
1000
AcDbSavedByObjectVersion
1070
     0
  0
VISUALSTYLE
  5
F2
102
{ACAD_REACTORS
330
EF
102
}
330
EF
100
AcDbVisualStyle
  2
Gouraud
 70
     2
 71
     2
 72
     2
 73
     1
 90
        2
 40
-0.6
 41
30.0
 62
     5
 63
     7
 74
     0
 91
        4
 64
     7
 65
   257
 75
     1
175
     1
 42
1.0
 92
        0
 66
     7
 43
1.0
 76
     1
 77
     6
 78
     2
 67
     7
 79
     5
170
     0
171
     0
290
     0
174
     0
 93
       13
 44
0.0
173
     0
291
     1
 45
0.0
1001
ACAD
1000
AcDbSavedByObjectVersion
1070
     0
1000
AcDbSavedByObjectVersion
1070
     0
1000
AcDbSavedByObjectVersion
1070
     0
1000
AcDbSavedByObjectVersion
1070
     0
1000
AcDbSavedByObjectVersion
1070
     0
1000
AcDbSavedByObjectVersion
1070
     0
  0
VISUALSTYLE
  5
F3
102
{ACAD_REACTORS
330
EF
102
}
330
EF
100
AcDbVisualStyle
  2
GouraudWithEdges
 70
     3
 71
     2
 72
     2
 73
     1
 90
        2
 40
-0.6
 41
30.0
 62
     5
 63
     7
 74
     1
 91
        4
 64
     7
 65
   257
 75
     1
175
     1
 42
1.0
 92
        0
 66
   257
 43
1.0
 76
     1
 77
     6
 78
     2
 67
     7
 79
     5
170
     0
171
     0
290
     0
174
     0
 93
       13
 44
0.0
173
     0
291
     1
 45
0.0
1001
ACAD
1000
AcDbSavedByObjectVersion
1070
     0
1000
AcDbSavedByObjectVersion
1070
     0
1000
AcDbSavedByObjectVersion
1070
     0
1000
AcDbSavedByObjectVersion
1070
     0
1000
AcDbSavedByObjectVersion
1070
     0
1000
AcDbSavedByObjectVersion
1070
     0
  0
VISUALSTYLE
  5
FD
102
{ACAD_REACTORS
330
EF
102
}
330
EF
100
AcDbVisualStyle
  2
Linepattern
 70
    14
 71
     2
 72
     2
 73
     1
 90
        0
 40
-0.6
 41
-30.0
 62
     5
 63
     7
 74
     1
 91
        4
 64
     7
 65
   257
 75
     7
175
     7
 42
1.0
 92
        8
 66
     7
 43
1.0
 76
     1
 77
     6
 78
     2
 67
     7
 79
     5
170
     0
171
     0
290
     0
174
     0
 93
        1
 44
0.0
173
     0
291
     1
 45
0.0
1001
ACAD
1000
AcDbSavedByObjectVersion
1070
     0
1000
AcDbSavedByObjectVersion
1070
     0
1000
AcDbSavedByObjectVersion
1070
     0
1000
AcDbSavedByObjectVersion
1070
     0
1000
AcDbSavedByObjectVersion
1070
     0
1000
AcDbSavedByObjectVersion
1070
     0
  0
VISUALSTYLE
  5
F9
102
{ACAD_REACTORS
330
EF
102
}
330
EF
100
AcDbVisualStyle
  2
Realistic
 70
     8
 71
     2
 72
     2
 73
     1
 90
        0
 40
-0.6
 41
-30.0
 62
     5
 63
     7
 74
     1
 91
        0
 64
     7
 65
   257
 75
     1
175
     1
 42
1.0
 92
        8
 66
     8
 43
1.0
 76
     1
 77
     6
 78
     2
 67
     7
 79
     5
170
     0
171
     0
290
     0
174
     0
 93
       13
 44
0.0
173
     0
291
     0
 45
0.0
1001
ACAD
1000
AcDbSavedByObjectVersion
1070
     0
1000
AcDbSavedByObjectVersion
1070
     0
1000
AcDbSavedByObjectVersion
1070
     0
1000
AcDbSavedByObjectVersion
1070
     0
1000
AcDbSavedByObjectVersion
1070
     0
1000
AcDbSavedByObjectVersion
1070
     0
  0
VISUALSTYLE
  5
FC
102
{ACAD_REACTORS
330
EF
102
}
330
EF
100
AcDbVisualStyle
  2
Thicken
 70
    13
 71
     2
 72
     2
 73
     1
 90
        0
 40
-0.6
 41
-30.0
 62
     5
 63
     7
 74
     1
 91
        4
 64
     7
 65
   257
 75
     1
175
     1
 42
1.0
 92
       12
 66
     7
 43
1.0
 76
     1
 77
     6
 78
     2
 67
     7
 79
     5
170
     0
171
     0
290
     0
174
     0
 93
        1
 44
0.0
173
     0
291
     1
 45
0.0
1001
ACAD
1000
AcDbSavedByObjectVersion
1070
     0
1000
AcDbSavedByObjectVersion
1070
     0
1000
AcDbSavedByObjectVersion
1070
     0
1000
AcDbSavedByObjectVersion
1070
     0
1000
AcDbSavedByObjectVersion
1070
     0
1000
AcDbSavedByObjectVersion
1070
     0
  0
DICTIONARYVAR
  5
84
102
{ACAD_REACTORS
330
5E
102
}
330
5E
100
DictionaryVariables
280
     0
  1
STANDARD
  0
DICTIONARYVAR
  5
5F
102
{ACAD_REACTORS
330
5E
102
}
330
5E
100
DictionaryVariables
280
     0
  1
2
  0
DICTIONARYVAR
  5
63
102
{ACAD_REACTORS
330
5E
102
}
330
5E
100
DictionaryVariables
280
     0
  1
1
  0
DICTIONARYVAR
  5
327
102
{ACAD_REACTORS
330
5E
102
}
330
5E
100
DictionaryVariables
280
     0
  1
0
  0
DICTIONARYVAR
  5
11E4
102
{ACAD_REACTORS
330
5E
102
}
330
5E
100
DictionaryVariables
280
     0
  1
80.000000
  0
DICTIONARYVAR
  5
11E3
102
{ACAD_REACTORS
330
5E
102
}
330
5E
100
DictionaryVariables
280
     0
  1
5.000000
  0
DICTIONARYVAR
  5
326
102
{ACAD_REACTORS
330
5E
102
}
330
5E
100
DictionaryVariables
280
     0
  1
127
  0
DICTIONARY
  5
1E6A
330
D3
100
AcDbDictionary
280
     1
281
     1
  3
ACAD_XREC_ROUNDTRIP
360
1E6B
  0
DICTIONARY
  5
1E6C
330
D7
100
AcDbDictionary
280
     1
281
     1
  3
ACAD_XREC_ROUNDTRIP
360
1E6D
  0
DICTIONARY
  5
1E66
330
22
100
AcDbDictionary
280
     1
281
     1
  3
ACAD_XREC_ROUNDTRIP
360
1E67
  0
DICTIONARY
  5
335
330
ED
100
AcDbDictionary
280
     1
281
     1
  3
ACAD_XREC_ROUNDTRIP
360
336
  0
DICTIONARY
  5
333
330
EC
100
AcDbDictionary
280
     1
281
     1
  3
ACAD_XREC_ROUNDTRIP
360
334
  0
DICTIONARY
  5
337
330
EE
100
AcDbDictionary
280
     1
281
     1
  3
ACAD_XREC_ROUNDTRIP
360
338
  0
DICTIONARY
  5
1E68
330
7F
100
AcDbDictionary
280
     1
281
     1
  3
ACAD_XREC_ROUNDTRIP
360
1E69
  0
XRECORD
  5
1E6B
102
{ACAD_REACTORS
330
1E6A
102
}
330
1E6A
100
AcDbXrecord
280
     1
102
SHADEPLOT
 70
     0
102
SHADEPLOTRESLEVEL
 70
     2
102
SHADEPLOTCUSTOMDPI
 70
   300
  0
XRECORD
  5
1E6D
102
{ACAD_REACTORS
330
1E6C
102
}
330
1E6C
100
AcDbXrecord
280
     1
102
SHADEPLOT
 70
     0
102
SHADEPLOTRESLEVEL
 70
     2
102
SHADEPLOTCUSTOMDPI
 70
   300
  0
XRECORD
  5
1E67
102
{ACAD_REACTORS
330
1E66
102
}
330
1E66
100
AcDbXrecord
280
     1
102
SHADEPLOT
 70
     0
102
SHADEPLOTRESLEVEL
 70
     2
102
SHADEPLOTCUSTOMDPI
 70
   300
  0
XRECORD
  5
336
102
{ACAD_REACTORS
330
335
102
}
330
335
100
AcDbXrecord
280
     1
102
MATERIAL
148
0.0
149
0.0
149
0.0
 93
        0
 94
       63
282
     0
 72
     1
 77
     1
171
     1
175
     1
179
     1
273
     0
  0
XRECORD
  5
334
102
{ACAD_REACTORS
330
333
102
}
330
333
100
AcDbXrecord
280
     1
102
MATERIAL
148
0.0
149
0.0
149
0.0
 93
        0
 94
       63
282
     0
 72
     1
 77
     1
171
     1
175
     1
179
     1
273
     0
  0
XRECORD
  5
338
102
{ACAD_REACTORS
330
337
102
}
330
337
100
AcDbXrecord
280
     1
102
MATERIAL
148
0.0
149
0.0
149
0.0
 93
        0
 94
       63
282
     0
 72
     1
 77
     1
171
     1
175
     1
179
     1
273
     0
  0
XRECORD
  5
1E69
102
{ACAD_REACTORS
330
1E68
102
}
330
1E68
100
AcDbXrecord
280
     1
102
ACAD_ROUNDTRIP_PRE2007_TABLESTYLE
 90
      512
 91
        0
  1

 92
      512
 93
        0
  2

 94
      512
 95
        0
  3

  0
ENDSEC
  0
EOF
