  0
SECTION
  2
HEADER
  9
$ACADVER
  1
AC1015
  9
$ACADMAINTVER
 70
    20
  9
$DWGCODEPAGE
  3
ANSI_1252
  9
$INSBASE
 10
0.0
 20
0.0
 30
0.0
  9
$EXTMIN
 10
-322.8381931665999
 20
-1530.839922076549
 30
-0.0000000000000202
  9
$EXTMAX
 10
627.3811906882865
 20
-1062.77602570791
 30
0.0000000000001102
  9
$LIMMIN
 10
0.0
 20
0.0
  9
$LIMMAX
 10
420.0
 20
297.0
  9
$ORTHOMODE
 70
     0
  9
$REGENMODE
 70
     1
  9
$FILLMODE
 70
     1
  9
$QTEXTMODE
 70
     0
  9
$MIRRTEXT
 70
     0
  9
$LTSCALE
 40
1.0
  9
$ATTMODE
 70
     1
  9
$TEXTSIZE
 40
2.5
  9
$TRACEWID
 40
1.0
  9
$TEXTSTYLE
  7
Standard
  9
$CLAYER
  8
0
  9
$CELTYPE
  6
ByLayer
  9
$CECOLOR
 62
   256
  9
$CELTSCALE
 40
1.0
  9
$DISPSILH
 70
     0
  9
$DIMSCALE
 40
1.0
  9
$DIMASZ
 40
2.5
  9
$DIMEXO
 40
0.625
  9
$DIMDLI
 40
3.75
  9
$DIMRND
 40
0.0
  9
$DIMDLE
 40
0.0
  9
$DIMEXE
 40
1.25
  9
$DIMTP
 40
0.0
  9
$DIMTM
 40
0.0
  9
$DIMTXT
 40
2.5
  9
$DIMCEN
 40
2.5
  9
$DIMTSZ
 40
0.0
  9
$DIMTOL
 70
     0
  9
$DIMLIM
 70
     0
  9
$DIMTIH
 70
     0
  9
$DIMTOH
 70
     0
  9
$DIMSE1
 70
     0
  9
$DIMSE2
 70
     0
  9
$DIMTAD
 70
     1
  9
$DIMZIN
 70
     8
  9
$DIMBLK
  1

  9
$DIMASO
 70
     1
  9
$DIMSHO
 70
     1
  9
$DIMPOST
  1

  9
$DIMAPOST
  1

  9
$DIMALT
 70
     0
  9
$DIMALTD
 70
     3
  9
$DIMALTF
 40
0.03937007874016
  9
$DIMLFAC
 40
1.0
  9
$DIMTOFL
 70
     1
  9
$DIMTVP
 40
0.0
  9
$DIMTIX
 70
     0
  9
$DIMSOXD
 70
     0
  9
$DIMSAH
 70
     0
  9
$DIMBLK1
  1

  9
$DIMBLK2
  1

  9
$DIMSTYLE
  2
ISO-25
  9
$DIMCLRD
 70
     0
  9
$DIMCLRE
 70
     0
  9
$DIMCLRT
 70
     0
  9
$DIMTFAC
 40
1.0
  9
$DIMGAP
 40
0.625
  9
$DIMJUST
 70
     0
  9
$DIMSD1
 70
     0
  9
$DIMSD2
 70
     0
  9
$DIMTOLJ
 70
     0
  9
$DIMTZIN
 70
     8
  9
$DIMALTZ
 70
     0
  9
$DIMALTTZ
 70
     0
  9
$DIMUPT
 70
     0
  9
$DIMDEC
 70
     2
  9
$DIMTDEC
 70
     2
  9
$DIMALTU
 70
     2
  9
$DIMALTTD
 70
     3
  9
$DIMTXSTY
  7
Standard
  9
$DIMAUNIT
 70
     0
  9
$DIMADEC
 70
     0
  9
$DIMALTRND
 40
0.0
  9
$DIMAZIN
 70
     0
  9
$DIMDSEP
 70
    44
  9
$DIMATFIT
 70
     3
  9
$DIMFRAC
 70
     0
  9
$DIMLDRBLK
  1

  9
$DIMLUNIT
 70
     2
  9
$DIMLWD
 70
    -2
  9
$DIMLWE
 70
    -2
  9
$DIMTMOVE
 70
     0
  9
$LUNITS
 70
     2
  9
$LUPREC
 70
     4
  9
$SKETCHINC
 40
1.0
  9
$FILLETRAD
 40
0.0
  9
$AUNITS
 70
     0
  9
$AUPREC
 70
     0
  9
$MENU
  1
.
  9
$ELEVATION
 40
0.0
  9
$PELEVATION
 40
0.0
  9
$THICKNESS
 40
0.0
  9
$LIMCHECK
 70
     0
  9
$CHAMFERA
 40
0.0
  9
$CHAMFERB
 40
0.0
  9
$CHAMFERC
 40
0.0
  9
$CHAMFERD
 40
0.0
  9
$SKPOLY
 70
     0
  9
$TDCREATE
 40
2454768.510881991
  9
$TDUCREATE
 40
2454768.469215324
  9
$TDUPDATE
 40
2455624.671137453
  9
$TDUUPDATE
 40
2455624.629470787
  9
$TDINDWG
 40
0.1040634722
  9
$TDUSRTIMER
 40
0.1040602315
  9
$USRTIMER
 70
     1
  9
$ANGBASE
 50
0.0
  9
$ANGDIR
 70
     0
  9
$PDMODE
 70
     0
  9
$PDSIZE
 40
0.0
  9
$PLINEWID
 40
0.0
  9
$SPLFRAME
 70
     0
  9
$SPLINETYPE
 70
     6
  9
$SPLINESEGS
 70
     8
  9
$HANDSEED
  5
1652
  9
$SURFTAB1
 70
     6
  9
$SURFTAB2
 70
     6
  9
$SURFTYPE
 70
     6
  9
$SURFU
 70
     6
  9
$SURFV
 70
     6
  9
$UCSBASE
  2

  9
$UCSNAME
  2

  9
$UCSORG
 10
0.0
 20
0.0
 30
0.0
  9
$UCSXDIR
 10
1.0
 20
0.0
 30
0.0
  9
$UCSYDIR
 10
0.0
 20
1.0
 30
0.0
  9
$UCSORTHOREF
  2

  9
$UCSORTHOVIEW
 70
     0
  9
$UCSORGTOP
 10
0.0
 20
0.0
 30
0.0
  9
$UCSORGBOTTOM
 10
0.0
 20
0.0
 30
0.0
  9
$UCSORGLEFT
 10
0.0
 20
0.0
 30
0.0
  9
$UCSORGRIGHT
 10
0.0
 20
0.0
 30
0.0
  9
$UCSORGFRONT
 10
0.0
 20
0.0
 30
0.0
  9
$UCSORGBACK
 10
0.0
 20
0.0
 30
0.0
  9
$PUCSBASE
  2

  9
$PUCSNAME
  2

  9
$PUCSORG
 10
0.0
 20
0.0
 30
0.0
  9
$PUCSXDIR
 10
1.0
 20
0.0
 30
0.0
  9
$PUCSYDIR
 10
0.0
 20
1.0
 30
0.0
  9
$PUCSORTHOREF
  2

  9
$PUCSORTHOVIEW
 70
     0
  9
$PUCSORGTOP
 10
0.0
 20
0.0
 30
0.0
  9
$PUCSORGBOTTOM
 10
0.0
 20
0.0
 30
0.0
  9
$PUCSORGLEFT
 10
0.0
 20
0.0
 30
0.0
  9
$PUCSORGRIGHT
 10
0.0
 20
0.0
 30
0.0
  9
$PUCSORGFRONT
 10
0.0
 20
0.0
 30
0.0
  9
$PUCSORGBACK
 10
0.0
 20
0.0
 30
0.0
  9
$USERI1
 70
     0
  9
$USERI2
 70
     0
  9
$USERI3
 70
     0
  9
$USERI4
 70
     0
  9
$USERI5
 70
     0
  9
$USERR1
 40
0.0
  9
$USERR2
 40
0.0
  9
$USERR3
 40
0.0
  9
$USERR4
 40
0.0
  9
$USERR5
 40
0.0
  9
$WORLDVIEW
 70
     1
  9
$SHADEDGE
 70
     3
  9
$SHADEDIF
 70
    70
  9
$TILEMODE
 70
     1
  9
$MAXACTVP
 70
    64
  9
$PINSBASE
 10
0.0
 20
0.0
 30
0.0
  9
$PLIMCHECK
 70
     0
  9
$PEXTMIN
 10
0.0
 20
0.0
 30
0.0
  9
$PEXTMAX
 10
0.0
 20
0.0
 30
0.0
  9
$PLIMMIN
 10
0.0
 20
0.0
  9
$PLIMMAX
 10
12.0
 20
9.0
  9
$UNITMODE
 70
     0
  9
$VISRETAIN
 70
     1
  9
$PLINEGEN
 70
     0
  9
$PSLTSCALE
 70
     1
  9
$TREEDEPTH
 70
  3020
  9
$CMLSTYLE
  2
Standard
  9
$CMLJUST
 70
     0
  9
$CMLSCALE
 40
20.0
  9
$PROXYGRAPHICS
 70
     1
  9
$MEASUREMENT
 70
     1
  9
$CELWEIGHT
370
    -1
  9
$ENDCAPS
280
     0
  9
$JOINSTYLE
280
     0
  9
$LWDISPLAY
290
     0
  9
$INSUNITS
 70
     4
  9
$HYPERLINKBASE
  1

  9
$STYLESHEET
  1

  9
$XEDIT
290
     1
  9
$CEPSNTYPE
380
     0
  9
$PSTYLEMODE
290
     1
  9
$FINGERPRINTGUID
  2
{A9F5D530-972F-4813-857A-78B9B08CAD27}
  9
$VERSIONGUID
  2
{5920ECC9-35B0-428C-8137-B4C53A9ABFF5}
  9
$EXTNAMES
290
     1
  9
$PSVPSCALE
 40
0.0
  9
$OLESTARTUP
290
     0
  0
ENDSEC
  0
SECTION
  2
CLASSES
  0
CLASS
  1
ACDBDICTIONARYWDFLT
  2
AcDbDictionaryWithDefault
  3
ObjectDBX Classes
 90
        0
280
     0
281
     0
  0
CLASS
  1
DICTIONARYVAR
  2
AcDbDictionaryVar
  3
ObjectDBX Classes
 90
        0
280
     0
281
     0
  0
CLASS
  1
TABLESTYLE
  2
AcDbTableStyle
  3
ObjectDBX Classes
 90
     4095
280
     0
281
     0
  0
CLASS
  1
MATERIAL
  2
AcDbMaterial
  3
ObjectDBX Classes
 90
     1024
280
     0
281
     0
  0
CLASS
  1
VISUALSTYLE
  2
AcDbVisualStyle
  3
ObjectDBX Classes
 90
     4095
280
     0
281
     0
  0
CLASS
  1
SORTENTSTABLE
  2
AcDbSortentsTable
  3
ObjectDBX Classes
 90
        0
280
     0
281
     0
  0
CLASS
  1
DIMASSOC
  2
AcDbDimAssoc
  3
"AcDbDimAssoc|Product Desc:     AcDim ARX App For Dimension|Company:          Autodesk, Inc.|WEB Address:      www.autodesk.com"
 90
    32768
280
     0
281
     0
  0
CLASS
  1
ACDBPLACEHOLDER
  2
AcDbPlaceHolder
  3
ObjectDBX Classes
 90
        0
280
     0
281
     0
  0
CLASS
  1
LAYOUT
  2
AcDbLayout
  3
ObjectDBX Classes
 90
        0
280
     0
281
     0
  0
ENDSEC
  0
SECTION
  2
TABLES
  0
TABLE
  2
VPORT
  5
8
330
0
100
AcDbSymbolTable
 70
     1
  0
VPORT
  5
EA
330
8
100
AcDbSymbolTableRecord
100
AcDbViewportTableRecord
  2
*Active
 70
     0
 10
0.0
 20
0.0
 11
1.0
 21
1.0
 12
155.3910434673905
 22
-1508.132651517309
 13
0.0
 23
0.0
 14
10.0
 24
10.0
 15
10.0
 25
10.0
 16
0.0
 26
0.0
 36
1.0
 17
0.0
 27
0.0
 37
0.0
 40
948.7175814348606
 41
1.858662613981763
 42
50.0
 43
0.0
 44
0.0
 50
0.0
 51
0.0
 71
     0
 72
  1000
 73
     1
 74
     3
 75
     0
 76
     0
 77
     0
 78
     0
281
     0
 65
     1
110
0.0
120
0.0
130
0.0
111
1.0
121
0.0
131
0.0
112
0.0
122
1.0
132
0.0
 79
     0
146
0.0
  0
ENDTAB
  0
TABLE
  2
LTYPE
  5
5
330
0
100
AcDbSymbolTable
 70
     1
  0
LTYPE
  5
14
330
5
100
AcDbSymbolTableRecord
100
AcDbLinetypeTableRecord
  2
ByBlock
 70
     0
  3

 72
    65
 73
     0
 40
0.0
  0
LTYPE
  5
15
330
5
100
AcDbSymbolTableRecord
100
AcDbLinetypeTableRecord
  2
ByLayer
 70
     0
  3

 72
    65
 73
     0
 40
0.0
  0
LTYPE
  5
16
330
5
100
AcDbSymbolTableRecord
100
AcDbLinetypeTableRecord
  2
Continuous
 70
     0
  3
Solid line
 72
    65
 73
     0
 40
0.0
  0
ENDTAB
  0
TABLE
  2
LAYER
  5
2
102
{ACAD_XDICTIONARY
360
141
102
}
330
0
100
AcDbSymbolTable
 70
     3
  0
LAYER
  5
10
330
2
100
AcDbSymbolTableRecord
100
AcDbLayerTableRecord
  2
0
 70
     0
 62
     7
  6
Continuous
370
    -3
390
F
  0
LAYER
  5
124
330
2
100
AcDbSymbolTableRecord
100
AcDbLayerTableRecord
  2
Defpoints
 70
     0
 62
     7
  6
Continuous
290
     0
370
    -3
390
F
  0
LAYER
  5
13E
330
2
100
AcDbSymbolTableRecord
100
AcDbLayerTableRecord
  2
Hewi
 70
     0
 62
     7
  6
Continuous
370
    -3
390
F
  0
ENDTAB
  0
TABLE
  2
STYLE
  5
3
330
0
100
AcDbSymbolTable
 70
     1
  0
STYLE
  5
11
330
3
100
AcDbSymbolTableRecord
100
AcDbTextStyleTableRecord
  2
Standard
 70
     0
 40
0.0
 41
1.0
 50
0.0
 71
     0
 42
2.5
  3
txt
  4

  0
ENDTAB
  0
TABLE
  2
VIEW
  5
6
330
0
100
AcDbSymbolTable
 70
     0
  0
ENDTAB
  0
TABLE
  2
UCS
  5
7
330
0
100
AcDbSymbolTable
 70
     0
  0
ENDTAB
  0
TABLE
  2
APPID
  5
9
330
0
100
AcDbSymbolTable
 70
     3
  0
APPID
  5
12
330
9
100
AcDbSymbolTableRecord
100
AcDbRegAppTableRecord
  2
ACAD
 70
     0
  0
APPID
  5
9E
330
9
100
AcDbSymbolTableRecord
100
AcDbRegAppTableRecord
  2
ACAD_PSEXT
 70
     0
  0
APPID
  5
212
330
9
100
AcDbSymbolTableRecord
100
AcDbRegAppTableRecord
  2
ACAD_EXEMPT_FROM_CAD_STANDARDS
 70
     0
  0
ENDTAB
  0
TABLE
  2
DIMSTYLE
  5
A
330
0
100
AcDbSymbolTable
 70
     2
100
AcDbDimStyleTable
 71
     1
340
27
  0
DIMSTYLE
105
27
330
A
100
AcDbSymbolTableRecord
100
AcDbDimStyleTableRecord
  2
ISO-25
 70
     0
 41
2.5
 42
0.625
 43
3.75
 44
1.25
 73
     0
 74
     0
 77
     1
 78
     8
140
2.5
141
2.5
143
0.03937007874016
147
0.625
171
     3
172
     1
271
     2
272
     2
274
     3
278
    44
283
     0
284
     8
340
11
  0
DIMSTYLE
105
254
330
A
100
AcDbSymbolTableRecord
100
AcDbDimStyleTableRecord
  2
Standard
 70
     0
340
11
  0
ENDTAB
  0
TABLE
  2
BLOCK_RECORD
  5
1
330
0
100
AcDbSymbolTable
 70
     3
  0
BLOCK_RECORD
  5
1F
102
{ACAD_XDICTIONARY
360
116
102
}
330
1
100
AcDbSymbolTableRecord
100
AcDbBlockTableRecord
  2
*Model_Space
340
22
  0
BLOCK_RECORD
  5
D2
330
1
100
AcDbSymbolTableRecord
100
AcDbBlockTableRecord
  2
*Paper_Space
340
D3
  0
BLOCK_RECORD
  5
D6
330
1
100
AcDbSymbolTableRecord
100
AcDbBlockTableRecord
  2
*Paper_Space0
340
D7
  0
BLOCK_RECORD
  5
1602
330
1
100
AcDbSymbolTableRecord
100
AcDbBlockTableRecord
  2
*D1
340
0
  0
BLOCK_RECORD
  5
161A
330
1
100
AcDbSymbolTableRecord
100
AcDbBlockTableRecord
  2
*D2
340
0
  0
ENDTAB
  0
ENDSEC
  0
SECTION
  2
BLOCKS
  0
BLOCK
  5
20
330
1F
100
AcDbEntity
  8
0
100
AcDbBlockBegin
  2
*Model_Space
 70
     0
 10
0.0
 20
0.0
 30
0.0
  3
*Model_Space
  1

  0
ENDBLK
  5
21
330
1F
100
AcDbEntity
  8
0
100
AcDbBlockEnd
  0
BLOCK
  5
D4
330
D2
100
AcDbEntity
 67
     1
  8
0
100
AcDbBlockBegin
  2
*Paper_Space
 70
     0
 10
0.0
 20
0.0
 30
0.0
  3
*Paper_Space
  1

  0
ENDBLK
  5
D5
330
D2
100
AcDbEntity
 67
     1
  8
0
100
AcDbBlockEnd
  0
BLOCK
  5
D8
330
D6
100
AcDbEntity
 67
     1
  8
0
100
AcDbBlockBegin
  2
*Paper_Space0
 70
     0
 10
0.0
 20
0.0
 30
0.0
  3
*Paper_Space0
  1

  0
ENDBLK
  5
D9
330
D6
100
AcDbEntity
 67
     1
  8
0
100
AcDbBlockEnd
  0
BLOCK
  5
160C
330
1602
100
AcDbEntity
  8
0
100
AcDbBlockBegin
  2
*D1
 70
     1
 10
0.0
 20
0.0
 30
0.0
  3
*D1
  1

  0
LINE
  5
160F
330
1602
100
AcDbEntity
  8
0
 62
     0
370
    -2
100
AcDbLine
 10
-47.77948207396365
 20
-1102.15102570791
 30
0.0
 11
-47.77948207396363
 21
-927.8609613580821
 31
0.0
  0
LINE
  5
1610
330
1602
100
AcDbEntity
  8
0
 62
     0
370
    -2
100
AcDbLine
 10
251.7118264270994
 20
-1102.15102570791
 30
0.0
 11
251.7118264270994
 21
-927.8609613580821
 31
0.0
  0
LINE
  5
1611
330
1602
100
AcDbEntity
  8
0
 62
     0
370
    -2
100
AcDbLine
 10
-45.27948207396364
 20
-929.110961358082
 30
0.0
 11
249.2118264270994
 21
-929.110961358082
 31
0.0
  0
SOLID
  5
1612
330
1602
100
AcDbEntity
  8
0
 62
     0
100
AcDbTrace
 10
-45.27948207396364
 20
-928.6942946914154
 30
0.0
 11
-45.27948207396364
 21
-929.5276280247486
 31
0.0
 12
-47.77948207396364
 22
-929.110961358082
 32
0.0
 13
-47.77948207396364
 23
-929.110961358082
 33
0.0
  0
SOLID
  5
1613
330
1602
100
AcDbEntity
  8
0
 62
     0
100
AcDbTrace
 10
249.2118264270994
 20
-928.6942946914154
 30
0.0
 11
249.2118264270994
 21
-929.5276280247486
 31
0.0
 12
251.7118264270994
 22
-929.110961358082
 32
0.0
 13
251.7118264270994
 23
-929.110961358082
 33
0.0
  0
MTEXT
  5
1614
330
1602
100
AcDbEntity
  8
0
 62
     0
100
AcDbMText
 10
101.9661721765679
 20
-927.0276280247486
 30
0.0
 40
2.5
 41
0.0
 71
     5
 72
     1
  1
299,49
 73
     1
 44
1.0
1001
ACAD
1000
MTEXTBEGIN
1070
    73
1070
     1
1070
    44
1040
1.0
1070
    74
1070
     0
1000
MTEXTEND
  0
POINT
  5
1615
330
1602
100
AcDbEntity
  8
Defpoints
 62
     0
100
AcDbPoint
 10
-47.77948207396365
 20
-1102.77602570791
 30
0.0000000000000659
  0
POINT
  5
1616
330
1602
100
AcDbEntity
  8
Defpoints
 62
     0
100
AcDbPoint
 10
251.7118264270994
 20
-1102.77602570791
 30
0.0000000000000659
  0
POINT
  5
1617
330
1602
100
AcDbEntity
  8
Defpoints
 62
     0
100
AcDbPoint
 10
251.7118264270994
 20
-929.110961358082
 30
0.0
  0
ENDBLK
  5
160D
330
1602
100
AcDbEntity
  8
0
100
AcDbBlockEnd
  0
BLOCK
  5
1624
330
161A
100
AcDbEntity
  8
0
100
AcDbBlockBegin
  2
*D2
 70
     1
 10
0.0
 20
0.0
 30
0.0
  3
*D2
  1

  0
LINE
  5
1627
330
161A
100
AcDbEntity
  8
0
 62
     0
370
    -2
100
AcDbLine
 10
-47.77948207396365
 20
-1103.40102570791
 30
0.0
 11
-47.77948207396365
 21
-1211.537981039912
 31
0.0
  0
LINE
  5
1628
330
161A
100
AcDbEntity
  8
0
 62
     0
370
    -2
100
AcDbLine
 10
251.711835556389
 20
-1063.401025707911
 30
0.0
 11
251.711835556389
 21
-1211.537981039912
 31
0.0
  0
LINE
  5
1629
330
161A
100
AcDbEntity
  8
0
 62
     0
370
    -2
100
AcDbLine
 10
-45.27948207396365
 20
-1210.287981039912
 30
0.0
 11
249.2118355563889
 21
-1210.287981039912
 31
0.0
  0
SOLID
  5
162A
330
161A
100
AcDbEntity
  8
0
 62
     0
100
AcDbTrace
 10
-45.27948207396365
 20
-1209.871314373246
 30
0.0
 11
-45.27948207396365
 21
-1210.704647706579
 31
0.0
 12
-47.77948207396365
 22
-1210.287981039912
 32
0.0
 13
-47.77948207396365
 23
-1210.287981039912
 33
0.0
  0
SOLID
  5
162B
330
161A
100
AcDbEntity
  8
0
 62
     0
100
AcDbTrace
 10
249.2118355563889
 20
-1209.871314373246
 30
0.0
 11
249.2118355563889
 21
-1210.704647706579
 31
0.0
 12
251.711835556389
 22
-1210.287981039912
 32
0.0
 13
251.711835556389
 23
-1210.287981039912
 33
0.0
  0
MTEXT
  5
162C
330
161A
100
AcDbEntity
  8
0
 62
     0
100
AcDbMText
 10
101.9661767412126
 20
-1208.204647706579
 30
0.0
 40
2.5
 41
0.0
 71
     5
 72
     1
  1
299,49
 73
     1
 44
1.0
1001
ACAD
1000
MTEXTBEGIN
1070
    73
1070
     1
1070
    44
1040
1.0
1070
    74
1070
     0
1000
MTEXTEND
  0
POINT
  5
162D
330
161A
100
AcDbEntity
  8
Defpoints
 62
     0
100
AcDbPoint
 10
-47.77948207396365
 20
-1102.77602570791
 30
0.0000000000000659
  0
POINT
  5
162E
330
161A
100
AcDbEntity
  8
Defpoints
 62
     0
100
AcDbPoint
 10
251.711835556389
 20
-1062.776025707911
 30
0.0000000000000659
  0
POINT
  5
162F
330
161A
100
AcDbEntity
  8
Defpoints
 62
     0
100
AcDbPoint
 10
251.711835556389
 20
-1210.287981039912
 30
0.0
  0
ENDBLK
  5
1625
330
161A
100
AcDbEntity
  8
0
100
AcDbBlockEnd
  0
ENDSEC
  0
SECTION
  2
ENTITIES
  0
LINE
  5
136B
330
1F
100
AcDbEntity
  8
Hewi
  6
Continuous
100
AcDbLine
 10
299.8005140287184
 20
-1497.840155913396
 30
0.0000000000000659
 11
260.7041462737697
 21
-1497.840128911052
 31
0.0000000000000659
  0
LINE
  5
136C
330
1F
100
AcDbEntity
  8
Hewi
  6
Continuous
100
AcDbLine
 10
-56.77962749986727
 20
-1497.839922076547
 30
0.0000000000000659
 11
-95.2338278234365
 21
-1497.839922076547
 31
0.0000000000000659
  0
LINE
  5
136D
330
1F
100
AcDbEntity
  8
Hewi
  6
Continuous
100
AcDbLine
 10
260.7116003818537
 20
-1497.839922076547
 30
0.0000000000000659
 11
299.1661721765722
 21
-1497.839922076547
 31
0.0000000000000659
  0
LINE
  5
136E
330
1F
100
AcDbEntity
  8
Hewi
  6
Continuous
100
AcDbLine
 10
-95.2338278234365
 20
-1530.839922076547
 30
0.0000000000000659
 11
299.7768253451231
 21
-1530.839922076547
 31
0.0000000000000659
  0
LINE
  5
136F
330
1F
100
AcDbEntity
  8
Hewi
  6
Continuous
100
AcDbLine
 10
-38.77948207396367
 20
-1497.839428206052
 30
0.0000000000000659
 11
-38.77948207396367
 21
-1453.840151316636
 31
0.0000000000000659
  0
LINE
  5
1370
330
1F
100
AcDbEntity
  8
Hewi
  6
Continuous
100
AcDbLine
 10
-56.77948207396365
 20
-1453.840473648529
 30
0.0000000000000659
 11
-56.77948207396365
 21
-1497.839771286167
 31
0.0000000000000659
  0
LINE
  5
1371
330
1F
100
AcDbEntity
  8
Hewi
  6
Continuous
100
AcDbLine
 10
291.7118264270994
 20
-1451.839922076547
 30
0.0000000000000659
 11
291.7118264270994
 21
-1440.839922076547
 31
0.0000000000000659
  0
LINE
  5
1372
330
1F
100
AcDbEntity
  8
Hewi
  6
Continuous
100
AcDbLine
 10
211.7118264270994
 20
-1440.839922076547
 30
0.0000000000000659
 11
211.7118264270994
 21
-1451.839922076547
 31
0.0000000000000659
  0
LINE
  5
1373
330
1F
100
AcDbEntity
  8
Hewi
  6
Continuous
100
AcDbLine
 10
260.7118264270994
 20
-1497.833570778185
 30
0.0000000000000659
 11
260.7118264270994
 21
-1453.840352403514
 31
0.0000000000000659
  0
LINE
  5
1374
330
1F
100
AcDbEntity
  8
Hewi
  6
Continuous
100
AcDbLine
 10
242.7118264270994
 20
-1453.840295325591
 30
0.0000000000000659
 11
242.7118264270994
 21
-1497.839897998002
 31
0.0000000000000659
  0
LINE
  5
1375
330
1F
100
AcDbEntity
  8
Hewi
  6
Continuous
100
AcDbLine
 10
-7.779482073963662
 20
-1451.839922076547
 30
0.0000000000000659
 11
-7.779482073963662
 21
-1440.839922076547
 31
0.0000000000000659
  0
LINE
  5
1376
330
1F
100
AcDbEntity
  8
Hewi
  6
Continuous
100
AcDbLine
 10
-87.77948207396368
 20
-1440.839922076547
 30
0.0000000000000659
 11
-87.77948207396368
 21
-1451.839922076547
 31
0.0000000000000659
  0
LINE
  5
1377
330
1F
100
AcDbEntity
  8
Hewi
  6
Continuous
100
AcDbLine
 10
-95.84448099197286
 20
-1530.839922076547
 30
0.0000000000000659
 11
-95.73382782343651
 21
-1530.839922076547
 31
0.0000000000000659
  0
LINE
  5
1378
330
1F
100
AcDbEntity
  8
Hewi
  6
Continuous
100
AcDbLine
 10
-95.73382782343651
 20
-1497.839922076547
 30
0.0000000000000659
 11
-95.84448099197286
 21
-1497.839922076547
 31
0.0000000000000659
  0
LINE
  5
1379
330
1F
100
AcDbEntity
  8
Hewi
  6
Continuous
100
AcDbLine
 10
299.7768253451231
 20
-1497.839922076547
 30
0.0000000000000659
 11
299.6661721765722
 21
-1497.839922076547
 31
0.0000000000000659
  0
LINE
  5
137A
330
1F
100
AcDbEntity
  8
Hewi
  6
Continuous
100
AcDbLine
 10
299.6661721765722
 20
-1530.839922076547
 30
0.0000000000000659
 11
299.7768253451231
 21
-1530.839922076547
 31
0.0000000000000659
  0
LINE
  5
137B
330
1F
100
AcDbEntity
  8
Hewi
  6
Continuous
100
AcDbLine
 10
299.1661721765722
 20
-1514.339922076547
 30
0.0000000000000659
 11
299.1661721765722
 21
-1497.839922076547
 31
0.0000000000000659
  0
LINE
  5
137C
330
1F
100
AcDbEntity
  8
Hewi
  6
Continuous
100
AcDbLine
 10
299.1661721765722
 20
-1530.839922076547
 30
0.0000000000000659
 11
299.1661721765722
 21
-1514.339922076547
 31
0.0000000000000659
  0
LINE
  5
137D
330
1F
100
AcDbEntity
  8
Hewi
  6
Continuous
100
AcDbLine
 10
-95.2338278234365
 20
-1530.839922076547
 30
0.0000000000000659
 11
-95.2338278234365
 21
-1497.839922076547
 31
0.0000000000000659
  0
LINE
  5
1380
330
1F
100
AcDbEntity
  8
Hewi
  6
Continuous
100
AcDbLine
 10
213.7118264270994
 20
-1453.839922076547
 30
0.0000000000000659
 11
289.7118264270994
 21
-1453.839922076547
 31
0.0000000000000659
  0
LINE
  5
1381
330
1F
100
AcDbEntity
  8
Hewi
  6
Continuous
100
AcDbLine
 10
211.7118264270994
 20
-1440.839922076547
 30
0.0000000000000659
 11
291.7118264270994
 21
-1440.839922076547
 31
0.0000000000000659
  0
LINE
  5
1382
330
1F
100
AcDbEntity
  8
Hewi
  6
Continuous
100
AcDbLine
 10
-87.77948207396368
 20
-1440.839922076547
 30
0.0000000000000659
 11
-7.779482073963662
 21
-1440.839922076547
 31
0.0000000000000659
  0
LINE
  5
1385
330
1F
100
AcDbEntity
  8
Hewi
  6
Continuous
100
AcDbLine
 10
-85.77948207396365
 20
-1453.839922076547
 30
0.0000000000000659
 11
-9.779482073963663
 21
-1453.839922076547
 31
0.0000000000000659
  0
LINE
  5
138A
330
1F
100
AcDbEntity
  8
Hewi
  6
Continuous
100
AcDbLine
 10
-95.73382782343651
 20
-1497.839922076547
 30
0.0000000000000659
 11
-95.73382782343651
 21
-1530.839922076547
 31
0.0000000000000659
  0
LINE
  5
138E
330
1F
100
AcDbEntity
  8
Hewi
  6
Continuous
100
AcDbLine
 10
299.6661721765722
 20
-1530.839922076547
 30
0.0000000000000659
 11
299.6661721765722
 21
-1497.839922076547
 31
0.0000000000000659
  0
LINE
  5
138F
330
1F
100
AcDbEntity
  8
Hewi
100
AcDbLine
 10
299.7768253451231
 20
-1086.276025707911
 30
0.0000000000000643
 11
-95.2338278234365
 21
-1086.276025707911
 31
0.0000000000000643
  0
LINE
  5
1390
330
1F
100
AcDbEntity
  8
Hewi
100
AcDbLine
 10
-95.2338278234365
 20
-1119.276025707911
 30
0.0000000000000675
 11
299.7768253451231
 21
-1119.276025707911
 31
0.0000000000000674
  0
LINE
  5
1391
330
1F
100
AcDbEntity
  8
Hewi
100
AcDbLine
 10
249.3359094370843
 20
-1142.705363062418
 30
0.0000000000000662
 11
249.3376716712973
 21
-1142.818046001533
 31
0.0000000000000662
  0
LINE
  5
1392
330
1F
100
AcDbEntity
  8
Hewi
100
AcDbLine
 10
255.3369380827807
 20
-1142.724224234048
 30
0.0000000000000662
 11
255.335176242852
 21
-1142.611566506403
 31
0.0000000000000662
  0
LINE
  5
1393
330
1F
100
AcDbEntity
  8
Hewi
100
AcDbLine
 10
-50.22270693861173
 20
-1142.701338256816
 30
0.0000000000000662
 11
-50.14680396693984
 21
-1142.777168291058
 31
0.0000000000000662
  0
LINE
  5
1394
330
1F
100
AcDbEntity
  8
Hewi
100
AcDbLine
 10
-45.37370451840796
 20
-1142.774873882013
 30
0.0000000000000662
 11
-45.29787448416572
 21
-1142.698970910355
 31
0.0000000000000662
  0
LINE
  5
1395
330
1F
100
AcDbEntity
  8
Hewi
100
AcDbLine
 10
-50.76030806891322
 20
-1142.664766468956
 30
0.0000000000000662
 11
-50.76025389607639
 21
-1142.777463173876
 31
0.0000000000000662
  0
LINE
  5
1396
330
1F
100
AcDbEntity
  8
Hewi
100
AcDbLine
 10
-44.76025458927142
 20
-1142.774578999194
 30
0.0000000000000662
 11
-44.76030875000104
 21
-1142.661907508814
 31
0.0000000000000662
  0
LINE
  5
1397
330
1F
100
AcDbEntity
  8
Hewi
100
AcDbLine
 10
249.874003110368
 20
-1142.733782593442
 30
0.0000000000000662
 11
249.9510466679948
 21
-1142.808453507653
 31
0.0000000000000662
  0
LINE
  5
1398
330
1F
100
AcDbEntity
  8
Hewi
100
AcDbLine
 10
254.7235630860978
 20
-1142.733816727927
 30
0.0000000000000662
 11
254.7982340003092
 21
-1142.656773170301
 31
0.0000000000000662
  0
LINE
  5
1399
330
1F
100
AcDbEntity
  8
Hewi
100
AcDbLine
 10
-95.84448099197286
 20
-1119.276025707911
 30
0.0000000000000675
 11
-95.73382782343651
 21
-1119.276025707911
 31
0.0000000000000675
  0
LINE
  5
139A
330
1F
100
AcDbEntity
  8
Hewi
100
AcDbLine
 10
-95.73382782343651
 20
-1086.276025707911
 30
0.0000000000000643
 11
-95.84448099197286
 21
-1086.276025707911
 31
0.0000000000000643
  0
LINE
  5
139B
330
1F
100
AcDbEntity
  8
Hewi
100
AcDbLine
 10
299.7768253451231
 20
-1086.276025707911
 30
0.0000000000000643
 11
299.6661721765722
 21
-1086.276025707911
 31
0.0000000000000643
  0
LINE
  5
139C
330
1F
100
AcDbEntity
  8
Hewi
100
AcDbLine
 10
299.6661721765722
 20
-1119.276025707911
 30
0.0000000000000675
 11
299.7768253451231
 21
-1119.276025707911
 31
0.0000000000000675
  0
LINE
  5
139D
330
1F
100
AcDbEntity
  8
Hewi
100
AcDbLine
 10
249.9510466679948
 20
-1142.808453507653
 30
0.0000000000000662
 11
249.9498592362378
 21
-1142.732525292133
 31
0.0000000000000662
  0
LINE
  5
139E
330
1F
100
AcDbEntity
  8
Hewi
100
AcDbLine
 10
254.7235630860978
 20
-1142.733816727927
 30
0.0000000000000662
 11
254.7223756543553
 21
-1142.657888512408
 31
0.0000000000000662
  0
LINE
  5
139F
330
1F
100
AcDbEntity
  8
Hewi
100
AcDbLine
 10
-50.14680396693984
 20
-1142.777168291058
 30
0.0000000000000662
 11
-50.1468404697789
 21
-1142.701230799827
 31
0.0000000000000662
  0
LINE
  5
13A0
330
1F
100
AcDbEntity
  8
Hewi
100
AcDbLine
 10
-45.37370451840796
 20
-1142.774873882013
 30
0.0000000000000662
 11
-45.37374102123249
 21
-1142.698936390782
 31
0.0000000000000662
  0
LINE
  5
13CA
330
1F
100
AcDbEntity
  8
Hewi
100
AcDbLine
 10
-45.37370451840796
 20
-1142.774873882013
 30
0.0000000000000662
 11
-50.14680396693984
 21
-1142.777168291058
 31
0.0000000000000662
  0
LINE
  5
13CB
330
1F
100
AcDbEntity
  8
Hewi
100
AcDbLine
 10
254.7235630860978
 20
-1142.733816727927
 30
0.0000000000000662
 11
249.9510466679948
 21
-1142.808453507653
 31
0.0000000000000662
  0
LINE
  5
13D0
330
1F
100
AcDbEntity
  8
Hewi
100
AcDbLine
 10
-95.73382782343651
 20
-1119.276025707911
 30
0.0000000000000675
 11
-95.73382782343651
 21
-1086.276025707911
 31
0.0000000000000643
  0
LINE
  5
13D3
330
1F
100
AcDbEntity
  8
Hewi
100
AcDbLine
 10
299.6661721765722
 20
-1119.276025707911
 30
0.0000000000000675
 11
299.6661721765722
 21
-1086.276025707911
 31
0.0000000000000643
  0
LINE
  5
13D4
330
1F
100
AcDbEntity
  8
Hewi
  6
Continuous
100
AcDbLine
 10
-233.9414844211924
 20
-1142.77602570791
 30
0.0000000000000622
 11
-232.8381931665999
 21
-1142.77602570791
 31
0.0000000000000634
  0
LINE
  5
13D5
330
1F
100
AcDbEntity
  8
Hewi
  6
Continuous
100
AcDbLine
 10
-243.8381931665999
 20
-1142.77602570791
 30
0.0000000000000506
 11
-239.7318578238692
 21
-1142.77602570791
 31
0.0000000000000554
  0
LINE
  5
13D6
330
1F
100
AcDbEntity
  8
Hewi
  6
Continuous
100
AcDbLine
 10
-232.8381931665999
 20
-1062.776025707911
 30
0.0000000000000683
 11
-243.8381931665999
 21
-1062.776025707911
 31
0.0000000000000555
  0
LINE
  5
13D7
330
1F
100
AcDbEntity
  8
Hewi
  6
Continuous
100
AcDbLine
 10
-292.5082834234263
 20
-1111.776025707911
 30
0.0000000000001088
 11
-245.8384685739356
 21
-1111.776025707911
 31
0.000000000000058
  0
LINE
  5
13D8
330
1F
100
AcDbEntity
  8
Hewi
  6
Continuous
100
AcDbLine
 10
-245.8387033847457
 20
-1093.77602570791
 30
0.0000000000000512
 11
-292.3454819971876
 21
-1093.77602570791
 31
-0.0000000000000033
  0
LINE
  5
13D9
330
1F
100
AcDbEntity
  8
Hewi
  6
Continuous
100
AcDbLine
 10
-234.4516431666043
 20
-1142.776021086542
 30
0.0000000000000517
 11
-234.4709941010287
 21
-1142.775875292621
 31
0.0000000000000517
  0
LINE
  5
13DA
330
1F
100
AcDbEntity
  8
Hewi
  6
Continuous
100
AcDbLine
 10
-235.4650187052093
 20
-1142.754614972121
 30
0.0000000000000604
 11
-235.4650187052093
 21
-1142.787642183325
 31
0.0000000000000604
  0
LINE
  5
13DB
330
1F
100
AcDbEntity
  8
Hewi
  6
Continuous
100
AcDbLine
 10
-237.0658196719369
 20
-1142.797984210007
 30
0.0000000000000585
 11
-237.0658196719369
 21
-1142.744232979695
 31
0.0000000000000585
  0
LINE
  5
13DD
330
1F
100
AcDbEntity
  8
Hewi
  6
Continuous
100
AcDbLine
 10
-245.8381931665999
 20
-1064.776025707911
 30
0.000000000000053
 11
-245.8381931665999
 21
-1140.776025707911
 31
0.0000000000000483
  0
LINE
  5
13DE
330
1F
100
AcDbEntity
  8
Hewi
  6
Continuous
100
AcDbLine
 10
-232.8381931665999
 20
-1062.776025707911
 30
0.0000000000000683
 11
-232.8381931665999
 21
-1142.77602570791
 31
0.0000000000000634
  0
ARC
  5
13DF
330
1F
100
AcDbEntity
  8
Hewi
  6
Continuous
100
AcDbCircle
 10
299.1661721765722
 20
-1530.339922076547
 30
0.0000000000000659
 40
0.5
100
AcDbArc
 50
270.0
 51
0.0
  0
ARC
  5
13E0
330
1F
100
AcDbEntity
  8
Hewi
  6
Continuous
100
AcDbCircle
 10
299.1661721765722
 20
-1498.339922076547
 30
0.0000000000000659
 40
0.5
100
AcDbArc
 50
0.0
 51
90.0
  0
ARC
  5
13E1
330
1F
100
AcDbEntity
  8
Hewi
  6
Continuous
100
AcDbCircle
 10
-95.2338278234365
 20
-1530.339922076547
 30
0.0000000000000659
 40
0.5
100
AcDbArc
 50
180.0
 51
270.0
  0
ARC
  5
13E2
330
1F
100
AcDbEntity
  8
Hewi
  6
Continuous
100
AcDbCircle
 10
-95.2338278234365
 20
-1498.339922076547
 30
0.0000000000000659
 40
0.5
100
AcDbArc
 50
90.0
 51
180.0
  0
ARC
  5
13E3
330
1F
100
AcDbEntity
  8
Hewi
  6
Continuous
100
AcDbCircle
 10
289.7118264270994
 20
-1451.839922076547
 30
0.0000000000000659
 40
2.0
100
AcDbArc
 50
270.0
 51
0.0
  0
ARC
  5
13E4
330
1F
100
AcDbEntity
  8
Hewi
  6
Continuous
100
AcDbCircle
 10
213.7118264270994
 20
-1451.839922076547
 30
0.0000000000000659
 40
2.0
100
AcDbArc
 50
180.0
 51
270.0
  0
ARC
  5
13E5
330
1F
100
AcDbEntity
  8
Hewi
  6
Continuous
100
AcDbCircle
 10
-9.779482073963663
 20
-1451.839922076547
 30
0.0000000000000659
 40
2.0
100
AcDbArc
 50
270.0
 51
0.0
  0
ARC
  5
13E6
330
1F
100
AcDbEntity
  8
Hewi
  6
Continuous
100
AcDbCircle
 10
-85.77948207396365
 20
-1451.839922076547
 30
0.0000000000000659
 40
2.0
100
AcDbArc
 50
180.0
 51
270.0
  0
ARC
  5
13E7
330
1F
100
AcDbEntity
  8
Hewi
  6
Continuous
100
AcDbCircle
 10
-95.84448099197286
 20
-1499.039922076558
 30
0.0000000000000659
 40
1.199999999999999
100
AcDbArc
 50
90.0
 51
172.6004459106726
  0
ARC
  5
13E8
330
1F
100
AcDbEntity
  8
Hewi
  6
Continuous
100
AcDbCircle
 10
-95.84448099197286
 20
-1529.639922076549
 30
0.0000000000000659
 40
1.199999999999999
100
AcDbArc
 50
187.3995540893274
 51
270.0
  0
ARC
  5
13E9
330
1F
100
AcDbEntity
  8
Hewi
  6
Continuous
100
AcDbCircle
 10
21.96617217657513
 20
-1514.339922076547
 30
0.0000000000000659
 40
120.0
100
AcDbArc
 50
172.6004459106726
 51
187.3995540893274
  0
ARC
  5
13EA
330
1F
100
AcDbEntity
  8
Hewi
  6
Continuous
100
AcDbCircle
 10
299.7768253451231
 20
-1529.639922076549
 30
0.0000000000000659
 40
1.199999999999999
100
AcDbArc
 50
270.0
 51
352.6004459106725
  0
ARC
  5
13EB
330
1F
100
AcDbEntity
  8
Hewi
  6
Continuous
100
AcDbCircle
 10
299.7768253451231
 20
-1499.039922076558
 30
0.0000000000000659
 40
1.199999999999999
100
AcDbArc
 50
7.399554089327337
 51
90.0
  0
ARC
  5
13EC
330
1F
100
AcDbEntity
  8
Hewi
  6
Continuous
100
AcDbCircle
 10
181.9661721765751
 20
-1514.339922076547
 30
0.0000000000000659
 40
120.0
100
AcDbArc
 50
352.6004459106725
 51
7.399554089327337
  0
ARC
  5
13ED
330
1F
100
AcDbEntity
  8
Hewi
100
AcDbCircle
 10
299.1661721765722
 20
-1118.77602570791
 30
0.0000000000000674
 40
0.5
100
AcDbArc
 50
270.0
 51
0.0
  0
ARC
  5
13EE
330
1F
100
AcDbEntity
  8
Hewi
100
AcDbCircle
 10
299.1661721765722
 20
-1086.776025707911
 30
0.0000000000000644
 40
0.5
100
AcDbArc
 50
0.0
 51
90.0
  0
ARC
  5
13EF
330
1F
100
AcDbEntity
  8
Hewi
100
AcDbCircle
 10
-95.2338278234365
 20
-1118.77602570791
 30
0.0000000000000674
 40
0.5
100
AcDbArc
 50
180.0
 51
270.0
  0
ARC
  5
13F0
330
1F
100
AcDbEntity
  8
Hewi
100
AcDbCircle
 10
-95.2338278234365
 20
-1086.776025707911
 30
0.0000000000000644
 40
0.5
100
AcDbArc
 50
90.0
 51
180.0
  0
ARC
  5
13F1
330
1F
100
AcDbEntity
  8
Hewi
100
AcDbCircle
 10
-95.84448099197286
 20
-1087.476025707908
 30
0.0000000000000644
 40
1.199999999999999
100
AcDbArc
 50
90.0
 51
172.6004459106726
  0
ARC
  5
13F2
330
1F
100
AcDbEntity
  8
Hewi
100
AcDbCircle
 10
-95.84448099197286
 20
-1118.076025707899
 30
0.0000000000000674
 40
1.199999999999999
100
AcDbArc
 50
187.3995540893274
 51
270.0
  0
ARC
  5
13F3
330
1F
100
AcDbEntity
  8
Hewi
100
AcDbCircle
 10
21.96617217657513
 20
-1102.77602570791
 30
0.0000000000000659
 40
120.0
100
AcDbArc
 50
172.6004459106726
 51
187.3995540893274
  0
ARC
  5
13F4
330
1F
100
AcDbEntity
  8
Hewi
100
AcDbCircle
 10
299.7768253451231
 20
-1118.076025707899
 30
0.0000000000000674
 40
1.199999999999999
100
AcDbArc
 50
270.0
 51
352.6004459106725
  0
ARC
  5
13F5
330
1F
100
AcDbEntity
  8
Hewi
100
AcDbCircle
 10
299.7768253451231
 20
-1087.476025707908
 30
0.0000000000000644
 40
1.199999999999999
100
AcDbArc
 50
7.399554089327337
 51
90.0
  0
ARC
  5
13F6
330
1F
100
AcDbEntity
  8
Hewi
100
AcDbCircle
 10
181.9661721765751
 20
-1102.77602570791
 30
0.0000000000000659
 40
120.0
100
AcDbArc
 50
352.6004459106725
 51
7.399554089327337
  0
ARC
  5
13F7
330
1F
100
AcDbEntity
  8
Hewi
100
AcDbCircle
 10
-251.7118264270994
 20
-1102.77602570791
 30
-0.0000000000000659
 40
40.0
210
0.0
220
0.0
230
-1.0
100
AcDbArc
 50
89.99999875269006
 51
155.638129707018
  0
ARC
  5
13F8
330
1F
100
AcDbEntity
  8
Hewi
100
AcDbCircle
 10
-251.7118264270994
 20
-1102.77602570791
 30
-0.0000000000000659
 40
40.0
210
0.0
220
0.0
230
-1.0
100
AcDbArc
 50
204.3675059093196
 51
335.6325091967957
  0
ARC
  5
13F9
330
1F
100
AcDbEntity
  8
Hewi
100
AcDbCircle
 10
-251.7118264270994
 20
-1102.77602570791
 30
-0.0000000000000659
 40
40.0
210
0.0
220
0.0
230
-1.0
100
AcDbArc
 50
24.36188212269412
 51
90.000013076744
  0
ARC
  5
13FD
330
1F
100
AcDbEntity
  8
Hewi
100
AcDbCircle
 10
47.77948207396365
 20
-1102.77602570791
 30
-0.0000000000000659
 40
40.0
210
0.0
220
0.0
230
-1.0
100
AcDbArc
 50
89.99999318148352
 51
155.63812413492
  0
ARC
  5
13FE
330
1F
100
AcDbEntity
  8
Hewi
100
AcDbCircle
 10
47.77948207396365
 20
-1102.77602570791
 30
-0.0000000000000659
 40
40.0
210
0.0
220
0.0
230
-1.0
100
AcDbArc
 50
204.3675003378947
 51
335.6325036253672
  0
ARC
  5
13FF
330
1F
100
AcDbEntity
  8
Hewi
100
AcDbCircle
 10
47.77948207396365
 20
-1102.77602570791
 30
-0.0000000000000659
 40
40.0
210
0.0
220
0.0
230
-1.0
100
AcDbArc
 50
24.36187655152865
 51
90.0000075055375
  0
ARC
  5
1403
330
1F
100
AcDbEntity
  8
Hewi
  6
Continuous
100
AcDbCircle
 10
-243.8381931665999
 20
-1140.776025707911
 30
0.0000000000000507
 40
2.0
100
AcDbArc
 50
180.0
 51
270.0
  0
ARC
  5
1404
330
1F
100
AcDbEntity
  8
Hewi
  6
Continuous
100
AcDbCircle
 10
-243.8381931665999
 20
-1064.776025707911
 30
0.0000000000000553
 40
2.0
100
AcDbArc
 50
90.0
 51
180.0
  0
CIRCLE
  5
1406
330
1F
100
AcDbEntity
  8
Hewi
  6
Continuous
100
AcDbCircle
 10
306.3381931665999
 20
-1102.77602570791
 30
0.0000000000000202
 40
16.50000000000001
210
0.0
220
0.0
230
-1.0
  0
ELLIPSE
  5
1407
330
1F
100
AcDbEntity
  8
Hewi
  6
Continuous
100
AcDbEllipse
 10
-236.8381931665999
 20
-1142.776021086542
 30
0.0000000000000517
 11
2.386549999999999
 21
-0.0000000000000007
 31
0.0
210
0.0
220
0.0
230
1.0
 40
0.000480695782269
 41
0.0
 42
6.283185307179584
  0
ELLIPSE
  5
1408
330
1F
100
AcDbEntity
  8
Hewi
  6
Continuous
100
AcDbEllipse
 10
-236.8381931665999
 20
-1142.771135117805
 30
0.0000000000000588
 11
-1.73205
 21
0.0000000000000005
 31
0.0
210
0.0
220
0.0
230
1.0
 40
0.0156369612484454
 41
1.438993963386124
 42
2.486192322152443
  0
ELLIPSE
  5
1409
330
1F
100
AcDbEntity
  8
Hewi
  6
Continuous
100
AcDbEllipse
 10
-236.8381931665999
 20
-1142.771135117805
 30
0.0000000000000588
 11
-1.73205
 21
0.0000000000000005
 31
0.0
210
0.0
220
0.0
230
1.0
 40
0.0156369612484454
 41
0.3917972197594088
 42
1.438993963386124
  0
ELLIPSE
  5
140A
330
1F
100
AcDbEntity
  8
Hewi
  6
Continuous
100
AcDbEllipse
 10
-236.8381931665999
 20
-1142.771135117805
 30
0.0000000000000588
 11
-1.73205
 21
0.0000000000000005
 31
0.0
210
0.0
220
0.0
230
1.0
 40
0.0156369612484454
 41
2.486192322152443
 42
3.533389873349201
  0
ELLIPSE
  5
140B
330
1F
100
AcDbEntity
  8
Hewi
  6
Continuous
100
AcDbEllipse
 10
-236.8381931665999
 20
-1142.771135117805
 30
0.0000000000000588
 11
-1.73205
 21
0.0000000000000005
 31
0.0
210
0.0
220
0.0
230
1.0
 40
0.0156369612484454
 41
5.627783360602811
 42
6.674982526938992
  0
ELLIPSE
  5
140C
330
1F
100
AcDbEntity
  8
Hewi
  6
Continuous
100
AcDbEllipse
 10
-236.8381931665999
 20
-1142.771135117805
 30
0.0000000000000588
 11
-1.73205
 21
0.0000000000000005
 31
0.0
210
0.0
220
0.0
230
1.0
 40
0.0156369612484454
 41
4.580585809406087
 42
5.627783360602811
  0
ELLIPSE
  5
140D
330
1F
100
AcDbEntity
  8
Hewi
  6
Continuous
100
AcDbEllipse
 10
-236.8381931665999
 20
-1142.771135117805
 30
0.0000000000000588
 11
-1.73205
 21
0.0000000000000005
 31
0.0
210
0.0
220
0.0
230
1.0
 40
0.0156369612484454
 41
3.533389873349201
 42
4.580585809406087
  0
ELLIPSE
  5
140E
330
1F
100
AcDbEntity
  8
Hewi
  6
Continuous
100
AcDbEllipse
 10
-236.8381931665999
 20
-1142.771135117805
 30
0.0000000000000588
 11
2.386549999999999
 21
-0.0000000000000007
 31
0.0
210
0.0
220
0.0
230
1.0
 40
0.0156369612484454
 41
0.0
 42
4.002093372310818
  0
ELLIPSE
  5
140F
330
1F
100
AcDbEntity
  8
Hewi
  6
Continuous
100
AcDbEllipse
 10
-236.8381931665999
 20
-1142.771135117805
 30
0.0000000000000588
 11
2.386549999999999
 21
-0.0000000000000007
 31
0.0
210
0.0
220
0.0
230
1.0
 40
0.0156369612484454
 41
5.422682440772145
 42
6.283185307179584
  0
SPLINE
  5
1410
330
1F
100
AcDbEntity
  8
Hewi
  6
Continuous
100
AcDbSpline
210
0.0
220
0.0
230
1.0
 70
     8
 71
     3
 72
    14
 73
    10
 74
     0
 42
0.0000000001
 43
0.0000000001
 40
0.0
 40
0.0
 40
0.0
 40
0.0
 40
0.2434325075971086
 40
0.2434325075971086
 40
0.495621671731406
 40
0.495621671731406
 40
0.7478108358657032
 40
0.7478108358657032
 40
1.0
 40
1.0
 40
1.0
 40
1.0
 10
-56.77770110468372
 20
-1497.840185698868
 30
0.0000000000000659
 10
-56.73058472281081
 20
-1497.840858799759
 30
0.0000000000000659
 10
-55.74267490039165
 20
-1498.388836683928
 30
0.0000000000000659
 10
-52.55065960202592
 20
-1499.679334659861
 30
0.0000000000000659
 10
-50.24336698994557
 20
-1500.372753355875
 30
0.0000000000000659
 10
-45.43152065244611
 20
-1500.390830597743
 30
0.0000000000000659
 10
-43.08216740960597
 20
-1499.701651706612
 30
0.0000000000000659
 10
-39.80329865557543
 20
-1498.386024264769
 30
0.0000000000000659
 10
-38.78065090442942
 20
-1497.811557781887
 30
0.0000000000000659
 10
-38.77948311377077
 20
-1497.841145691684
 30
0.0000000000000659
  0
SPLINE
  5
1411
330
1F
100
AcDbEntity
  8
Hewi
  6
Continuous
100
AcDbSpline
210
0.0
220
0.0
230
1.0
 70
     8
 71
     3
 72
    14
 73
    10
 74
     0
 42
0.0000000001
 43
0.0000000001
 40
0.0
 40
0.0
 40
0.0
 40
0.0
 40
0.2434469386710948
 40
0.2434469386710948
 40
0.4956312924473967
 40
0.4956312924473967
 40
0.7478156462236985
 40
0.7478156462236985
 40
1.0
 40
1.0
 40
1.0
 40
1.0
 10
242.712052472345
 20
-1497.84018555073
 30
0.0000000000000659
 10
242.7237083368109
 20
-1497.840772923916
 30
0.0000000000000659
 10
243.6774503278157
 20
-1498.388787017106
 30
0.0000000000000659
 10
246.8203593972448
 20
-1499.679334659861
 30
0.0000000000000659
 10
249.1120552951052
 20
-1500.372753355875
 30
0.0000000000000659
 10
253.9228792339437
 20
-1500.390830597743
 30
0.0000000000000659
 10
256.2870999663446
 20
-1499.701651706612
 30
0.0000000000000659
 10
259.6148654004519
 20
-1498.386024264769
 30
0.0000000000000659
 10
260.6727379905078
 20
-1497.811557781887
 30
0.0000000000000659
 10
260.7107260443318
 20
-1497.841145691684
 30
0.0000000000000659
  0
SPLINE
  5
1412
330
1F
100
AcDbEntity
  8
Hewi
  6
Continuous
100
AcDbSpline
210
0.0000000000000063
220
-0.0000000000002445
230
1.0
 70
     8
 71
     3
 72
    10
 73
     6
 74
     0
 42
0.0000000001
 43
0.0000000001
 40
0.0
 40
0.0
 40
0.0
 40
0.0
 40
0.5130118199267566
 40
0.5130118199267566
 40
1.0
 40
1.0
 40
1.0
 40
1.0
 10
-239.8381931665999
 20
-1142.771117844929
 30
0.0000000000000552
 10
-239.8381931665999
 20
-1142.776377358464
 30
0.0000000000000552
 10
-239.7803945854603
 20
-1142.777246436225
 30
0.0000000000000553
 10
-239.5644841351668
 20
-1142.77160218488
 30
0.0000000000000556
 10
-239.4088733890885
 20
-1142.765445170172
 30
0.0000000000000557
 10
-239.2146003401931
 20
-1142.757841005111
 30
0.000000000000056
  0
SPLINE
  5
1413
330
1F
100
AcDbEntity
  8
Hewi
  6
Continuous
100
AcDbSpline
210
0.0000000000000222
220
0.0000000000007408
230
1.0
 70
     8
 71
     3
 72
    10
 73
     6
 74
     0
 42
0.0000000001
 43
0.0000000001
 40
0.0
 40
0.0
 40
0.0
 40
0.0
 40
0.3477184374833746
 40
0.3477184374833746
 40
1.0
 40
1.0
 40
1.0
 40
1.0
 10
-234.4057943729922
 20
-1142.760028388006
 30
0.0000000000000616
 10
-234.3005467674729
 20
-1142.764152155117
 30
0.0000000000000617
 10
-234.2081799301877
 20
-1142.767758738967
 30
0.0000000000000618
 10
-233.986726816328
 20
-1142.775502302601
 30
0.0000000000000621
 10
-233.892361850324
 20
-1142.777399156873
 30
0.0000000000000622
 10
-233.8559397381678
 20
-1142.774903170478
 30
0.0000000000000623
  0
SPLINE
  5
1414
330
1F
100
AcDbEntity
  8
Hewi
  6
Continuous
100
AcDbSpline
210
0.0
220
-0.0000000000000004
230
1.0
 70
     8
 71
     3
 72
    26
 73
    22
 74
     0
 42
0.0000000001
 43
0.0000000001
 40
0.0
 40
0.0
 40
0.0
 40
0.0
 40
0.0731471727184262
 40
0.0731471727184262
 40
0.1802149436257072
 40
0.1802149436257072
 40
0.2874905855567218
 40
0.2874905855567218
 40
0.3949879757880137
 40
0.3949879757880137
 40
0.5023745671183005
 40
0.5023745671183005
 40
0.6094893672687367
 40
0.6094893672687367
 40
0.7165961754068957
 40
0.7165961754068957
 40
0.8239704351530257
 40
0.8239704351530257
 40
0.9314709975742248
 40
0.9314709975742248
 40
1.0
 40
1.0
 40
1.0
 40
1.0
 10
-233.8384230262664
 20
-1142.771155165935
 30
0.0000000000000623
 10
-233.838334223582
 20
-1142.76755001069
 30
0.0000000000000623
 10
-233.8645113818266
 20
-1142.761978738422
 30
0.0000000000000622
 10
-233.9923565646231
 20
-1142.744057138004
 30
0.0000000000000621
 10
-234.1254776334017
 20
-1142.729512867027
 30
0.0000000000000619
 10
-234.4843296262761
 20
-1142.697920942596
 30
0.0000000000000615
 10
-234.7151749114773
 20
-1142.68052157066
 30
0.0000000000000613
 10
-235.2418746277899
 20
-1142.649483689271
 30
0.0000000000000606
 10
-235.5451526073366
 20
-1142.635520874862
 30
0.0000000000000603
 10
-236.1805275745637
 20
-1142.616578377482
 30
0.0000000000000595
 10
-236.5213808724138
 20
-1142.611391369229
 30
0.0000000000000591
 10
-237.1922301449004
 20
-1142.611777832343
 30
0.0000000000000584
 10
-237.5314849823109
 20
-1142.617327615317
 30
0.000000000000058
 10
-238.1623242402629
 20
-1142.636795773626
 30
0.0000000000000572
 10
-238.4625929252716
 20
-1142.650916464471
 30
0.0000000000000569
 10
-238.9841441428789
 20
-1142.682117852445
 30
0.0000000000000563
 10
-239.2124307513068
 20
-1142.699539721482
 30
0.000000000000056
 10
-239.5659249717783
 20
-1142.731027963692
 30
0.0000000000000556
 10
-239.6958915763744
 20
-1142.745437234514
 30
0.0000000000000554
 10
-239.8145582017232
 20
-1142.762563600762
 30
0.0000000000000553
 10
-239.8381931665999
 20
-1142.767755318015
 30
0.0000000000000552
 10
-239.8381931665999
 20
-1142.771117844929
 30
0.0000000000000552
  0
SPLINE
  5
1415
330
1F
100
AcDbEntity
  8
Hewi
  6
Continuous
100
AcDbSpline
210
0.0000000000000094
220
0.0000000000000024
230
1.0
 70
     8
 71
     3
 72
    10
 73
     6
 74
     0
 42
0.0000000001
 43
0.0000000001
 40
0.0
 40
0.0
 40
0.0
 40
0.0
 40
0.4944877053142961
 40
0.4944877053142961
 40
1.0
 40
1.0
 40
1.0
 40
1.0
 10
-291.3264528580394
 20
-1095.726079159217
 30
-0.0000000000000022
 10
-291.312556845477
 20
-1095.724921312246
 30
-0.0000000000000022
 10
-290.9349136833107
 20
-1096.45648992145
 30
-0.0000000000000018
 10
-290.1569715681753
 20
-1098.977492638388
 30
-0.000000000000001
 10
-289.8164367751661
 20
-1100.779195490807
 30
-0.0000000000000007
 10
-289.8394167817378
 20
-1102.665785131107
 30
-0.0000000000000009
  0
SPLINE
  5
1416
330
1F
100
AcDbEntity
  8
Hewi
  6
Continuous
100
AcDbSpline
210
-0.0000000000434536
220
-0.0000000000224825
230
1.0
 70
     8
 71
     3
 72
     8
 73
     4
 74
     0
 42
0.0000000001
 43
0.0000000001
 40
0.0
 40
0.0
 40
0.0
 40
0.0
 40
1.0
 40
1.0
 40
1.0
 40
1.0
 10
-291.464666067367
 20
-1095.509106316273
 30
0.0000000000000125
 10
-291.7338916703366
 20
-1094.931453543589
 30
0.0000000000000291
 10
-291.9804405456152
 20
-1094.479770516894
 30
0.0000000000000568
 10
-292.1496823252009
 20
-1094.182548310016
 30
0.0000000000000786
  0
SPLINE
  5
1417
330
1F
100
AcDbEntity
  8
Hewi
  6
Continuous
100
AcDbSpline
210
0.000000000000077
220
0.0000000000000133
230
1.0
 70
     8
 71
     3
 72
    10
 73
     6
 74
     0
 42
0.0000000001
 43
0.0000000001
 40
0.0
 40
0.0
 40
0.0
 40
0.0
 40
0.4943005477983623
 40
0.4943005477983623
 40
1.0
 40
1.0
 40
1.0
 40
1.0
 10
-292.3796183642035
 20
-1093.776153836098
 30
0.0000000000001102
 10
-292.358048243862
 20
-1093.769905233658
 30
0.0000000000001053
 10
-291.6850951046717
 20
-1094.725268044892
 30
-0.0000000000000025
 10
-290.3842953548219
 20
-1097.890129587763
 30
-0.0000000000000012
 10
-289.8098288719402
 20
-1100.206214374343
 30
-0.0000000000000007
 10
-289.8394167817378
 20
-1102.635293056684
 30
-0.0000000000000009
  0
LINE
  5
1531
330
1F
100
AcDbEntity
  8
Hewi
  6
Continuous
100
AcDbLine
 10
438.484481942879
 20
-1142.77602570791
 30
0.0000000000000622
 11
437.3811906882865
 21
-1142.77602570791
 31
0.0000000000000634
  0
LINE
  5
1532
330
1F
100
AcDbEntity
  8
Hewi
  6
Continuous
100
AcDbLine
 10
448.3811906882865
 20
-1142.77602570791
 30
0.0000000000000506
 11
444.2748553455556
 21
-1142.77602570791
 31
0.0000000000000554
  0
LINE
  5
1533
330
1F
100
AcDbEntity
  8
Hewi
  6
Continuous
100
AcDbLine
 10
437.3811906882865
 20
-1062.776025707911
 30
0.0000000000000683
 11
448.3811906882865
 21
-1062.776025707911
 31
0.0000000000000555
  0
LINE
  5
1534
330
1F
100
AcDbEntity
  8
Hewi
  6
Continuous
100
AcDbLine
 10
497.0512809451128
 20
-1111.776025707911
 30
0.0000000000001088
 11
450.381466095622
 21
-1111.776025707911
 31
0.000000000000058
  0
LINE
  5
1535
330
1F
100
AcDbEntity
  8
Hewi
  6
Continuous
100
AcDbLine
 10
450.3817009064323
 20
-1093.77602570791
 30
0.0000000000000512
 11
496.888479518874
 21
-1093.77602570791
 31
-0.0000000000000033
  0
LINE
  5
1536
330
1F
100
AcDbEntity
  8
Hewi
  6
Continuous
100
AcDbLine
 10
438.9946406882907
 20
-1142.776021086542
 30
0.0000000000000517
 11
439.0139916227154
 21
-1142.775875292621
 31
0.0000000000000517
  0
LINE
  5
1537
330
1F
100
AcDbEntity
  8
Hewi
  6
Continuous
100
AcDbLine
 10
440.008016226896
 20
-1142.754614972121
 30
0.0000000000000604
 11
440.008016226896
 21
-1142.787642183325
 31
0.0000000000000604
  0
LINE
  5
1538
330
1F
100
AcDbEntity
  8
Hewi
  6
Continuous
100
AcDbLine
 10
441.6088171936235
 20
-1142.797984210007
 30
0.0000000000000585
 11
441.6088171936235
 21
-1142.744232979695
 31
0.0000000000000585
  0
LINE
  5
1539
330
1F
100
AcDbEntity
  8
Hewi
  6
Continuous
100
AcDbLine
 10
450.3811906882865
 20
-1064.776025707911
 30
0.000000000000053
 11
450.3811906882865
 21
-1140.776025707911
 31
0.0000000000000483
  0
LINE
  5
153A
330
1F
100
AcDbEntity
  8
Hewi
  6
Continuous
100
AcDbLine
 10
437.3811906882865
 20
-1062.776025707911
 30
0.0000000000000683
 11
437.3811906882865
 21
-1142.77602570791
 31
0.0000000000000634
  0
ARC
  5
153B
330
1F
100
AcDbEntity
  8
Hewi
  6
Continuous
100
AcDbCircle
 10
448.3811906882865
 20
-1140.776025707911
 30
0.0000000000000507
 40
2.0
100
AcDbArc
 50
270.0
 51
0.000000000000007
  0
ARC
  5
153C
330
1F
100
AcDbEntity
  8
Hewi
  6
Continuous
100
AcDbCircle
 10
448.3811906882865
 20
-1064.776025707911
 30
0.0000000000000553
 40
2.0
100
AcDbArc
 50
0.000000000000007
 51
90.0
  0
CIRCLE
  5
153D
330
1F
100
AcDbEntity
  8
Hewi
  6
Continuous
100
AcDbCircle
 10
-510.8811906882865
 20
-1102.77602570791
 30
0.0000000000000202
 40
16.50000000000001
210
0.0
220
0.0
230
-1.0
  0
ELLIPSE
  5
153E
330
1F
100
AcDbEntity
  8
Hewi
  6
Continuous
100
AcDbEllipse
 10
441.3811906882865
 20
-1142.776021086542
 30
0.0000000000000517
 11
-2.386549999999999
 21
-0.0000000000000007
 31
0.0
210
0.0
220
0.0
230
-1.0
 40
0.000480695782269
 41
0.0
 42
6.283185307179584
  0
ELLIPSE
  5
153F
330
1F
100
AcDbEntity
  8
Hewi
  6
Continuous
100
AcDbEllipse
 10
441.3811906882865
 20
-1142.771135117805
 30
0.0000000000000588
 11
1.73205
 21
0.0000000000000005
 31
0.0
210
0.0
220
0.0
230
-1.0
 40
0.0156369612484454
 41
1.438993963386124
 42
2.486192322152443
  0
ELLIPSE
  5
1540
330
1F
100
AcDbEntity
  8
Hewi
  6
Continuous
100
AcDbEllipse
 10
441.3811906882865
 20
-1142.771135117805
 30
0.0000000000000588
 11
1.73205
 21
0.0000000000000005
 31
0.0
210
0.0
220
0.0
230
-1.0
 40
0.0156369612484454
 41
0.3917972197594088
 42
1.438993963386124
  0
ELLIPSE
  5
1541
330
1F
100
AcDbEntity
  8
Hewi
  6
Continuous
100
AcDbEllipse
 10
441.3811906882865
 20
-1142.771135117805
 30
0.0000000000000588
 11
1.73205
 21
0.0000000000000005
 31
0.0
210
0.0
220
0.0
230
-1.0
 40
0.0156369612484454
 41
2.486192322152443
 42
3.533389873349201
  0
ELLIPSE
  5
1542
330
1F
100
AcDbEntity
  8
Hewi
  6
Continuous
100
AcDbEllipse
 10
441.3811906882865
 20
-1142.771135117805
 30
0.0000000000000588
 11
1.73205
 21
0.0000000000000005
 31
0.0
210
0.0
220
0.0
230
-1.0
 40
0.0156369612484454
 41
5.627783360602811
 42
6.674982526938992
  0
ELLIPSE
  5
1543
330
1F
100
AcDbEntity
  8
Hewi
  6
Continuous
100
AcDbEllipse
 10
441.3811906882865
 20
-1142.771135117805
 30
0.0000000000000588
 11
1.73205
 21
0.0000000000000005
 31
0.0
210
0.0
220
0.0
230
-1.0
 40
0.0156369612484454
 41
4.580585809406087
 42
5.627783360602811
  0
ELLIPSE
  5
1544
330
1F
100
AcDbEntity
  8
Hewi
  6
Continuous
100
AcDbEllipse
 10
441.3811906882865
 20
-1142.771135117805
 30
0.0000000000000588
 11
1.73205
 21
0.0000000000000005
 31
0.0
210
0.0
220
0.0
230
-1.0
 40
0.0156369612484454
 41
3.533389873349201
 42
4.580585809406087
  0
ELLIPSE
  5
1545
330
1F
100
AcDbEntity
  8
Hewi
  6
Continuous
100
AcDbEllipse
 10
441.3811906882865
 20
-1142.771135117805
 30
0.0000000000000588
 11
-2.386549999999999
 21
-0.0000000000000007
 31
0.0
210
0.0
220
0.0
230
-1.0
 40
0.0156369612484454
 41
0.0
 42
4.002093372310818
  0
ELLIPSE
  5
1546
330
1F
100
AcDbEntity
  8
Hewi
  6
Continuous
100
AcDbEllipse
 10
441.3811906882865
 20
-1142.771135117805
 30
0.0000000000000588
 11
-2.386549999999999
 21
-0.0000000000000007
 31
0.0
210
0.0
220
0.0
230
-1.0
 40
0.0156369612484454
 41
5.422682440772145
 42
6.283185307179584
  0
SPLINE
  5
1547
330
1F
100
AcDbEntity
  8
Hewi
  6
Continuous
100
AcDbSpline
210
-0.0000000000000063
220
-0.0000000000002445
230
1.0
 70
     8
 71
     3
 72
    10
 73
     6
 74
     0
 42
0.0000000001
 43
0.0000000001
 40
0.0
 40
0.0
 40
0.0
 40
0.0
 40
0.5130118199267566
 40
0.5130118199267566
 40
1.0
 40
1.0
 40
1.0
 40
1.0
 10
444.3811906882865
 20
-1142.771117844929
 30
0.0000000000000552
 10
444.3811906882865
 20
-1142.776377358464
 30
0.0000000000000552
 10
444.3233921071469
 20
-1142.777246436225
 30
0.0000000000000553
 10
444.1074816568534
 20
-1142.77160218488
 30
0.0000000000000556
 10
443.9518709107751
 20
-1142.765445170172
 30
0.0000000000000557
 10
443.7575978618796
 20
-1142.757841005111
 30
0.000000000000056
  0
SPLINE
  5
1548
330
1F
100
AcDbEntity
  8
Hewi
  6
Continuous
100
AcDbSpline
210
-0.0000000000000222
220
0.0000000000007408
230
1.0
 70
     8
 71
     3
 72
    10
 73
     6
 74
     0
 42
0.0000000001
 43
0.0000000001
 40
0.0
 40
0.0
 40
0.0
 40
0.0
 40
0.3477184374833746
 40
0.3477184374833746
 40
1.0
 40
1.0
 40
1.0
 40
1.0
 10
438.9487918946788
 20
-1142.760028388006
 30
0.0000000000000616
 10
438.8435442891593
 20
-1142.764152155117
 30
0.0000000000000617
 10
438.7511774518743
 20
-1142.767758738967
 30
0.0000000000000618
 10
438.5297243380144
 20
-1142.775502302601
 30
0.0000000000000621
 10
438.4353593720106
 20
-1142.777399156873
 30
0.0000000000000622
 10
438.3989372598541
 20
-1142.774903170478
 30
0.0000000000000623
  0
SPLINE
  5
1549
330
1F
100
AcDbEntity
  8
Hewi
  6
Continuous
100
AcDbSpline
210
0.0
220
-0.0000000000000004
230
1.0
 70
     8
 71
     3
 72
    26
 73
    22
 74
     0
 42
0.0000000001
 43
0.0000000001
 40
0.0
 40
0.0
 40
0.0
 40
0.0
 40
0.0731471727184262
 40
0.0731471727184262
 40
0.1802149436257072
 40
0.1802149436257072
 40
0.2874905855567218
 40
0.2874905855567218
 40
0.3949879757880137
 40
0.3949879757880137
 40
0.5023745671183005
 40
0.5023745671183005
 40
0.6094893672687367
 40
0.6094893672687367
 40
0.7165961754068957
 40
0.7165961754068957
 40
0.8239704351530257
 40
0.8239704351530257
 40
0.9314709975742248
 40
0.9314709975742248
 40
1.0
 40
1.0
 40
1.0
 40
1.0
 10
438.381420547953
 20
-1142.771155165935
 30
0.0000000000000623
 10
438.3813317452686
 20
-1142.76755001069
 30
0.0000000000000623
 10
438.4075089035132
 20
-1142.761978738422
 30
0.0000000000000622
 10
438.5353540863096
 20
-1142.744057138004
 30
0.0000000000000621
 10
438.6684751550883
 20
-1142.729512867027
 30
0.0000000000000619
 10
439.0273271479627
 20
-1142.697920942596
 30
0.0000000000000615
 10
439.2581724331639
 20
-1142.68052157066
 30
0.0000000000000613
 10
439.7848721494764
 20
-1142.649483689271
 30
0.0000000000000606
 10
440.0881501290232
 20
-1142.635520874862
 30
0.0000000000000603
 10
440.7235250962503
 20
-1142.616578377482
 30
0.0000000000000595
 10
441.0643783941003
 20
-1142.611391369229
 30
0.0000000000000591
 10
441.7352276665869
 20
-1142.611777832343
 30
0.0000000000000584
 10
442.0744825039974
 20
-1142.617327615317
 30
0.000000000000058
 10
442.7053217619493
 20
-1142.636795773626
 30
0.0000000000000572
 10
443.0055904469582
 20
-1142.650916464471
 30
0.0000000000000569
 10
443.5271416645655
 20
-1142.682117852445
 30
0.0000000000000563
 10
443.7554282729934
 20
-1142.699539721482
 30
0.000000000000056
 10
444.1089224934649
 20
-1142.731027963692
 30
0.0000000000000556
 10
444.238889098061
 20
-1142.745437234514
 30
0.0000000000000554
 10
444.3575557234098
 20
-1142.762563600762
 30
0.0000000000000553
 10
444.3811906882865
 20
-1142.767755318015
 30
0.0000000000000552
 10
444.3811906882865
 20
-1142.771117844929
 30
0.0000000000000552
  0
SPLINE
  5
154A
330
1F
100
AcDbEntity
  8
Hewi
  6
Continuous
100
AcDbSpline
210
-0.0000000000000094
220
0.0000000000000024
230
1.0
 70
     8
 71
     3
 72
    10
 73
     6
 74
     0
 42
0.0000000001
 43
0.0000000001
 40
0.0
 40
0.0
 40
0.0
 40
0.0
 40
0.4944877053142961
 40
0.4944877053142961
 40
1.0
 40
1.0
 40
1.0
 40
1.0
 10
495.869450379726
 20
-1095.726079159217
 30
-0.0000000000000022
 10
495.8555543671637
 20
-1095.724921312246
 30
-0.0000000000000022
 10
495.4779112049972
 20
-1096.45648992145
 30
-0.0000000000000018
 10
494.699969089862
 20
-1098.977492638388
 30
-0.000000000000001
 10
494.3594342968526
 20
-1100.779195490807
 30
-0.0000000000000007
 10
494.3824143034244
 20
-1102.665785131107
 30
-0.0000000000000009
  0
SPLINE
  5
154B
330
1F
100
AcDbEntity
  8
Hewi
  6
Continuous
100
AcDbSpline
210
0.0000000000434536
220
-0.0000000000224825
230
1.0
 70
     8
 71
     3
 72
     8
 73
     4
 74
     0
 42
0.0000000001
 43
0.0000000001
 40
0.0
 40
0.0
 40
0.0
 40
0.0
 40
1.0
 40
1.0
 40
1.0
 40
1.0
 10
496.0076635890536
 20
-1095.509106316273
 30
0.0000000000000125
 10
496.2768891920232
 20
-1094.931453543589
 30
0.0000000000000291
 10
496.5234380673019
 20
-1094.479770516894
 30
0.0000000000000568
 10
496.6926798468874
 20
-1094.182548310016
 30
0.0000000000000786
  0
SPLINE
  5
154C
330
1F
100
AcDbEntity
  8
Hewi
  6
Continuous
100
AcDbSpline
210
-0.000000000000077
220
0.0000000000000133
230
1.0
 70
     8
 71
     3
 72
    10
 73
     6
 74
     0
 42
0.0000000001
 43
0.0000000001
 40
0.0
 40
0.0
 40
0.0
 40
0.0
 40
0.4943005477983623
 40
0.4943005477983623
 40
1.0
 40
1.0
 40
1.0
 40
1.0
 10
496.9226158858901
 20
-1093.776153836098
 30
0.0000000000001102
 10
496.9010457655484
 20
-1093.769905233658
 30
0.0000000000001053
 10
496.2280926263582
 20
-1094.725268044892
 30
-0.0000000000000025
 10
494.9272928765084
 20
-1097.890129587763
 30
-0.0000000000000012
 10
494.3528263936267
 20
-1100.206214374343
 30
-0.0000000000000007
 10
494.3824143034244
 20
-1102.635293056684
 30
-0.0000000000000009
  0
LINE
  5
1646
330
1F
100
AcDbEntity
  8
0
100
AcDbLine
 10
-38.77948311377077
 20
-1497.841145691684
 30
0.0000000000000659
 11
242.7118264270994
 21
-1497.839897998002
 31
0.0000000000000659
  0
ENDSEC
  0
SECTION
  2
OBJECTS
  0
DICTIONARY
  5
C
330
0
100
AcDbDictionary
281
     1
  3
ACAD_COLOR
350
6B
  3
ACAD_GROUP
350
D
  3
ACAD_LAYOUT
350
1A
  3
ACAD_MATERIAL
350
6A
  3
ACAD_MLINESTYLE
350
17
  3
ACAD_PLOTSETTINGS
350
19
  3
ACAD_PLOTSTYLENAME
350
E
  3
ACAD_TABLESTYLE
350
7E
  3
ACAD_VISUALSTYLE
350
EF
  3
AcDbVariableDictionary
350
5E
  3
DWGPROPS
350
1649
  0
DICTIONARY
  5
141
330
2
100
AcDbDictionary
280
     1
281
     1
  3
ACAD_LAYERSTATES
360
142
  0
DICTIONARY
  5
116
330
1F
100
AcDbDictionary
280
     1
281
     1
  3
ACAD_SORTENTS
360
117
  0
DICTIONARY
  5
6B
102
{ACAD_REACTORS
330
C
102
}
330
C
100
AcDbDictionary
281
     1
  0
DICTIONARY
  5
D
102
{ACAD_REACTORS
330
C
102
}
330
C
100
AcDbDictionary
281
     1
  0
DICTIONARY
  5
1A
102
{ACAD_REACTORS
330
C
102
}
330
C
100
AcDbDictionary
281
     1
  3
Layout1
350
D3
  3
Layout2
350
D7
  3
Model
350
22
  0
DICTIONARY
  5
6A
102
{ACAD_REACTORS
330
C
102
}
330
C
100
AcDbDictionary
281
     1
  3
ByBlock
350
ED
  3
ByLayer
350
EC
  3
Global
350
EE
  0
DICTIONARY
  5
17
102
{ACAD_REACTORS
330
C
102
}
330
C
100
AcDbDictionary
281
     1
  3
Standard
350
18
  0
DICTIONARY
  5
19
102
{ACAD_REACTORS
330
C
102
}
330
C
100
AcDbDictionary
281
     1
  0
ACDBDICTIONARYWDFLT
  5
E
102
{ACAD_REACTORS
330
C
102
}
330
C
100
AcDbDictionary
281
     1
  3
Normal
350
F
100
AcDbDictionaryWithDefault
340
F
  0
DICTIONARY
  5
7E
102
{ACAD_REACTORS
330
C
102
}
330
C
100
AcDbDictionary
281
     1
  3
Standard
350
7F
  0
DICTIONARY
  5
EF
102
{ACAD_REACTORS
330
C
102
}
330
C
100
AcDbDictionary
281
     1
  3
2dWireframe
350
F5
  3
3D Hidden
350
F7
  3
3dWireframe
350
F6
  3
Basic
350
F4
  3
Brighten
350
FB
  3
ColorChange
350
FF
  3
Conceptual
350
F8
  3
Dim
350
FA
  3
Facepattern
350
FE
  3
Flat
350
F0
  3
FlatWithEdges
350
F1
  3
Gouraud
350
F2
  3
GouraudWithEdges
350
F3
  3
Linepattern
350
FD
  3
Realistic
350
F9
  3
Thicken
350
FC
  0
DICTIONARY
  5
5E
102
{ACAD_REACTORS
330
C
102
}
330
C
100
AcDbDictionary
281
     1
  3
CTABLESTYLE
350
84
  3
DIMASSOC
350
5F
  3
HIDETEXT
350
63
  3
INDEXCTL
350
327
  3
PSOLHEIGHT
350
1648
  3
PSOLWIDTH
350
1647
  3
SORTENTS
350
326
  0
XRECORD
  5
1649
102
{ACAD_REACTORS
330
C
102
}
330
C
100
AcDbXrecord
280
     1
  1
DWGPROPS COOKIE
  2

  3

  4

  6

  7

  8
kaschu
  9

300
=
301
=
302
=
303
=
304
=
305
=
306
=
307
=
308
=
309
=
 40
0.1040634722222222
 41
2454768.510881991
 42
2455624.671137453
  1

 90
        0
  0
DICTIONARY
  5
142
102
{ACAD_REACTORS
330
141
102
}
330
141
100
AcDbDictionary
281
     1
  0
SORTENTSTABLE
  5
117
102
{ACAD_REACTORS
330
116
102
}
330
116
100
AcDbSortentsTable
330
1F
  0
LAYOUT
  5
D3
102
{ACAD_XDICTIONARY
360
164E
102
}
102
{ACAD_REACTORS
330
1A
102
}
330
1A
100
AcDbPlotSettings
  1

  2
C:\Documents and Settings\basas\Application Data\Autodesk\AutoCAD 2005\R16.1\enu\plotters\Default Windows System Printer.pc3
  4

  6

 40
0.0
 41
0.0
 42
0.0
 43
0.0
 44
0.0
 45
0.0
 46
0.0
 47
0.0
 48
0.0
 49
0.0
140
0.0
141
0.0
142
1.0
143
1.0
 70
   688
 72
     0
 73
     0
 74
     5
  7

 75
    16
147
1.0
148
0.0
149
0.0
100
AcDbLayout
  1
Layout1
 70
     1
 71
     1
 10
0.0
 20
0.0
 11
12.0
 21
9.0
 12
0.0
 22
0.0
 32
0.0
 14
0.0
 24
0.0
 34
0.0
 15
0.0
 25
0.0
 35
0.0
146
0.0
 13
0.0
 23
0.0
 33
0.0
 16
1.0
 26
0.0
 36
0.0
 17
0.0
 27
1.0
 37
0.0
 76
     0
330
D2
  0
LAYOUT
  5
D7
102
{ACAD_XDICTIONARY
360
1650
102
}
102
{ACAD_REACTORS
330
1A
102
}
330
1A
100
AcDbPlotSettings
  1

  2
C:\Documents and Settings\basas\Application Data\Autodesk\AutoCAD 2005\R16.1\enu\plotters\Default Windows System Printer.pc3
  4

  6

 40
0.0
 41
0.0
 42
0.0
 43
0.0
 44
0.0
 45
0.0
 46
0.0
 47
0.0
 48
0.0
 49
0.0
140
0.0
141
0.0
142
1.0
143
1.0
 70
   688
 72
     0
 73
     0
 74
     5
  7

 75
    16
147
1.0
148
0.0
149
0.0
100
AcDbLayout
  1
Layout2
 70
     1
 71
     2
 10
0.0
 20
0.0
 11
12.0
 21
9.0
 12
0.0
 22
0.0
 32
0.0
 14
0.0
 24
0.0
 34
0.0
 15
0.0
 25
0.0
 35
0.0
146
0.0
 13
0.0
 23
0.0
 33
0.0
 16
1.0
 26
0.0
 36
0.0
 17
0.0
 27
1.0
 37
0.0
 76
     0
330
D6
  0
LAYOUT
  5
22
102
{ACAD_XDICTIONARY
360
164A
102
}
102
{ACAD_REACTORS
330
1A
102
}
330
1A
100
AcDbPlotSettings
  1

  2
none_device
  4
ISO_A4_(210.00_x_297.00_MM)
  6

 40
7.5
 41
20.0
 42
7.5
 43
20.0
 44
210.0
 45
297.0
 46
11.54999923706054
 47
-13.65000009536743
 48
0.0
 49
0.0
140
0.0
141
0.0
142
1.0
143
8.704084754739808
 70
 11952
 72
     1
 73
     0
 74
     0
  7

 75
     0
147
0.1148885871608098
148
0.0
149
0.0
100
AcDbLayout
  1
Model
 70
     1
 71
     0
 10
0.0
 20
0.0
 11
12.0
 21
9.0
 12
0.0
 22
0.0
 32
0.0
 14
0.0
 24
0.0
 34
0.0
 15
0.0
 25
0.0
 35
0.0
146
0.0
 13
0.0
 23
0.0
 33
0.0
 16
1.0
 26
0.0
 36
0.0
 17
0.0
 27
1.0
 37
0.0
 76
     0
330
1F
331
EA
1001
ACAD_PSEXT
1000
None
1000
None
1000
Not applicable
1000
The layout will not be plotted unless a new plotter configuration name is selected.
1070
     0
  0
MATERIAL
  5
ED
102
{ACAD_XDICTIONARY
360
335
102
}
102
{ACAD_REACTORS
330
6A
102
}
330
6A
100
AcDbMaterial
  1
ByBlock
  0
MATERIAL
  5
EC
102
{ACAD_XDICTIONARY
360
333
102
}
102
{ACAD_REACTORS
330
6A
102
}
330
6A
100
AcDbMaterial
  1
ByLayer
  0
MATERIAL
  5
EE
102
{ACAD_XDICTIONARY
360
337
102
}
102
{ACAD_REACTORS
330
6A
102
}
330
6A
100
AcDbMaterial
  1
Global
  0
MLINESTYLE
  5
18
102
{ACAD_REACTORS
330
17
102
}
330
17
100
AcDbMlineStyle
  2
STANDARD
 70
     0
  3

 62
   256
 51
90.0
 52
90.0
 71
     2
 49
0.5
 62
   256
  6
BYLAYER
 49
-0.5
 62
   256
  6
BYLAYER
  0
ACDBPLACEHOLDER
  5
F
102
{ACAD_REACTORS
330
E
102
}
330
E
  0
TABLESTYLE
  5
7F
102
{ACAD_XDICTIONARY
360
164C
102
}
102
{ACAD_REACTORS
330
7E
102
}
330
7E
100
AcDbTableStyle
  3
Standard
 70
     0
 71
     0
 40
1.5
 41
1.5
280
     0
281
     0
  7
Standard
140
4.5
170
     2
 62
     0
 63
     7
283
     0
274
    -2
284
     1
 64
     0
275
    -2
285
     1
 65
     0
276
    -2
286
     1
 66
     0
277
    -2
287
     1
 67
     0
278
    -2
288
     1
 68
     0
279
    -2
289
     1
 69
     0
  7
Standard
140
6.0
170
     5
 62
     0
 63
     7
283
     0
274
    -2
284
     1
 64
     0
275
    -2
285
     1
 65
     0
276
    -2
286
     1
 66
     0
277
    -2
287
     1
 67
     0
278
    -2
288
     1
 68
     0
279
    -2
289
     1
 69
     0
  7
Standard
140
4.5
170
     5
 62
     0
 63
     7
283
     0
274
    -2
284
     1
 64
     0
275
    -2
285
     1
 65
     0
276
    -2
286
     1
 66
     0
277
    -2
287
     1
 67
     0
278
    -2
288
     1
 68
     0
279
    -2
289
     1
 69
     0
  0
VISUALSTYLE
  5
F5
102
{ACAD_REACTORS
330
EF
102
}
330
EF
100
AcDbVisualStyle
  2
2dWireframe
 70
     4
 71
     0
 72
     2
 73
     1
 90
        0
 40
-0.6
 41
-30.0
 62
     5
 63
     7
 74
     1
 91
        4
 64
     7
 65
   257
 75
     1
175
     1
 42
1.0
 92
        0
 66
   257
 43
1.0
 76
     1
 77
     6
 78
     2
 67
     7
 79
     5
170
     0
171
     0
290
     0
174
     0
 93
        1
 44
0.0
173
     0
291
     0
 45
0.0
1001
ACAD
1000
AcDbSavedByObjectVersion
1070
     0
1000
AcDbSavedByObjectVersion
1070
     0
1000
AcDbSavedByObjectVersion
1070
     0
1000
AcDbSavedByObjectVersion
1070
     0
1000
AcDbSavedByObjectVersion
1070
     0
1000
AcDbSavedByObjectVersion
1070
     0
1000
AcDbSavedByObjectVersion
1070
     0
1000
AcDbSavedByObjectVersion
1070
     0
  0
VISUALSTYLE
  5
F7
102
{ACAD_REACTORS
330
EF
102
}
330
EF
100
AcDbVisualStyle
  2
3D Hidden
 70
     6
 71
     1
 72
     2
 73
     2
 90
        0
 40
-0.6
 41
-30.0
 62
     5
 63
     7
 74
     2
 91
        2
 64
     7
 65
   257
 75
     2
175
     1
 42
40.0
 92
        0
 66
   257
 43
1.0
 76
     1
 77
     6
 78
     2
 67
     7
 79
     3
170
     0
171
     0
290
     0
174
     0
 93
        1
 44
0.0
173
     0
291
     0
 45
0.0
1001
ACAD
1000
AcDbSavedByObjectVersion
1070
     0
1000
AcDbSavedByObjectVersion
1070
     0
1000
AcDbSavedByObjectVersion
1070
     0
1000
AcDbSavedByObjectVersion
1070
     0
1000
AcDbSavedByObjectVersion
1070
     0
1000
AcDbSavedByObjectVersion
1070
     0
1000
AcDbSavedByObjectVersion
1070
     0
1000
AcDbSavedByObjectVersion
1070
     0
  0
VISUALSTYLE
  5
F6
102
{ACAD_REACTORS
330
EF
102
}
330
EF
100
AcDbVisualStyle
  2
3dWireframe
 70
     5
 71
     0
 72
     2
 73
     1
 90
        0
 40
-0.6
 41
-30.0
 62
     5
 63
     7
 74
     1
 91
        4
 64
     7
 65
   257
 75
     1
175
     1
 42
1.0
 92
        0
 66
   257
 43
1.0
 76
     1
 77
     6
 78
     2
 67
     7
 79
     5
170
     0
171
     0
290
     0
174
     0
 93
        1
 44
0.0
173
     0
291
     0
 45
0.0
1001
ACAD
1000
AcDbSavedByObjectVersion
1070
     0
1000
AcDbSavedByObjectVersion
1070
     0
1000
AcDbSavedByObjectVersion
1070
     0
1000
AcDbSavedByObjectVersion
1070
     0
1000
AcDbSavedByObjectVersion
1070
     0
1000
AcDbSavedByObjectVersion
1070
     0
1000
AcDbSavedByObjectVersion
1070
     0
1000
AcDbSavedByObjectVersion
1070
     0
  0
VISUALSTYLE
  5
F4
102
{ACAD_REACTORS
330
EF
102
}
330
EF
100
AcDbVisualStyle
  2
Basic
 70
     7
 71
     1
 72
     0
 73
     1
 90
        0
 40
-0.6
 41
-30.0
 62
     5
 63
     7
 74
     0
 91
        4
 64
     7
 65
   257
 75
     1
175
     1
 42
1.0
 92
        8
 66
     7
 43
1.0
 76
     1
 77
     6
 78
     2
 67
     7
 79
     5
170
     0
171
     0
290
     0
174
     0
 93
        1
 44
0.0
173
     0
291
     1
 45
0.0
1001
ACAD
1000
AcDbSavedByObjectVersion
1070
     0
1000
AcDbSavedByObjectVersion
1070
     0
1000
AcDbSavedByObjectVersion
1070
     0
1000
AcDbSavedByObjectVersion
1070
     0
1000
AcDbSavedByObjectVersion
1070
     0
1000
AcDbSavedByObjectVersion
1070
     0
1000
AcDbSavedByObjectVersion
1070
     0
1000
AcDbSavedByObjectVersion
1070
     0
  0
VISUALSTYLE
  5
FB
102
{ACAD_REACTORS
330
EF
102
}
330
EF
100
AcDbVisualStyle
  2
Brighten
 70
    12
 71
     2
 72
     2
 73
     1
 90
        0
 40
-0.6
 41
-30.0
 62
     5
 63
     7
 74
     1
 91
        4
 64
     7
 65
   257
 75
     1
175
     1
 42
1.0
 92
        8
 66
     7
 43
1.0
 76
     1
 77
     6
 78
     2
 67
     7
 79
     5
170
     0
171
     0
290
     0
174
     0
 93
        1
 44
50.0
173
     0
291
     1
 45
0.0
1001
ACAD
1000
AcDbSavedByObjectVersion
1070
     0
1000
AcDbSavedByObjectVersion
1070
     0
1000
AcDbSavedByObjectVersion
1070
     0
1000
AcDbSavedByObjectVersion
1070
     0
1000
AcDbSavedByObjectVersion
1070
     0
1000
AcDbSavedByObjectVersion
1070
     0
1000
AcDbSavedByObjectVersion
1070
     0
1000
AcDbSavedByObjectVersion
1070
     0
  0
VISUALSTYLE
  5
FF
102
{ACAD_REACTORS
330
EF
102
}
330
EF
100
AcDbVisualStyle
  2
ColorChange
 70
    16
 71
     2
 72
     2
 73
     3
 90
        0
 40
-0.6
 41
-30.0
 62
     5
 63
     8
 74
     1
 91
        4
 64
     7
 65
   257
 75
     1
175
     1
 42
1.0
 92
        8
 66
     8
 43
1.0
 76
     1
 77
     6
 78
     2
 67
     7
 79
     5
170
     0
171
     0
290
     0
174
     0
 93
        1
 44
0.0
173
     0
291
     1
 45
0.0
1001
ACAD
1000
AcDbSavedByObjectVersion
1070
     0
1000
AcDbSavedByObjectVersion
1070
     0
1000
AcDbSavedByObjectVersion
1070
     0
1000
AcDbSavedByObjectVersion
1070
     0
1000
AcDbSavedByObjectVersion
1070
     0
1000
AcDbSavedByObjectVersion
1070
     0
1000
AcDbSavedByObjectVersion
1070
     0
1000
AcDbSavedByObjectVersion
1070
     0
  0
VISUALSTYLE
  5
F8
102
{ACAD_REACTORS
330
EF
102
}
330
EF
100
AcDbVisualStyle
  2
Conceptual
 70
     9
 71
     3
 72
     2
 73
     1
 90
        0
 40
-0.6
 41
-30.0
 62
     5
 63
     7
 74
     2
 91
        2
 64
     7
 65
   257
 75
     1
175
     1
 42
40.0
 92
        8
 66
     7
 43
1.0
 76
     1
 77
     6
 78
     2
 67
     7
 79
     3
170
     0
171
     0
290
     0
174
     0
 93
        1
 44
0.0
173
     0
291
     0
 45
0.0
1001
ACAD
1000
AcDbSavedByObjectVersion
1070
     0
1000
AcDbSavedByObjectVersion
1070
     0
1000
AcDbSavedByObjectVersion
1070
     0
1000
AcDbSavedByObjectVersion
1070
     0
1000
AcDbSavedByObjectVersion
1070
     0
1000
AcDbSavedByObjectVersion
1070
     0
1000
AcDbSavedByObjectVersion
1070
     0
1000
AcDbSavedByObjectVersion
1070
     0
  0
VISUALSTYLE
  5
FA
102
{ACAD_REACTORS
330
EF
102
}
330
EF
100
AcDbVisualStyle
  2
Dim
 70
    11
 71
     2
 72
     2
 73
     1
 90
        0
 40
-0.6
 41
-30.0
 62
     5
 63
     7
 74
     1
 91
        4
 64
     7
 65
   257
 75
     1
175
     1
 42
1.0
 92
        8
 66
     7
 43
1.0
 76
     1
 77
     6
 78
     2
 67
     7
 79
     5
170
     0
171
     0
290
     0
174
     0
 93
        1
 44
-50.0
173
     0
291
     1
 45
0.0
1001
ACAD
1000
AcDbSavedByObjectVersion
1070
     0
1000
AcDbSavedByObjectVersion
1070
     0
1000
AcDbSavedByObjectVersion
1070
     0
1000
AcDbSavedByObjectVersion
1070
     0
1000
AcDbSavedByObjectVersion
1070
     0
1000
AcDbSavedByObjectVersion
1070
     0
1000
AcDbSavedByObjectVersion
1070
     0
1000
AcDbSavedByObjectVersion
1070
     0
  0
VISUALSTYLE
  5
FE
102
{ACAD_REACTORS
330
EF
102
}
330
EF
100
AcDbVisualStyle
  2
Facepattern
 70
    15
 71
     2
 72
     2
 73
     1
 90
        0
 40
-0.6
 41
-30.0
 62
     5
 63
     7
 74
     1
 91
        4
 64
     7
 65
   257
 75
     1
175
     1
 42
1.0
 92
        8
 66
     7
 43
1.0
 76
     1
 77
     6
 78
     2
 67
     7
 79
     5
170
     0
171
     0
290
     0
174
     0
 93
        1
 44
0.0
173
     0
291
     1
 45
0.0
1001
ACAD
1000
AcDbSavedByObjectVersion
1070
     0
1000
AcDbSavedByObjectVersion
1070
     0
1000
AcDbSavedByObjectVersion
1070
     0
1000
AcDbSavedByObjectVersion
1070
     0
1000
AcDbSavedByObjectVersion
1070
     0
1000
AcDbSavedByObjectVersion
1070
     0
1000
AcDbSavedByObjectVersion
1070
     0
1000
AcDbSavedByObjectVersion
1070
     0
  0
VISUALSTYLE
  5
F0
102
{ACAD_REACTORS
330
EF
102
}
330
EF
100
AcDbVisualStyle
  2
Flat
 70
     0
 71
     2
 72
     1
 73
     1
 90
        2
 40
-0.6
 41
30.0
 62
     5
 63
     7
 74
     0
 91
        4
 64
     7
 65
   257
 75
     1
175
     1
 42
1.0
 92
        8
 66
     7
 43
1.0
 76
     1
 77
     6
 78
     2
 67
     7
 79
     5
170
     0
171
     0
290
     0
174
     0
 93
       13
 44
0.0
173
     0
291
     1
 45
0.0
1001
ACAD
1000
AcDbSavedByObjectVersion
1070
     0
1000
AcDbSavedByObjectVersion
1070
     0
1000
AcDbSavedByObjectVersion
1070
     0
1000
AcDbSavedByObjectVersion
1070
     0
1000
AcDbSavedByObjectVersion
1070
     0
1000
AcDbSavedByObjectVersion
1070
     0
1000
AcDbSavedByObjectVersion
1070
     0
1000
AcDbSavedByObjectVersion
1070
     0
  0
VISUALSTYLE
  5
F1
102
{ACAD_REACTORS
330
EF
102
}
330
EF
100
AcDbVisualStyle
  2
FlatWithEdges
 70
     1
 71
     2
 72
     1
 73
     1
 90
        2
 40
-0.6
 41
30.0
 62
     5
 63
     7
 74
     1
 91
        4
 64
     7
 65
   257
 75
     1
175
     1
 42
1.0
 92
        0
 66
   257
 43
1.0
 76
     1
 77
     6
 78
     2
 67
     7
 79
     5
170
     0
171
     0
290
     0
174
     0
 93
       13
 44
0.0
173
     0
291
     1
 45
0.0
1001
ACAD
1000
AcDbSavedByObjectVersion
1070
     0
1000
AcDbSavedByObjectVersion
1070
     0
1000
AcDbSavedByObjectVersion
1070
     0
1000
AcDbSavedByObjectVersion
1070
     0
1000
AcDbSavedByObjectVersion
1070
     0
1000
AcDbSavedByObjectVersion
1070
     0
1000
AcDbSavedByObjectVersion
1070
     0
1000
AcDbSavedByObjectVersion
1070
     0
  0
VISUALSTYLE
  5
F2
102
{ACAD_REACTORS
330
EF
102
}
330
EF
100
AcDbVisualStyle
  2
Gouraud
 70
     2
 71
     2
 72
     2
 73
     1
 90
        2
 40
-0.6
 41
30.0
 62
     5
 63
     7
 74
     0
 91
        4
 64
     7
 65
   257
 75
     1
175
     1
 42
1.0
 92
        0
 66
     7
 43
1.0
 76
     1
 77
     6
 78
     2
 67
     7
 79
     5
170
     0
171
     0
290
     0
174
     0
 93
       13
 44
0.0
173
     0
291
     1
 45
0.0
1001
ACAD
1000
AcDbSavedByObjectVersion
1070
     0
1000
AcDbSavedByObjectVersion
1070
     0
1000
AcDbSavedByObjectVersion
1070
     0
1000
AcDbSavedByObjectVersion
1070
     0
1000
AcDbSavedByObjectVersion
1070
     0
1000
AcDbSavedByObjectVersion
1070
     0
1000
AcDbSavedByObjectVersion
1070
     0
1000
AcDbSavedByObjectVersion
1070
     0
  0
VISUALSTYLE
  5
F3
102
{ACAD_REACTORS
330
EF
102
}
330
EF
100
AcDbVisualStyle
  2
GouraudWithEdges
 70
     3
 71
     2
 72
     2
 73
     1
 90
        2
 40
-0.6
 41
30.0
 62
     5
 63
     7
 74
     1
 91
        4
 64
     7
 65
   257
 75
     1
175
     1
 42
1.0
 92
        0
 66
   257
 43
1.0
 76
     1
 77
     6
 78
     2
 67
     7
 79
     5
170
     0
171
     0
290
     0
174
     0
 93
       13
 44
0.0
173
     0
291
     1
 45
0.0
1001
ACAD
1000
AcDbSavedByObjectVersion
1070
     0
1000
AcDbSavedByObjectVersion
1070
     0
1000
AcDbSavedByObjectVersion
1070
     0
1000
AcDbSavedByObjectVersion
1070
     0
1000
AcDbSavedByObjectVersion
1070
     0
1000
AcDbSavedByObjectVersion
1070
     0
1000
AcDbSavedByObjectVersion
1070
     0
1000
AcDbSavedByObjectVersion
1070
     0
  0
VISUALSTYLE
  5
FD
102
{ACAD_REACTORS
330
EF
102
}
330
EF
100
AcDbVisualStyle
  2
Linepattern
 70
    14
 71
     2
 72
     2
 73
     1
 90
        0
 40
-0.6
 41
-30.0
 62
     5
 63
     7
 74
     1
 91
        4
 64
     7
 65
   257
 75
     7
175
     7
 42
1.0
 92
        8
 66
     7
 43
1.0
 76
     1
 77
     6
 78
     2
 67
     7
 79
     5
170
     0
171
     0
290
     0
174
     0
 93
        1
 44
0.0
173
     0
291
     1
 45
0.0
1001
ACAD
1000
AcDbSavedByObjectVersion
1070
     0
1000
AcDbSavedByObjectVersion
1070
     0
1000
AcDbSavedByObjectVersion
1070
     0
1000
AcDbSavedByObjectVersion
1070
     0
1000
AcDbSavedByObjectVersion
1070
     0
1000
AcDbSavedByObjectVersion
1070
     0
1000
AcDbSavedByObjectVersion
1070
     0
1000
AcDbSavedByObjectVersion
1070
     0
  0
VISUALSTYLE
  5
F9
102
{ACAD_REACTORS
330
EF
102
}
330
EF
100
AcDbVisualStyle
  2
Realistic
 70
     8
 71
     2
 72
     2
 73
     1
 90
        0
 40
-0.6
 41
-30.0
 62
     5
 63
     7
 74
     1
 91
        0
 64
     7
 65
   257
 75
     1
175
     1
 42
1.0
 92
        8
 66
     8
 43
1.0
 76
     1
 77
     6
 78
     2
 67
     7
 79
     5
170
     0
171
     0
290
     0
174
     0
 93
       13
 44
0.0
173
     0
291
     0
 45
0.0
1001
ACAD
1000
AcDbSavedByObjectVersion
1070
     0
1000
AcDbSavedByObjectVersion
1070
     0
1000
AcDbSavedByObjectVersion
1070
     0
1000
AcDbSavedByObjectVersion
1070
     0
1000
AcDbSavedByObjectVersion
1070
     0
1000
AcDbSavedByObjectVersion
1070
     0
1000
AcDbSavedByObjectVersion
1070
     0
1000
AcDbSavedByObjectVersion
1070
     0
  0
VISUALSTYLE
  5
FC
102
{ACAD_REACTORS
330
EF
102
}
330
EF
100
AcDbVisualStyle
  2
Thicken
 70
    13
 71
     2
 72
     2
 73
     1
 90
        0
 40
-0.6
 41
-30.0
 62
     5
 63
     7
 74
     1
 91
        4
 64
     7
 65
   257
 75
     1
175
     1
 42
1.0
 92
       12
 66
     7
 43
1.0
 76
     1
 77
     6
 78
     2
 67
     7
 79
     5
170
     0
171
     0
290
     0
174
     0
 93
        1
 44
0.0
173
     0
291
     1
 45
0.0
1001
ACAD
1000
AcDbSavedByObjectVersion
1070
     0
1000
AcDbSavedByObjectVersion
1070
     0
1000
AcDbSavedByObjectVersion
1070
     0
1000
AcDbSavedByObjectVersion
1070
     0
1000
AcDbSavedByObjectVersion
1070
     0
1000
AcDbSavedByObjectVersion
1070
     0
1000
AcDbSavedByObjectVersion
1070
     0
1000
AcDbSavedByObjectVersion
1070
     0
  0
DICTIONARYVAR
  5
84
102
{ACAD_REACTORS
330
5E
102
}
330
5E
100
DictionaryVariables
280
     0
  1
STANDARD
  0
DICTIONARYVAR
  5
5F
102
{ACAD_REACTORS
330
5E
102
}
330
5E
100
DictionaryVariables
280
     0
  1
2
  0
DICTIONARYVAR
  5
63
102
{ACAD_REACTORS
330
5E
102
}
330
5E
100
DictionaryVariables
280
     0
  1
1
  0
DICTIONARYVAR
  5
327
102
{ACAD_REACTORS
330
5E
102
}
330
5E
100
DictionaryVariables
280
     0
  1
0
  0
DICTIONARYVAR
  5
1648
102
{ACAD_REACTORS
330
5E
102
}
330
5E
100
DictionaryVariables
280
     0
  1
80.000000
  0
DICTIONARYVAR
  5
1647
102
{ACAD_REACTORS
330
5E
102
}
330
5E
100
DictionaryVariables
280
     0
  1
5.000000
  0
DICTIONARYVAR
  5
326
102
{ACAD_REACTORS
330
5E
102
}
330
5E
100
DictionaryVariables
280
     0
  1
127
  0
DICTIONARY
  5
164E
330
D3
100
AcDbDictionary
280
     1
281
     1
  3
ACAD_XREC_ROUNDTRIP
360
164F
  0
DICTIONARY
  5
1650
330
D7
100
AcDbDictionary
280
     1
281
     1
  3
ACAD_XREC_ROUNDTRIP
360
1651
  0
DICTIONARY
  5
164A
330
22
100
AcDbDictionary
280
     1
281
     1
  3
ACAD_XREC_ROUNDTRIP
360
164B
  0
DICTIONARY
  5
335
330
ED
100
AcDbDictionary
280
     1
281
     1
  3
ACAD_XREC_ROUNDTRIP
360
336
  0
DICTIONARY
  5
333
330
EC
100
AcDbDictionary
280
     1
281
     1
  3
ACAD_XREC_ROUNDTRIP
360
334
  0
DICTIONARY
  5
337
330
EE
100
AcDbDictionary
280
     1
281
     1
  3
ACAD_XREC_ROUNDTRIP
360
338
  0
DICTIONARY
  5
164C
330
7F
100
AcDbDictionary
280
     1
281
     1
  3
ACAD_XREC_ROUNDTRIP
360
164D
  0
XRECORD
  5
164F
102
{ACAD_REACTORS
330
164E
102
}
330
164E
100
AcDbXrecord
280
     1
102
SHADEPLOT
 70
     0
102
SHADEPLOTRESLEVEL
 70
     2
102
SHADEPLOTCUSTOMDPI
 70
   300
  0
XRECORD
  5
1651
102
{ACAD_REACTORS
330
1650
102
}
330
1650
100
AcDbXrecord
280
     1
102
SHADEPLOT
 70
     0
102
SHADEPLOTRESLEVEL
 70
     2
102
SHADEPLOTCUSTOMDPI
 70
   300
  0
XRECORD
  5
164B
102
{ACAD_REACTORS
330
164A
102
}
330
164A
100
AcDbXrecord
280
     1
102
SHADEPLOT
 70
     0
102
SHADEPLOTRESLEVEL
 70
     2
102
SHADEPLOTCUSTOMDPI
 70
   300
  0
XRECORD
  5
336
102
{ACAD_REACTORS
330
335
102
}
330
335
100
AcDbXrecord
280
     1
102
MATERIAL
148
0.0
149
0.0
149
0.0
 93
        0
 94
       63
282
     0
 72
     1
 77
     1
171
     1
175
     1
179
     1
273
     0
  0
XRECORD
  5
334
102
{ACAD_REACTORS
330
333
102
}
330
333
100
AcDbXrecord
280
     1
102
MATERIAL
148
0.0
149
0.0
149
0.0
 93
        0
 94
       63
282
     0
 72
     1
 77
     1
171
     1
175
     1
179
     1
273
     0
  0
XRECORD
  5
338
102
{ACAD_REACTORS
330
337
102
}
330
337
100
AcDbXrecord
280
     1
102
MATERIAL
148
0.0
149
0.0
149
0.0
 93
        0
 94
       63
282
     0
 72
     1
 77
     1
171
     1
175
     1
179
     1
273
     0
  0
XRECORD
  5
164D
102
{ACAD_REACTORS
330
164C
102
}
330
164C
100
AcDbXrecord
280
     1
102
ACAD_ROUNDTRIP_PRE2007_TABLESTYLE
 90
      512
 91
        0
  1

 92
      512
 93
        0
  2

 94
      512
 95
        0
  3

  0
ENDSEC
  0
EOF
