  0
SECTION
  2
HEADER
  9
$ACADVER
  1
AC1015
  9
$ACADMAINTVER
 70
    20
  9
$DWGCODEPAGE
  3
ANSI_1252
  9
$INSBASE
 10
0.0
 20
0.0
 30
0.0
  9
$EXTMIN
 10
287.8496354608178
 20
-983.6949698885893
 30
-0.0000000000002681
  9
$EXTMAX
 10
1284.938053349531
 20
-656.2903950455755
 30
0.0000000000002461
  9
$LIMMIN
 10
0.0
 20
0.0
  9
$LIMMAX
 10
420.0
 20
297.0
  9
$ORTHOMODE
 70
     0
  9
$REGENMODE
 70
     1
  9
$FILLMODE
 70
     1
  9
$QTEXTMODE
 70
     0
  9
$MIRRTEXT
 70
     0
  9
$LTSCALE
 40
1.0
  9
$ATTMODE
 70
     1
  9
$TEXTSIZE
 40
2.5
  9
$TRACEWID
 40
1.0
  9
$TEXTSTYLE
  7
Standard
  9
$CLAYER
  8
0
  9
$CELTYPE
  6
ByLayer
  9
$CECOLOR
 62
   256
  9
$CELTSCALE
 40
1.0
  9
$DISPSILH
 70
     0
  9
$DIMSCALE
 40
1.0
  9
$DIMASZ
 40
2.5
  9
$DIMEXO
 40
0.625
  9
$DIMDLI
 40
3.75
  9
$DIMRND
 40
0.0
  9
$DIMDLE
 40
0.0
  9
$DIMEXE
 40
1.25
  9
$DIMTP
 40
0.0
  9
$DIMTM
 40
0.0
  9
$DIMTXT
 40
2.5
  9
$DIMCEN
 40
2.5
  9
$DIMTSZ
 40
0.0
  9
$DIMTOL
 70
     0
  9
$DIMLIM
 70
     0
  9
$DIMTIH
 70
     0
  9
$DIMTOH
 70
     0
  9
$DIMSE1
 70
     0
  9
$DIMSE2
 70
     0
  9
$DIMTAD
 70
     1
  9
$DIMZIN
 70
     8
  9
$DIMBLK
  1

  9
$DIMASO
 70
     1
  9
$DIMSHO
 70
     1
  9
$DIMPOST
  1

  9
$DIMAPOST
  1

  9
$DIMALT
 70
     0
  9
$DIMALTD
 70
     3
  9
$DIMALTF
 40
0.03937007874016
  9
$DIMLFAC
 40
1.0
  9
$DIMTOFL
 70
     1
  9
$DIMTVP
 40
0.0
  9
$DIMTIX
 70
     0
  9
$DIMSOXD
 70
     0
  9
$DIMSAH
 70
     0
  9
$DIMBLK1
  1

  9
$DIMBLK2
  1

  9
$DIMSTYLE
  2
ISO-25
  9
$DIMCLRD
 70
     0
  9
$DIMCLRE
 70
     0
  9
$DIMCLRT
 70
     0
  9
$DIMTFAC
 40
1.0
  9
$DIMGAP
 40
0.625
  9
$DIMJUST
 70
     0
  9
$DIMSD1
 70
     0
  9
$DIMSD2
 70
     0
  9
$DIMTOLJ
 70
     0
  9
$DIMTZIN
 70
     8
  9
$DIMALTZ
 70
     0
  9
$DIMALTTZ
 70
     0
  9
$DIMUPT
 70
     0
  9
$DIMDEC
 70
     2
  9
$DIMTDEC
 70
     2
  9
$DIMALTU
 70
     2
  9
$DIMALTTD
 70
     3
  9
$DIMTXSTY
  7
Standard
  9
$DIMAUNIT
 70
     0
  9
$DIMADEC
 70
     0
  9
$DIMALTRND
 40
0.0
  9
$DIMAZIN
 70
     0
  9
$DIMDSEP
 70
    44
  9
$DIMATFIT
 70
     3
  9
$DIMFRAC
 70
     0
  9
$DIMLDRBLK
  1

  9
$DIMLUNIT
 70
     2
  9
$DIMLWD
 70
    -2
  9
$DIMLWE
 70
    -2
  9
$DIMTMOVE
 70
     0
  9
$LUNITS
 70
     2
  9
$LUPREC
 70
     4
  9
$SKETCHINC
 40
1.0
  9
$FILLETRAD
 40
0.0
  9
$AUNITS
 70
     0
  9
$AUPREC
 70
     0
  9
$MENU
  1
.
  9
$ELEVATION
 40
0.0
  9
$PELEVATION
 40
0.0
  9
$THICKNESS
 40
0.0
  9
$LIMCHECK
 70
     0
  9
$CHAMFERA
 40
0.0
  9
$CHAMFERB
 40
0.0
  9
$CHAMFERC
 40
0.0
  9
$CHAMFERD
 40
0.0
  9
$SKPOLY
 70
     0
  9
$TDCREATE
 40
2454768.510881991
  9
$TDUCREATE
 40
2454768.469215324
  9
$TDUPDATE
 40
2455617.595774989
  9
$TDUUPDATE
 40
2455617.554108322
  9
$TDINDWG
 40
0.0915612847
  9
$TDUSRTIMER
 40
0.0915593171
  9
$USRTIMER
 70
     1
  9
$ANGBASE
 50
0.0
  9
$ANGDIR
 70
     0
  9
$PDMODE
 70
     0
  9
$PDSIZE
 40
0.0
  9
$PLINEWID
 40
0.0
  9
$SPLFRAME
 70
     0
  9
$SPLINETYPE
 70
     6
  9
$SPLINESEGS
 70
     8
  9
$HANDSEED
  5
121F
  9
$SURFTAB1
 70
     6
  9
$SURFTAB2
 70
     6
  9
$SURFTYPE
 70
     6
  9
$SURFU
 70
     6
  9
$SURFV
 70
     6
  9
$UCSBASE
  2

  9
$UCSNAME
  2

  9
$UCSORG
 10
0.0
 20
0.0
 30
0.0
  9
$UCSXDIR
 10
1.0
 20
0.0
 30
0.0
  9
$UCSYDIR
 10
0.0
 20
1.0
 30
0.0
  9
$UCSORTHOREF
  2

  9
$UCSORTHOVIEW
 70
     0
  9
$UCSORGTOP
 10
0.0
 20
0.0
 30
0.0
  9
$UCSORGBOTTOM
 10
0.0
 20
0.0
 30
0.0
  9
$UCSORGLEFT
 10
0.0
 20
0.0
 30
0.0
  9
$UCSORGRIGHT
 10
0.0
 20
0.0
 30
0.0
  9
$UCSORGFRONT
 10
0.0
 20
0.0
 30
0.0
  9
$UCSORGBACK
 10
0.0
 20
0.0
 30
0.0
  9
$PUCSBASE
  2

  9
$PUCSNAME
  2

  9
$PUCSORG
 10
0.0
 20
0.0
 30
0.0
  9
$PUCSXDIR
 10
1.0
 20
0.0
 30
0.0
  9
$PUCSYDIR
 10
0.0
 20
1.0
 30
0.0
  9
$PUCSORTHOREF
  2

  9
$PUCSORTHOVIEW
 70
     0
  9
$PUCSORGTOP
 10
0.0
 20
0.0
 30
0.0
  9
$PUCSORGBOTTOM
 10
0.0
 20
0.0
 30
0.0
  9
$PUCSORGLEFT
 10
0.0
 20
0.0
 30
0.0
  9
$PUCSORGRIGHT
 10
0.0
 20
0.0
 30
0.0
  9
$PUCSORGFRONT
 10
0.0
 20
0.0
 30
0.0
  9
$PUCSORGBACK
 10
0.0
 20
0.0
 30
0.0
  9
$USERI1
 70
     0
  9
$USERI2
 70
     0
  9
$USERI3
 70
     0
  9
$USERI4
 70
     0
  9
$USERI5
 70
     0
  9
$USERR1
 40
0.0
  9
$USERR2
 40
0.0
  9
$USERR3
 40
0.0
  9
$USERR4
 40
0.0
  9
$USERR5
 40
0.0
  9
$WORLDVIEW
 70
     1
  9
$SHADEDGE
 70
     3
  9
$SHADEDIF
 70
    70
  9
$TILEMODE
 70
     1
  9
$MAXACTVP
 70
    64
  9
$PINSBASE
 10
0.0
 20
0.0
 30
0.0
  9
$PLIMCHECK
 70
     0
  9
$PEXTMIN
 10
0.0
 20
0.0
 30
0.0
  9
$PEXTMAX
 10
0.0
 20
0.0
 30
0.0
  9
$PLIMMIN
 10
0.0
 20
0.0
  9
$PLIMMAX
 10
12.0
 20
9.0
  9
$UNITMODE
 70
     0
  9
$VISRETAIN
 70
     1
  9
$PLINEGEN
 70
     0
  9
$PSLTSCALE
 70
     1
  9
$TREEDEPTH
 70
  3020
  9
$CMLSTYLE
  2
Standard
  9
$CMLJUST
 70
     0
  9
$CMLSCALE
 40
20.0
  9
$PROXYGRAPHICS
 70
     1
  9
$MEASUREMENT
 70
     1
  9
$CELWEIGHT
370
    -1
  9
$ENDCAPS
280
     0
  9
$JOINSTYLE
280
     0
  9
$LWDISPLAY
290
     0
  9
$INSUNITS
 70
     4
  9
$HYPERLINKBASE
  1

  9
$STYLESHEET
  1

  9
$XEDIT
290
     1
  9
$CEPSNTYPE
380
     0
  9
$PSTYLEMODE
290
     1
  9
$FINGERPRINTGUID
  2
{A9F5D530-972F-4813-857A-78B9B08CAD27}
  9
$VERSIONGUID
  2
{51D15B9A-3CAD-46C1-88EB-EE0D202C6BF1}
  9
$EXTNAMES
290
     1
  9
$PSVPSCALE
 40
0.0
  9
$OLESTARTUP
290
     0
  0
ENDSEC
  0
SECTION
  2
CLASSES
  0
CLASS
  1
ACDBDICTIONARYWDFLT
  2
AcDbDictionaryWithDefault
  3
ObjectDBX Classes
 90
        0
280
     0
281
     0
  0
CLASS
  1
DICTIONARYVAR
  2
AcDbDictionaryVar
  3
ObjectDBX Classes
 90
        0
280
     0
281
     0
  0
CLASS
  1
TABLESTYLE
  2
AcDbTableStyle
  3
ObjectDBX Classes
 90
     4095
280
     0
281
     0
  0
CLASS
  1
MATERIAL
  2
AcDbMaterial
  3
ObjectDBX Classes
 90
     1024
280
     0
281
     0
  0
CLASS
  1
VISUALSTYLE
  2
AcDbVisualStyle
  3
ObjectDBX Classes
 90
     4095
280
     0
281
     0
  0
CLASS
  1
SORTENTSTABLE
  2
AcDbSortentsTable
  3
ObjectDBX Classes
 90
        0
280
     0
281
     0
  0
CLASS
  1
DIMASSOC
  2
AcDbDimAssoc
  3
"AcDbDimAssoc|Product Desc:     AcDim ARX App For Dimension|Company:          Autodesk, Inc.|WEB Address:      www.autodesk.com"
 90
    32768
280
     0
281
     0
  0
CLASS
  1
ACDBPLACEHOLDER
  2
AcDbPlaceHolder
  3
ObjectDBX Classes
 90
        0
280
     0
281
     0
  0
CLASS
  1
LAYOUT
  2
AcDbLayout
  3
ObjectDBX Classes
 90
        0
280
     0
281
     0
  0
ENDSEC
  0
SECTION
  2
TABLES
  0
TABLE
  2
VPORT
  5
8
330
0
100
AcDbSymbolTable
 70
     1
  0
VPORT
  5
EA
330
8
100
AcDbSymbolTableRecord
100
AcDbViewportTableRecord
  2
*Active
 70
     0
 10
0.0
 20
0.0
 11
1.0
 21
1.0
 12
884.9938396503722
 22
-797.2520644142816
 13
0.0
 23
0.0
 14
10.0
 24
10.0
 15
10.0
 25
10.0
 16
0.0
 26
0.0
 36
1.0
 17
0.0
 27
0.0
 37
0.0
 40
1178.29827748402
 41
1.858662613981763
 42
50.0
 43
0.0
 44
0.0
 50
0.0
 51
0.0
 71
     0
 72
  1000
 73
     1
 74
     3
 75
     0
 76
     0
 77
     0
 78
     0
281
     0
 65
     1
110
0.0
120
0.0
130
0.0
111
1.0
121
0.0
131
0.0
112
0.0
122
1.0
132
0.0
 79
     0
146
0.0
  0
ENDTAB
  0
TABLE
  2
LTYPE
  5
5
330
0
100
AcDbSymbolTable
 70
     2
  0
LTYPE
  5
14
330
5
100
AcDbSymbolTableRecord
100
AcDbLinetypeTableRecord
  2
ByBlock
 70
     0
  3

 72
    65
 73
     0
 40
0.0
  0
LTYPE
  5
15
330
5
100
AcDbSymbolTableRecord
100
AcDbLinetypeTableRecord
  2
ByLayer
 70
     0
  3

 72
    65
 73
     0
 40
0.0
  0
LTYPE
  5
16
330
5
100
AcDbSymbolTableRecord
100
AcDbLinetypeTableRecord
  2
Continuous
 70
     0
  3
Solid line
 72
    65
 73
     0
 40
0.0
  0
ENDTAB
  0
TABLE
  2
LAYER
  5
2
102
{ACAD_XDICTIONARY
360
141
102
}
330
0
100
AcDbSymbolTable
 70
     9
  0
LAYER
  5
10
330
2
100
AcDbSymbolTableRecord
100
AcDbLayerTableRecord
  2
0
 70
     0
 62
     7
  6
Continuous
370
    -3
390
F
  0
LAYER
  5
124
330
2
100
AcDbSymbolTableRecord
100
AcDbLayerTableRecord
  2
Defpoints
 70
     0
 62
     7
  6
Continuous
290
     0
370
    -3
390
F
  0
LAYER
  5
13E
330
2
100
AcDbSymbolTableRecord
100
AcDbLayerTableRecord
  2
Hewi
 70
     0
 62
     7
  6
Continuous
370
    -3
390
F
  0
ENDTAB
  0
TABLE
  2
STYLE
  5
3
330
0
100
AcDbSymbolTable
 70
     3
  0
STYLE
  5
11
330
3
100
AcDbSymbolTableRecord
100
AcDbTextStyleTableRecord
  2
Standard
 70
     0
 40
0.0
 41
1.0
 50
0.0
 71
     0
 42
2.5
  3
txt
  4

  0
ENDTAB
  0
TABLE
  2
VIEW
  5
6
330
0
100
AcDbSymbolTable
 70
     0
  0
ENDTAB
  0
TABLE
  2
UCS
  5
7
330
0
100
AcDbSymbolTable
 70
     0
  0
ENDTAB
  0
TABLE
  2
APPID
  5
9
330
0
100
AcDbSymbolTable
 70
     3
  0
APPID
  5
12
330
9
100
AcDbSymbolTableRecord
100
AcDbRegAppTableRecord
  2
ACAD
 70
     0
  0
APPID
  5
9E
330
9
100
AcDbSymbolTableRecord
100
AcDbRegAppTableRecord
  2
ACAD_PSEXT
 70
     0
  0
APPID
  5
212
330
9
100
AcDbSymbolTableRecord
100
AcDbRegAppTableRecord
  2
ACAD_EXEMPT_FROM_CAD_STANDARDS
 70
     0
  0
ENDTAB
  0
TABLE
  2
DIMSTYLE
  5
A
330
0
100
AcDbSymbolTable
 70
     4
100
AcDbDimStyleTable
 71
     1
340
27
  0
DIMSTYLE
105
27
330
A
100
AcDbSymbolTableRecord
100
AcDbDimStyleTableRecord
  2
ISO-25
 70
     0
 41
2.5
 42
0.625
 43
3.75
 44
1.25
 73
     0
 74
     0
 77
     1
 78
     8
140
2.5
141
2.5
143
0.03937007874016
147
0.625
171
     3
172
     1
271
     2
272
     2
274
     3
278
    44
283
     0
284
     8
340
11
  0
DIMSTYLE
105
254
330
A
100
AcDbSymbolTableRecord
100
AcDbDimStyleTableRecord
  2
Standard
 70
     0
340
11
  0
ENDTAB
  0
TABLE
  2
BLOCK_RECORD
  5
1
330
0
100
AcDbSymbolTable
 70
   110
  0
BLOCK_RECORD
  5
1F
102
{ACAD_XDICTIONARY
360
116
102
}
330
1
100
AcDbSymbolTableRecord
100
AcDbBlockTableRecord
  2
*Model_Space
340
22
  0
BLOCK_RECORD
  5
D2
330
1
100
AcDbSymbolTableRecord
100
AcDbBlockTableRecord
  2
*Paper_Space
340
D3
  0
BLOCK_RECORD
  5
D6
330
1
100
AcDbSymbolTableRecord
100
AcDbBlockTableRecord
  2
*Paper_Space0
340
D7
  0
ENDTAB
  0
ENDSEC
  0
SECTION
  2
BLOCKS
  0
BLOCK
  5
20
330
1F
100
AcDbEntity
  8
0
100
AcDbBlockBegin
  2
*Model_Space
 70
     0
 10
0.0
 20
0.0
 30
0.0
  3
*Model_Space
  1

  0
ENDBLK
  5
21
330
1F
100
AcDbEntity
  8
0
100
AcDbBlockEnd
  0
BLOCK
  5
D4
330
D2
100
AcDbEntity
 67
     1
  8
0
100
AcDbBlockBegin
  2
*Paper_Space
 70
     0
 10
0.0
 20
0.0
 30
0.0
  3
*Paper_Space
  1

  0
ENDBLK
  5
D5
330
D2
100
AcDbEntity
 67
     1
  8
0
100
AcDbBlockEnd
  0
BLOCK
  5
D8
330
D6
100
AcDbEntity
 67
     1
  8
0
100
AcDbBlockBegin
  2
*Paper_Space0
 70
     0
 10
0.0
 20
0.0
 30
0.0
  3
*Paper_Space0
  1

  0
ENDBLK
  5
D9
330
D6
100
AcDbEntity
 67
     1
  8
0
100
AcDbBlockEnd
  0
ENDSEC
  0
SECTION
  2
ENTITIES
  0
LINE
  5
10AC
330
1F
100
AcDbEntity
  8
Hewi
100
AcDbLine
 10
1001.743546540892
 20
-983.6949698885893
 30
0.0000000000000018
 11
1024.243546540892
 21
-983.6949698885893
 31
0.0000000000000018
  0
LINE
  5
10AD
330
1F
100
AcDbEntity
  8
Hewi
100
AcDbLine
 10
962.2911034423887
 20
-950.6858281736947
 30
0.0000000000000018
 11
962.2911034423887
 21
-906.6951945531343
 31
0.0000000000000018
  0
LINE
  5
10AE
330
1F
100
AcDbEntity
  8
Hewi
100
AcDbLine
 10
944.2911034423886
 20
-906.6952423288041
 30
0.0000000000000018
 11
944.2911034423886
 21
-950.6943200489931
 31
0.0000000000000018
  0
LINE
  5
10AF
330
1F
100
AcDbEntity
  8
Hewi
100
AcDbLine
 10
642.2911034423886
 20
-950.6780670305616
 30
0.0000000000000018
 11
642.2911034423886
 21
-906.6953644560143
 31
0.0000000000000018
  0
LINE
  5
10B0
330
1F
100
AcDbEntity
  8
Hewi
100
AcDbLine
 10
624.2911034423888
 20
-906.6953690694807
 30
0.0000000000000018
 11
624.2911034423888
 21
-950.6943395502476
 31
0.0000000000000018
  0
LINE
  5
10B1
330
1F
100
AcDbEntity
  8
Hewi
100
AcDbLine
 10
673.2911034423888
 20
-904.6949698885892
 30
0.0000000000000018
 11
673.2911034423888
 21
-893.6949698885891
 31
0.0000000000000018
  0
LINE
  5
10B2
330
1F
100
AcDbEntity
  8
Hewi
100
AcDbLine
 10
593.2911034423888
 20
-893.6949698885891
 30
0.0000000000000018
 11
593.2911034423888
 21
-904.6949698885892
 31
0.0000000000000018
  0
LINE
  5
10B3
330
1F
100
AcDbEntity
  8
Hewi
100
AcDbLine
 10
585.8367576929157
 20
-983.6949698885893
 30
0.0000000000000018
 11
1000.745449191847
 21
-983.6949698885893
 31
0.0000000000000018
  0
LINE
  5
10B4
330
1F
100
AcDbEntity
  8
Hewi
100
AcDbLine
 10
624.2909580164851
 20
-950.6949698885893
 30
0.0000000000000018
 11
585.8367576929157
 21
-950.6949698885893
 31
0.0000000000000018
  0
LINE
  5
10B5
330
1F
100
AcDbEntity
  8
Hewi
100
AcDbLine
 10
944.2887182196864
 20
-950.6949698885893
 30
0.0000000000000018
 11
642.1622261714219
 21
-950.6949698885893
 31
0.0000000000000018
  0
LINE
  5
10B6
330
1F
100
AcDbEntity
  8
Hewi
100
AcDbLine
 10
1000.745449191847
 20
-950.6949698885893
 30
0.0000000000000018
 11
962.1178639716379
 21
-950.6949698885893
 31
0.0000000000000018
  0
LINE
  5
10B7
330
1F
100
AcDbEntity
  8
Hewi
100
AcDbLine
 10
584.8386603438846
 20
-950.6949698885893
 30
0.0000000000000018
 11
562.3386603438848
 21
-950.6949698885893
 31
0.0000000000000018
  0
LINE
  5
10B8
330
1F
100
AcDbEntity
  8
Hewi
100
AcDbLine
 10
562.3386603438848
 20
-983.6949698885893
 30
0.0000000000000018
 11
584.8386603438846
 21
-983.6949698885893
 31
0.0000000000000018
  0
LINE
  5
10B9
330
1F
100
AcDbEntity
  8
Hewi
100
AcDbLine
 10
532.6401755340339
 20
-938.3934546984255
 30
0.0000000000000018
 11
516.7302729573419
 21
-922.4835521217192
 31
0.0000000000000018
  0
LINE
  5
10BA
330
1F
100
AcDbEntity
  8
Hewi
100
AcDbLine
 10
493.3957491781911
 20
-945.8180759008701
 30
0.0000000000000018
 11
509.3056517548829
 21
-961.7279784775764
 31
0.0000000000000018
  0
LINE
  5
10BB
330
1F
100
AcDbEntity
  8
Hewi
100
AcDbLine
 10
993.2911034423886
 20
-904.6949698885892
 30
0.0000000000000018
 11
993.2911034423886
 21
-893.6949698885891
 31
0.0000000000000018
  0
LINE
  5
10BC
330
1F
100
AcDbEntity
  8
Hewi
100
AcDbLine
 10
913.2911034423887
 20
-893.6949698885891
 30
0.0000000000000018
 11
913.2911034423887
 21
-904.6949698885892
 31
0.0000000000000018
  0
LINE
  5
10BD
330
1F
100
AcDbEntity
  8
Hewi
100
AcDbLine
 10
1024.243546540892
 20
-950.6949698885893
 30
0.0000000000000018
 11
1001.743546540892
 21
-950.6949698885893
 31
0.0000000000000018
  0
LINE
  5
10BE
330
1F
100
AcDbEntity
  8
Hewi
100
AcDbLine
 10
1077.276555129894
 20
-961.7279784775764
 30
0.0000000000000018
 11
1093.186457706586
 21
-945.8180759008701
 31
0.0000000000000018
  0
LINE
  5
10BF
330
1F
100
AcDbEntity
  8
Hewi
100
AcDbLine
 10
1069.851933927435
 20
-922.4835521217192
 30
0.0000000000000018
 11
1053.942031350729
 21
-938.3934546984255
 31
0.0000000000000018
  0
LINE
  5
10C0
330
1F
100
AcDbEntity
  8
Hewi
100
AcDbLine
 10
585.3367576929302
 20
-951.1949698885892
 30
0.0000000000000018
 11
585.3367576929302
 21
-983.1949698885892
 31
0.0000000000000018
  0
LINE
  5
10C1
330
1F
100
AcDbEntity
  8
Hewi
100
AcDbLine
 10
1001.245449191847
 20
-983.1949698885892
 30
0.0000000000000018
 11
1001.245449191847
 21
-951.1949698885892
 31
0.0000000000000018
  0
LINE
  5
10C4
330
1F
100
AcDbEntity
  8
Hewi
100
AcDbLine
 10
585.3386603438702
 20
-983.1949698885892
 30
0.0000000000000018
 11
585.3386603438702
 21
-951.1949698885892
 31
0.0000000000000018
  0
LINE
  5
10C7
330
1F
100
AcDbEntity
  8
Hewi
100
AcDbLine
 10
1024.243546540892
 20
-983.6949698885893
 30
0.0000000000000018
 11
1024.243546540892
 21
-983.6949698885893
 31
0.0000000000000018
  0
LINE
  5
10CB
330
1F
100
AcDbEntity
  8
Hewi
100
AcDbLine
 10
1001.243546540892
 20
-967.1949698885892
 30
0.0000000000000018
 11
1001.243546540892
 21
-951.1949718162377
 31
0.0000000000000018
  0
LINE
  5
10CC
330
1F
100
AcDbEntity
  8
Hewi
100
AcDbLine
 10
1001.243546540892
 20
-967.1949698885892
 30
0.0000000000000018
 11
1001.243546540892
 21
-951.1949698885892
 31
0.0000000000000018
  0
LINE
  5
10CE
330
1F
100
AcDbEntity
  8
Hewi
100
AcDbLine
 10
915.2911034423889
 20
-906.6949698885892
 30
0.0000000000000018
 11
991.2911034423888
 21
-906.6949698885892
 31
0.0000000000000018
  0
LINE
  5
10CF
330
1F
100
AcDbEntity
  8
Hewi
100
AcDbLine
 10
913.2911034423887
 20
-893.6949698885891
 30
0.0000000000000018
 11
993.2911034423886
 21
-893.6949698885891
 31
0.0000000000000018
  0
LINE
  5
10D0
330
1F
100
AcDbEntity
  8
Hewi
100
AcDbLine
 10
493.042195787595
 20
-945.4645225102886
 30
0.0000000000000018
 11
493.042195787595
 21
-945.4645225102886
 31
0.0000000000000018
  0
LINE
  5
10D1
330
1F
100
AcDbEntity
  8
Hewi
100
AcDbLine
 10
492.9347144043568
 20
-943.8907042264927
 30
0.0000000000000018
 11
492.9347144043568
 21
-943.8907042264927
 31
0.0000000000000018
  0
LINE
  5
10D3
330
1F
100
AcDbEntity
  8
Hewi
100
AcDbLine
 10
1070.205487318017
 20
-922.1299987311232
 30
0.0000000000000018
 11
1070.205487318017
 21
-922.1299987311232
 31
0.0000000000000018
  0
LINE
  5
10D7
330
1F
100
AcDbEntity
  8
Hewi
100
AcDbLine
 10
1000.745449191847
 20
-983.6949698885893
 30
0.0000000000000018
 11
1000.745449191847
 21
-967.1949698885892
 31
0.0000000000000018
  0
LINE
  5
10D8
330
1F
100
AcDbEntity
  8
Hewi
100
AcDbLine
 10
671.2911034423886
 20
-906.6949698885892
 30
0.0000000000000018
 11
595.2911034423888
 21
-906.6949698885892
 31
0.0000000000000018
  0
LINE
  5
10D9
330
1F
100
AcDbEntity
  8
Hewi
100
AcDbLine
 10
673.2911034423888
 20
-893.6949698885891
 30
0.0000000000000018
 11
593.2911034423888
 21
-893.6949698885891
 31
0.0000000000000018
  0
LINE
  5
10DA
330
1F
100
AcDbEntity
  8
Hewi
100
AcDbLine
 10
1001.743546540892
 20
-712.7903950455755
 30
-0.0000000000000117
 11
1024.243546540892
 21
-712.7903950455755
 31
-0.0000000000000138
  0
LINE
  5
10DB
330
1F
100
AcDbEntity
  8
Hewi
100
AcDbLine
 10
1024.243546540892
 20
-679.7903950455756
 30
-0.0000000000000118
 11
1001.743546540892
 21
-679.7903950455756
 31
-0.0000000000000097
  0
LINE
  5
10DC
330
1F
100
AcDbEntity
  8
Hewi
100
AcDbLine
 10
1065.609293240312
 20
-712.7903950455755
 30
0.0000000000000062
 11
1081.519195817003
 21
-712.7903950455755
 31
-0.0000000000000035
  0
LINE
  5
10DD
330
1F
100
AcDbEntity
  8
Hewi
100
AcDbLine
 10
1081.519195817003
 20
-679.7903950455756
 30
-0.0000000000000015
 11
1065.609293240312
 21
-679.7903950455756
 31
0.0000000000000083
  0
LINE
  5
10DE
330
1F
100
AcDbEntity
  8
Hewi
100
AcDbLine
 10
629.9746784043382
 20
-736.152673641186
 30
0.0000000000000061
 11
630.048903617906
 21
-736.2301466872841
 31
0.0000000000000062
  0
LINE
  5
10DF
330
1F
100
AcDbEntity
  8
Hewi
100
AcDbLine
 10
634.8209100460808
 20
-736.3323144882988
 30
0.0000000000000117
 11
634.8983830921642
 21
-736.258089274731
 31
0.0000000000000118
  0
LINE
  5
10E0
330
1F
100
AcDbEntity
  8
Hewi
100
AcDbLine
 10
951.1455751234171
 20
-736.232774435727
 30
-0.0000000000000156
 11
951.147987387114
 21
-736.3454453335679
 31
-0.0000000000000156
  0
LINE
  5
10E1
330
1F
100
AcDbEntity
  8
Hewi
100
AcDbLine
 10
957.1466127184539
 20
-736.2170158420147
 30
-0.0000000000000086
 11
957.1442009944583
 21
-736.1043701529515
 31
-0.0000000000000086
  0
LINE
  5
10E2
330
1F
100
AcDbEntity
  8
Hewi
100
AcDbLine
 10
584.8386603438846
 20
-679.7903950455756
 30
0.0000000000000135
 11
562.3386603438848
 21
-679.7903950455756
 31
0.0000000000000156
  0
LINE
  5
10E3
330
1F
100
AcDbEntity
  8
Hewi
100
AcDbLine
 10
562.3386603438848
 20
-712.7903950455755
 30
0.0000000000000135
 11
584.8386603438846
 21
-712.7903950455755
 31
0.0000000000000115
  0
LINE
  5
10E4
330
1F
100
AcDbEntity
  8
Hewi
100
AcDbLine
 10
520.9729136444657
 20
-679.7903950455756
 30
-0.0000000000000045
 11
505.0630110677594
 21
-679.7903950455756
 31
0.0000000000000053
  0
LINE
  5
10E5
330
1F
100
AcDbEntity
  8
Hewi
100
AcDbLine
 10
505.0630110677594
 20
-712.7903950455755
 30
0.0000000000000033
 11
520.9729136444657
 21
-712.7903950455755
 31
-0.0000000000000065
  0
LINE
  5
10E6
330
1F
100
AcDbEntity
  8
Hewi
100
AcDbLine
 10
585.8367576929157
 20
-712.7903950455755
 30
0.0000000000000126
 11
1000.745449191847
 21
-712.7903950455755
 31
-0.0000000000000129
  0
LINE
  5
10E7
330
1F
100
AcDbEntity
  8
Hewi
100
AcDbLine
 10
1000.745449191847
 20
-679.7903950455756
 30
-0.0000000000000109
 11
585.8367576929157
 21
-679.7903950455756
 31
0.0000000000000147
  0
LINE
  5
10E8
330
1F
100
AcDbEntity
  8
Hewi
100
AcDbLine
 10
629.4380064300201
 20
-736.104344944174
 30
0.0000000000000055
 11
629.4355941663232
 21
-736.2170158420147
 31
0.0000000000000054
  0
LINE
  5
10E9
330
1F
100
AcDbEntity
  8
Hewi
100
AcDbLine
 10
635.4342194976632
 20
-736.3454453335679
 30
0.0000000000000125
 11
635.4366312216442
 21
-736.2327996445192
 31
0.0000000000000125
  0
LINE
  5
10EA
330
1F
100
AcDbEntity
  8
Hewi
100
AcDbLine
 10
951.6838237926132
 20
-736.258089274731
 30
-0.000000000000015
 11
951.7612968386966
 21
-736.3323144882988
 31
-0.0000000000000149
  0
LINE
  5
10EB
330
1F
100
AcDbEntity
  8
Hewi
100
AcDbLine
 10
956.5333032668567
 20
-736.2301466872841
 30
-0.0000000000000093
 11
956.6075284804393
 21
-736.152673641186
 31
-0.0000000000000092
  0
LINE
  5
10EC
330
1F
100
AcDbEntity
  8
Hewi
100
AcDbLine
 10
951.7612968386966
 20
-736.3323144882988
 30
-0.0000000000000149
 11
951.7596714029497
 21
-736.2563943864614
 31
-0.0000000000000149
  0
LINE
  5
10ED
330
1F
100
AcDbEntity
  8
Hewi
100
AcDbLine
 10
956.5333032668567
 20
-736.2301466872841
 30
-0.0000000000000093
 11
956.5316778311098
 21
-736.1542265854323
 31
-0.0000000000000093
  0
LINE
  5
10EE
330
1F
100
AcDbEntity
  8
Hewi
100
AcDbLine
 10
630.048903617906
 20
-736.2301466872841
 30
0.0000000000000062
 11
630.0505290536675
 21
-736.1542265854323
 31
0.0000000000000062
  0
LINE
  5
10EF
330
1F
100
AcDbEntity
  8
Hewi
100
AcDbLine
 10
634.8209100460808
 20
-736.3323144882988
 30
0.0000000000000117
 11
634.8225354818278
 21
-736.2563943864614
 31
0.0000000000000117
  0
LINE
  5
10F0
330
1F
100
AcDbEntity
  8
Hewi
100
AcDbLine
 10
1024.243546540892
 20
-712.7903950455755
 30
-0.0000000000000138
 11
1065.609293240312
 21
-712.7903950455755
 31
0.0000000000000062
  0
LINE
  5
10F1
330
1F
100
AcDbEntity
  8
Hewi
100
AcDbLine
 10
1065.609293240312
 20
-679.7903950455756
 30
0.0000000000000083
 11
1024.243546540892
 21
-679.7903950455756
 31
-0.0000000000000118
  0
LINE
  5
10F2
330
1F
100
AcDbEntity
  8
Hewi
100
AcDbLine
 10
562.3386603438848
 20
-679.7903950455756
 30
0.0000000000000156
 11
520.9729136444657
 21
-679.7903950455756
 31
-0.0000000000000045
  0
LINE
  5
10F3
330
1F
100
AcDbEntity
  8
Hewi
100
AcDbLine
 10
520.9729136444657
 20
-712.7903950455755
 30
-0.0000000000000065
 11
562.3386603438848
 21
-712.7903950455755
 31
0.0000000000000135
  0
LINE
  5
10F4
330
1F
100
AcDbEntity
  8
Hewi
100
AcDbLine
 10
1001.245449191847
 20
-712.2903950455755
 30
-0.0000000000000123
 11
1001.245449191847
 21
-680.2903950455757
 31
-0.0000000000000103
  0
LINE
  5
10F5
330
1F
100
AcDbEntity
  8
Hewi
100
AcDbLine
 10
585.3367576929302
 20
-680.2903950455757
 30
0.000000000000014
 11
585.3367576929302
 21
-712.2903950455755
 31
0.0000000000000121
  0
LINE
  5
10F6
330
1F
100
AcDbEntity
  8
Hewi
100
AcDbLine
 10
562.3386603438848
 20
-679.7903950455756
 30
0.0000000000000156
 11
562.3386603438848
 21
-679.7903950455756
 31
0.0000000000000156
  0
LINE
  5
10F8
330
1F
100
AcDbEntity
  8
Hewi
100
AcDbLine
 10
585.3386603438702
 20
-712.2903950455755
 30
0.0000000000000121
 11
585.3386603438702
 21
-680.2903950455757
 31
0.0000000000000141
  0
LINE
  5
10F9
330
1F
100
AcDbEntity
  8
Hewi
100
AcDbLine
 10
1024.243546540892
 20
-712.7903950455755
 30
-0.0000000000000138
 11
1024.243546540892
 21
-712.7903950455755
 31
-0.0000000000000138
  0
LINE
  5
10FB
330
1F
100
AcDbEntity
  8
Hewi
100
AcDbLine
 10
1001.243546540892
 20
-680.2903950455757
 30
-0.0000000000000103
 11
1001.243546540892
 21
-712.2903950455755
 31
-0.0000000000000123
  0
LINE
  5
10FE
330
1F
100
AcDbEntity
  8
Hewi
100
AcDbLine
 10
634.8209100460808
 20
-736.3323144882988
 30
0.0000000000000117
 11
630.048903617906
 21
-736.2301466872841
 31
0.0000000000000062
  0
LINE
  5
1128
330
1F
100
AcDbEntity
  8
Hewi
100
AcDbLine
 10
956.5333032668567
 20
-736.2301466872841
 30
-0.0000000000000093
 11
951.7612968386966
 21
-736.3323144882988
 31
-0.0000000000000149
  0
LINE
  5
1129
330
1F
100
AcDbEntity
  8
Hewi
100
AcDbLine
 10
321.4838887614133
 20
-712.7903950455755
 30
-0.0000000000000216
 11
337.3937913381051
 21
-712.7903950455755
 31
-0.000000000000003
  0
LINE
  5
112A
330
1F
100
AcDbEntity
  8
Hewi
100
AcDbLine
 10
337.3937913381051
 20
-679.7903950455756
 30
-0.000000000000001
 11
321.4838887614133
 21
-679.7903950455756
 31
-0.0000000000000196
  0
LINE
  5
112B
330
1F
100
AcDbEntity
  8
Hewi
100
AcDbLine
 10
376.6807957979436
 20
-736.2903950455756
 30
-0.0000000000000153
 11
377.8496354608178
 21
-736.2903950455756
 31
-0.0000000000000139
  0
LINE
  5
112C
330
1F
100
AcDbEntity
  8
Hewi
100
AcDbLine
 10
366.8496354608178
 20
-736.2903950455756
 30
-0.0000000000000268
 11
370.9951995726697
 21
-736.2903950455756
 31
-0.0000000000000219
  0
LINE
  5
112D
330
1F
100
AcDbEntity
  8
Hewi
100
AcDbLine
 10
377.8496354608178
 20
-656.2903950455757
 30
-0.000000000000009
 11
366.8496354608178
 21
-656.2903950455757
 31
-0.0000000000000219
  0
LINE
  5
112E
330
1F
100
AcDbEntity
  8
Hewi
100
AcDbLine
 10
347.5260936406085
 20
-705.2903950455757
 30
-0.000000000000024
 11
364.848923052934
 21
-705.2903950455757
 31
-0.0000000000000233
  0
LINE
  5
112F
330
1F
100
AcDbEntity
  8
Hewi
100
AcDbLine
 10
364.8488771807715
 20
-687.2903950455755
 30
-0.0000000000000221
 11
347.525593629307
 21
-687.2903950455755
 31
-0.0000000000000227
  0
LINE
  5
1130
330
1F
100
AcDbEntity
  8
Hewi
100
AcDbLine
 10
304.3496354608178
 20
-712.7903950455755
 30
-0.0000000000000133
 11
321.4838887614133
 21
-712.7903950455755
 31
-0.0000000000000216
  0
LINE
  5
1131
330
1F
100
AcDbEntity
  8
Hewi
100
AcDbLine
 10
321.4838887614133
 20
-679.7903950455756
 30
-0.0000000000000196
 11
304.3496354608178
 21
-679.7903950455756
 31
-0.0000000000000113
  0
LINE
  5
1133
330
1F
100
AcDbEntity
  8
Hewi
100
AcDbLine
 10
364.8496354608178
 20
-658.2903950455756
 30
-0.0000000000000243
 11
364.8496354608178
 21
-734.2903950455755
 31
-0.000000000000029
  0
LINE
  5
1134
330
1F
100
AcDbEntity
  8
Hewi
100
AcDbLine
 10
377.8496354608178
 20
-656.2903950455757
 30
-0.000000000000009
 11
377.8496354608178
 21
-736.2903950455756
 31
-0.0000000000000139
  0
LINE
  5
1135
330
1F
100
AcDbEntity
  8
Hewi
100
AcDbLine
 10
375.2228099222084
 20
-736.2586103596795
 30
-0.000000000000017
 11
375.2228099222084
 21
-736.3038265598106
 31
-0.000000000000017
  0
LINE
  5
1136
330
1F
100
AcDbEntity
  8
Hewi
100
AcDbLine
 10
373.6220089554954
 20
-736.3179834155553
 30
-0.0000000000000188
 11
373.6220089554954
 21
-736.2444455931936
 31
-0.0000000000000188
  0
ARC
  5
113A
330
1F
100
AcDbEntity
  8
Hewi
100
AcDbCircle
 10
1001.743546540892
 20
-983.1949698885892
 30
0.0000000000000018
 40
0.5
100
AcDbArc
 50
183.5349391366614
 51
270.0
  0
ARC
  5
113B
330
1F
100
AcDbEntity
  8
Hewi
100
AcDbCircle
 10
1001.743546540892
 20
-951.1949698885892
 30
0.0000000000000018
 40
0.5
100
AcDbArc
 50
90.0
 51
176.4650608633384
  0
ARC
  5
113C
330
1F
100
AcDbEntity
  8
Hewi
100
AcDbCircle
 10
-1024.243546540892
 20
-908.6949698885893
 30
-0.0000000000000018
 40
42.00000000000001
210
0.0
220
0.0
230
-1.0
100
AcDbArc
 50
224.9999999999355
 51
270.0
  0
ARC
  5
113D
330
1F
100
AcDbEntity
  8
Hewi
100
AcDbCircle
 10
1024.243546540892
 20
-908.6949698885893
 30
0.0000000000000018
 40
75.00000000000001
100
AcDbArc
 50
270.0
 51
315.0000000000645
  0
ARC
  5
113E
330
1F
100
AcDbEntity
  8
Hewi
100
AcDbCircle
 10
1070.205487318031
 20
-922.8371055123153
 30
0.0000000000000018
 40
0.5
100
AcDbArc
 50
44.9999999999355
 51
135.0000000000645
  0
ARC
  5
113F
330
1F
100
AcDbEntity
  8
Hewi
100
AcDbCircle
 10
1092.83290431599
 20
-945.4645225102886
 30
0.0000000000000018
 40
0.5
100
AcDbArc
 50
315.0000000000645
 51
44.9999999999355
  0
ARC
  5
1140
330
1F
100
AcDbEntity
  8
Hewi
100
AcDbCircle
 10
991.2911034423888
 20
-904.6949698885892
 30
0.0000000000000018
 40
2.0
100
AcDbArc
 50
270.0
 51
0.0
  0
ARC
  5
1141
330
1F
100
AcDbEntity
  8
Hewi
100
AcDbCircle
 10
915.2911034423889
 20
-904.6949698885892
 30
0.0000000000000018
 40
2.0
100
AcDbArc
 50
180.0
 51
270.0
  0
ARC
  5
1142
330
1F
100
AcDbEntity
  8
Hewi
100
AcDbCircle
 10
515.52819142933
 20
-922.9785268685537
 30
0.0000000000000018
 40
1.199999999999999
100
AcDbArc
 50
44.9999999999355
 51
127.1862867719046
  0
ARC
  5
1143
330
1F
100
AcDbEntity
  8
Hewi
100
AcDbCircle
 10
493.8907239250256
 20
-944.6159943728579
 30
0.0000000000000018
 40
1.199999999999999
100
AcDbArc
 50
142.8137132277983
 51
224.9999999999355
  0
ARC
  5
1144
330
1F
100
AcDbEntity
  8
Hewi
100
AcDbCircle
 10
588.5356664701538
 20
-1016.419718862804
 30
0.0000000000000018
 40
120.0
100
AcDbArc
 50
135.4064120064881
 51
142.8137132277983
  0
ARC
  5
1145
330
1F
100
AcDbEntity
  8
Hewi
100
AcDbCircle
 10
587.3319159192759
 20
-1017.623469413682
 30
0.0000000000000018
 40
120.0
100
AcDbArc
 50
127.1862867719046
 51
134.5935879936776
  0
ARC
  5
1146
330
1F
100
AcDbEntity
  8
Hewi
100
AcDbCircle
 10
1092.691482959752
 20
-944.6159943728579
 30
0.0000000000000018
 40
1.199999999999999
100
AcDbArc
 50
315.0000000000645
 51
37.18628677220163
  0
ARC
  5
1147
330
1F
100
AcDbEntity
  8
Hewi
100
AcDbCircle
 10
1071.054015455447
 20
-922.9785268685537
 30
0.0000000000000018
 40
1.199999999999999
100
AcDbArc
 50
52.8137132280954
 51
135.0000000000645
  0
ARC
  5
1148
330
1F
100
AcDbEntity
  8
Hewi
100
AcDbCircle
 10
999.2502909655014
 20
-1017.623469413682
 30
0.0000000000000018
 40
120.0
100
AcDbArc
 50
45.40641200632235
 51
52.8137132280954
  0
ARC
  5
1149
330
1F
100
AcDbEntity
  8
Hewi
100
AcDbCircle
 10
998.0465404146235
 20
-1016.419718862804
 30
0.0000000000000018
 40
120.0
100
AcDbArc
 50
37.18628677220163
 51
44.59358799351185
  0
ARC
  5
114A
330
1F
100
AcDbEntity
  8
Hewi
100
AcDbCircle
 10
584.8386603438846
 20
-951.1949698885892
 30
0.0000000000000018
 40
0.5
100
AcDbArc
 50
3.534939136661568
 51
90.0
  0
ARC
  5
114B
330
1F
100
AcDbEntity
  8
Hewi
100
AcDbCircle
 10
584.8386603438846
 20
-983.1949698885892
 30
0.0000000000000018
 40
0.5
100
AcDbArc
 50
270.0
 51
356.4650608633385
  0
ARC
  5
114C
330
1F
100
AcDbEntity
  8
Hewi
100
AcDbCircle
 10
493.7493025687871
 20
-945.4645225102886
 30
0.0000000000000018
 40
0.5
100
AcDbArc
 50
135.0000000000645
 51
224.9999999999355
  0
ARC
  5
114D
330
1F
100
AcDbEntity
  8
Hewi
100
AcDbCircle
 10
516.376719566746
 20
-922.8371055123153
 30
0.0000000000000018
 40
0.5
100
AcDbArc
 50
44.9999999999355
 51
135.0000000000645
  0
ARC
  5
114E
330
1F
100
AcDbEntity
  8
Hewi
100
AcDbCircle
 10
-562.3386603438848
 20
-908.6949698885893
 30
-0.0000000000000018
 40
42.00000000000001
210
0.0
220
0.0
230
-1.0
100
AcDbArc
 50
270.0
 51
315.0000000000645
  0
ARC
  5
114F
330
1F
100
AcDbEntity
  8
Hewi
100
AcDbCircle
 10
562.3386603438848
 20
-908.6949698885893
 30
0.0000000000000018
 40
75.00000000000001
100
AcDbArc
 50
224.9999999999355
 51
270.0
  0
ARC
  5
1150
330
1F
100
AcDbEntity
  8
Hewi
100
AcDbCircle
 10
585.8367576929157
 20
-951.1949698885892
 30
0.0000000000000018
 40
0.5
100
AcDbArc
 50
90.0
 51
176.4650608633384
  0
ARC
  5
1151
330
1F
100
AcDbEntity
  8
Hewi
100
AcDbCircle
 10
585.8367576929157
 20
-983.1949698885892
 30
0.0000000000000018
 40
0.5
100
AcDbArc
 50
183.5349391366614
 51
270.0
  0
ARC
  5
1152
330
1F
100
AcDbEntity
  8
Hewi
100
AcDbCircle
 10
1000.745449191847
 20
-951.1949698885892
 30
0.0000000000000018
 40
0.5
100
AcDbArc
 50
3.534939136661568
 51
90.0
  0
ARC
  5
1153
330
1F
100
AcDbEntity
  8
Hewi
100
AcDbCircle
 10
1000.745449191847
 20
-983.1949698885892
 30
0.0000000000000018
 40
0.5
100
AcDbArc
 50
270.0
 51
356.4650608633385
  0
ARC
  5
1154
330
1F
100
AcDbEntity
  8
Hewi
100
AcDbCircle
 10
671.2911034423886
 20
-904.6949698885892
 30
0.0000000000000018
 40
2.0
100
AcDbArc
 50
270.0
 51
0.0
  0
ARC
  5
1155
330
1F
100
AcDbEntity
  8
Hewi
100
AcDbCircle
 10
595.2911034423888
 20
-904.6949698885892
 30
0.0000000000000018
 40
2.0
100
AcDbArc
 50
180.0
 51
270.0
  0
ARC
  5
1156
330
1F
100
AcDbEntity
  8
Hewi
100
AcDbCircle
 10
1001.743546540892
 20
-712.2903950455755
 30
0.0000000000002441
 40
0.5
100
AcDbArc
 50
183.5349391366614
 51
270.0
  0
ARC
  5
1157
330
1F
100
AcDbEntity
  8
Hewi
100
AcDbCircle
 10
1001.743546540892
 20
-680.2903950455757
 30
0.0000000000002461
 40
0.5
100
AcDbArc
 50
90.0
 51
176.4650608633384
  0
ARC
  5
1158
330
1F
100
AcDbEntity
  8
Hewi
100
AcDbCircle
 10
584.8386603438846
 20
-680.2903950455757
 30
-0.0000000000002423
 40
0.5
100
AcDbArc
 50
3.534939136661568
 51
90.0
  0
ARC
  5
1159
330
1F
100
AcDbEntity
  8
Hewi
100
AcDbCircle
 10
584.8386603438846
 20
-712.2903950455755
 30
-0.0000000000002443
 40
0.5
100
AcDbArc
 50
270.0
 51
356.4650608633385
  0
ARC
  5
115A
330
1F
100
AcDbEntity
  8
Hewi
100
AcDbCircle
 10
1000.745449191847
 20
-680.2903950455757
 30
0.0000000000002449
 40
0.5
100
AcDbArc
 50
3.534939136661568
 51
90.0
  0
ARC
  5
115B
330
1F
100
AcDbEntity
  8
Hewi
100
AcDbCircle
 10
1000.745449191847
 20
-712.2903950455755
 30
0.0000000000002429
 40
0.5
100
AcDbArc
 50
270.0
 51
356.4650608633385
  0
ARC
  5
115C
330
1F
100
AcDbEntity
  8
Hewi
100
AcDbCircle
 10
585.8367576929157
 20
-680.2903950455757
 30
-0.0000000000002412
 40
0.5
100
AcDbArc
 50
90.0
 51
176.4650608633384
  0
ARC
  5
115D
330
1F
100
AcDbEntity
  8
Hewi
100
AcDbCircle
 10
585.8367576929157
 20
-712.2903950455755
 30
-0.0000000000002431
 40
0.5
100
AcDbArc
 50
183.5349391366614
 51
270.0
  0
ARC
  5
115E
330
1F
100
AcDbEntity
  8
Hewi
100
AcDbCircle
 10
-633.2911034423887
 20
-696.2903950455755
 30
0.0000000000001865
 40
40.0
210
0.0
220
0.0
230
-1.0
100
AcDbArc
 50
89.999992947196
 51
155.6381239015578
  0
ARC
  5
115F
330
1F
100
AcDbEntity
  8
Hewi
100
AcDbCircle
 10
-633.2911034423887
 20
-696.2903950455755
 30
0.0000000000001865
 40
40.0
210
0.0
220
0.0
230
-1.0
100
AcDbArc
 50
204.3675001035671
 51
335.6325033910326
  0
ARC
  5
1160
330
1F
100
AcDbEntity
  8
Hewi
100
AcDbCircle
 10
-633.2911034423887
 20
-696.2903950455755
 30
0.0000000000001865
 40
40.0
210
0.0
220
0.0
230
-1.0
100
AcDbArc
 50
24.36187631719294
 51
90.00000727124996
  0
ARC
  5
1161
330
1F
100
AcDbEntity
  8
Hewi
100
AcDbCircle
 10
-953.2911034423888
 20
-696.2903950455755
 30
-0.0000000000001883
 40
40.0
210
0.0
220
0.0
230
-1.0
100
AcDbArc
 50
90.00000152912194
 51
155.6381324829861
  0
ARC
  5
1162
330
1F
100
AcDbEntity
  8
Hewi
100
AcDbCircle
 10
-953.2911034423888
 20
-696.2903950455755
 30
-0.0000000000001883
 40
40.0
210
0.0
220
0.0
230
-1.0
100
AcDbArc
 50
204.3674943609573
 51
335.6324976484693
  0
ARC
  5
1163
330
1F
100
AcDbEntity
  8
Hewi
100
AcDbCircle
 10
-953.2911034423888
 20
-696.2903950455755
 30
-0.0000000000001883
 40
40.0
210
0.0
220
0.0
230
-1.0
100
AcDbArc
 50
24.3618705748531
 51
90.00000152912194
  0
ARC
  5
116A
330
1F
100
AcDbEntity
  8
Hewi
100
AcDbCircle
 10
366.8496354608178
 20
-734.2903950455755
 30
-0.0000000000001972
 40
2.0
100
AcDbArc
 50
180.0
 51
270.0
  0
ARC
  5
116B
330
1F
100
AcDbEntity
  8
Hewi
100
AcDbCircle
 10
366.8496354608178
 20
-658.2903950455756
 30
-0.0000000000001925
 40
2.0
100
AcDbArc
 50
90.0
 51
180.0
  0
ARC
  5
116C
330
1F
100
AcDbEntity
  8
Hewi
100
AcDbCircle
 10
-304.3496354608178
 20
-696.2903950455755
 30
0.0000000000002681
 40
16.5
210
0.0
220
0.0
230
-1.0
100
AcDbArc
 50
269.9999978889112
 51
0.0
  0
ARC
  5
116D
330
1F
100
AcDbEntity
  8
Hewi
100
AcDbCircle
 10
-304.3496354608178
 20
-696.2903950455755
 30
0.0000000000002681
 40
16.5
210
0.0
220
0.0
230
-1.0
100
AcDbArc
 50
0.0
 51
90.00000211108874
  0
ARC
  5
116E
330
1F
100
AcDbEntity
  8
Hewi
100
AcDbCircle
 10
304.3496354608178
 20
-696.2903950455755
 30
-0.0000000000002681
 40
16.5
100
AcDbArc
 50
90.0
 51
270.0000042213437
  0
ELLIPSE
  5
116F
330
1F
100
AcDbEntity
  8
Hewi
100
AcDbEllipse
 10
1081.519195817003
 20
-696.2903950455755
 30
-0.0000000000000025
 11
-0.000000000000002
 21
-16.5
 31
0.0
210
0.0
220
0.0
230
1.0
 40
0.7071067811865463
 41
0.0
 42
3.141592818617971
  0
ELLIPSE
  5
1170
330
1F
100
AcDbEntity
  8
Hewi
100
AcDbEllipse
 10
504.7094576771778
 20
-696.2903950455755
 30
0.0000000000000039
 11
0.000000000000002
 21
16.5
 31
0.0
210
0.0
220
0.0
230
1.0
 40
0.707106781186548
 41
3.14159248856158
 42
3.156809696367111
  0
ELLIPSE
  5
1174
330
1F
100
AcDbEntity
  8
Hewi
100
AcDbEllipse
 10
1081.872749207599
 20
-696.2903950455755
 30
-0.0000000000000021
 11
-0.000000000000002
 21
-16.5
 31
0.0
210
0.0
220
0.0
230
1.0
 40
0.7071067811865466
 41
6.267968099393152
 42
6.283185307179585
  0
ELLIPSE
  5
1175
330
1F
100
AcDbEntity
  8
Hewi
100
AcDbEllipse
 10
505.0630110677594
 20
-696.2903950455755
 30
0.0000000000000043
 11
0.000000000000002
 21
16.5
 31
0.0
210
0.0
220
0.0
230
1.0
 40
0.707106781186548
 41
0.0
 42
3.141592818617966
  0
ELLIPSE
  5
1176
330
1F
100
AcDbEntity
  8
Hewi
100
AcDbEllipse
 10
321.4838887614133
 20
-696.2903950455755
 30
-0.0000000000000206
 11
0.0000000000000051
 21
16.5
 31
0.0
210
0.0
220
0.0
230
1.0
 40
0.7071067811865485
 41
0.0
 42
3.141592818617966
  0
ELLIPSE
  5
1178
330
1F
100
AcDbEntity
  8
Hewi
100
AcDbEllipse
 10
338.587994562211
 20
-696.2903950455755
 30
-0.0000000000000006
 11
-0.0000000000000047
 21
-15.46314323411495
 31
0.0
210
0.0
220
0.0
230
0.9999999999999998
 40
0.7071067811865487
 41
0.0
 42
6.283185307179585
  0
ELLIPSE
  5
1179
330
1F
100
AcDbEntity
  8
Hewi
100
AcDbEllipse
 10
337.7473447287012
 20
-696.2903950455755
 30
-0.0000000000000016
 11
-0.0000000000000051
 21
-16.5
 31
0.0
210
0.0
220
0.0
230
1.0
 40
0.7071067811865485
 41
2.064124468782268
 42
6.283185307179585
  0
ELLIPSE
  5
117A
330
1F
100
AcDbEntity
  8
Hewi
100
AcDbEllipse
 10
337.7473447287012
 20
-696.2903950455755
 30
-0.0000000000000016
 11
-0.0000000000000051
 21
-16.5
 31
0.0
210
0.0
220
0.0
230
1.0
 40
0.7071067811865485
 41
0.0
 42
1.077566468341812
  0
ELLIPSE
  5
117B
330
1F
100
AcDbEntity
  8
Hewi
100
AcDbEllipse
 10
373.8496354608178
 20
-736.2812305877842
 30
-0.0000000000000186
 11
-1.73205
 21
0.0000000000000005
 31
0.0
210
0.0
220
0.0
230
1.0
 40
0.0214049152598428
 41
1.438993963386086
 42
2.48619232215254
  0
ELLIPSE
  5
117C
330
1F
100
AcDbEntity
  8
Hewi
100
AcDbEllipse
 10
373.8496354608178
 20
-736.2812305877842
 30
-0.0000000000000186
 11
-1.73205
 21
0.0000000000000005
 31
0.0
210
0.0
220
0.0
230
1.0
 40
0.0214049152598428
 41
0.3917972197591568
 42
1.438993963386086
  0
ELLIPSE
  5
117D
330
1F
100
AcDbEntity
  8
Hewi
100
AcDbEllipse
 10
373.8496354608178
 20
-736.2812305877842
 30
-0.0000000000000186
 11
-1.73205
 21
0.0000000000000005
 31
0.0
210
0.0
220
0.0
230
1.0
 40
0.0214049152598428
 41
2.48619232215254
 42
3.533389873349126
  0
ELLIPSE
  5
117E
330
1F
100
AcDbEntity
  8
Hewi
100
AcDbEllipse
 10
373.8496354608178
 20
-736.2812305877842
 30
-0.0000000000000186
 11
-1.73205
 21
0.0000000000000005
 31
0.0
210
0.0
220
0.0
230
1.0
 40
0.0214049152598428
 41
5.627783360602745
 42
6.674982526938742
  0
ELLIPSE
  5
117F
330
1F
100
AcDbEntity
  8
Hewi
100
AcDbEllipse
 10
373.8496354608178
 20
-736.2812305877842
 30
-0.0000000000000186
 11
-1.73205
 21
0.0000000000000005
 31
0.0
210
0.0
220
0.0
230
1.0
 40
0.0214049152598428
 41
4.580585809406063
 42
5.627783360602745
  0
ELLIPSE
  5
1180
330
1F
100
AcDbEntity
  8
Hewi
100
AcDbEllipse
 10
373.8496354608178
 20
-736.2812305877842
 30
-0.0000000000000186
 11
-1.73205
 21
0.0000000000000005
 31
0.0
210
0.0
220
0.0
230
1.0
 40
0.0214049152598428
 41
3.533389873349126
 42
4.580585809406063
  0
ELLIPSE
  5
1181
330
1F
100
AcDbEntity
  8
Hewi
100
AcDbEllipse
 10
373.8496354608178
 20
-736.2812305877842
 30
-0.0000000000000186
 11
2.386549999999999
 21
-0.0000000000000007
 31
0.0
210
0.0
220
0.0
230
1.0
 40
0.0214049152598428
 41
0.0
 42
4.003566860976062
  0
ELLIPSE
  5
1182
330
1F
100
AcDbEntity
  8
Hewi
100
AcDbEllipse
 10
373.8496354608178
 20
-736.2812305877842
 30
-0.0000000000000186
 11
2.386549999999999
 21
-0.0000000000000007
 31
0.0
210
0.0
220
0.0
230
1.0
 40
0.0214049152598428
 41
5.424254108285664
 42
6.283185307179585
  0
SPLINE
  5
1183
330
1F
100
AcDbEntity
  8
Hewi
100
AcDbSpline
210
0.0
220
0.0
230
1.0
 70
     8
 71
     3
 72
    14
 73
    10
 74
     0
 42
0.0000000001
 43
0.0000000001
 40
0.0
 40
0.0
 40
0.0
 40
0.0
 40
0.2434300440914431
 40
0.2434300440914431
 40
0.4956200293942956
 40
0.4956200293942956
 40
0.7478100146971479
 40
0.7478100146971479
 40
1.0
 40
1.0
 40
1.0
 40
1.0
 10
624.2987773298373
 20
-950.6952335382104
 30
0.0000000000000018
 10
624.3968910270341
 20
-950.695921271299
 30
0.0000000000000018
 10
625.4337730482802
 20
-951.2438929743094
 30
0.0000000000000018
 10
628.6955562486838
 20
-952.5343824718891
 30
0.0000000000000018
 10
631.0244349535496
 20
-953.2278011679027
 30
0.0000000000000018
 10
635.8358070045651
 20
-953.2458784097853
 30
0.0000000000000018
 10
638.1627394441602
 20
-952.55669951864
 30
0.0000000000000018
 10
641.3696729580551
 20
-951.2410720767967
 30
0.0000000000000018
 10
642.3410420205764
 20
-950.6666055939147
 30
0.0000000000000018
 10
642.2890414393914
 20
-950.6961935037123
 30
0.0000000000000018
  0
SPLINE
  5
1184
330
1F
100
AcDbEntity
  8
Hewi
100
AcDbSpline
210
0.0
220
0.0
230
1.0
 70
     8
 71
     3
 72
    14
 73
    10
 74
     0
 42
0.0000000001
 43
0.0000000001
 40
0.0
 40
0.0
 40
0.0
 40
0.0
 40
0.2432394719143855
 40
0.2432394719143855
 40
0.495492981276257
 40
0.495492981276257
 40
0.7477464906381287
 40
0.7477464906381287
 40
1.0
 40
1.0
 40
1.0
 40
1.0
 10
944.2912826282263
 20
-950.6952374291303
 30
0.0000000000000018
 10
944.2916170639072
 20
-950.6970551071153
 30
0.0000000000000018
 10
945.2318927062004
 20
-951.2445486765226
 30
0.0000000000000018
 10
948.3541461213173
 20
-952.5343824718891
 30
0.0000000000000018
 10
950.6397671459273
 20
-953.2278011679027
 30
0.0000000000000018
 10
955.4499115467477
 20
-953.2458784097853
 30
0.0000000000000018
 10
957.8196485548833
 20
-952.55669951864
 30
0.0000000000000018
 10
961.1658245647122
 20
-951.2410720767967
 30
0.0000000000000018
 10
962.2370408581916
 20
-950.6666055939147
 30
0.0000000000000018
 10
962.2890414393912
 20
-950.6961935037123
 30
0.0000000000000018
  0
SPLINE
  5
1185
330
1F
100
AcDbEntity
  8
Hewi
100
AcDbSpline
210
0.0000000000000004
220
-0.0000000000000423
230
1.0
 70
     8
 71
     3
 72
    10
 73
     6
 74
     0
 42
0.0000000001
 43
0.0000000001
 40
0.0
 40
0.0
 40
0.0
 40
0.0
 40
0.5130136982945209
 40
0.5130136982945209
 40
1.0
 40
1.0
 40
1.0
 40
1.0
 10
370.8496354608178
 20
-736.2812069435267
 30
-0.0000000000000221
 10
370.8496354608178
 20
-736.2884065163771
 30
-0.0000000000000221
 10
370.907434041972
 20
-736.2912364110916
 30
-0.000000000000022
 10
371.1233437017036
 20
-736.2891504175303
 30
-0.0000000000000218
 10
371.2789528984103
 20
-736.284649616743
 30
-0.0000000000000216
 10
371.4732239052937
 20
-736.2785023154819
 30
-0.0000000000000214
  0
SPLINE
  5
1186
330
1F
100
AcDbEntity
  8
Hewi
100
AcDbSpline
210
0.0000000000000037
220
0.0000000000002175
230
1.0
 70
     8
 71
     3
 72
    10
 73
     6
 74
     0
 42
0.0000000001
 43
0.0000000001
 40
0.0
 40
0.0
 40
0.0
 40
0.0
 40
0.3759328105490644
 40
0.3759328105490644
 40
1.0
 40
1.0
 40
1.0
 40
1.0
 10
376.240301830574
 20
-736.278944202956
 30
-0.0000000000000158
 10
376.3629847153607
 20
-736.2828137224233
 30
-0.0000000000000156
 10
376.4696288831292
 20
-736.2860159555375
 30
-0.0000000000000155
 10
376.7011142236843
 20
-736.2913134454673
 30
-0.0000000000000152
 10
376.7954829946067
 20
-736.2912968467817
 30
-0.0000000000000151
 10
376.8318982774035
 20
-736.286877007801
 30
-0.0000000000000151
  0
SPLINE
  5
1187
330
1F
100
AcDbEntity
  8
Hewi
100
AcDbSpline
210
0.0
220
-0.0000000000000003
230
1.0
 70
     8
 71
     3
 72
    26
 73
    22
 74
     0
 42
0.0000000001
 43
0.0000000001
 40
0.0
 40
0.0
 40
0.0
 40
0.0
 40
0.073159940695037
 40
0.073159940695037
 40
0.1802262366768989
 40
0.1802262366768989
 40
0.2875004008189412
 40
0.2875004008189412
 40
0.3949963102065395
 40
0.3949963102065395
 40
0.5023814222194566
 40
0.5023814222194566
 40
0.6094947467966168
 40
0.6094947467966168
 40
0.7166000794715944
 40
0.7166000794715944
 40
0.8239728600702298
 40
0.8239728600702298
 40
0.9314719416040365
 40
0.9314719416040365
 40
1.0
 40
1.0
 40
1.0
 40
1.0
 10
376.849405548197
 20
-736.2812732566043
 30
-0.0000000000000151
 10
376.849504262831
 20
-736.27634026133
 30
-0.0000000000000151
 10
376.8233270177988
 20
-736.26943572664
 30
-0.0000000000000151
 10
376.6954720628092
 20
-736.2483475439467
 30
-0.0000000000000152
 10
376.562350994016
 20
-736.2319733264111
 30
-0.0000000000000154
 10
376.2034990011417
 20
-736.197120137057
 30
-0.0000000000000158
 10
375.9726537159404
 20
-736.1782452318684
 30
-0.0000000000000161
 10
375.4459539996424
 20
-736.1448094779142
 30
-0.0000000000000167
 10
375.1426760200811
 20
-736.1298923250679
 30
-0.0000000000000171
 10
374.507301052854
 20
-736.1096917839703
 30
-0.0000000000000178
 10
374.1664477550184
 20
-736.1041830942367
 30
-0.0000000000000182
 10
373.4955984825319
 20
-736.1045940624417
 30
-0.000000000000019
 10
373.156343645107
 20
-736.1104886807687
 30
-0.0000000000000194
 10
372.5255043871694
 20
-736.1312542266922
 30
-0.0000000000000201
 10
372.2252357021607
 20
-736.1463451878035
 30
-0.0000000000000205
 10
371.7036844845534
 20
-736.1799733834587
 30
-0.0000000000000211
 10
371.4753978761255
 20
-736.1988864740368
 30
-0.0000000000000214
 10
371.121903655654
 20
-736.2336664033599
 30
-0.0000000000000218
 10
370.9919370510579
 20
-736.2499220980051
 30
-0.0000000000000219
 10
370.8732704257092
 20
-736.2701586240246
 30
-0.0000000000000221
 10
370.8496354608178
 20
-736.2766040924716
 30
-0.0000000000000221
 10
370.8496354608178
 20
-736.2812069435267
 30
-0.0000000000000221
  0
LINE
  5
118D
330
1F
100
AcDbEntity
  8
Hewi
100
AcDbLine
 10
1251.303800048936
 20
-712.7903950455755
 30
-0.0000000000000216
 11
1235.393897472244
 21
-712.7903950455755
 31
-0.000000000000003
  0
LINE
  5
118E
330
1F
100
AcDbEntity
  8
Hewi
100
AcDbLine
 10
1235.393897472244
 20
-679.7903950455756
 30
-0.000000000000001
 11
1251.303800048936
 21
-679.7903950455756
 31
-0.0000000000000196
  0
LINE
  5
118F
330
1F
100
AcDbEntity
  8
Hewi
100
AcDbLine
 10
1196.106893012405
 20
-736.2903950455756
 30
-0.0000000000000153
 11
1194.938053349531
 21
-736.2903950455756
 31
-0.0000000000000139
  0
LINE
  5
1190
330
1F
100
AcDbEntity
  8
Hewi
100
AcDbLine
 10
1205.938053349531
 20
-736.2903950455756
 30
-0.0000000000000268
 11
1201.792489237679
 21
-736.2903950455756
 31
-0.0000000000000219
  0
LINE
  5
1191
330
1F
100
AcDbEntity
  8
Hewi
100
AcDbLine
 10
1194.938053349531
 20
-656.2903950455757
 30
-0.000000000000009
 11
1205.938053349531
 21
-656.2903950455757
 31
-0.0000000000000219
  0
LINE
  5
1192
330
1F
100
AcDbEntity
  8
Hewi
100
AcDbLine
 10
1225.26159516974
 20
-705.2903950455757
 30
-0.000000000000024
 11
1207.938765757415
 21
-705.2903950455757
 31
-0.0000000000000233
  0
LINE
  5
1193
330
1F
100
AcDbEntity
  8
Hewi
100
AcDbLine
 10
1207.938811629577
 20
-687.2903950455755
 30
-0.0000000000000221
 11
1225.262095181042
 21
-687.2903950455755
 31
-0.0000000000000227
  0
LINE
  5
1194
330
1F
100
AcDbEntity
  8
Hewi
100
AcDbLine
 10
1268.438053349531
 20
-712.7903950455755
 30
-0.0000000000000133
 11
1251.303800048936
 21
-712.7903950455755
 31
-0.0000000000000216
  0
LINE
  5
1195
330
1F
100
AcDbEntity
  8
Hewi
100
AcDbLine
 10
1251.303800048936
 20
-679.7903950455756
 30
-0.0000000000000196
 11
1268.438053349531
 21
-679.7903950455756
 31
-0.0000000000000113
  0
LINE
  5
1197
330
1F
100
AcDbEntity
  8
Hewi
100
AcDbLine
 10
1207.938053349531
 20
-658.2903950455756
 30
-0.0000000000000243
 11
1207.938053349531
 21
-734.2903950455755
 31
-0.000000000000029
  0
LINE
  5
1198
330
1F
100
AcDbEntity
  8
Hewi
100
AcDbLine
 10
1194.938053349531
 20
-656.2903950455757
 30
-0.000000000000009
 11
1194.938053349531
 21
-736.2903950455756
 31
-0.0000000000000139
  0
LINE
  5
1199
330
1F
100
AcDbEntity
  8
Hewi
100
AcDbLine
 10
1197.56487888814
 20
-736.2586103596795
 30
-0.000000000000017
 11
1197.56487888814
 21
-736.3038265598106
 31
-0.000000000000017
  0
LINE
  5
119A
330
1F
100
AcDbEntity
  8
Hewi
100
AcDbLine
 10
1199.165679854854
 20
-736.3179834155553
 30
-0.0000000000000188
 11
1199.165679854854
 21
-736.2444455931936
 31
-0.0000000000000188
  0
ARC
  5
119B
330
1F
100
AcDbEntity
  8
Hewi
100
AcDbCircle
 10
1205.938053349531
 20
-734.2903950455755
 30
-0.0000000000001972
 40
2.0
100
AcDbArc
 50
270.0
 51
0.0
  0
ARC
  5
119C
330
1F
100
AcDbEntity
  8
Hewi
100
AcDbCircle
 10
1205.938053349531
 20
-658.2903950455756
 30
-0.0000000000001925
 40
2.0
100
AcDbArc
 50
0.0
 51
90.0
  0
ARC
  5
119D
330
1F
100
AcDbEntity
  8
Hewi
100
AcDbCircle
 10
-1268.438053349531
 20
-696.2903950455755
 30
0.0000000000002681
 40
16.5
210
0.0
220
0.0
230
-1.0
100
AcDbArc
 50
180.0
 51
270.0000021110887
  0
ARC
  5
119E
330
1F
100
AcDbEntity
  8
Hewi
100
AcDbCircle
 10
-1268.438053349531
 20
-696.2903950455755
 30
0.0000000000002681
 40
16.5
210
0.0
220
0.0
230
-1.0
100
AcDbArc
 50
89.99999788891125
 51
180.0
  0
ARC
  5
119F
330
1F
100
AcDbEntity
  8
Hewi
100
AcDbCircle
 10
1268.438053349531
 20
-696.2903950455755
 30
-0.0000000000002681
 40
16.5
100
AcDbArc
 50
269.9999957786563
 51
90.0
  0
ELLIPSE
  5
11A0
330
1F
100
AcDbEntity
  8
Hewi
100
AcDbEllipse
 10
1251.303800048936
 20
-696.2903950455755
 30
-0.0000000000000206
 11
-0.0000000000000051
 21
16.5
 31
0.0
210
0.0
220
0.0
230
-1.0
 40
0.7071067811865485
 41
0.0
 42
3.141592818617966
  0
ELLIPSE
  5
11A2
330
1F
100
AcDbEntity
  8
Hewi
100
AcDbEllipse
 10
1234.199694248138
 20
-696.2903950455755
 30
-0.0000000000000006
 11
0.0000000000000047
 21
-15.46314323411495
 31
0.0
210
0.0
220
0.0
230
-0.9999999999999998
 40
0.7071067811865487
 41
0.0
 42
6.283185307179585
  0
ELLIPSE
  5
11A3
330
1F
100
AcDbEntity
  8
Hewi
100
AcDbEllipse
 10
1235.040344081648
 20
-696.2903950455755
 30
-0.0000000000000016
 11
0.0000000000000051
 21
-16.5
 31
0.0
210
0.0
220
0.0
230
-1.0
 40
0.7071067811865485
 41
2.064124468782268
 42
6.283185307179585
  0
ELLIPSE
  5
11A4
330
1F
100
AcDbEntity
  8
Hewi
100
AcDbEllipse
 10
1235.040344081648
 20
-696.2903950455755
 30
-0.0000000000000016
 11
0.0000000000000051
 21
-16.5
 31
0.0
210
0.0
220
0.0
230
-1.0
 40
0.7071067811865485
 41
0.0
 42
1.077566468341812
  0
ELLIPSE
  5
11A5
330
1F
100
AcDbEntity
  8
Hewi
100
AcDbEllipse
 10
1198.938053349531
 20
-736.2812305877842
 30
-0.0000000000000186
 11
1.73205
 21
0.0000000000000005
 31
0.0
210
0.0
220
0.0
230
-1.0
 40
0.0214049152598428
 41
1.438993963386086
 42
2.48619232215254
  0
ELLIPSE
  5
11A6
330
1F
100
AcDbEntity
  8
Hewi
100
AcDbEllipse
 10
1198.938053349531
 20
-736.2812305877842
 30
-0.0000000000000186
 11
1.73205
 21
0.0000000000000005
 31
0.0
210
0.0
220
0.0
230
-1.0
 40
0.0214049152598428
 41
0.3917972197591568
 42
1.438993963386086
  0
ELLIPSE
  5
11A7
330
1F
100
AcDbEntity
  8
Hewi
100
AcDbEllipse
 10
1198.938053349531
 20
-736.2812305877842
 30
-0.0000000000000186
 11
1.73205
 21
0.0000000000000005
 31
0.0
210
0.0
220
0.0
230
-1.0
 40
0.0214049152598428
 41
2.48619232215254
 42
3.533389873349126
  0
ELLIPSE
  5
11A8
330
1F
100
AcDbEntity
  8
Hewi
100
AcDbEllipse
 10
1198.938053349531
 20
-736.2812305877842
 30
-0.0000000000000186
 11
1.73205
 21
0.0000000000000005
 31
0.0
210
0.0
220
0.0
230
-1.0
 40
0.0214049152598428
 41
5.627783360602745
 42
6.674982526938742
  0
ELLIPSE
  5
11A9
330
1F
100
AcDbEntity
  8
Hewi
100
AcDbEllipse
 10
1198.938053349531
 20
-736.2812305877842
 30
-0.0000000000000186
 11
1.73205
 21
0.0000000000000005
 31
0.0
210
0.0
220
0.0
230
-1.0
 40
0.0214049152598428
 41
4.580585809406063
 42
5.627783360602745
  0
ELLIPSE
  5
11AA
330
1F
100
AcDbEntity
  8
Hewi
100
AcDbEllipse
 10
1198.938053349531
 20
-736.2812305877842
 30
-0.0000000000000186
 11
1.73205
 21
0.0000000000000005
 31
0.0
210
0.0
220
0.0
230
-1.0
 40
0.0214049152598428
 41
3.533389873349126
 42
4.580585809406063
  0
ELLIPSE
  5
11AB
330
1F
100
AcDbEntity
  8
Hewi
100
AcDbEllipse
 10
1198.938053349531
 20
-736.2812305877842
 30
-0.0000000000000186
 11
-2.386549999999999
 21
-0.0000000000000007
 31
0.0
210
0.0
220
0.0
230
-1.0
 40
0.0214049152598428
 41
0.0
 42
4.003566860976062
  0
ELLIPSE
  5
11AC
330
1F
100
AcDbEntity
  8
Hewi
100
AcDbEllipse
 10
1198.938053349531
 20
-736.2812305877842
 30
-0.0000000000000186
 11
-2.386549999999999
 21
-0.0000000000000007
 31
0.0
210
0.0
220
0.0
230
-1.0
 40
0.0214049152598428
 41
5.424254108285664
 42
6.283185307179585
  0
SPLINE
  5
11AD
330
1F
100
AcDbEntity
  8
Hewi
100
AcDbSpline
210
-0.0000000000000004
220
-0.0000000000000423
230
1.0
 70
     8
 71
     3
 72
    10
 73
     6
 74
     0
 42
0.0000000001
 43
0.0000000001
 40
0.0
 40
0.0
 40
0.0
 40
0.0
 40
0.5130136982945209
 40
0.5130136982945209
 40
1.0
 40
1.0
 40
1.0
 40
1.0
 10
1201.938053349531
 20
-736.2812069435267
 30
-0.0000000000000221
 10
1201.938053349531
 20
-736.2884065163771
 30
-0.0000000000000221
 10
1201.880254768377
 20
-736.2912364110916
 30
-0.000000000000022
 10
1201.664345108645
 20
-736.2891504175303
 30
-0.0000000000000218
 10
1201.508735911939
 20
-736.284649616743
 30
-0.0000000000000216
 10
1201.314464905056
 20
-736.2785023154819
 30
-0.0000000000000214
  0
SPLINE
  5
11AE
330
1F
100
AcDbEntity
  8
Hewi
100
AcDbSpline
210
-0.0000000000000037
220
0.0000000000002175
230
1.0
 70
     8
 71
     3
 72
    10
 73
     6
 74
     0
 42
0.0000000001
 43
0.0000000001
 40
0.0
 40
0.0
 40
0.0
 40
0.0
 40
0.3759328105490644
 40
0.3759328105490644
 40
1.0
 40
1.0
 40
1.0
 40
1.0
 10
1196.547386979775
 20
-736.278944202956
 30
-0.0000000000000158
 10
1196.424704094988
 20
-736.2828137224233
 30
-0.0000000000000156
 10
1196.31805992722
 20
-736.2860159555375
 30
-0.0000000000000155
 10
1196.086574586665
 20
-736.2913134454673
 30
-0.0000000000000152
 10
1195.992205815742
 20
-736.2912968467817
 30
-0.0000000000000151
 10
1195.955790532946
 20
-736.286877007801
 30
-0.0000000000000151
  0
SPLINE
  5
11AF
330
1F
100
AcDbEntity
  8
Hewi
100
AcDbSpline
210
0.0
220
-0.0000000000000003
230
1.0
 70
     8
 71
     3
 72
    26
 73
    22
 74
     0
 42
0.0000000001
 43
0.0000000001
 40
0.0
 40
0.0
 40
0.0
 40
0.0
 40
0.073159940695037
 40
0.073159940695037
 40
0.1802262366768989
 40
0.1802262366768989
 40
0.2875004008189412
 40
0.2875004008189412
 40
0.3949963102065395
 40
0.3949963102065395
 40
0.5023814222194566
 40
0.5023814222194566
 40
0.6094947467966168
 40
0.6094947467966168
 40
0.7166000794715944
 40
0.7166000794715944
 40
0.8239728600702298
 40
0.8239728600702298
 40
0.9314719416040365
 40
0.9314719416040365
 40
1.0
 40
1.0
 40
1.0
 40
1.0
 10
1195.938283262152
 20
-736.2812732566043
 30
-0.0000000000000151
 10
1195.938184547518
 20
-736.27634026133
 30
-0.0000000000000151
 10
1195.96436179255
 20
-736.26943572664
 30
-0.0000000000000151
 10
1196.09221674754
 20
-736.2483475439467
 30
-0.0000000000000152
 10
1196.225337816333
 20
-736.2319733264111
 30
-0.0000000000000154
 10
1196.584189809207
 20
-736.197120137057
 30
-0.0000000000000158
 10
1196.815035094409
 20
-736.1782452318684
 30
-0.0000000000000161
 10
1197.341734810707
 20
-736.1448094779142
 30
-0.0000000000000167
 10
1197.645012790268
 20
-736.1298923250679
 30
-0.0000000000000171
 10
1198.280387757495
 20
-736.1096917839703
 30
-0.0000000000000178
 10
1198.62124105533
 20
-736.1041830942367
 30
-0.0000000000000182
 10
1199.292090327817
 20
-736.1045940624417
 30
-0.000000000000019
 10
1199.631345165242
 20
-736.1104886807687
 30
-0.0000000000000194
 10
1200.26218442318
 20
-736.1312542266922
 30
-0.0000000000000201
 10
1200.562453108188
 20
-736.1463451878035
 30
-0.0000000000000205
 10
1201.084004325796
 20
-736.1799733834587
 30
-0.0000000000000211
 10
1201.312290934224
 20
-736.1988864740368
 30
-0.0000000000000214
 10
1201.665785154695
 20
-736.2336664033599
 30
-0.0000000000000218
 10
1201.795751759291
 20
-736.2499220980051
 30
-0.0000000000000219
 10
1201.91441838464
 20
-736.2701586240246
 30
-0.0000000000000221
 10
1201.938053349531
 20
-736.2766040924716
 30
-0.0000000000000221
 10
1201.938053349531
 20
-736.2812069435267
 30
-0.0000000000000221
  0
ENDSEC
  0
SECTION
  2
OBJECTS
  0
DICTIONARY
  5
C
330
0
100
AcDbDictionary
281
     1
  3
ACAD_COLOR
350
6B
  3
ACAD_GROUP
350
D
  3
ACAD_LAYOUT
350
1A
  3
ACAD_MATERIAL
350
6A
  3
ACAD_MLINESTYLE
350
17
  3
ACAD_PLOTSETTINGS
350
19
  3
ACAD_PLOTSTYLENAME
350
E
  3
ACAD_TABLESTYLE
350
7E
  3
ACAD_VISUALSTYLE
350
EF
  3
AcDbVariableDictionary
350
5E
  3
DWGPROPS
350
11E5
  0
DICTIONARY
  5
141
330
2
100
AcDbDictionary
280
     1
281
     1
  3
ACAD_LAYERSTATES
360
142
  0
DICTIONARY
  5
116
330
1F
100
AcDbDictionary
280
     1
281
     1
  3
ACAD_SORTENTS
360
117
  0
DICTIONARY
  5
6B
102
{ACAD_REACTORS
330
C
102
}
330
C
100
AcDbDictionary
281
     1
  0
DICTIONARY
  5
D
102
{ACAD_REACTORS
330
C
102
}
330
C
100
AcDbDictionary
281
     1
  0
DICTIONARY
  5
1A
102
{ACAD_REACTORS
330
C
102
}
330
C
100
AcDbDictionary
281
     1
  3
Layout1
350
D3
  3
Layout2
350
D7
  3
Model
350
22
  0
DICTIONARY
  5
6A
102
{ACAD_REACTORS
330
C
102
}
330
C
100
AcDbDictionary
281
     1
  3
ByBlock
350
ED
  3
ByLayer
350
EC
  3
Global
350
EE
  0
DICTIONARY
  5
17
102
{ACAD_REACTORS
330
C
102
}
330
C
100
AcDbDictionary
281
     1
  3
Standard
350
18
  0
DICTIONARY
  5
19
102
{ACAD_REACTORS
330
C
102
}
330
C
100
AcDbDictionary
281
     1
  0
ACDBDICTIONARYWDFLT
  5
E
102
{ACAD_REACTORS
330
C
102
}
330
C
100
AcDbDictionary
281
     1
  3
Normal
350
F
100
AcDbDictionaryWithDefault
340
F
  0
DICTIONARY
  5
7E
102
{ACAD_REACTORS
330
C
102
}
330
C
100
AcDbDictionary
281
     1
  3
Standard
350
7F
  0
DICTIONARY
  5
EF
102
{ACAD_REACTORS
330
C
102
}
330
C
100
AcDbDictionary
281
     1
  3
2dWireframe
350
F5
  3
3D Hidden
350
F7
  3
3dWireframe
350
F6
  3
Basic
350
F4
  3
Brighten
350
FB
  3
ColorChange
350
FF
  3
Conceptual
350
F8
  3
Dim
350
FA
  3
Facepattern
350
FE
  3
Flat
350
F0
  3
FlatWithEdges
350
F1
  3
Gouraud
350
F2
  3
GouraudWithEdges
350
F3
  3
Linepattern
350
FD
  3
Realistic
350
F9
  3
Thicken
350
FC
  0
DICTIONARY
  5
5E
102
{ACAD_REACTORS
330
C
102
}
330
C
100
AcDbDictionary
281
     1
  3
CTABLESTYLE
350
84
  3
DIMASSOC
350
5F
  3
HIDETEXT
350
63
  3
INDEXCTL
350
327
  3
PSOLHEIGHT
350
11E4
  3
PSOLWIDTH
350
11E3
  3
SORTENTS
350
326
  0
XRECORD
  5
11E5
102
{ACAD_REACTORS
330
C
102
}
330
C
100
AcDbXrecord
280
     1
  1
DWGPROPS COOKIE
  2

  3

  4

  6

  7

  8
kaschu
  9

300
=
301
=
302
=
303
=
304
=
305
=
306
=
307
=
308
=
309
=
 40
0.0915605555555556
 41
2454768.510881991
 42
2455617.595774989
  1

 90
        0
  0
DICTIONARY
  5
142
102
{ACAD_REACTORS
330
141
102
}
330
141
100
AcDbDictionary
281
     1
  0
SORTENTSTABLE
  5
117
102
{ACAD_REACTORS
330
116
102
}
330
116
100
AcDbSortentsTable
330
1F
  0
LAYOUT
  5
D3
102
{ACAD_XDICTIONARY
360
11EA
102
}
102
{ACAD_REACTORS
330
1A
102
}
330
1A
100
AcDbPlotSettings
  1

  2
C:\Documents and Settings\basas\Application Data\Autodesk\AutoCAD 2005\R16.1\enu\plotters\Default Windows System Printer.pc3
  4

  6

 40
0.0
 41
0.0
 42
0.0
 43
0.0
 44
0.0
 45
0.0
 46
0.0
 47
0.0
 48
0.0
 49
0.0
140
0.0
141
0.0
142
1.0
143
1.0
 70
   688
 72
     0
 73
     0
 74
     5
  7

 75
    16
147
1.0
148
0.0
149
0.0
100
AcDbLayout
  1
Layout1
 70
     1
 71
     1
 10
0.0
 20
0.0
 11
12.0
 21
9.0
 12
0.0
 22
0.0
 32
0.0
 14
0.0
 24
0.0
 34
0.0
 15
0.0
 25
0.0
 35
0.0
146
0.0
 13
0.0
 23
0.0
 33
0.0
 16
1.0
 26
0.0
 36
0.0
 17
0.0
 27
1.0
 37
0.0
 76
     0
330
D2
  0
LAYOUT
  5
D7
102
{ACAD_XDICTIONARY
360
11EC
102
}
102
{ACAD_REACTORS
330
1A
102
}
330
1A
100
AcDbPlotSettings
  1

  2
C:\Documents and Settings\basas\Application Data\Autodesk\AutoCAD 2005\R16.1\enu\plotters\Default Windows System Printer.pc3
  4

  6

 40
0.0
 41
0.0
 42
0.0
 43
0.0
 44
0.0
 45
0.0
 46
0.0
 47
0.0
 48
0.0
 49
0.0
140
0.0
141
0.0
142
1.0
143
1.0
 70
   688
 72
     0
 73
     0
 74
     5
  7

 75
    16
147
1.0
148
0.0
149
0.0
100
AcDbLayout
  1
Layout2
 70
     1
 71
     2
 10
0.0
 20
0.0
 11
12.0
 21
9.0
 12
0.0
 22
0.0
 32
0.0
 14
0.0
 24
0.0
 34
0.0
 15
0.0
 25
0.0
 35
0.0
146
0.0
 13
0.0
 23
0.0
 33
0.0
 16
1.0
 26
0.0
 36
0.0
 17
0.0
 27
1.0
 37
0.0
 76
     0
330
D6
  0
LAYOUT
  5
22
102
{ACAD_XDICTIONARY
360
11E6
102
}
102
{ACAD_REACTORS
330
1A
102
}
330
1A
100
AcDbPlotSettings
  1

  2
none_device
  4
ISO_A4_(210.00_x_297.00_MM)
  6

 40
7.5
 41
20.0
 42
7.5
 43
20.0
 44
210.0
 45
297.0
 46
11.54999923706054
 47
-13.65000009536743
 48
0.0
 49
0.0
140
0.0
141
0.0
142
1.0
143
8.704084754739808
 70
 11952
 72
     1
 73
     0
 74
     0
  7

 75
     0
147
0.1148885871608098
148
0.0
149
0.0
100
AcDbLayout
  1
Model
 70
     1
 71
     0
 10
0.0
 20
0.0
 11
12.0
 21
9.0
 12
0.0
 22
0.0
 32
0.0
 14
0.0
 24
0.0
 34
0.0
 15
0.0
 25
0.0
 35
0.0
146
0.0
 13
0.0
 23
0.0
 33
0.0
 16
1.0
 26
0.0
 36
0.0
 17
0.0
 27
1.0
 37
0.0
 76
     0
330
1F
331
EA
1001
ACAD_PSEXT
1000
None
1000
None
1000
Not applicable
1000
The layout will not be plotted unless a new plotter configuration name is selected.
1070
     0
  0
MATERIAL
  5
ED
102
{ACAD_XDICTIONARY
360
335
102
}
102
{ACAD_REACTORS
330
6A
102
}
330
6A
100
AcDbMaterial
  1
ByBlock
  0
MATERIAL
  5
EC
102
{ACAD_XDICTIONARY
360
333
102
}
102
{ACAD_REACTORS
330
6A
102
}
330
6A
100
AcDbMaterial
  1
ByLayer
  0
MATERIAL
  5
EE
102
{ACAD_XDICTIONARY
360
337
102
}
102
{ACAD_REACTORS
330
6A
102
}
330
6A
100
AcDbMaterial
  1
Global
  0
MLINESTYLE
  5
18
102
{ACAD_REACTORS
330
17
102
}
330
17
100
AcDbMlineStyle
  2
STANDARD
 70
     0
  3

 62
   256
 51
90.0
 52
90.0
 71
     2
 49
0.5
 62
   256
  6
BYLAYER
 49
-0.5
 62
   256
  6
BYLAYER
  0
ACDBPLACEHOLDER
  5
F
102
{ACAD_REACTORS
330
E
102
}
330
E
  0
TABLESTYLE
  5
7F
102
{ACAD_XDICTIONARY
360
11E8
102
}
102
{ACAD_REACTORS
330
7E
102
}
330
7E
100
AcDbTableStyle
  3
Standard
 70
     0
 71
     0
 40
1.5
 41
1.5
280
     0
281
     0
  7
Standard
140
4.5
170
     2
 62
     0
 63
     7
283
     0
274
    -2
284
     1
 64
     0
275
    -2
285
     1
 65
     0
276
    -2
286
     1
 66
     0
277
    -2
287
     1
 67
     0
278
    -2
288
     1
 68
     0
279
    -2
289
     1
 69
     0
  7
Standard
140
6.0
170
     5
 62
     0
 63
     7
283
     0
274
    -2
284
     1
 64
     0
275
    -2
285
     1
 65
     0
276
    -2
286
     1
 66
     0
277
    -2
287
     1
 67
     0
278
    -2
288
     1
 68
     0
279
    -2
289
     1
 69
     0
  7
Standard
140
4.5
170
     5
 62
     0
 63
     7
283
     0
274
    -2
284
     1
 64
     0
275
    -2
285
     1
 65
     0
276
    -2
286
     1
 66
     0
277
    -2
287
     1
 67
     0
278
    -2
288
     1
 68
     0
279
    -2
289
     1
 69
     0
  0
VISUALSTYLE
  5
F5
102
{ACAD_REACTORS
330
EF
102
}
330
EF
100
AcDbVisualStyle
  2
2dWireframe
 70
     4
 71
     0
 72
     2
 73
     1
 90
        0
 40
-0.6
 41
-30.0
 62
     5
 63
     7
 74
     1
 91
        4
 64
     7
 65
   257
 75
     1
175
     1
 42
1.0
 92
        0
 66
   257
 43
1.0
 76
     1
 77
     6
 78
     2
 67
     7
 79
     5
170
     0
171
     0
290
     0
174
     0
 93
        1
 44
0.0
173
     0
291
     0
 45
0.0
1001
ACAD
1000
AcDbSavedByObjectVersion
1070
     0
1000
AcDbSavedByObjectVersion
1070
     0
1000
AcDbSavedByObjectVersion
1070
     0
1000
AcDbSavedByObjectVersion
1070
     0
1000
AcDbSavedByObjectVersion
1070
     0
1000
AcDbSavedByObjectVersion
1070
     0
  0
VISUALSTYLE
  5
F7
102
{ACAD_REACTORS
330
EF
102
}
330
EF
100
AcDbVisualStyle
  2
3D Hidden
 70
     6
 71
     1
 72
     2
 73
     2
 90
        0
 40
-0.6
 41
-30.0
 62
     5
 63
     7
 74
     2
 91
        2
 64
     7
 65
   257
 75
     2
175
     1
 42
40.0
 92
        0
 66
   257
 43
1.0
 76
     1
 77
     6
 78
     2
 67
     7
 79
     3
170
     0
171
     0
290
     0
174
     0
 93
        1
 44
0.0
173
     0
291
     0
 45
0.0
1001
ACAD
1000
AcDbSavedByObjectVersion
1070
     0
1000
AcDbSavedByObjectVersion
1070
     0
1000
AcDbSavedByObjectVersion
1070
     0
1000
AcDbSavedByObjectVersion
1070
     0
1000
AcDbSavedByObjectVersion
1070
     0
1000
AcDbSavedByObjectVersion
1070
     0
  0
VISUALSTYLE
  5
F6
102
{ACAD_REACTORS
330
EF
102
}
330
EF
100
AcDbVisualStyle
  2
3dWireframe
 70
     5
 71
     0
 72
     2
 73
     1
 90
        0
 40
-0.6
 41
-30.0
 62
     5
 63
     7
 74
     1
 91
        4
 64
     7
 65
   257
 75
     1
175
     1
 42
1.0
 92
        0
 66
   257
 43
1.0
 76
     1
 77
     6
 78
     2
 67
     7
 79
     5
170
     0
171
     0
290
     0
174
     0
 93
        1
 44
0.0
173
     0
291
     0
 45
0.0
1001
ACAD
1000
AcDbSavedByObjectVersion
1070
     0
1000
AcDbSavedByObjectVersion
1070
     0
1000
AcDbSavedByObjectVersion
1070
     0
1000
AcDbSavedByObjectVersion
1070
     0
1000
AcDbSavedByObjectVersion
1070
     0
1000
AcDbSavedByObjectVersion
1070
     0
  0
VISUALSTYLE
  5
F4
102
{ACAD_REACTORS
330
EF
102
}
330
EF
100
AcDbVisualStyle
  2
Basic
 70
     7
 71
     1
 72
     0
 73
     1
 90
        0
 40
-0.6
 41
-30.0
 62
     5
 63
     7
 74
     0
 91
        4
 64
     7
 65
   257
 75
     1
175
     1
 42
1.0
 92
        8
 66
     7
 43
1.0
 76
     1
 77
     6
 78
     2
 67
     7
 79
     5
170
     0
171
     0
290
     0
174
     0
 93
        1
 44
0.0
173
     0
291
     1
 45
0.0
1001
ACAD
1000
AcDbSavedByObjectVersion
1070
     0
1000
AcDbSavedByObjectVersion
1070
     0
1000
AcDbSavedByObjectVersion
1070
     0
1000
AcDbSavedByObjectVersion
1070
     0
1000
AcDbSavedByObjectVersion
1070
     0
1000
AcDbSavedByObjectVersion
1070
     0
  0
VISUALSTYLE
  5
FB
102
{ACAD_REACTORS
330
EF
102
}
330
EF
100
AcDbVisualStyle
  2
Brighten
 70
    12
 71
     2
 72
     2
 73
     1
 90
        0
 40
-0.6
 41
-30.0
 62
     5
 63
     7
 74
     1
 91
        4
 64
     7
 65
   257
 75
     1
175
     1
 42
1.0
 92
        8
 66
     7
 43
1.0
 76
     1
 77
     6
 78
     2
 67
     7
 79
     5
170
     0
171
     0
290
     0
174
     0
 93
        1
 44
50.0
173
     0
291
     1
 45
0.0
1001
ACAD
1000
AcDbSavedByObjectVersion
1070
     0
1000
AcDbSavedByObjectVersion
1070
     0
1000
AcDbSavedByObjectVersion
1070
     0
1000
AcDbSavedByObjectVersion
1070
     0
1000
AcDbSavedByObjectVersion
1070
     0
1000
AcDbSavedByObjectVersion
1070
     0
  0
VISUALSTYLE
  5
FF
102
{ACAD_REACTORS
330
EF
102
}
330
EF
100
AcDbVisualStyle
  2
ColorChange
 70
    16
 71
     2
 72
     2
 73
     3
 90
        0
 40
-0.6
 41
-30.0
 62
     5
 63
     8
 74
     1
 91
        4
 64
     7
 65
   257
 75
     1
175
     1
 42
1.0
 92
        8
 66
     8
 43
1.0
 76
     1
 77
     6
 78
     2
 67
     7
 79
     5
170
     0
171
     0
290
     0
174
     0
 93
        1
 44
0.0
173
     0
291
     1
 45
0.0
1001
ACAD
1000
AcDbSavedByObjectVersion
1070
     0
1000
AcDbSavedByObjectVersion
1070
     0
1000
AcDbSavedByObjectVersion
1070
     0
1000
AcDbSavedByObjectVersion
1070
     0
1000
AcDbSavedByObjectVersion
1070
     0
1000
AcDbSavedByObjectVersion
1070
     0
  0
VISUALSTYLE
  5
F8
102
{ACAD_REACTORS
330
EF
102
}
330
EF
100
AcDbVisualStyle
  2
Conceptual
 70
     9
 71
     3
 72
     2
 73
     1
 90
        0
 40
-0.6
 41
-30.0
 62
     5
 63
     7
 74
     2
 91
        2
 64
     7
 65
   257
 75
     1
175
     1
 42
40.0
 92
        8
 66
     7
 43
1.0
 76
     1
 77
     6
 78
     2
 67
     7
 79
     3
170
     0
171
     0
290
     0
174
     0
 93
        1
 44
0.0
173
     0
291
     0
 45
0.0
1001
ACAD
1000
AcDbSavedByObjectVersion
1070
     0
1000
AcDbSavedByObjectVersion
1070
     0
1000
AcDbSavedByObjectVersion
1070
     0
1000
AcDbSavedByObjectVersion
1070
     0
1000
AcDbSavedByObjectVersion
1070
     0
1000
AcDbSavedByObjectVersion
1070
     0
  0
VISUALSTYLE
  5
FA
102
{ACAD_REACTORS
330
EF
102
}
330
EF
100
AcDbVisualStyle
  2
Dim
 70
    11
 71
     2
 72
     2
 73
     1
 90
        0
 40
-0.6
 41
-30.0
 62
     5
 63
     7
 74
     1
 91
        4
 64
     7
 65
   257
 75
     1
175
     1
 42
1.0
 92
        8
 66
     7
 43
1.0
 76
     1
 77
     6
 78
     2
 67
     7
 79
     5
170
     0
171
     0
290
     0
174
     0
 93
        1
 44
-50.0
173
     0
291
     1
 45
0.0
1001
ACAD
1000
AcDbSavedByObjectVersion
1070
     0
1000
AcDbSavedByObjectVersion
1070
     0
1000
AcDbSavedByObjectVersion
1070
     0
1000
AcDbSavedByObjectVersion
1070
     0
1000
AcDbSavedByObjectVersion
1070
     0
1000
AcDbSavedByObjectVersion
1070
     0
  0
VISUALSTYLE
  5
FE
102
{ACAD_REACTORS
330
EF
102
}
330
EF
100
AcDbVisualStyle
  2
Facepattern
 70
    15
 71
     2
 72
     2
 73
     1
 90
        0
 40
-0.6
 41
-30.0
 62
     5
 63
     7
 74
     1
 91
        4
 64
     7
 65
   257
 75
     1
175
     1
 42
1.0
 92
        8
 66
     7
 43
1.0
 76
     1
 77
     6
 78
     2
 67
     7
 79
     5
170
     0
171
     0
290
     0
174
     0
 93
        1
 44
0.0
173
     0
291
     1
 45
0.0
1001
ACAD
1000
AcDbSavedByObjectVersion
1070
     0
1000
AcDbSavedByObjectVersion
1070
     0
1000
AcDbSavedByObjectVersion
1070
     0
1000
AcDbSavedByObjectVersion
1070
     0
1000
AcDbSavedByObjectVersion
1070
     0
1000
AcDbSavedByObjectVersion
1070
     0
  0
VISUALSTYLE
  5
F0
102
{ACAD_REACTORS
330
EF
102
}
330
EF
100
AcDbVisualStyle
  2
Flat
 70
     0
 71
     2
 72
     1
 73
     1
 90
        2
 40
-0.6
 41
30.0
 62
     5
 63
     7
 74
     0
 91
        4
 64
     7
 65
   257
 75
     1
175
     1
 42
1.0
 92
        8
 66
     7
 43
1.0
 76
     1
 77
     6
 78
     2
 67
     7
 79
     5
170
     0
171
     0
290
     0
174
     0
 93
       13
 44
0.0
173
     0
291
     1
 45
0.0
1001
ACAD
1000
AcDbSavedByObjectVersion
1070
     0
1000
AcDbSavedByObjectVersion
1070
     0
1000
AcDbSavedByObjectVersion
1070
     0
1000
AcDbSavedByObjectVersion
1070
     0
1000
AcDbSavedByObjectVersion
1070
     0
1000
AcDbSavedByObjectVersion
1070
     0
  0
VISUALSTYLE
  5
F1
102
{ACAD_REACTORS
330
EF
102
}
330
EF
100
AcDbVisualStyle
  2
FlatWithEdges
 70
     1
 71
     2
 72
     1
 73
     1
 90
        2
 40
-0.6
 41
30.0
 62
     5
 63
     7
 74
     1
 91
        4
 64
     7
 65
   257
 75
     1
175
     1
 42
1.0
 92
        0
 66
   257
 43
1.0
 76
     1
 77
     6
 78
     2
 67
     7
 79
     5
170
     0
171
     0
290
     0
174
     0
 93
       13
 44
0.0
173
     0
291
     1
 45
0.0
1001
ACAD
1000
AcDbSavedByObjectVersion
1070
     0
1000
AcDbSavedByObjectVersion
1070
     0
1000
AcDbSavedByObjectVersion
1070
     0
1000
AcDbSavedByObjectVersion
1070
     0
1000
AcDbSavedByObjectVersion
1070
     0
1000
AcDbSavedByObjectVersion
1070
     0
  0
VISUALSTYLE
  5
F2
102
{ACAD_REACTORS
330
EF
102
}
330
EF
100
AcDbVisualStyle
  2
Gouraud
 70
     2
 71
     2
 72
     2
 73
     1
 90
        2
 40
-0.6
 41
30.0
 62
     5
 63
     7
 74
     0
 91
        4
 64
     7
 65
   257
 75
     1
175
     1
 42
1.0
 92
        0
 66
     7
 43
1.0
 76
     1
 77
     6
 78
     2
 67
     7
 79
     5
170
     0
171
     0
290
     0
174
     0
 93
       13
 44
0.0
173
     0
291
     1
 45
0.0
1001
ACAD
1000
AcDbSavedByObjectVersion
1070
     0
1000
AcDbSavedByObjectVersion
1070
     0
1000
AcDbSavedByObjectVersion
1070
     0
1000
AcDbSavedByObjectVersion
1070
     0
1000
AcDbSavedByObjectVersion
1070
     0
1000
AcDbSavedByObjectVersion
1070
     0
  0
VISUALSTYLE
  5
F3
102
{ACAD_REACTORS
330
EF
102
}
330
EF
100
AcDbVisualStyle
  2
GouraudWithEdges
 70
     3
 71
     2
 72
     2
 73
     1
 90
        2
 40
-0.6
 41
30.0
 62
     5
 63
     7
 74
     1
 91
        4
 64
     7
 65
   257
 75
     1
175
     1
 42
1.0
 92
        0
 66
   257
 43
1.0
 76
     1
 77
     6
 78
     2
 67
     7
 79
     5
170
     0
171
     0
290
     0
174
     0
 93
       13
 44
0.0
173
     0
291
     1
 45
0.0
1001
ACAD
1000
AcDbSavedByObjectVersion
1070
     0
1000
AcDbSavedByObjectVersion
1070
     0
1000
AcDbSavedByObjectVersion
1070
     0
1000
AcDbSavedByObjectVersion
1070
     0
1000
AcDbSavedByObjectVersion
1070
     0
1000
AcDbSavedByObjectVersion
1070
     0
  0
VISUALSTYLE
  5
FD
102
{ACAD_REACTORS
330
EF
102
}
330
EF
100
AcDbVisualStyle
  2
Linepattern
 70
    14
 71
     2
 72
     2
 73
     1
 90
        0
 40
-0.6
 41
-30.0
 62
     5
 63
     7
 74
     1
 91
        4
 64
     7
 65
   257
 75
     7
175
     7
 42
1.0
 92
        8
 66
     7
 43
1.0
 76
     1
 77
     6
 78
     2
 67
     7
 79
     5
170
     0
171
     0
290
     0
174
     0
 93
        1
 44
0.0
173
     0
291
     1
 45
0.0
1001
ACAD
1000
AcDbSavedByObjectVersion
1070
     0
1000
AcDbSavedByObjectVersion
1070
     0
1000
AcDbSavedByObjectVersion
1070
     0
1000
AcDbSavedByObjectVersion
1070
     0
1000
AcDbSavedByObjectVersion
1070
     0
1000
AcDbSavedByObjectVersion
1070
     0
  0
VISUALSTYLE
  5
F9
102
{ACAD_REACTORS
330
EF
102
}
330
EF
100
AcDbVisualStyle
  2
Realistic
 70
     8
 71
     2
 72
     2
 73
     1
 90
        0
 40
-0.6
 41
-30.0
 62
     5
 63
     7
 74
     1
 91
        0
 64
     7
 65
   257
 75
     1
175
     1
 42
1.0
 92
        8
 66
     8
 43
1.0
 76
     1
 77
     6
 78
     2
 67
     7
 79
     5
170
     0
171
     0
290
     0
174
     0
 93
       13
 44
0.0
173
     0
291
     0
 45
0.0
1001
ACAD
1000
AcDbSavedByObjectVersion
1070
     0
1000
AcDbSavedByObjectVersion
1070
     0
1000
AcDbSavedByObjectVersion
1070
     0
1000
AcDbSavedByObjectVersion
1070
     0
1000
AcDbSavedByObjectVersion
1070
     0
1000
AcDbSavedByObjectVersion
1070
     0
  0
VISUALSTYLE
  5
FC
102
{ACAD_REACTORS
330
EF
102
}
330
EF
100
AcDbVisualStyle
  2
Thicken
 70
    13
 71
     2
 72
     2
 73
     1
 90
        0
 40
-0.6
 41
-30.0
 62
     5
 63
     7
 74
     1
 91
        4
 64
     7
 65
   257
 75
     1
175
     1
 42
1.0
 92
       12
 66
     7
 43
1.0
 76
     1
 77
     6
 78
     2
 67
     7
 79
     5
170
     0
171
     0
290
     0
174
     0
 93
        1
 44
0.0
173
     0
291
     1
 45
0.0
1001
ACAD
1000
AcDbSavedByObjectVersion
1070
     0
1000
AcDbSavedByObjectVersion
1070
     0
1000
AcDbSavedByObjectVersion
1070
     0
1000
AcDbSavedByObjectVersion
1070
     0
1000
AcDbSavedByObjectVersion
1070
     0
1000
AcDbSavedByObjectVersion
1070
     0
  0
DICTIONARYVAR
  5
84
102
{ACAD_REACTORS
330
5E
102
}
330
5E
100
DictionaryVariables
280
     0
  1
STANDARD
  0
DICTIONARYVAR
  5
5F
102
{ACAD_REACTORS
330
5E
102
}
330
5E
100
DictionaryVariables
280
     0
  1
2
  0
DICTIONARYVAR
  5
63
102
{ACAD_REACTORS
330
5E
102
}
330
5E
100
DictionaryVariables
280
     0
  1
1
  0
DICTIONARYVAR
  5
327
102
{ACAD_REACTORS
330
5E
102
}
330
5E
100
DictionaryVariables
280
     0
  1
0
  0
DICTIONARYVAR
  5
11E4
102
{ACAD_REACTORS
330
5E
102
}
330
5E
100
DictionaryVariables
280
     0
  1
80.000000
  0
DICTIONARYVAR
  5
11E3
102
{ACAD_REACTORS
330
5E
102
}
330
5E
100
DictionaryVariables
280
     0
  1
5.000000
  0
DICTIONARYVAR
  5
326
102
{ACAD_REACTORS
330
5E
102
}
330
5E
100
DictionaryVariables
280
     0
  1
127
  0
DICTIONARY
  5
11EA
330
D3
100
AcDbDictionary
280
     1
281
     1
  3
ACAD_XREC_ROUNDTRIP
360
11EB
  0
DICTIONARY
  5
11EC
330
D7
100
AcDbDictionary
280
     1
281
     1
  3
ACAD_XREC_ROUNDTRIP
360
11ED
  0
DICTIONARY
  5
11E6
330
22
100
AcDbDictionary
280
     1
281
     1
  3
ACAD_XREC_ROUNDTRIP
360
11E7
  0
DICTIONARY
  5
335
330
ED
100
AcDbDictionary
280
     1
281
     1
  3
ACAD_XREC_ROUNDTRIP
360
336
  0
DICTIONARY
  5
333
330
EC
100
AcDbDictionary
280
     1
281
     1
  3
ACAD_XREC_ROUNDTRIP
360
334
  0
DICTIONARY
  5
337
330
EE
100
AcDbDictionary
280
     1
281
     1
  3
ACAD_XREC_ROUNDTRIP
360
338
  0
DICTIONARY
  5
11E8
330
7F
100
AcDbDictionary
280
     1
281
     1
  3
ACAD_XREC_ROUNDTRIP
360
11E9
  0
XRECORD
  5
11EB
102
{ACAD_REACTORS
330
11EA
102
}
330
11EA
100
AcDbXrecord
280
     1
102
SHADEPLOT
 70
     0
102
SHADEPLOTRESLEVEL
 70
     2
102
SHADEPLOTCUSTOMDPI
 70
   300
  0
XRECORD
  5
11ED
102
{ACAD_REACTORS
330
11EC
102
}
330
11EC
100
AcDbXrecord
280
     1
102
SHADEPLOT
 70
     0
102
SHADEPLOTRESLEVEL
 70
     2
102
SHADEPLOTCUSTOMDPI
 70
   300
  0
XRECORD
  5
11E7
102
{ACAD_REACTORS
330
11E6
102
}
330
11E6
100
AcDbXrecord
280
     1
102
SHADEPLOT
 70
     0
102
SHADEPLOTRESLEVEL
 70
     2
102
SHADEPLOTCUSTOMDPI
 70
   300
  0
XRECORD
  5
336
102
{ACAD_REACTORS
330
335
102
}
330
335
100
AcDbXrecord
280
     1
102
MATERIAL
148
0.0
149
0.0
149
0.0
 93
        0
 94
       63
282
     0
 72
     1
 77
     1
171
     1
175
     1
179
     1
273
     0
  0
XRECORD
  5
334
102
{ACAD_REACTORS
330
333
102
}
330
333
100
AcDbXrecord
280
     1
102
MATERIAL
148
0.0
149
0.0
149
0.0
 93
        0
 94
       63
282
     0
 72
     1
 77
     1
171
     1
175
     1
179
     1
273
     0
  0
XRECORD
  5
338
102
{ACAD_REACTORS
330
337
102
}
330
337
100
AcDbXrecord
280
     1
102
MATERIAL
148
0.0
149
0.0
149
0.0
 93
        0
 94
       63
282
     0
 72
     1
 77
     1
171
     1
175
     1
179
     1
273
     0
  0
XRECORD
  5
11E9
102
{ACAD_REACTORS
330
11E8
102
}
330
11E8
100
AcDbXrecord
280
     1
102
ACAD_ROUNDTRIP_PRE2007_TABLESTYLE
 90
      512
 91
        0
  1

 92
      512
 93
        0
  2

 94
      512
 95
        0
  3

  0
ENDSEC
  0
EOF
