  0
SECTION
  2
HEADER
  9
$ACADVER
  1
AC1015
  9
$ACADMAINTVER
 70
    20
  9
$DWGCODEPAGE
  3
ANSI_1252
  9
$INSBASE
 10
0.0
 20
0.0
 30
0.0
  9
$EXTMIN
 10
157.4503107630043
 20
171.3812131069653
 30
-0.0000000000000677
  9
$EXTMAX
 10
1471.608727104954
 20
473.4224869868612
 30
0.0000000000010261
  9
$LIMMIN
 10
0.0
 20
0.0
  9
$LIMMAX
 10
420.0
 20
297.0
  9
$ORTHOMODE
 70
     0
  9
$REGENMODE
 70
     1
  9
$FILLMODE
 70
     1
  9
$QTEXTMODE
 70
     0
  9
$MIRRTEXT
 70
     0
  9
$LTSCALE
 40
1.0
  9
$ATTMODE
 70
     1
  9
$TEXTSIZE
 40
2.5
  9
$TRACEWID
 40
1.0
  9
$TEXTSTYLE
  7
Standard
  9
$CLAYER
  8
0
  9
$CELTYPE
  6
ByLayer
  9
$CECOLOR
 62
   256
  9
$CELTSCALE
 40
1.0
  9
$DISPSILH
 70
     0
  9
$DIMSCALE
 40
1.0
  9
$DIMASZ
 40
2.5
  9
$DIMEXO
 40
0.625
  9
$DIMDLI
 40
3.75
  9
$DIMRND
 40
0.0
  9
$DIMDLE
 40
0.0
  9
$DIMEXE
 40
1.25
  9
$DIMTP
 40
0.0
  9
$DIMTM
 40
0.0
  9
$DIMTXT
 40
2.5
  9
$DIMCEN
 40
2.5
  9
$DIMTSZ
 40
0.0
  9
$DIMTOL
 70
     0
  9
$DIMLIM
 70
     0
  9
$DIMTIH
 70
     0
  9
$DIMTOH
 70
     0
  9
$DIMSE1
 70
     0
  9
$DIMSE2
 70
     0
  9
$DIMTAD
 70
     1
  9
$DIMZIN
 70
     8
  9
$DIMBLK
  1

  9
$DIMASO
 70
     1
  9
$DIMSHO
 70
     1
  9
$DIMPOST
  1

  9
$DIMAPOST
  1

  9
$DIMALT
 70
     0
  9
$DIMALTD
 70
     3
  9
$DIMALTF
 40
0.03937007874016
  9
$DIMLFAC
 40
1.0
  9
$DIMTOFL
 70
     1
  9
$DIMTVP
 40
0.0
  9
$DIMTIX
 70
     0
  9
$DIMSOXD
 70
     0
  9
$DIMSAH
 70
     0
  9
$DIMBLK1
  1

  9
$DIMBLK2
  1

  9
$DIMSTYLE
  2
ISO-25
  9
$DIMCLRD
 70
     0
  9
$DIMCLRE
 70
     0
  9
$DIMCLRT
 70
     0
  9
$DIMTFAC
 40
1.0
  9
$DIMGAP
 40
0.625
  9
$DIMJUST
 70
     0
  9
$DIMSD1
 70
     0
  9
$DIMSD2
 70
     0
  9
$DIMTOLJ
 70
     0
  9
$DIMTZIN
 70
     8
  9
$DIMALTZ
 70
     0
  9
$DIMALTTZ
 70
     0
  9
$DIMUPT
 70
     0
  9
$DIMDEC
 70
     2
  9
$DIMTDEC
 70
     2
  9
$DIMALTU
 70
     2
  9
$DIMALTTD
 70
     3
  9
$DIMTXSTY
  7
Standard
  9
$DIMAUNIT
 70
     0
  9
$DIMADEC
 70
     0
  9
$DIMALTRND
 40
0.0
  9
$DIMAZIN
 70
     0
  9
$DIMDSEP
 70
    44
  9
$DIMATFIT
 70
     3
  9
$DIMFRAC
 70
     0
  9
$DIMLDRBLK
  1

  9
$DIMLUNIT
 70
     2
  9
$DIMLWD
 70
    -2
  9
$DIMLWE
 70
    -2
  9
$DIMTMOVE
 70
     0
  9
$LUNITS
 70
     2
  9
$LUPREC
 70
     4
  9
$SKETCHINC
 40
1.0
  9
$FILLETRAD
 40
0.0
  9
$AUNITS
 70
     0
  9
$AUPREC
 70
     0
  9
$MENU
  1
.
  9
$ELEVATION
 40
0.0
  9
$PELEVATION
 40
0.0
  9
$THICKNESS
 40
0.0
  9
$LIMCHECK
 70
     0
  9
$CHAMFERA
 40
0.0
  9
$CHAMFERB
 40
0.0
  9
$CHAMFERC
 40
0.0
  9
$CHAMFERD
 40
0.0
  9
$SKPOLY
 70
     0
  9
$TDCREATE
 40
2454768.510881991
  9
$TDUCREATE
 40
2454768.469215324
  9
$TDUPDATE
 40
2455601.362199016
  9
$TDUUPDATE
 40
2455601.320532350
  9
$TDINDWG
 40
0.0714630208
  9
$TDUSRTIMER
 40
0.0714589931
  9
$USRTIMER
 70
     1
  9
$ANGBASE
 50
0.0
  9
$ANGDIR
 70
     0
  9
$PDMODE
 70
     0
  9
$PDSIZE
 40
0.0
  9
$PLINEWID
 40
0.0
  9
$SPLFRAME
 70
     0
  9
$SPLINETYPE
 70
     6
  9
$SPLINESEGS
 70
     8
  9
$HANDSEED
  5
ECB
  9
$SURFTAB1
 70
     6
  9
$SURFTAB2
 70
     6
  9
$SURFTYPE
 70
     6
  9
$SURFU
 70
     6
  9
$SURFV
 70
     6
  9
$UCSBASE
  2

  9
$UCSNAME
  2

  9
$UCSORG
 10
0.0
 20
0.0
 30
0.0
  9
$UCSXDIR
 10
1.0
 20
0.0
 30
0.0
  9
$UCSYDIR
 10
0.0
 20
1.0
 30
0.0
  9
$UCSORTHOREF
  2

  9
$UCSORTHOVIEW
 70
     0
  9
$UCSORGTOP
 10
0.0
 20
0.0
 30
0.0
  9
$UCSORGBOTTOM
 10
0.0
 20
0.0
 30
0.0
  9
$UCSORGLEFT
 10
0.0
 20
0.0
 30
0.0
  9
$UCSORGRIGHT
 10
0.0
 20
0.0
 30
0.0
  9
$UCSORGFRONT
 10
0.0
 20
0.0
 30
0.0
  9
$UCSORGBACK
 10
0.0
 20
0.0
 30
0.0
  9
$PUCSBASE
  2

  9
$PUCSNAME
  2

  9
$PUCSORG
 10
0.0
 20
0.0
 30
0.0
  9
$PUCSXDIR
 10
1.0
 20
0.0
 30
0.0
  9
$PUCSYDIR
 10
0.0
 20
1.0
 30
0.0
  9
$PUCSORTHOREF
  2

  9
$PUCSORTHOVIEW
 70
     0
  9
$PUCSORGTOP
 10
0.0
 20
0.0
 30
0.0
  9
$PUCSORGBOTTOM
 10
0.0
 20
0.0
 30
0.0
  9
$PUCSORGLEFT
 10
0.0
 20
0.0
 30
0.0
  9
$PUCSORGRIGHT
 10
0.0
 20
0.0
 30
0.0
  9
$PUCSORGFRONT
 10
0.0
 20
0.0
 30
0.0
  9
$PUCSORGBACK
 10
0.0
 20
0.0
 30
0.0
  9
$USERI1
 70
     0
  9
$USERI2
 70
     0
  9
$USERI3
 70
     0
  9
$USERI4
 70
     0
  9
$USERI5
 70
     0
  9
$USERR1
 40
0.0
  9
$USERR2
 40
0.0
  9
$USERR3
 40
0.0
  9
$USERR4
 40
0.0
  9
$USERR5
 40
0.0
  9
$WORLDVIEW
 70
     1
  9
$SHADEDGE
 70
     3
  9
$SHADEDIF
 70
    70
  9
$TILEMODE
 70
     1
  9
$MAXACTVP
 70
    64
  9
$PINSBASE
 10
0.0
 20
0.0
 30
0.0
  9
$PLIMCHECK
 70
     0
  9
$PEXTMIN
 10
0.0
 20
0.0
 30
0.0
  9
$PEXTMAX
 10
0.0
 20
0.0
 30
0.0
  9
$PLIMMIN
 10
0.0
 20
0.0
  9
$PLIMMAX
 10
12.0
 20
9.0
  9
$UNITMODE
 70
     0
  9
$VISRETAIN
 70
     1
  9
$PLINEGEN
 70
     0
  9
$PSLTSCALE
 70
     1
  9
$TREEDEPTH
 70
  3020
  9
$CMLSTYLE
  2
Standard
  9
$CMLJUST
 70
     0
  9
$CMLSCALE
 40
20.0
  9
$PROXYGRAPHICS
 70
     1
  9
$MEASUREMENT
 70
     1
  9
$CELWEIGHT
370
    -1
  9
$ENDCAPS
280
     0
  9
$JOINSTYLE
280
     0
  9
$LWDISPLAY
290
     0
  9
$INSUNITS
 70
     4
  9
$HYPERLINKBASE
  1

  9
$STYLESHEET
  1

  9
$XEDIT
290
     1
  9
$CEPSNTYPE
380
     0
  9
$PSTYLEMODE
290
     1
  9
$FINGERPRINTGUID
  2
{A9F5D530-972F-4813-857A-78B9B08CAD27}
  9
$VERSIONGUID
  2
{1CCEDC23-1A95-40C0-A9F6-8599AA21E938}
  9
$EXTNAMES
290
     1
  9
$PSVPSCALE
 40
0.0
  9
$OLESTARTUP
290
     0
  0
ENDSEC
  0
SECTION
  2
CLASSES
  0
CLASS
  1
ACDBDICTIONARYWDFLT
  2
AcDbDictionaryWithDefault
  3
ObjectDBX Classes
 90
        0
280
     0
281
     0
  0
CLASS
  1
DICTIONARYVAR
  2
AcDbDictionaryVar
  3
ObjectDBX Classes
 90
        0
280
     0
281
     0
  0
CLASS
  1
TABLESTYLE
  2
AcDbTableStyle
  3
ObjectDBX Classes
 90
     4095
280
     0
281
     0
  0
CLASS
  1
MATERIAL
  2
AcDbMaterial
  3
ObjectDBX Classes
 90
     1024
280
     0
281
     0
  0
CLASS
  1
VISUALSTYLE
  2
AcDbVisualStyle
  3
ObjectDBX Classes
 90
     4095
280
     0
281
     0
  0
CLASS
  1
SORTENTSTABLE
  2
AcDbSortentsTable
  3
ObjectDBX Classes
 90
        0
280
     0
281
     0
  0
CLASS
  1
DIMASSOC
  2
AcDbDimAssoc
  3
"AcDbDimAssoc|Product Desc:     AcDim ARX App For Dimension|Company:          Autodesk, Inc.|WEB Address:      www.autodesk.com"
 90
        0
280
     0
281
     0
  0
CLASS
  1
ACDBPLACEHOLDER
  2
AcDbPlaceHolder
  3
ObjectDBX Classes
 90
        0
280
     0
281
     0
  0
CLASS
  1
LAYOUT
  2
AcDbLayout
  3
ObjectDBX Classes
 90
        0
280
     0
281
     0
  0
ENDSEC
  0
SECTION
  2
TABLES
  0
TABLE
  2
VPORT
  5
8
330
0
100
AcDbSymbolTable
 70
     1
  0
VPORT
  5
EA
330
8
100
AcDbSymbolTableRecord
100
AcDbViewportTableRecord
  2
*Active
 70
     0
 10
0.0
 20
0.0
 11
1.0
 21
1.0
 12
1040.382050173468
 22
246.3340914910446
 13
0.0
 23
0.0
 14
10.0
 24
10.0
 15
10.0
 25
10.0
 16
0.0
 26
0.0
 36
1.0
 17
0.0
 27
0.0
 37
0.0
 40
991.9522489194378
 41
1.858662613981763
 42
50.0
 43
0.0
 44
0.0
 50
0.0
 51
0.0
 71
     0
 72
  1000
 73
     1
 74
     3
 75
     0
 76
     0
 77
     0
 78
     0
281
     0
 65
     1
110
0.0
120
0.0
130
0.0
111
1.0
121
0.0
131
0.0
112
0.0
122
1.0
132
0.0
 79
     0
146
0.0
  0
ENDTAB
  0
TABLE
  2
LTYPE
  5
5
330
0
100
AcDbSymbolTable
 70
     3
  0
LTYPE
  5
14
330
5
100
AcDbSymbolTableRecord
100
AcDbLinetypeTableRecord
  2
ByBlock
 70
     0
  3

 72
    65
 73
     0
 40
0.0
  0
LTYPE
  5
15
330
5
100
AcDbSymbolTableRecord
100
AcDbLinetypeTableRecord
  2
ByLayer
 70
     0
  3

 72
    65
 73
     0
 40
0.0
  0
LTYPE
  5
16
330
5
100
AcDbSymbolTableRecord
100
AcDbLinetypeTableRecord
  2
Continuous
 70
     0
  3
Solid line
 72
    65
 73
     0
 40
0.0
  0
ENDTAB
  0
TABLE
  2
LAYER
  5
2
102
{ACAD_XDICTIONARY
360
141
102
}
330
0
100
AcDbSymbolTable
 70
     5
  0
LAYER
  5
10
330
2
100
AcDbSymbolTableRecord
100
AcDbLayerTableRecord
  2
0
 70
     0
 62
     7
  6
Continuous
370
    -3
390
F
  0
LAYER
  5
124
330
2
100
AcDbSymbolTableRecord
100
AcDbLayerTableRecord
  2
Defpoints
 70
     0
 62
     7
  6
Continuous
290
     0
370
    -3
390
F
  0
LAYER
  5
13E
330
2
100
AcDbSymbolTableRecord
100
AcDbLayerTableRecord
  2
Hewi
 70
     0
 62
     7
  6
Continuous
370
    -3
390
F
  0
ENDTAB
  0
TABLE
  2
STYLE
  5
3
330
0
100
AcDbSymbolTable
 70
     3
  0
STYLE
  5
11
330
3
100
AcDbSymbolTableRecord
100
AcDbTextStyleTableRecord
  2
Standard
 70
     0
 40
0.0
 41
1.0
 50
0.0
 71
     0
 42
2.5
  3
txt
  4

  0
ENDTAB
  0
TABLE
  2
VIEW
  5
6
330
0
100
AcDbSymbolTable
 70
     0
  0
ENDTAB
  0
TABLE
  2
UCS
  5
7
330
0
100
AcDbSymbolTable
 70
     0
  0
ENDTAB
  0
TABLE
  2
APPID
  5
9
330
0
100
AcDbSymbolTable
 70
     3
  0
APPID
  5
12
330
9
100
AcDbSymbolTableRecord
100
AcDbRegAppTableRecord
  2
ACAD
 70
     0
  0
APPID
  5
9E
330
9
100
AcDbSymbolTableRecord
100
AcDbRegAppTableRecord
  2
ACAD_PSEXT
 70
     0
  0
APPID
  5
212
330
9
100
AcDbSymbolTableRecord
100
AcDbRegAppTableRecord
  2
ACAD_EXEMPT_FROM_CAD_STANDARDS
 70
     0
  0
ENDTAB
  0
TABLE
  2
DIMSTYLE
  5
A
330
0
100
AcDbSymbolTable
 70
     3
100
AcDbDimStyleTable
 71
     1
340
27
  0
DIMSTYLE
105
27
330
A
100
AcDbSymbolTableRecord
100
AcDbDimStyleTableRecord
  2
ISO-25
 70
     0
 41
2.5
 42
0.625
 43
3.75
 44
1.25
 73
     0
 74
     0
 77
     1
 78
     8
140
2.5
141
2.5
143
0.03937007874016
147
0.625
171
     3
172
     1
271
     2
272
     2
274
     3
278
    44
283
     0
284
     8
340
11
  0
DIMSTYLE
105
254
330
A
100
AcDbSymbolTableRecord
100
AcDbDimStyleTableRecord
  2
Standard
 70
     0
340
11
  0
ENDTAB
  0
TABLE
  2
BLOCK_RECORD
  5
1
330
0
100
AcDbSymbolTable
 70
   111
  0
BLOCK_RECORD
  5
1F
102
{ACAD_XDICTIONARY
360
116
102
}
330
1
100
AcDbSymbolTableRecord
100
AcDbBlockTableRecord
  2
*Model_Space
340
22
  0
BLOCK_RECORD
  5
D2
330
1
100
AcDbSymbolTableRecord
100
AcDbBlockTableRecord
  2
*Paper_Space
340
D3
  0
BLOCK_RECORD
  5
D6
330
1
100
AcDbSymbolTableRecord
100
AcDbBlockTableRecord
  2
*Paper_Space0
340
D7
  0
ENDTAB
  0
ENDSEC
  0
SECTION
  2
BLOCKS
  0
BLOCK
  5
20
330
1F
100
AcDbEntity
  8
0
100
AcDbBlockBegin
  2
*Model_Space
 70
     0
 10
0.0
 20
0.0
 30
0.0
  3
*Model_Space
  1

  0
ENDBLK
  5
21
330
1F
100
AcDbEntity
  8
0
100
AcDbBlockEnd
  0
BLOCK
  5
D4
330
D2
100
AcDbEntity
 67
     1
  8
0
100
AcDbBlockBegin
  2
*Paper_Space
 70
     0
 10
0.0
 20
0.0
 30
0.0
  3
*Paper_Space
  1

  0
ENDBLK
  5
D5
330
D2
100
AcDbEntity
 67
     1
  8
0
100
AcDbBlockEnd
  0
BLOCK
  5
D8
330
D6
100
AcDbEntity
 67
     1
  8
0
100
AcDbBlockBegin
  2
*Paper_Space0
 70
     0
 10
0.0
 20
0.0
 30
0.0
  3
*Paper_Space0
  1

  0
ENDBLK
  5
D9
330
D6
100
AcDbEntity
 67
     1
  8
0
100
AcDbBlockEnd
  0
ENDSEC
  0
SECTION
  2
ENTITIES
  0
LINE
  5
D42
330
1F
100
AcDbEntity
  8
Hewi
100
AcDbLine
 10
182.6503107630014
 20
442.4224869869631
 30
-0.0000000000000425
 11
182.4503107630043
 21
442.222486986966
 31
-0.0000000000000427
  0
LINE
  5
D43
330
1F
100
AcDbEntity
  8
Hewi
100
AcDbLine
 10
182.4503107630043
 20
424.6224869869601
 30
-0.0000000000000634
 11
182.6503107630014
 21
424.4224869868611
 31
-0.0000000000000636
  0
LINE
  5
D44
330
1F
100
AcDbEntity
  8
Hewi
100
AcDbLine
 10
182.6503107630014
 20
424.4224869868611
 30
-0.0000000000000636
 11
232.449710763005
 21
424.4224869868611
 31
-0.0000000000000667
  0
LINE
  5
D45
330
1F
100
AcDbEntity
  8
Hewi
100
AcDbLine
 10
232.449710763005
 20
442.4224869869631
 30
-0.0000000000000456
 11
182.6503107630014
 21
442.4224869869631
 31
-0.0000000000000425
  0
LINE
  5
D46
330
1F
100
AcDbEntity
  8
Hewi
100
AcDbLine
 10
232.6503107630015
 20
473.4224869868612
 30
-0.0000000000000093
 11
242.250310763
 21
473.4224869868612
 31
-0.0000000000000099
  0
LINE
  5
D47
330
1F
100
AcDbEntity
  8
Hewi
100
AcDbLine
 10
242.250310763
 20
393.4224869868613
 30
0.0000000000000101
 11
232.6503107630015
 21
393.4224869868613
 31
0.0000000000000107
  0
LINE
  5
D48
330
1F
100
AcDbEntity
  8
Hewi
100
AcDbLine
 10
242.4503107630044
 20
393.6224869869602
 30
0.0000000000000103
 11
242.250310763
 21
393.4224869868613
 31
0.0000000000000101
  0
LINE
  5
D49
330
1F
100
AcDbEntity
  8
Hewi
100
AcDbLine
 10
242.250310763
 20
473.4224869868612
 30
-0.0000000000000099
 11
242.4503107630044
 21
473.222486986966
 31
-0.0000000000000101
  0
LINE
  5
D4A
330
1F
100
AcDbEntity
  8
Hewi
100
AcDbLine
 10
242.4503107630044
 20
473.222486986966
 30
-0.0000000000000101
 11
242.4503107630044
 21
471.4224869868612
 31
-0.0000000000000122
  0
LINE
  5
D4B
330
1F
100
AcDbEntity
  8
Hewi
100
AcDbLine
 10
242.4503107630044
 20
471.4224869868612
 30
-0.0000000000000122
 11
242.4503107630044
 21
395.4224869869631
 31
0.0000000000000125
  0
LINE
  5
D4C
330
1F
100
AcDbEntity
  8
Hewi
100
AcDbLine
 10
242.4503107630044
 20
395.4224869869631
 30
0.0000000000000125
 11
242.4503107630044
 21
393.6224869869602
 31
0.0000000000000103
  0
LINE
  5
D4D
330
1F
100
AcDbEntity
  8
Hewi
100
AcDbLine
 10
181.9503107630044
 20
420.9224869868611
 30
-0.0000000000000677
 11
157.9503107630044
 21
420.9224869868611
 31
-0.0000000000000662
  0
LINE
  5
D4E
330
1F
100
AcDbEntity
  8
Hewi
100
AcDbLine
 10
157.9928798370129
 20
445.9224869869631
 30
-0.0000000000000369
 11
181.9077416890104
 21
445.9224869869631
 31
-0.0000000000000384
  0
LINE
  5
D4F
330
1F
100
AcDbEntity
  8
Hewi
100
AcDbLine
 10
182.4503107630043
 20
445.4224869869631
 30
-0.000000000000039
 11
182.4503107630043
 21
421.4224869868612
 31
-0.0000000000000671
  0
LINE
  5
D50
330
1F
100
AcDbEntity
  8
Hewi
100
AcDbLine
 10
232.4503107630044
 20
395.4224869869631
 30
0.0000000000000131
 11
232.4503107630044
 21
471.4224869868612
 31
-0.0000000000000116
  0
LINE
  5
D51
330
1F
100
AcDbEntity
  8
Hewi
100
AcDbLine
 10
232.4503107630044
 20
473.222486986966
 30
-0.0000000000000095
 11
232.6503107630015
 21
473.4224869868612
 31
-0.0000000000000093
  0
LINE
  5
D52
330
1F
100
AcDbEntity
  8
Hewi
100
AcDbLine
 10
232.4503107630044
 20
471.4224869868612
 30
-0.0000000000000116
 11
232.4503107630044
 21
473.222486986966
 31
-0.0000000000000095
  0
LINE
  5
D53
330
1F
100
AcDbEntity
  8
Hewi
100
AcDbLine
 10
157.4503107630043
 20
421.4224869868612
 30
-0.0000000000000656
 11
157.4503107630043
 21
445.4224869869631
 31
-0.0000000000000375
  0
LINE
  5
D54
330
1F
100
AcDbEntity
  8
Hewi
100
AcDbLine
 10
232.4503107630044
 20
393.6224869869602
 30
0.000000000000011
 11
232.4503107630044
 21
395.4224869869631
 31
0.0000000000000131
  0
LINE
  5
D55
330
1F
100
AcDbEntity
  8
Hewi
100
AcDbLine
 10
232.6503107630015
 20
393.4224869868613
 30
0.0000000000000107
 11
232.4503107630044
 21
393.6224869869602
 31
0.000000000000011
  0
LINE
  5
D56
330
1F
100
AcDbEntity
  8
Hewi
100
AcDbLine
 10
422.7071850359152
 20
196.5812131069769
 30
-0.0000000000000292
 11
422.7071850359152
 21
246.3806131069659
 31
-0.0000000000000287
  0
LINE
  5
D57
330
1F
100
AcDbEntity
  8
Hewi
100
AcDbLine
 10
1205.707185035915
 20
196.5812131069769
 30
-0.0000000000000285
 11
1205.907185035905
 21
196.3812131069653
 31
-0.0000000000000288
  0
LINE
  5
D58
330
1F
100
AcDbEntity
  8
Hewi
100
AcDbLine
 10
1205.707185035915
 20
246.3806131069659
 30
-0.0000000000000281
 11
1205.707185035915
 21
196.5812131069769
 31
-0.0000000000000285
  0
LINE
  5
D59
330
1F
100
AcDbEntity
  8
Hewi
100
AcDbLine
 10
1223.707185035915
 20
196.5812131069769
 30
-0.0000000000000283
 11
1223.707185035915
 21
246.3806131069659
 31
-0.0000000000000278
  0
LINE
  5
D5A
330
1F
100
AcDbEntity
  8
Hewi
100
AcDbLine
 10
1223.507185035918
 20
196.3812131069653
 30
-0.0000000000000281
 11
1223.707185035915
 21
196.5812131069769
 31
-0.0000000000000283
  0
LINE
  5
D5B
330
1F
100
AcDbEntity
  8
Hewi
100
AcDbLine
 10
1264.707185035915
 20
172.3812131069653
 30
-0.0000000000000287
 11
1264.707185035915
 21
195.3812131069653
 31
-0.0000000000000283
  0
LINE
  5
D5C
330
1F
100
AcDbEntity
  8
Hewi
100
AcDbLine
 10
363.7071850359153
 20
195.3812131069653
 30
-0.0000000000000293
 11
363.7071850359153
 21
172.3812131069653
 31
-0.0000000000000297
  0
LINE
  5
D5D
330
1F
100
AcDbEntity
  8
Hewi
100
AcDbLine
 10
404.7071850359152
 20
246.3806131069659
 30
-0.0000000000000272
 11
404.7071850359152
 21
196.5812131069769
 31
-0.0000000000000276
  0
LINE
  5
D5E
330
1F
100
AcDbEntity
  8
Hewi
100
AcDbLine
 10
404.7071850359152
 20
196.5812131069769
 30
-0.0000000000000276
 11
404.907185035905
 21
196.3812131069653
 31
-0.0000000000000279
  0
LINE
  5
D5F
330
1F
100
AcDbEntity
  8
Hewi
100
AcDbLine
 10
422.5071850359181
 20
196.3812131069653
 30
-0.0000000000000289
 11
422.7071850359152
 21
196.5812131069769
 31
-0.0000000000000292
  0
LINE
  5
D60
330
1F
100
AcDbEntity
  8
Hewi
100
AcDbLine
 10
364.7071850359152
 20
196.3812131069653
 30
-0.0000000000000292
 11
1261.107942600803
 21
196.3812131069653
 31
-0.000000000000027
  0
LINE
  5
D61
330
1F
100
AcDbEntity
  8
Hewi
100
AcDbLine
 10
1263.707185035915
 20
171.3812131069653
 30
-0.0000000000000256
 11
364.7071850359152
 21
171.3812131069653
 31
-0.0000000000000276
  0
LINE
  5
D62
330
1F
100
AcDbEntity
  8
Hewi
100
AcDbLine
 10
1174.707185035915
 20
246.581213106977
 30
-0.0000000000000326
 11
1174.707185035915
 21
256.1812131069682
 31
-0.0000000000000261
  0
LINE
  5
D63
330
1F
100
AcDbEntity
  8
Hewi
100
AcDbLine
 10
1254.707185035915
 20
256.1812131069682
 30
-0.0000000000000274
 11
1254.707185035915
 21
246.581213106977
 31
-0.0000000000000339
  0
LINE
  5
D64
330
1F
100
AcDbEntity
  8
Hewi
100
AcDbLine
 10
1254.707185035915
 20
256.1812131069682
 30
-0.0000000000000274
 11
1254.507185035918
 21
256.3812131069653
 31
-0.0000000000000272
  0
LINE
  5
D65
330
1F
100
AcDbEntity
  8
Hewi
100
AcDbLine
 10
1174.90718503592
 20
256.3812131069653
 30
-0.0000000000000263
 11
1174.707185035915
 21
256.1812131069682
 31
-0.0000000000000261
  0
LINE
  5
D66
330
1F
100
AcDbEntity
  8
Hewi
100
AcDbLine
 10
1176.707185035915
 20
256.3812131069653
 30
-0.0000000000000284
 11
1252.707185035915
 21
256.3812131069653
 31
-0.0000000000000251
  0
LINE
  5
D67
330
1F
100
AcDbEntity
  8
Hewi
100
AcDbLine
 10
1252.707185035915
 20
256.3812131069653
 30
-0.0000000000000251
 11
1254.507185035918
 21
256.3812131069653
 31
-0.0000000000000272
  0
LINE
  5
D68
330
1F
100
AcDbEntity
  8
Hewi
100
AcDbLine
 10
1174.90718503592
 20
256.3812131069653
 30
-0.0000000000000263
 11
1176.707185035915
 21
256.3812131069653
 31
-0.0000000000000284
  0
LINE
  5
D69
330
1F
100
AcDbEntity
  8
Hewi
100
AcDbLine
 10
422.7071850359152
 20
196.5812131069769
 30
-0.0000000000000292
 11
404.7071850359152
 21
196.5812131069769
 31
-0.0000000000000276
  0
LINE
  5
D6A
330
1F
100
AcDbEntity
  8
Hewi
100
AcDbLine
 10
453.7071850359152
 20
256.1812131069682
 30
-0.0000000000000283
 11
453.7071850359152
 21
246.581213106977
 31
-0.0000000000000348
  0
LINE
  5
D6B
330
1F
100
AcDbEntity
  8
Hewi
100
AcDbLine
 10
373.7071850359153
 20
246.581213106977
 30
-0.0000000000000335
 11
373.7071850359153
 21
256.1812131069682
 31
-0.000000000000027
  0
LINE
  5
D6C
330
1F
100
AcDbEntity
  8
Hewi
100
AcDbLine
 10
373.9071850359197
 20
256.3812131069653
 30
-0.0000000000000272
 11
373.7071850359153
 21
256.1812131069682
 31
-0.000000000000027
  0
LINE
  5
D6D
330
1F
100
AcDbEntity
  8
Hewi
100
AcDbLine
 10
453.7071850359152
 20
256.1812131069682
 30
-0.0000000000000283
 11
453.507185035918
 21
256.3812131069653
 31
-0.0000000000000281
  0
LINE
  5
D6E
330
1F
100
AcDbEntity
  8
Hewi
100
AcDbLine
 10
451.7071850359152
 20
256.3812131069653
 30
-0.000000000000026
 11
453.507185035918
 21
256.3812131069653
 31
-0.0000000000000281
  0
LINE
  5
D6F
330
1F
100
AcDbEntity
  8
Hewi
100
AcDbLine
 10
375.7071850359153
 20
256.3812131069653
 30
-0.0000000000000222
 11
451.7071850359152
 21
256.3812131069653
 31
-0.000000000000026
  0
LINE
  5
D70
330
1F
100
AcDbEntity
  8
Hewi
100
AcDbLine
 10
373.9071850359197
 20
256.3812131069653
 30
-0.0000000000000272
 11
375.7071850359153
 21
256.3812131069653
 31
-0.0000000000000222
  0
LINE
  5
D71
330
1F
100
AcDbEntity
  8
Hewi
100
AcDbLine
 10
364.7071850359152
 20
196.3812131069653
 30
-0.0000000000000287
 11
367.3064274710358
 21
196.3812131069653
 31
-0.00000000000003
  0
LINE
  5
D72
330
1F
100
AcDbEntity
  8
Hewi
100
AcDbLine
 10
1261.107942600802
 20
196.3812131069653
 30
-0.0000000000000277
 11
1263.707185035915
 21
196.3812131069653
 31
-0.000000000000029
  0
LINE
  5
D73
330
1F
100
AcDbEntity
  8
Hewi
100
AcDbLine
 10
1174.707185035915
 20
246.581213106977
 30
-0.0000000000000326
 11
1174.90718503592
 21
246.3812131069653
 31
-0.0000000000000328
  0
LINE
  5
D74
330
1F
100
AcDbEntity
  8
Hewi
100
AcDbLine
 10
1176.707185035915
 20
246.3812131069653
 30
-0.0000000000000349
 11
1174.90718503592
 21
246.3812131069653
 31
-0.0000000000000328
  0
LINE
  5
D75
330
1F
100
AcDbEntity
  8
Hewi
100
AcDbLine
 10
1252.707185035915
 20
246.3812131069653
 30
-0.0000000000000316
 11
1176.707185035915
 21
246.3812131069653
 31
-0.0000000000000349
  0
LINE
  5
D76
330
1F
100
AcDbEntity
  8
Hewi
100
AcDbLine
 10
1254.507185035918
 20
246.3812131069653
 30
-0.0000000000000337
 11
1254.707185035915
 21
246.581213106977
 31
-0.0000000000000339
  0
LINE
  5
D77
330
1F
100
AcDbEntity
  8
Hewi
100
AcDbLine
 10
1254.507185035918
 20
246.3812131069653
 30
-0.0000000000000337
 11
1252.707185035915
 21
246.3812131069653
 31
-0.0000000000000316
  0
LINE
  5
D78
330
1F
100
AcDbEntity
  8
Hewi
100
AcDbLine
 10
451.7071850359152
 20
246.3812131069653
 30
-0.0000000000000325
 11
375.7071850359153
 21
246.3812131069653
 31
-0.0000000000000287
  0
LINE
  5
D79
330
1F
100
AcDbEntity
  8
Hewi
100
AcDbLine
 10
453.507185035918
 20
246.3812131069653
 30
-0.0000000000000346
 11
453.7071850359152
 21
246.581213106977
 31
-0.0000000000000348
  0
LINE
  5
D7A
330
1F
100
AcDbEntity
  8
Hewi
100
AcDbLine
 10
453.507185035918
 20
246.3812131069653
 30
-0.0000000000000346
 11
451.7071850359152
 21
246.3812131069653
 31
-0.0000000000000325
  0
LINE
  5
D7B
330
1F
100
AcDbEntity
  8
Hewi
100
AcDbLine
 10
1263.707185035915
 20
171.3812131069653
 30
-0.0000000000000292
 11
1261.107942600802
 21
171.3812131069653
 31
-0.0000000000000262
  0
LINE
  5
D7C
330
1F
100
AcDbEntity
  8
Hewi
100
AcDbLine
 10
367.3064274710358
 20
171.3812131069653
 30
-0.0000000000000285
 11
364.7071850359152
 21
171.3812131069653
 31
-0.000000000000029
  0
LINE
  5
D7D
330
1F
100
AcDbEntity
  8
Hewi
100
AcDbLine
 10
375.7071850359153
 20
246.3812131069653
 30
-0.0000000000000287
 11
373.9071850359197
 21
246.3812131069653
 31
-0.0000000000000337
  0
LINE
  5
D7E
330
1F
100
AcDbEntity
  8
Hewi
100
AcDbLine
 10
373.7071850359153
 20
246.581213106977
 30
-0.0000000000000335
 11
373.9071850359197
 21
246.3812131069653
 31
-0.0000000000000337
  0
ARC
  5
D89
330
1F
100
AcDbEntity
  8
Hewi
100
AcDbCircle
 10
-181.9503107630044
 20
445.4224869869631
 30
0.000000000000039
 40
0.5
210
0.0
220
0.0
230
-1.0
100
AcDbArc
 50
90.0
 51
180.0
  0
ARC
  5
D8A
330
1F
100
AcDbEntity
  8
Hewi
100
AcDbCircle
 10
-157.9503107630044
 20
445.4224869869631
 30
0.0000000000000375
 40
0.5
210
0.0
220
0.0
230
-1.0
100
AcDbArc
 50
0.0
 51
90.0
  0
ARC
  5
D8B
330
1F
100
AcDbEntity
  8
Hewi
100
AcDbCircle
 10
364.7071850359152
 20
172.3812131069653
 30
0.0000000000010261
 40
1.0
100
AcDbArc
 50
180.0
 51
270.0
  0
ARC
  5
D8C
330
1F
100
AcDbEntity
  8
Hewi
100
AcDbCircle
 10
364.7071850359152
 20
195.3812131069653
 30
0.0000000000010247
 40
1.0
100
AcDbArc
 50
90.0
 51
180.0
  0
ARC
  5
D8D
330
1F
100
AcDbEntity
  8
Hewi
100
AcDbCircle
 10
1263.707185035915
 20
172.3812131069653
 30
-0.0000000000000257
 40
1.0
100
AcDbArc
 50
270.0
 51
0.0
  0
ARC
  5
D8E
330
1F
100
AcDbEntity
  8
Hewi
100
AcDbCircle
 10
1263.707185035915
 20
195.3812131069653
 30
-0.0000000000000271
 40
1.0
100
AcDbArc
 50
0.0
 51
90.0
  0
ELLIPSE
  5
D8F
330
1F
100
AcDbEntity
  8
Hewi
100
AcDbEllipse
 10
181.9077416890104
 20
445.4224869869631
 30
-0.000000000000039
 11
-0.0000000000000001
 21
-0.5
 31
0.0
210
0.0
220
0.0
230
1.0
 40
0.9277209384775176
 41
1.737488151529503
 42
3.141592653589792
  0
ELLIPSE
  5
D90
330
1F
100
AcDbEntity
  8
Hewi
100
AcDbEllipse
 10
157.9928798370129
 20
445.4224869869631
 30
-0.0000000000000375
 11
-0.0000000000000001
 21
-0.5
 31
0.0
210
0.0
220
0.0
230
1.0
 40
0.9277209384775172
 41
3.141592653589792
 42
4.545697155650078
  0
SPLINE
  5
D98
330
1F
100
AcDbEntity
  8
Hewi
100
AcDbSpline
210
0.0000000000000064
220
0.0000000000000079
230
-1.0
 70
     8
 71
     3
 72
     8
 73
     4
 74
     0
 42
0.0000000001
 43
0.0000000001
 40
0.0
 40
0.0
 40
0.0
 40
0.0
 40
1.0
 40
1.0
 40
1.0
 40
1.0
 10
182.4503107630043
 20
445.4224869869631
 30
-0.000000000000039
 10
182.4503107630043
 20
445.4513792519556
 30
-0.000000000000039
 10
182.4217934511434
 20
445.4792699382651
 30
-0.0000000000000389
 10
182.3651726150019
 20
445.5054474579791
 30
-0.0000000000000389
  0
SPLINE
  5
D99
330
1F
100
AcDbEntity
  8
Hewi
100
AcDbSpline
210
0.0000000000000057
220
-0.0000000000000043
230
1.0
 70
     8
 71
     3
 72
     8
 73
     4
 74
     0
 42
0.0000000001
 43
0.0000000001
 40
0.0
 40
0.0
 40
0.0
 40
0.0
 40
1.0
 40
1.0
 40
1.0
 40
1.0
 10
182.4503107630043
 20
421.4224869868612
 30
-0.0000000000000671
 10
182.4503107630043
 20
421.2493841735541
 30
-0.0000000000000673
 10
182.3564413611057
 20
421.0690858989672
 30
-0.0000000000000675
 10
182.1789439970271
 20
420.9778221195573
 30
-0.0000000000000676
  0
SPLINE
  5
D9A
330
1F
100
AcDbEntity
  8
Hewi
100
AcDbSpline
210
0.0
220
0.0
230
1.0
 70
    24
 71
     3
 72
     8
 73
     4
 74
     0
 42
0.0000000001
 43
0.0000000001
 40
0.0
 40
0.0
 40
0.0
 40
0.0
 40
1.0
 40
1.0
 40
1.0
 40
1.0
 10
181.9077416890104
 20
445.9224869869631
 30
-0.0000000000000384
 10
181.9362295752761
 20
445.9224869869631
 30
-0.0000000000000384
 10
181.9504207739992
 20
445.9224869869631
 30
-0.0000000000000384
 10
181.9502632582553
 20
445.9224869869631
 30
-0.0000000000000384
  0
SPLINE
  5
D9B
330
1F
100
AcDbEntity
  8
Hewi
100
AcDbSpline
210
0.0000000000000023
220
-0.0000000000000097
230
1.0
 70
     8
 71
     3
 72
     8
 73
     4
 74
     0
 42
0.0000000001
 43
0.0000000001
 40
0.0
 40
0.0
 40
0.0
 40
0.0
 40
1.0
 40
1.0
 40
1.0
 40
1.0
 10
182.1789439970271
 20
420.9778221195573
 30
-0.0000000000000676
 10
182.1058348635015
 20
420.940231612969
 30
-0.0000000000000676
 10
182.0280069951514
 20
420.9224869868611
 30
-0.0000000000000677
 10
181.9503107630044
 20
420.9224869868611
 30
-0.0000000000000677
  0
SPLINE
  5
D9C
330
1F
100
AcDbEntity
  8
Hewi
100
AcDbSpline
210
0.0000000000000049
220
-0.000000000000006
230
1.0
 70
     8
 71
     3
 72
     8
 73
     4
 74
     0
 42
0.0000000001
 43
0.0000000001
 40
0.0
 40
0.0
 40
0.0
 40
0.0
 40
1.0
 40
1.0
 40
1.0
 40
1.0
 10
157.4503107630043
 20
445.4224869869631
 30
-0.0000000000000375
 10
157.4503107630043
 20
445.4513792519556
 30
-0.0000000000000374
 10
157.4788280748507
 20
445.4792699382651
 30
-0.0000000000000374
 10
157.5354489109995
 20
445.5054474579791
 30
-0.0000000000000374
  0
SPLINE
  5
D9D
330
1F
100
AcDbEntity
  8
Hewi
100
AcDbSpline
210
0.0
220
0.0
230
1.0
 70
    24
 71
     3
 72
     8
 73
     4
 74
     0
 42
0.0000000001
 43
0.0000000001
 40
0.0
 40
0.0
 40
0.0
 40
0.0
 40
1.0
 40
1.0
 40
1.0
 40
1.0
 10
157.9502607580034
 20
445.9224869869631
 30
-0.0000000000000369
 10
157.9503607680053
 20
445.9224869869631
 30
-0.0000000000000369
 10
157.9643919507398
 20
445.9224869869631
 30
-0.0000000000000369
 10
157.9928798370129
 20
445.9224869869631
 30
-0.0000000000000369
  0
SPLINE
  5
D9E
330
1F
100
AcDbEntity
  8
Hewi
100
AcDbSpline
210
0.0000000000000024
220
0.0000000000000099
230
-1.0
 70
     8
 71
     3
 72
     8
 73
     4
 74
     0
 42
0.0000000001
 43
0.0000000001
 40
0.0
 40
0.0
 40
0.0
 40
0.0
 40
1.0
 40
1.0
 40
1.0
 40
1.0
 10
157.9503107630044
 20
420.9224869868611
 30
-0.0000000000000662
 10
157.8726145308646
 20
420.9224869868611
 30
-0.0000000000000662
 10
157.7947866624927
 20
420.940231612969
 30
-0.0000000000000662
 10
157.7216775289889
 20
420.9778221195573
 30
-0.0000000000000661
  0
SPLINE
  5
D9F
330
1F
100
AcDbEntity
  8
Hewi
100
AcDbSpline
210
0.0000000000000057
220
0.0000000000000043
230
-1.0
 70
     8
 71
     3
 72
     8
 73
     4
 74
     0
 42
0.0000000001
 43
0.0000000001
 40
0.0
 40
0.0
 40
0.0
 40
0.0
 40
1.0
 40
1.0
 40
1.0
 40
1.0
 10
157.7216775289889
 20
420.9778221195573
 30
-0.0000000000000661
 10
157.5441801648958
 20
421.0690858989672
 30
-0.000000000000066
 10
157.4503107630043
 20
421.2493841735541
 30
-0.0000000000000658
 10
157.4503107630043
 20
421.4224869868612
 30
-0.0000000000000656
  0
SPLINE
  5
DA0
330
1F
100
AcDbEntity
  8
Hewi
100
AcDbSpline
210
-0.0000000000000054
220
-0.0000000000000261
230
1.0
 70
     8
 71
     3
 72
     8
 73
     4
 74
     0
 42
0.0000000001
 43
0.0000000001
 40
0.0
 40
0.0
 40
0.0
 40
0.0
 40
1.0
 40
1.0
 40
1.0
 40
1.0
 10
1261.513594346952
 20
196.2960749589774
 30
-0.0000000000000282
 10
1261.384670765679
 20
196.3526957951772
 30
-0.000000000000028
 10
1261.248204685655
 20
196.3812131069653
 30
-0.0000000000000279
 10
1261.107942600802
 20
196.3812131069653
 30
-0.0000000000000277
  0
LINE
  5
DC6
330
1F
100
AcDbEntity
  8
Hewi
100
AcDbLine
 10
372.7298977164119
 20
395.4224869869631
 30
0.0000000000000001
 11
372.7298977164119
 21
420.9228619869663
 31
0.0000000000000001
  0
LINE
  5
DC7
330
1F
100
AcDbEntity
  8
Hewi
100
AcDbLine
 10
372.7298977164119
 20
445.9221119869599
 30
0.0000000000000001
 11
372.7298977164119
 21
471.4224869868612
 31
0.0000000000000001
  0
LINE
  5
DC8
330
1F
100
AcDbEntity
  8
Hewi
100
AcDbLine
 10
452.7298977164118
 20
471.4224869868612
 30
0.0000000000000001
 11
452.7298977164118
 21
445.9221119869599
 31
0.0000000000000001
  0
LINE
  5
DC9
330
1F
100
AcDbEntity
  8
Hewi
100
AcDbLine
 10
452.7298977164118
 20
420.9228619869663
 30
0.0000000000000001
 11
452.7298977164118
 21
395.4224869869631
 31
0.0000000000000001
  0
LINE
  5
DCA
330
1F
100
AcDbEntity
  8
Hewi
100
AcDbLine
 10
1173.729897716412
 20
395.4224869869631
 30
0.0
 11
1173.729897716412
 21
420.9228619869663
 31
0.0
  0
LINE
  5
DCB
330
1F
100
AcDbEntity
  8
Hewi
100
AcDbLine
 10
1173.729897716412
 20
445.922111986858
 30
0.0
 11
1173.729897716412
 21
471.4224869868612
 31
0.0
  0
LINE
  5
DCC
330
1F
100
AcDbEntity
  8
Hewi
100
AcDbLine
 10
1253.729897716412
 20
471.4224869868612
 30
0.0
 11
1253.729897716412
 21
445.922111986858
 31
0.0
  0
LINE
  5
DCD
330
1F
100
AcDbEntity
  8
Hewi
100
AcDbLine
 10
1253.729897716412
 20
420.9228619869663
 30
0.0
 11
1253.729897716412
 21
395.4224869869631
 31
0.0
  0
LINE
  5
DCE
330
1F
100
AcDbEntity
  8
Hewi
100
AcDbLine
 10
374.7298977164046
 20
473.4224869868612
 30
0.0000000000000001
 11
450.7298977163973
 21
473.4224869868612
 31
0.0000000000000001
  0
LINE
  5
DCF
330
1F
100
AcDbEntity
  8
Hewi
100
AcDbLine
 10
450.7298977163973
 20
393.4224869868613
 30
0.0000000000000001
 11
374.7298977164046
 21
393.4224869868613
 31
0.0000000000000001
  0
LINE
  5
DD0
330
1F
100
AcDbEntity
  8
Hewi
100
AcDbLine
 10
1175.729897716404
 20
473.4224869868612
 30
0.0
 11
1251.729897716397
 21
473.4224869868612
 31
0.0
  0
LINE
  5
DD1
330
1F
100
AcDbEntity
  8
Hewi
100
AcDbLine
 10
1251.729897716397
 20
393.4224869868613
 30
0.0
 11
1175.729897716404
 21
393.4224869868613
 31
0.0
  0
LINE
  5
DD2
330
1F
100
AcDbEntity
  8
Hewi
100
AcDbLine
 10
1262.729897716404
 20
420.9224869868611
 30
0.0000000000000001
 11
366.3291401515544
 21
420.9224869868611
 31
0.0000000000000001
  0
LINE
  5
DD3
330
1F
100
AcDbEntity
  8
Hewi
100
AcDbLine
 10
366.3291401515544
 20
445.9224869869631
 30
0.0000000000000001
 11
1262.729897716405
 21
445.9224869868099
 31
0.0000000000000001
  0
ARC
  5
DD4
330
1F
100
AcDbEntity
  8
Hewi
100
AcDbCircle
 10
-450.7298977163973
 20
471.4224869868612
 30
-0.0000000000000001
 40
2.0
210
0.0
220
0.0
230
-1.0
100
AcDbArc
 50
90.0
 51
180.0
  0
ARC
  5
DD5
330
1F
100
AcDbEntity
  8
Hewi
100
AcDbCircle
 10
-450.7298977163973
 20
395.4224869869631
 30
-0.0000000000000001
 40
2.0
210
0.0
220
0.0
230
-1.0
100
AcDbArc
 50
180.0
 51
270.0
  0
ARC
  5
DD6
330
1F
100
AcDbEntity
  8
Hewi
100
AcDbCircle
 10
-374.7298977164046
 20
471.4224869868612
 30
-0.0000000000000001
 40
2.0
210
0.0
220
0.0
230
-1.0
100
AcDbArc
 50
0.0
 51
90.0
  0
ARC
  5
DD7
330
1F
100
AcDbEntity
  8
Hewi
100
AcDbCircle
 10
-374.7298977164046
 20
395.4224869869631
 30
-0.0000000000000001
 40
2.0
210
0.0
220
0.0
230
-1.0
100
AcDbArc
 50
270.0
 51
0.0
  0
ARC
  5
DD8
330
1F
100
AcDbEntity
  8
Hewi
100
AcDbCircle
 10
-1175.729897716404
 20
471.4224869868612
 30
0.0
 40
2.0
210
0.0
220
0.0
230
-1.0
100
AcDbArc
 50
0.0
 51
90.0
  0
ARC
  5
DD9
330
1F
100
AcDbEntity
  8
Hewi
100
AcDbCircle
 10
-1175.729897716404
 20
395.4224869869631
 30
0.0
 40
2.0
210
0.0
220
0.0
230
-1.0
100
AcDbArc
 50
270.0
 51
0.0
  0
ARC
  5
DDA
330
1F
100
AcDbEntity
  8
Hewi
100
AcDbCircle
 10
-392.7298977164119
 20
433.4224869868612
 30
-0.0000000000000001
 40
29.99999999999999
210
0.0
220
0.0
230
-1.0
100
AcDbArc
 50
336.6372136795912
 51
23.36278632040884
  0
ARC
  5
DDB
330
1F
100
AcDbEntity
  8
Hewi
100
AcDbCircle
 10
-1251.729897716397
 20
471.4224869868612
 30
0.0
 40
2.0
210
0.0
220
0.0
230
-1.0
100
AcDbArc
 50
90.0
 51
180.0
  0
ARC
  5
DDC
330
1F
100
AcDbEntity
  8
Hewi
100
AcDbCircle
 10
-1236.107538692458
 20
433.4224869868612
 30
-0.0000000000000001
 40
29.99999999999999
210
0.0
220
0.0
230
-1.0
100
AcDbArc
 50
156.6372136795909
 51
203.362786320409
  0
ARC
  5
DDD
330
1F
100
AcDbEntity
  8
Hewi
100
AcDbCircle
 10
-1251.729897716397
 20
395.4224869869631
 30
0.0
 40
2.0
210
0.0
220
0.0
230
-1.0
100
AcDbArc
 50
180.0
 51
270.0
  0
SPLINE
  5
DDE
330
1F
100
AcDbEntity
  8
Hewi
100
AcDbSpline
210
0.0
220
0.0
230
1.0
 70
    24
 71
     3
 72
     8
 73
     4
 74
     0
 42
0.0000000001
 43
0.0000000001
 40
0.0
 40
0.0
 40
0.0
 40
0.0
 40
1.0
 40
1.0
 40
1.0
 40
1.0
 10
366.3291401515544
 20
420.9224869868611
 30
0.0000000000000001
 10
366.2528477423202
 20
420.9224869868611
 30
0.0000000000000001
 10
366.1783412997047
 20
420.9224869868611
 30
0.0000000000000001
 10
366.1075386924876
 20
420.9224869868611
 30
0.0000000000000001
  0
SPLINE
  5
DDF
330
1F
100
AcDbEntity
  8
Hewi
100
AcDbSpline
210
0.0
220
0.0
230
1.0
 70
    24
 71
     3
 72
     8
 73
     4
 74
     0
 42
0.0000000001
 43
0.0000000001
 40
0.0
 40
0.0
 40
0.0
 40
0.0
 40
1.0
 40
1.0
 40
1.0
 40
1.0
 10
366.1075386924876
 20
445.9224869869631
 30
0.0000000000000001
 10
366.1783412997047
 20
445.9224869869631
 30
0.0000000000000001
 10
366.2528477423202
 20
445.9224869869631
 30
0.0000000000000001
 10
366.3291401515544
 20
445.9224869869631
 30
0.0000000000000001
  0
SPLINE
  5
DE0
330
1F
100
AcDbEntity
  8
Hewi
100
AcDbSpline
210
0.0
220
0.0
230
1.0
 70
     8
 71
     3
 72
    10
 73
     6
 74
     0
 42
0.0000000001
 43
0.0000000001
 40
0.0
 40
0.0
 40
0.0
 40
0.0
 40
0.5
 40
0.5
 40
1.0
 40
1.0
 40
1.0
 40
1.0
 10
366.1075386924876
 20
420.9224869868611
 30
0.0000000000000001
 10
365.900914546286
 20
420.9224869868611
 30
0.0000000000000001
 10
365.7063598230252
 20
420.9867137073723
 30
0.0000000000000001
 10
365.3892245488551
 20
421.2009324794616
 30
0.0000000000000001
 10
365.2632790107909
 20
421.3551986700603
 30
0.0000000000000001
 10
365.1895263123315
 20
421.5259352627598
 30
0.0000000000000001
  0
SPLINE
  5
DE1
330
1F
100
AcDbEntity
  8
Hewi
100
AcDbSpline
210
0.0
220
0.0
230
1.0
 70
     8
 71
     3
 72
    10
 73
     6
 74
     0
 42
0.0000000001
 43
0.0000000001
 40
0.0
 40
0.0
 40
0.0
 40
0.0
 40
0.5
 40
0.5
 40
1.0
 40
1.0
 40
1.0
 40
1.0
 10
365.1895263123315
 20
445.3190387110644
 30
0.0000000000000001
 10
365.2632790107837
 20
445.4897753037494
 30
0.0000000000000001
 10
365.3892245488551
 20
445.6440414943626
 30
0.0000000000000001
 10
365.7063598230252
 20
445.8582602664663
 30
0.0000000000000001
 10
365.900914546286
 20
445.9224869869631
 30
0.0000000000000001
 10
366.1075386924876
 20
445.9224869869631
 30
0.0000000000000001
  0
SPLINE
  5
DE2
330
1F
100
AcDbEntity
  8
Hewi
100
AcDbSpline
210
0.0
220
0.0
230
1.0
 70
     8
 71
     3
 72
    10
 73
     6
 74
     0
 42
0.0000000001
 43
0.0000000001
 40
0.0
 40
0.0
 40
0.0
 40
0.0
 40
0.5
 40
0.5
 40
1.0
 40
1.0
 40
1.0
 40
1.0
 10
1263.647910096553
 20
445.3190387110644
 30
0.0000000000000001
 10
1263.574157398152
 20
445.4897753037494
 30
0.0000000000000001
 10
1263.448211860008
 20
445.6440414943626
 30
0.0000000000000001
 10
1263.13107658586
 20
445.8582602664663
 30
0.0000000000000001
 10
1262.936521862613
 20
445.9224869868612
 30
0.0000000000000001
 10
1262.729897716404
 20
445.9224869868612
 30
0.0000000000000001
  0
SPLINE
  5
DE3
330
1F
100
AcDbEntity
  8
Hewi
100
AcDbSpline
210
0.0
220
0.0
230
1.0
 70
     8
 71
     3
 72
     8
 73
     4
 74
     0
 42
0.0000000001
 43
0.0000000001
 40
0.0
 40
0.0
 40
0.0
 40
0.0
 40
1.0
 40
1.0
 40
1.0
 40
1.0
 10
1262.729897716404
 20
420.9224869868611
 30
0.0000000000000001
 10
1262.839777147916
 20
420.9224869868611
 30
0.0000000000000001
 10
1262.949683449
 20
420.9402316128525
 30
0.0000000000000001
 10
1263.057934739177
 20
420.9778221194556
 30
0.0000000000000001
  0
SPLINE
  5
DE4
330
1F
100
AcDbEntity
  8
Hewi
100
AcDbSpline
210
0.0
220
0.0
230
1.0
 70
     8
 71
     3
 72
    10
 73
     6
 74
     0
 42
0.0000000001
 43
0.0000000001
 40
0.0
 40
0.0
 40
0.0
 40
0.0
 40
0.5
 40
0.5
 40
1.0
 40
1.0
 40
1.0
 40
1.0
 10
1263.057934739177
 20
420.9778221194556
 30
0.0000000000000001
 10
1263.203713906334
 20
421.0284442667598
 30
0.0000000000000001
 10
1263.323249277333
 20
421.1059823210653
 30
0.0000000000000001
 10
1263.520883394931
 20
421.2955200016713
 30
0.0000000000000001
 10
1263.596065663756
 20
421.4059160364686
 30
0.0000000000000001
 10
1263.647910096553
 20
421.5259352627598
 30
0.0000000000000001
  0
LINE
  5
E36
330
1F
100
AcDbEntity
  8
Hewi
100
AcDbLine
 10
1446.408727104957
 20
442.4224869869631
 30
-0.0000000000000425
 11
1446.608727104954
 21
442.222486986966
 31
-0.0000000000000427
  0
LINE
  5
E37
330
1F
100
AcDbEntity
  8
Hewi
100
AcDbLine
 10
1446.608727104954
 20
424.6224869869601
 30
-0.0000000000000634
 11
1446.408727104957
 21
424.4224869868611
 31
-0.0000000000000636
  0
LINE
  5
E38
330
1F
100
AcDbEntity
  8
Hewi
100
AcDbLine
 10
1446.408727104957
 20
424.4224869868611
 30
-0.0000000000000636
 11
1396.609327104954
 21
424.4224869868611
 31
-0.0000000000000667
  0
LINE
  5
E39
330
1F
100
AcDbEntity
  8
Hewi
100
AcDbLine
 10
1396.609327104954
 20
442.4224869869631
 30
-0.0000000000000456
 11
1446.408727104957
 21
442.4224869869631
 31
-0.0000000000000425
  0
LINE
  5
E3A
330
1F
100
AcDbEntity
  8
Hewi
100
AcDbLine
 10
1396.408727104957
 20
473.4224869868612
 30
-0.0000000000000093
 11
1386.808727104959
 21
473.4224869868612
 31
-0.0000000000000099
  0
LINE
  5
E3B
330
1F
100
AcDbEntity
  8
Hewi
100
AcDbLine
 10
1386.808727104959
 20
393.4224869868613
 30
0.0000000000000101
 11
1396.408727104957
 21
393.4224869868613
 31
0.0000000000000107
  0
LINE
  5
E3C
330
1F
100
AcDbEntity
  8
Hewi
100
AcDbLine
 10
1386.608727104954
 20
393.6224869869602
 30
0.0000000000000103
 11
1386.808727104959
 21
393.4224869868613
 31
0.0000000000000101
  0
LINE
  5
E3D
330
1F
100
AcDbEntity
  8
Hewi
100
AcDbLine
 10
1386.808727104959
 20
473.4224869868612
 30
-0.0000000000000099
 11
1386.608727104954
 21
473.222486986966
 31
-0.0000000000000101
  0
LINE
  5
E3E
330
1F
100
AcDbEntity
  8
Hewi
100
AcDbLine
 10
1386.608727104954
 20
473.222486986966
 30
-0.0000000000000101
 11
1386.608727104954
 21
471.4224869868612
 31
-0.0000000000000122
  0
LINE
  5
E3F
330
1F
100
AcDbEntity
  8
Hewi
100
AcDbLine
 10
1386.608727104954
 20
471.4224869868612
 30
-0.0000000000000122
 11
1386.608727104954
 21
395.4224869869631
 31
0.0000000000000125
  0
LINE
  5
E40
330
1F
100
AcDbEntity
  8
Hewi
100
AcDbLine
 10
1386.608727104954
 20
395.4224869869631
 30
0.0000000000000125
 11
1386.608727104954
 21
393.6224869869602
 31
0.0000000000000103
  0
LINE
  5
E41
330
1F
100
AcDbEntity
  8
Hewi
100
AcDbLine
 10
1447.108727104954
 20
420.9224869868611
 30
-0.0000000000000677
 11
1471.108727104954
 21
420.9224869868611
 31
-0.0000000000000662
  0
LINE
  5
E42
330
1F
100
AcDbEntity
  8
Hewi
100
AcDbLine
 10
1471.066158030946
 20
445.9224869869631
 30
-0.0000000000000369
 11
1447.151296178948
 21
445.9224869869631
 31
-0.0000000000000384
  0
LINE
  5
E43
330
1F
100
AcDbEntity
  8
Hewi
100
AcDbLine
 10
1446.608727104954
 20
445.4224869869631
 30
-0.000000000000039
 11
1446.608727104954
 21
421.4224869868612
 31
-0.0000000000000671
  0
LINE
  5
E44
330
1F
100
AcDbEntity
  8
Hewi
100
AcDbLine
 10
1396.608727104954
 20
395.4224869869631
 30
0.0000000000000131
 11
1396.608727104954
 21
471.4224869868612
 31
-0.0000000000000116
  0
LINE
  5
E45
330
1F
100
AcDbEntity
  8
Hewi
100
AcDbLine
 10
1396.608727104954
 20
473.222486986966
 30
-0.0000000000000095
 11
1396.408727104957
 21
473.4224869868612
 31
-0.0000000000000093
  0
LINE
  5
E46
330
1F
100
AcDbEntity
  8
Hewi
100
AcDbLine
 10
1396.608727104954
 20
471.4224869868612
 30
-0.0000000000000116
 11
1396.608727104954
 21
473.222486986966
 31
-0.0000000000000095
  0
LINE
  5
E47
330
1F
100
AcDbEntity
  8
Hewi
100
AcDbLine
 10
1471.608727104954
 20
421.4224869868612
 30
-0.0000000000000656
 11
1471.608727104954
 21
445.4224869869631
 31
-0.0000000000000375
  0
LINE
  5
E48
330
1F
100
AcDbEntity
  8
Hewi
100
AcDbLine
 10
1396.608727104954
 20
393.6224869869602
 30
0.000000000000011
 11
1396.608727104954
 21
395.4224869869631
 31
0.0000000000000131
  0
LINE
  5
E49
330
1F
100
AcDbEntity
  8
Hewi
100
AcDbLine
 10
1396.408727104957
 20
393.4224869868613
 30
0.0000000000000107
 11
1396.608727104954
 21
393.6224869869602
 31
0.000000000000011
  0
ARC
  5
E4A
330
1F
100
AcDbEntity
  8
Hewi
100
AcDbCircle
 10
-1447.108727104954
 20
445.4224869869631
 30
0.000000000000039
 40
0.5
210
0.0
220
0.0
230
-1.0
100
AcDbArc
 50
0.0
 51
90.0
  0
ARC
  5
E4B
330
1F
100
AcDbEntity
  8
Hewi
100
AcDbCircle
 10
-1471.108727104954
 20
445.4224869869631
 30
0.0000000000000375
 40
0.5
210
0.0
220
0.0
230
-1.0
100
AcDbArc
 50
90.0
 51
180.0
  0
ELLIPSE
  5
E4C
330
1F
100
AcDbEntity
  8
Hewi
100
AcDbEllipse
 10
1447.151296178948
 20
445.4224869869631
 30
-0.000000000000039
 11
0.0000000000000001
 21
-0.5
 31
0.0
210
0.0
220
0.0
230
-1.0
 40
0.9277209384775176
 41
1.737488151529503
 42
3.141592653589792
  0
ELLIPSE
  5
E4D
330
1F
100
AcDbEntity
  8
Hewi
100
AcDbEllipse
 10
1471.066158030946
 20
445.4224869869631
 30
-0.0000000000000375
 11
0.0000000000000001
 21
-0.5
 31
0.0
210
0.0
220
0.0
230
-1.0
 40
0.9277209384775172
 41
3.141592653589792
 42
4.545697155650078
  0
SPLINE
  5
E4E
330
1F
100
AcDbEntity
  8
Hewi
100
AcDbSpline
210
-0.0000000000000064
220
0.0000000000000079
230
-1.0
 70
     8
 71
     3
 72
     8
 73
     4
 74
     0
 42
0.0000000001
 43
0.0000000001
 40
0.0
 40
0.0
 40
0.0
 40
0.0
 40
1.0
 40
1.0
 40
1.0
 40
1.0
 10
1446.608727104954
 20
445.4224869869631
 30
-0.000000000000039
 10
1446.608727104954
 20
445.4513792519556
 30
-0.000000000000039
 10
1446.637244416815
 20
445.4792699382651
 30
-0.0000000000000389
 10
1446.693865252957
 20
445.5054474579791
 30
-0.0000000000000389
  0
SPLINE
  5
E4F
330
1F
100
AcDbEntity
  8
Hewi
100
AcDbSpline
210
-0.0000000000000057
220
-0.0000000000000043
230
1.0
 70
     8
 71
     3
 72
     8
 73
     4
 74
     0
 42
0.0000000001
 43
0.0000000001
 40
0.0
 40
0.0
 40
0.0
 40
0.0
 40
1.0
 40
1.0
 40
1.0
 40
1.0
 10
1446.608727104954
 20
421.4224869868612
 30
-0.0000000000000671
 10
1446.608727104954
 20
421.2493841735541
 30
-0.0000000000000673
 10
1446.702596506853
 20
421.0690858989672
 30
-0.0000000000000675
 10
1446.880093870932
 20
420.9778221195573
 30
-0.0000000000000676
  0
SPLINE
  5
E50
330
1F
100
AcDbEntity
  8
Hewi
100
AcDbSpline
210
0.0
220
0.0
230
1.0
 70
    24
 71
     3
 72
     8
 73
     4
 74
     0
 42
0.0000000001
 43
0.0000000001
 40
0.0
 40
0.0
 40
0.0
 40
0.0
 40
1.0
 40
1.0
 40
1.0
 40
1.0
 10
1447.151296178948
 20
445.9224869869631
 30
-0.0000000000000384
 10
1447.122808292682
 20
445.9224869869631
 30
-0.0000000000000384
 10
1447.10861709396
 20
445.9224869869631
 30
-0.0000000000000384
 10
1447.108774609703
 20
445.9224869869631
 30
-0.0000000000000384
  0
SPLINE
  5
E51
330
1F
100
AcDbEntity
  8
Hewi
100
AcDbSpline
210
-0.0000000000000023
220
-0.0000000000000097
230
1.0
 70
     8
 71
     3
 72
     8
 73
     4
 74
     0
 42
0.0000000001
 43
0.0000000001
 40
0.0
 40
0.0
 40
0.0
 40
0.0
 40
1.0
 40
1.0
 40
1.0
 40
1.0
 10
1446.880093870932
 20
420.9778221195573
 30
-0.0000000000000676
 10
1446.953203004457
 20
420.940231612969
 30
-0.0000000000000676
 10
1447.031030872807
 20
420.9224869868611
 30
-0.0000000000000677
 10
1447.108727104954
 20
420.9224869868611
 30
-0.0000000000000677
  0
SPLINE
  5
E52
330
1F
100
AcDbEntity
  8
Hewi
100
AcDbSpline
210
0.0000000000000049
220
0.000000000000006
230
-1.0
 70
     8
 71
     3
 72
     8
 73
     4
 74
     0
 42
0.0000000001
 43
0.0000000001
 40
0.0
 40
0.0
 40
0.0
 40
0.0
 40
1.0
 40
1.0
 40
1.0
 40
1.0
 10
1471.608727104954
 20
445.4224869869631
 30
-0.0000000000000375
 10
1471.608727104954
 20
445.4513792519556
 30
-0.0000000000000374
 10
1471.580209793108
 20
445.4792699382651
 30
-0.0000000000000374
 10
1471.523588956959
 20
445.5054474579791
 30
-0.0000000000000374
  0
SPLINE
  5
E53
330
1F
100
AcDbEntity
  8
Hewi
100
AcDbSpline
210
0.0
220
0.0
230
1.0
 70
    24
 71
     3
 72
     8
 73
     4
 74
     0
 42
0.0000000001
 43
0.0000000001
 40
0.0
 40
0.0
 40
0.0
 40
0.0
 40
1.0
 40
1.0
 40
1.0
 40
1.0
 10
1471.108777109956
 20
445.9224869869631
 30
-0.0000000000000369
 10
1471.108677099953
 20
445.9224869869631
 30
-0.0000000000000369
 10
1471.094645917219
 20
445.9224869869631
 30
-0.0000000000000369
 10
1471.066158030946
 20
445.9224869869631
 30
-0.0000000000000369
  0
SPLINE
  5
E54
330
1F
100
AcDbEntity
  8
Hewi
100
AcDbSpline
210
-0.0000000000000024
220
0.0000000000000099
230
-1.0
 70
     8
 71
     3
 72
     8
 73
     4
 74
     0
 42
0.0000000001
 43
0.0000000001
 40
0.0
 40
0.0
 40
0.0
 40
0.0
 40
1.0
 40
1.0
 40
1.0
 40
1.0
 10
1471.108727104954
 20
420.9224869868611
 30
-0.0000000000000662
 10
1471.186423337094
 20
420.9224869868611
 30
-0.0000000000000662
 10
1471.264251205466
 20
420.940231612969
 30
-0.0000000000000662
 10
1471.33736033897
 20
420.9778221195573
 30
-0.0000000000000661
  0
SPLINE
  5
E55
330
1F
100
AcDbEntity
  8
Hewi
100
AcDbSpline
210
-0.0000000000000057
220
0.0000000000000043
230
-1.0
 70
     8
 71
     3
 72
     8
 73
     4
 74
     0
 42
0.0000000001
 43
0.0000000001
 40
0.0
 40
0.0
 40
0.0
 40
0.0
 40
1.0
 40
1.0
 40
1.0
 40
1.0
 10
1471.33736033897
 20
420.9778221195573
 30
-0.0000000000000661
 10
1471.514857703063
 20
421.0690858989672
 30
-0.000000000000066
 10
1471.608727104954
 20
421.2493841735541
 30
-0.0000000000000658
 10
1471.608727104954
 20
421.4224869868612
 30
-0.0000000000000656
  0
ENDSEC
  0
SECTION
  2
OBJECTS
  0
DICTIONARY
  5
C
330
0
100
AcDbDictionary
281
     1
  3
ACAD_COLOR
350
6B
  3
ACAD_GROUP
350
D
  3
ACAD_LAYOUT
350
1A
  3
ACAD_MATERIAL
350
6A
  3
ACAD_MLINESTYLE
350
17
  3
ACAD_PLOTSETTINGS
350
19
  3
ACAD_PLOTSTYLENAME
350
E
  3
ACAD_TABLESTYLE
350
7E
  3
ACAD_VISUALSTYLE
350
EF
  3
AcDbVariableDictionary
350
5E
  3
DWGPROPS
350
E91
  0
DICTIONARY
  5
141
330
2
100
AcDbDictionary
280
     1
281
     1
  3
ACAD_LAYERSTATES
360
142
  0
DICTIONARY
  5
116
330
1F
100
AcDbDictionary
280
     1
281
     1
  3
ACAD_SORTENTS
360
117
  0
DICTIONARY
  5
6B
102
{ACAD_REACTORS
330
C
102
}
330
C
100
AcDbDictionary
281
     1
  0
DICTIONARY
  5
D
102
{ACAD_REACTORS
330
C
102
}
330
C
100
AcDbDictionary
281
     1
  0
DICTIONARY
  5
1A
102
{ACAD_REACTORS
330
C
102
}
330
C
100
AcDbDictionary
281
     1
  3
Layout1
350
D3
  3
Layout2
350
D7
  3
Model
350
22
  0
DICTIONARY
  5
6A
102
{ACAD_REACTORS
330
C
102
}
330
C
100
AcDbDictionary
281
     1
  3
ByBlock
350
ED
  3
ByLayer
350
EC
  3
Global
350
EE
  0
DICTIONARY
  5
17
102
{ACAD_REACTORS
330
C
102
}
330
C
100
AcDbDictionary
281
     1
  3
Standard
350
18
  0
DICTIONARY
  5
19
102
{ACAD_REACTORS
330
C
102
}
330
C
100
AcDbDictionary
281
     1
  0
ACDBDICTIONARYWDFLT
  5
E
102
{ACAD_REACTORS
330
C
102
}
330
C
100
AcDbDictionary
281
     1
  3
Normal
350
F
100
AcDbDictionaryWithDefault
340
F
  0
DICTIONARY
  5
7E
102
{ACAD_REACTORS
330
C
102
}
330
C
100
AcDbDictionary
281
     1
  3
Standard
350
7F
  0
DICTIONARY
  5
EF
102
{ACAD_REACTORS
330
C
102
}
330
C
100
AcDbDictionary
281
     1
  3
2dWireframe
350
F5
  3
3D Hidden
350
F7
  3
3dWireframe
350
F6
  3
Basic
350
F4
  3
Brighten
350
FB
  3
ColorChange
350
FF
  3
Conceptual
350
F8
  3
Dim
350
FA
  3
Facepattern
350
FE
  3
Flat
350
F0
  3
FlatWithEdges
350
F1
  3
Gouraud
350
F2
  3
GouraudWithEdges
350
F3
  3
Linepattern
350
FD
  3
Realistic
350
F9
  3
Thicken
350
FC
  0
DICTIONARY
  5
5E
102
{ACAD_REACTORS
330
C
102
}
330
C
100
AcDbDictionary
281
     1
  3
CTABLESTYLE
350
84
  3
DIMASSOC
350
5F
  3
HIDETEXT
350
63
  3
INDEXCTL
350
327
  3
PSOLHEIGHT
350
E86
  3
PSOLWIDTH
350
E85
  3
SORTENTS
350
326
  0
XRECORD
  5
E91
102
{ACAD_REACTORS
330
C
102
}
330
C
100
AcDbXrecord
280
     1
  1
DWGPROPS COOKIE
  2

  3

  4

  6

  7

  8
kaschu
  9

300
=
301
=
302
=
303
=
304
=
305
=
306
=
307
=
308
=
309
=
 40
0.0714595949074074
 41
2454768.510881991
 42
2455601.362199016
  1

 90
        0
  0
DICTIONARY
  5
142
102
{ACAD_REACTORS
330
141
102
}
330
141
100
AcDbDictionary
281
     1
  0
SORTENTSTABLE
  5
117
102
{ACAD_REACTORS
330
116
102
}
330
116
100
AcDbSortentsTable
330
1F
  0
LAYOUT
  5
D3
102
{ACAD_XDICTIONARY
360
E96
102
}
102
{ACAD_REACTORS
330
1A
102
}
330
1A
100
AcDbPlotSettings
  1

  2
C:\Documents and Settings\basas\Application Data\Autodesk\AutoCAD 2005\R16.1\enu\plotters\Default Windows System Printer.pc3
  4

  6

 40
0.0
 41
0.0
 42
0.0
 43
0.0
 44
0.0
 45
0.0
 46
0.0
 47
0.0
 48
0.0
 49
0.0
140
0.0
141
0.0
142
1.0
143
1.0
 70
   688
 72
     0
 73
     0
 74
     5
  7

 75
    16
147
1.0
148
0.0
149
0.0
100
AcDbLayout
  1
Layout1
 70
     1
 71
     1
 10
0.0
 20
0.0
 11
12.0
 21
9.0
 12
0.0
 22
0.0
 32
0.0
 14
0.0
 24
0.0
 34
0.0
 15
0.0
 25
0.0
 35
0.0
146
0.0
 13
0.0
 23
0.0
 33
0.0
 16
1.0
 26
0.0
 36
0.0
 17
0.0
 27
1.0
 37
0.0
 76
     0
330
D2
  0
LAYOUT
  5
D7
102
{ACAD_XDICTIONARY
360
E98
102
}
102
{ACAD_REACTORS
330
1A
102
}
330
1A
100
AcDbPlotSettings
  1

  2
C:\Documents and Settings\basas\Application Data\Autodesk\AutoCAD 2005\R16.1\enu\plotters\Default Windows System Printer.pc3
  4

  6

 40
0.0
 41
0.0
 42
0.0
 43
0.0
 44
0.0
 45
0.0
 46
0.0
 47
0.0
 48
0.0
 49
0.0
140
0.0
141
0.0
142
1.0
143
1.0
 70
   688
 72
     0
 73
     0
 74
     5
  7

 75
    16
147
1.0
148
0.0
149
0.0
100
AcDbLayout
  1
Layout2
 70
     1
 71
     2
 10
0.0
 20
0.0
 11
12.0
 21
9.0
 12
0.0
 22
0.0
 32
0.0
 14
0.0
 24
0.0
 34
0.0
 15
0.0
 25
0.0
 35
0.0
146
0.0
 13
0.0
 23
0.0
 33
0.0
 16
1.0
 26
0.0
 36
0.0
 17
0.0
 27
1.0
 37
0.0
 76
     0
330
D6
  0
LAYOUT
  5
22
102
{ACAD_XDICTIONARY
360
E92
102
}
102
{ACAD_REACTORS
330
1A
102
}
330
1A
100
AcDbPlotSettings
  1

  2
none_device
  4
ISO_A4_(210.00_x_297.00_MM)
  6

 40
7.5
 41
20.0
 42
7.5
 43
20.0
 44
210.0
 45
297.0
 46
11.54999923706054
 47
-13.65000009536743
 48
0.0
 49
0.0
140
0.0
141
0.0
142
1.0
143
8.704084754739808
 70
 11952
 72
     1
 73
     0
 74
     0
  7

 75
     0
147
0.1148885871608098
148
0.0
149
0.0
100
AcDbLayout
  1
Model
 70
     1
 71
     0
 10
0.0
 20
0.0
 11
12.0
 21
9.0
 12
0.0
 22
0.0
 32
0.0
 14
0.0
 24
0.0
 34
0.0
 15
0.0
 25
0.0
 35
0.0
146
0.0
 13
0.0
 23
0.0
 33
0.0
 16
1.0
 26
0.0
 36
0.0
 17
0.0
 27
1.0
 37
0.0
 76
     0
330
1F
331
EA
1001
ACAD_PSEXT
1000
None
1000
None
1000
Not applicable
1000
The layout will not be plotted unless a new plotter configuration name is selected.
1070
     0
  0
MATERIAL
  5
ED
102
{ACAD_XDICTIONARY
360
335
102
}
102
{ACAD_REACTORS
330
6A
102
}
330
6A
100
AcDbMaterial
  1
ByBlock
  0
MATERIAL
  5
EC
102
{ACAD_XDICTIONARY
360
333
102
}
102
{ACAD_REACTORS
330
6A
102
}
330
6A
100
AcDbMaterial
  1
ByLayer
  0
MATERIAL
  5
EE
102
{ACAD_XDICTIONARY
360
337
102
}
102
{ACAD_REACTORS
330
6A
102
}
330
6A
100
AcDbMaterial
  1
Global
  0
MLINESTYLE
  5
18
102
{ACAD_REACTORS
330
17
102
}
330
17
100
AcDbMlineStyle
  2
STANDARD
 70
     0
  3

 62
   256
 51
90.0
 52
90.0
 71
     2
 49
0.5
 62
   256
  6
BYLAYER
 49
-0.5
 62
   256
  6
BYLAYER
  0
ACDBPLACEHOLDER
  5
F
102
{ACAD_REACTORS
330
E
102
}
330
E
  0
TABLESTYLE
  5
7F
102
{ACAD_XDICTIONARY
360
E94
102
}
102
{ACAD_REACTORS
330
7E
102
}
330
7E
100
AcDbTableStyle
  3
Standard
 70
     0
 71
     0
 40
1.5
 41
1.5
280
     0
281
     0
  7
Standard
140
4.5
170
     2
 62
     0
 63
     7
283
     0
274
    -2
284
     1
 64
     0
275
    -2
285
     1
 65
     0
276
    -2
286
     1
 66
     0
277
    -2
287
     1
 67
     0
278
    -2
288
     1
 68
     0
279
    -2
289
     1
 69
     0
  7
Standard
140
6.0
170
     5
 62
     0
 63
     7
283
     0
274
    -2
284
     1
 64
     0
275
    -2
285
     1
 65
     0
276
    -2
286
     1
 66
     0
277
    -2
287
     1
 67
     0
278
    -2
288
     1
 68
     0
279
    -2
289
     1
 69
     0
  7
Standard
140
4.5
170
     5
 62
     0
 63
     7
283
     0
274
    -2
284
     1
 64
     0
275
    -2
285
     1
 65
     0
276
    -2
286
     1
 66
     0
277
    -2
287
     1
 67
     0
278
    -2
288
     1
 68
     0
279
    -2
289
     1
 69
     0
  0
VISUALSTYLE
  5
F5
102
{ACAD_REACTORS
330
EF
102
}
330
EF
100
AcDbVisualStyle
  2
2dWireframe
 70
     4
 71
     0
 72
     2
 73
     1
 90
        0
 40
-0.6
 41
-30.0
 62
     5
 63
     7
 74
     1
 91
        4
 64
     7
 65
   257
 75
     1
175
     1
 42
1.0
 92
        0
 66
   257
 43
1.0
 76
     1
 77
     6
 78
     2
 67
     7
 79
     5
170
     0
171
     0
290
     0
174
     0
 93
        1
 44
0.0
173
     0
291
     0
 45
0.0
1001
ACAD
1000
AcDbSavedByObjectVersion
1070
     0
1000
AcDbSavedByObjectVersion
1070
     0
1000
AcDbSavedByObjectVersion
1070
     0
1000
AcDbSavedByObjectVersion
1070
     0
1000
AcDbSavedByObjectVersion
1070
     0
  0
VISUALSTYLE
  5
F7
102
{ACAD_REACTORS
330
EF
102
}
330
EF
100
AcDbVisualStyle
  2
3D Hidden
 70
     6
 71
     1
 72
     2
 73
     2
 90
        0
 40
-0.6
 41
-30.0
 62
     5
 63
     7
 74
     2
 91
        2
 64
     7
 65
   257
 75
     2
175
     1
 42
40.0
 92
        0
 66
   257
 43
1.0
 76
     1
 77
     6
 78
     2
 67
     7
 79
     3
170
     0
171
     0
290
     0
174
     0
 93
        1
 44
0.0
173
     0
291
     0
 45
0.0
1001
ACAD
1000
AcDbSavedByObjectVersion
1070
     0
1000
AcDbSavedByObjectVersion
1070
     0
1000
AcDbSavedByObjectVersion
1070
     0
1000
AcDbSavedByObjectVersion
1070
     0
1000
AcDbSavedByObjectVersion
1070
     0
  0
VISUALSTYLE
  5
F6
102
{ACAD_REACTORS
330
EF
102
}
330
EF
100
AcDbVisualStyle
  2
3dWireframe
 70
     5
 71
     0
 72
     2
 73
     1
 90
        0
 40
-0.6
 41
-30.0
 62
     5
 63
     7
 74
     1
 91
        4
 64
     7
 65
   257
 75
     1
175
     1
 42
1.0
 92
        0
 66
   257
 43
1.0
 76
     1
 77
     6
 78
     2
 67
     7
 79
     5
170
     0
171
     0
290
     0
174
     0
 93
        1
 44
0.0
173
     0
291
     0
 45
0.0
1001
ACAD
1000
AcDbSavedByObjectVersion
1070
     0
1000
AcDbSavedByObjectVersion
1070
     0
1000
AcDbSavedByObjectVersion
1070
     0
1000
AcDbSavedByObjectVersion
1070
     0
1000
AcDbSavedByObjectVersion
1070
     0
  0
VISUALSTYLE
  5
F4
102
{ACAD_REACTORS
330
EF
102
}
330
EF
100
AcDbVisualStyle
  2
Basic
 70
     7
 71
     1
 72
     0
 73
     1
 90
        0
 40
-0.6
 41
-30.0
 62
     5
 63
     7
 74
     0
 91
        4
 64
     7
 65
   257
 75
     1
175
     1
 42
1.0
 92
        8
 66
     7
 43
1.0
 76
     1
 77
     6
 78
     2
 67
     7
 79
     5
170
     0
171
     0
290
     0
174
     0
 93
        1
 44
0.0
173
     0
291
     1
 45
0.0
1001
ACAD
1000
AcDbSavedByObjectVersion
1070
     0
1000
AcDbSavedByObjectVersion
1070
     0
1000
AcDbSavedByObjectVersion
1070
     0
1000
AcDbSavedByObjectVersion
1070
     0
1000
AcDbSavedByObjectVersion
1070
     0
  0
VISUALSTYLE
  5
FB
102
{ACAD_REACTORS
330
EF
102
}
330
EF
100
AcDbVisualStyle
  2
Brighten
 70
    12
 71
     2
 72
     2
 73
     1
 90
        0
 40
-0.6
 41
-30.0
 62
     5
 63
     7
 74
     1
 91
        4
 64
     7
 65
   257
 75
     1
175
     1
 42
1.0
 92
        8
 66
     7
 43
1.0
 76
     1
 77
     6
 78
     2
 67
     7
 79
     5
170
     0
171
     0
290
     0
174
     0
 93
        1
 44
50.0
173
     0
291
     1
 45
0.0
1001
ACAD
1000
AcDbSavedByObjectVersion
1070
     0
1000
AcDbSavedByObjectVersion
1070
     0
1000
AcDbSavedByObjectVersion
1070
     0
1000
AcDbSavedByObjectVersion
1070
     0
1000
AcDbSavedByObjectVersion
1070
     0
  0
VISUALSTYLE
  5
FF
102
{ACAD_REACTORS
330
EF
102
}
330
EF
100
AcDbVisualStyle
  2
ColorChange
 70
    16
 71
     2
 72
     2
 73
     3
 90
        0
 40
-0.6
 41
-30.0
 62
     5
 63
     8
 74
     1
 91
        4
 64
     7
 65
   257
 75
     1
175
     1
 42
1.0
 92
        8
 66
     8
 43
1.0
 76
     1
 77
     6
 78
     2
 67
     7
 79
     5
170
     0
171
     0
290
     0
174
     0
 93
        1
 44
0.0
173
     0
291
     1
 45
0.0
1001
ACAD
1000
AcDbSavedByObjectVersion
1070
     0
1000
AcDbSavedByObjectVersion
1070
     0
1000
AcDbSavedByObjectVersion
1070
     0
1000
AcDbSavedByObjectVersion
1070
     0
1000
AcDbSavedByObjectVersion
1070
     0
  0
VISUALSTYLE
  5
F8
102
{ACAD_REACTORS
330
EF
102
}
330
EF
100
AcDbVisualStyle
  2
Conceptual
 70
     9
 71
     3
 72
     2
 73
     1
 90
        0
 40
-0.6
 41
-30.0
 62
     5
 63
     7
 74
     2
 91
        2
 64
     7
 65
   257
 75
     1
175
     1
 42
40.0
 92
        8
 66
     7
 43
1.0
 76
     1
 77
     6
 78
     2
 67
     7
 79
     3
170
     0
171
     0
290
     0
174
     0
 93
        1
 44
0.0
173
     0
291
     0
 45
0.0
1001
ACAD
1000
AcDbSavedByObjectVersion
1070
     0
1000
AcDbSavedByObjectVersion
1070
     0
1000
AcDbSavedByObjectVersion
1070
     0
1000
AcDbSavedByObjectVersion
1070
     0
1000
AcDbSavedByObjectVersion
1070
     0
  0
VISUALSTYLE
  5
FA
102
{ACAD_REACTORS
330
EF
102
}
330
EF
100
AcDbVisualStyle
  2
Dim
 70
    11
 71
     2
 72
     2
 73
     1
 90
        0
 40
-0.6
 41
-30.0
 62
     5
 63
     7
 74
     1
 91
        4
 64
     7
 65
   257
 75
     1
175
     1
 42
1.0
 92
        8
 66
     7
 43
1.0
 76
     1
 77
     6
 78
     2
 67
     7
 79
     5
170
     0
171
     0
290
     0
174
     0
 93
        1
 44
-50.0
173
     0
291
     1
 45
0.0
1001
ACAD
1000
AcDbSavedByObjectVersion
1070
     0
1000
AcDbSavedByObjectVersion
1070
     0
1000
AcDbSavedByObjectVersion
1070
     0
1000
AcDbSavedByObjectVersion
1070
     0
1000
AcDbSavedByObjectVersion
1070
     0
  0
VISUALSTYLE
  5
FE
102
{ACAD_REACTORS
330
EF
102
}
330
EF
100
AcDbVisualStyle
  2
Facepattern
 70
    15
 71
     2
 72
     2
 73
     1
 90
        0
 40
-0.6
 41
-30.0
 62
     5
 63
     7
 74
     1
 91
        4
 64
     7
 65
   257
 75
     1
175
     1
 42
1.0
 92
        8
 66
     7
 43
1.0
 76
     1
 77
     6
 78
     2
 67
     7
 79
     5
170
     0
171
     0
290
     0
174
     0
 93
        1
 44
0.0
173
     0
291
     1
 45
0.0
1001
ACAD
1000
AcDbSavedByObjectVersion
1070
     0
1000
AcDbSavedByObjectVersion
1070
     0
1000
AcDbSavedByObjectVersion
1070
     0
1000
AcDbSavedByObjectVersion
1070
     0
1000
AcDbSavedByObjectVersion
1070
     0
  0
VISUALSTYLE
  5
F0
102
{ACAD_REACTORS
330
EF
102
}
330
EF
100
AcDbVisualStyle
  2
Flat
 70
     0
 71
     2
 72
     1
 73
     1
 90
        2
 40
-0.6
 41
30.0
 62
     5
 63
     7
 74
     0
 91
        4
 64
     7
 65
   257
 75
     1
175
     1
 42
1.0
 92
        8
 66
     7
 43
1.0
 76
     1
 77
     6
 78
     2
 67
     7
 79
     5
170
     0
171
     0
290
     0
174
     0
 93
       13
 44
0.0
173
     0
291
     1
 45
0.0
1001
ACAD
1000
AcDbSavedByObjectVersion
1070
     0
1000
AcDbSavedByObjectVersion
1070
     0
1000
AcDbSavedByObjectVersion
1070
     0
1000
AcDbSavedByObjectVersion
1070
     0
1000
AcDbSavedByObjectVersion
1070
     0
  0
VISUALSTYLE
  5
F1
102
{ACAD_REACTORS
330
EF
102
}
330
EF
100
AcDbVisualStyle
  2
FlatWithEdges
 70
     1
 71
     2
 72
     1
 73
     1
 90
        2
 40
-0.6
 41
30.0
 62
     5
 63
     7
 74
     1
 91
        4
 64
     7
 65
   257
 75
     1
175
     1
 42
1.0
 92
        0
 66
   257
 43
1.0
 76
     1
 77
     6
 78
     2
 67
     7
 79
     5
170
     0
171
     0
290
     0
174
     0
 93
       13
 44
0.0
173
     0
291
     1
 45
0.0
1001
ACAD
1000
AcDbSavedByObjectVersion
1070
     0
1000
AcDbSavedByObjectVersion
1070
     0
1000
AcDbSavedByObjectVersion
1070
     0
1000
AcDbSavedByObjectVersion
1070
     0
1000
AcDbSavedByObjectVersion
1070
     0
  0
VISUALSTYLE
  5
F2
102
{ACAD_REACTORS
330
EF
102
}
330
EF
100
AcDbVisualStyle
  2
Gouraud
 70
     2
 71
     2
 72
     2
 73
     1
 90
        2
 40
-0.6
 41
30.0
 62
     5
 63
     7
 74
     0
 91
        4
 64
     7
 65
   257
 75
     1
175
     1
 42
1.0
 92
        0
 66
     7
 43
1.0
 76
     1
 77
     6
 78
     2
 67
     7
 79
     5
170
     0
171
     0
290
     0
174
     0
 93
       13
 44
0.0
173
     0
291
     1
 45
0.0
1001
ACAD
1000
AcDbSavedByObjectVersion
1070
     0
1000
AcDbSavedByObjectVersion
1070
     0
1000
AcDbSavedByObjectVersion
1070
     0
1000
AcDbSavedByObjectVersion
1070
     0
1000
AcDbSavedByObjectVersion
1070
     0
  0
VISUALSTYLE
  5
F3
102
{ACAD_REACTORS
330
EF
102
}
330
EF
100
AcDbVisualStyle
  2
GouraudWithEdges
 70
     3
 71
     2
 72
     2
 73
     1
 90
        2
 40
-0.6
 41
30.0
 62
     5
 63
     7
 74
     1
 91
        4
 64
     7
 65
   257
 75
     1
175
     1
 42
1.0
 92
        0
 66
   257
 43
1.0
 76
     1
 77
     6
 78
     2
 67
     7
 79
     5
170
     0
171
     0
290
     0
174
     0
 93
       13
 44
0.0
173
     0
291
     1
 45
0.0
1001
ACAD
1000
AcDbSavedByObjectVersion
1070
     0
1000
AcDbSavedByObjectVersion
1070
     0
1000
AcDbSavedByObjectVersion
1070
     0
1000
AcDbSavedByObjectVersion
1070
     0
1000
AcDbSavedByObjectVersion
1070
     0
  0
VISUALSTYLE
  5
FD
102
{ACAD_REACTORS
330
EF
102
}
330
EF
100
AcDbVisualStyle
  2
Linepattern
 70
    14
 71
     2
 72
     2
 73
     1
 90
        0
 40
-0.6
 41
-30.0
 62
     5
 63
     7
 74
     1
 91
        4
 64
     7
 65
   257
 75
     7
175
     7
 42
1.0
 92
        8
 66
     7
 43
1.0
 76
     1
 77
     6
 78
     2
 67
     7
 79
     5
170
     0
171
     0
290
     0
174
     0
 93
        1
 44
0.0
173
     0
291
     1
 45
0.0
1001
ACAD
1000
AcDbSavedByObjectVersion
1070
     0
1000
AcDbSavedByObjectVersion
1070
     0
1000
AcDbSavedByObjectVersion
1070
     0
1000
AcDbSavedByObjectVersion
1070
     0
1000
AcDbSavedByObjectVersion
1070
     0
  0
VISUALSTYLE
  5
F9
102
{ACAD_REACTORS
330
EF
102
}
330
EF
100
AcDbVisualStyle
  2
Realistic
 70
     8
 71
     2
 72
     2
 73
     1
 90
        0
 40
-0.6
 41
-30.0
 62
     5
 63
     7
 74
     1
 91
        0
 64
     7
 65
   257
 75
     1
175
     1
 42
1.0
 92
        8
 66
     8
 43
1.0
 76
     1
 77
     6
 78
     2
 67
     7
 79
     5
170
     0
171
     0
290
     0
174
     0
 93
       13
 44
0.0
173
     0
291
     0
 45
0.0
1001
ACAD
1000
AcDbSavedByObjectVersion
1070
     0
1000
AcDbSavedByObjectVersion
1070
     0
1000
AcDbSavedByObjectVersion
1070
     0
1000
AcDbSavedByObjectVersion
1070
     0
1000
AcDbSavedByObjectVersion
1070
     0
  0
VISUALSTYLE
  5
FC
102
{ACAD_REACTORS
330
EF
102
}
330
EF
100
AcDbVisualStyle
  2
Thicken
 70
    13
 71
     2
 72
     2
 73
     1
 90
        0
 40
-0.6
 41
-30.0
 62
     5
 63
     7
 74
     1
 91
        4
 64
     7
 65
   257
 75
     1
175
     1
 42
1.0
 92
       12
 66
     7
 43
1.0
 76
     1
 77
     6
 78
     2
 67
     7
 79
     5
170
     0
171
     0
290
     0
174
     0
 93
        1
 44
0.0
173
     0
291
     1
 45
0.0
1001
ACAD
1000
AcDbSavedByObjectVersion
1070
     0
1000
AcDbSavedByObjectVersion
1070
     0
1000
AcDbSavedByObjectVersion
1070
     0
1000
AcDbSavedByObjectVersion
1070
     0
1000
AcDbSavedByObjectVersion
1070
     0
  0
DICTIONARYVAR
  5
84
102
{ACAD_REACTORS
330
5E
102
}
330
5E
100
DictionaryVariables
280
     0
  1
STANDARD
  0
DICTIONARYVAR
  5
5F
102
{ACAD_REACTORS
330
5E
102
}
330
5E
100
DictionaryVariables
280
     0
  1
2
  0
DICTIONARYVAR
  5
63
102
{ACAD_REACTORS
330
5E
102
}
330
5E
100
DictionaryVariables
280
     0
  1
1
  0
DICTIONARYVAR
  5
327
102
{ACAD_REACTORS
330
5E
102
}
330
5E
100
DictionaryVariables
280
     0
  1
0
  0
DICTIONARYVAR
  5
E86
102
{ACAD_REACTORS
330
5E
102
}
330
5E
100
DictionaryVariables
280
     0
  1
80.000000
  0
DICTIONARYVAR
  5
E85
102
{ACAD_REACTORS
330
5E
102
}
330
5E
100
DictionaryVariables
280
     0
  1
5.000000
  0
DICTIONARYVAR
  5
326
102
{ACAD_REACTORS
330
5E
102
}
330
5E
100
DictionaryVariables
280
     0
  1
127
  0
DICTIONARY
  5
E96
330
D3
100
AcDbDictionary
280
     1
281
     1
  3
ACAD_XREC_ROUNDTRIP
360
E97
  0
DICTIONARY
  5
E98
330
D7
100
AcDbDictionary
280
     1
281
     1
  3
ACAD_XREC_ROUNDTRIP
360
E99
  0
DICTIONARY
  5
E92
330
22
100
AcDbDictionary
280
     1
281
     1
  3
ACAD_XREC_ROUNDTRIP
360
E93
  0
DICTIONARY
  5
335
330
ED
100
AcDbDictionary
280
     1
281
     1
  3
ACAD_XREC_ROUNDTRIP
360
336
  0
DICTIONARY
  5
333
330
EC
100
AcDbDictionary
280
     1
281
     1
  3
ACAD_XREC_ROUNDTRIP
360
334
  0
DICTIONARY
  5
337
330
EE
100
AcDbDictionary
280
     1
281
     1
  3
ACAD_XREC_ROUNDTRIP
360
338
  0
DICTIONARY
  5
E94
330
7F
100
AcDbDictionary
280
     1
281
     1
  3
ACAD_XREC_ROUNDTRIP
360
E95
  0
XRECORD
  5
E97
102
{ACAD_REACTORS
330
E96
102
}
330
E96
100
AcDbXrecord
280
     1
102
SHADEPLOT
 70
     0
102
SHADEPLOTRESLEVEL
 70
     2
102
SHADEPLOTCUSTOMDPI
 70
   300
  0
XRECORD
  5
E99
102
{ACAD_REACTORS
330
E98
102
}
330
E98
100
AcDbXrecord
280
     1
102
SHADEPLOT
 70
     0
102
SHADEPLOTRESLEVEL
 70
     2
102
SHADEPLOTCUSTOMDPI
 70
   300
  0
XRECORD
  5
E93
102
{ACAD_REACTORS
330
E92
102
}
330
E92
100
AcDbXrecord
280
     1
102
SHADEPLOT
 70
     0
102
SHADEPLOTRESLEVEL
 70
     2
102
SHADEPLOTCUSTOMDPI
 70
   300
  0
XRECORD
  5
336
102
{ACAD_REACTORS
330
335
102
}
330
335
100
AcDbXrecord
280
     1
102
MATERIAL
148
0.0
149
0.0
149
0.0
 93
        0
 94
       63
282
     0
 72
     1
 77
     1
171
     1
175
     1
179
     1
273
     0
  0
XRECORD
  5
334
102
{ACAD_REACTORS
330
333
102
}
330
333
100
AcDbXrecord
280
     1
102
MATERIAL
148
0.0
149
0.0
149
0.0
 93
        0
 94
       63
282
     0
 72
     1
 77
     1
171
     1
175
     1
179
     1
273
     0
  0
XRECORD
  5
338
102
{ACAD_REACTORS
330
337
102
}
330
337
100
AcDbXrecord
280
     1
102
MATERIAL
148
0.0
149
0.0
149
0.0
 93
        0
 94
       63
282
     0
 72
     1
 77
     1
171
     1
175
     1
179
     1
273
     0
  0
XRECORD
  5
E95
102
{ACAD_REACTORS
330
E94
102
}
330
E94
100
AcDbXrecord
280
     1
102
ACAD_ROUNDTRIP_PRE2007_TABLESTYLE
 90
      512
 91
        0
  1

 92
      512
 93
        0
  2

 94
      512
 95
        0
  3

  0
ENDSEC
  0
EOF
