  0
SECTION
  2
HEADER
  9
$ACADVER
  1
AC1015
  9
$ACADMAINTVER
 70
    20
  9
$DWGCODEPAGE
  3
ANSI_1252
  9
$INSBASE
 10
0.0
 20
0.0
 30
0.0
  9
$EXTMIN
 10
60.18368902739938
 20
71.50117538163428
 30
-0.0000000000000553
  9
$EXTMAX
 10
1467.168248348974
 20
1305.501175395634
 30
0.0000000000000165
  9
$LIMMIN
 10
0.0
 20
0.0
  9
$LIMMAX
 10
12.0
 20
9.0
  9
$ORTHOMODE
 70
     0
  9
$REGENMODE
 70
     1
  9
$FILLMODE
 70
     1
  9
$QTEXTMODE
 70
     0
  9
$MIRRTEXT
 70
     1
  9
$LTSCALE
 40
1.0
  9
$ATTMODE
 70
     1
  9
$TEXTSIZE
 40
0.2
  9
$TRACEWID
 40
0.05
  9
$TEXTSTYLE
  7
STANDARD
  9
$CLAYER
  8
0
  9
$CELTYPE
  6
BYLAYER
  9
$CECOLOR
 62
   256
  9
$CELTSCALE
 40
1.0
  9
$DISPSILH
 70
     0
  9
$DIMSCALE
 40
1.0
  9
$DIMASZ
 40
0.18
  9
$DIMEXO
 40
0.0625
  9
$DIMDLI
 40
0.38
  9
$DIMRND
 40
0.0
  9
$DIMDLE
 40
0.0
  9
$DIMEXE
 40
0.18
  9
$DIMTP
 40
0.0
  9
$DIMTM
 40
0.0
  9
$DIMTXT
 40
0.18
  9
$DIMCEN
 40
0.09
  9
$DIMTSZ
 40
0.0
  9
$DIMTOL
 70
     0
  9
$DIMLIM
 70
     0
  9
$DIMTIH
 70
     1
  9
$DIMTOH
 70
     1
  9
$DIMSE1
 70
     0
  9
$DIMSE2
 70
     0
  9
$DIMTAD
 70
     0
  9
$DIMZIN
 70
     0
  9
$DIMBLK
  1

  9
$DIMASO
 70
     1
  9
$DIMSHO
 70
     1
  9
$DIMPOST
  1

  9
$DIMAPOST
  1

  9
$DIMALT
 70
     0
  9
$DIMALTD
 70
     2
  9
$DIMALTF
 40
25.4
  9
$DIMLFAC
 40
1.0
  9
$DIMTOFL
 70
     0
  9
$DIMTVP
 40
0.0
  9
$DIMTIX
 70
     0
  9
$DIMSOXD
 70
     0
  9
$DIMSAH
 70
     0
  9
$DIMBLK1
  1

  9
$DIMBLK2
  1

  9
$DIMSTYLE
  2
STANDARD
  9
$DIMCLRD
 70
     0
  9
$DIMCLRE
 70
     0
  9
$DIMCLRT
 70
     0
  9
$DIMTFAC
 40
1.0
  9
$DIMGAP
 40
0.09
  9
$DIMJUST
 70
     0
  9
$DIMSD1
 70
     0
  9
$DIMSD2
 70
     0
  9
$DIMTOLJ
 70
     1
  9
$DIMTZIN
 70
     0
  9
$DIMALTZ
 70
     0
  9
$DIMALTTZ
 70
     0
  9
$DIMUPT
 70
     0
  9
$DIMDEC
 70
     4
  9
$DIMTDEC
 70
     4
  9
$DIMALTU
 70
     2
  9
$DIMALTTD
 70
     2
  9
$DIMTXSTY
  7
STANDARD
  9
$DIMAUNIT
 70
     0
  9
$DIMADEC
 70
     0
  9
$DIMALTRND
 40
0.0
  9
$DIMAZIN
 70
     0
  9
$DIMDSEP
 70
    46
  9
$DIMATFIT
 70
     3
  9
$DIMFRAC
 70
     0
  9
$DIMLDRBLK
  1

  9
$DIMLUNIT
 70
     2
  9
$DIMLWD
 70
    -2
  9
$DIMLWE
 70
    -2
  9
$DIMTMOVE
 70
     0
  9
$LUNITS
 70
     2
  9
$LUPREC
 70
     4
  9
$SKETCHINC
 40
0.1
  9
$FILLETRAD
 40
0.5
  9
$AUNITS
 70
     0
  9
$AUPREC
 70
     0
  9
$MENU
  1
.
  9
$ELEVATION
 40
0.0
  9
$PELEVATION
 40
0.0
  9
$THICKNESS
 40
0.0
  9
$LIMCHECK
 70
     0
  9
$CHAMFERA
 40
0.5
  9
$CHAMFERB
 40
0.5
  9
$CHAMFERC
 40
1.0
  9
$CHAMFERD
 40
0.0
  9
$SKPOLY
 70
     0
  9
$TDCREATE
 40
2451762.502849422
  9
$TDUCREATE
 40
2451762.419516088
  9
$TDUPDATE
 40
2456437.432064665
  9
$TDUUPDATE
 40
2456437.348731331
  9
$TDINDWG
 40
0.0070225347
  9
$TDUSRTIMER
 40
0.0070185532
  9
$USRTIMER
 70
     1
  9
$ANGBASE
 50
0.0
  9
$ANGDIR
 70
     0
  9
$PDMODE
 70
     0
  9
$PDSIZE
 40
0.0
  9
$PLINEWID
 40
0.0
  9
$SPLFRAME
 70
     0
  9
$SPLINETYPE
 70
     6
  9
$SPLINESEGS
 70
     8
  9
$HANDSEED
  5
552
  9
$SURFTAB1
 70
     6
  9
$SURFTAB2
 70
     6
  9
$SURFTYPE
 70
     6
  9
$SURFU
 70
     6
  9
$SURFV
 70
     6
  9
$UCSBASE
  2

  9
$UCSNAME
  2

  9
$UCSORG
 10
0.0
 20
0.0
 30
0.0
  9
$UCSXDIR
 10
1.0
 20
0.0
 30
0.0
  9
$UCSYDIR
 10
0.0
 20
1.0
 30
0.0
  9
$UCSORTHOREF
  2

  9
$UCSORTHOVIEW
 70
     0
  9
$UCSORGTOP
 10
0.0
 20
0.0
 30
0.0
  9
$UCSORGBOTTOM
 10
0.0
 20
0.0
 30
0.0
  9
$UCSORGLEFT
 10
0.0
 20
0.0
 30
0.0
  9
$UCSORGRIGHT
 10
0.0
 20
0.0
 30
0.0
  9
$UCSORGFRONT
 10
0.0
 20
0.0
 30
0.0
  9
$UCSORGBACK
 10
0.0
 20
0.0
 30
0.0
  9
$PUCSBASE
  2

  9
$PUCSNAME
  2

  9
$PUCSORG
 10
0.0
 20
0.0
 30
0.0
  9
$PUCSXDIR
 10
1.0
 20
0.0
 30
0.0
  9
$PUCSYDIR
 10
0.0
 20
1.0
 30
0.0
  9
$PUCSORTHOREF
  2

  9
$PUCSORTHOVIEW
 70
     0
  9
$PUCSORGTOP
 10
0.0
 20
0.0
 30
0.0
  9
$PUCSORGBOTTOM
 10
0.0
 20
0.0
 30
0.0
  9
$PUCSORGLEFT
 10
0.0
 20
0.0
 30
0.0
  9
$PUCSORGRIGHT
 10
0.0
 20
0.0
 30
0.0
  9
$PUCSORGFRONT
 10
0.0
 20
0.0
 30
0.0
  9
$PUCSORGBACK
 10
0.0
 20
0.0
 30
0.0
  9
$USERI1
 70
     0
  9
$USERI2
 70
     0
  9
$USERI3
 70
     0
  9
$USERI4
 70
     0
  9
$USERI5
 70
     0
  9
$USERR1
 40
0.0
  9
$USERR2
 40
0.0
  9
$USERR3
 40
0.0
  9
$USERR4
 40
0.0
  9
$USERR5
 40
0.0
  9
$WORLDVIEW
 70
     1
  9
$SHADEDGE
 70
     3
  9
$SHADEDIF
 70
    70
  9
$TILEMODE
 70
     1
  9
$MAXACTVP
 70
    64
  9
$PINSBASE
 10
0.0
 20
0.0
 30
0.0
  9
$PLIMCHECK
 70
     0
  9
$PEXTMIN
 10
1.000000000000000E+20
 20
1.000000000000000E+20
 30
1.000000000000000E+20
  9
$PEXTMAX
 10
-1.000000000000000E+20
 20
-1.000000000000000E+20
 30
-1.000000000000000E+20
  9
$PLIMMIN
 10
0.0
 20
0.0
  9
$PLIMMAX
 10
12.0
 20
9.0
  9
$UNITMODE
 70
     0
  9
$VISRETAIN
 70
     1
  9
$PLINEGEN
 70
     0
  9
$PSLTSCALE
 70
     1
  9
$TREEDEPTH
 70
  3020
  9
$CMLSTYLE
  2
STANDARD
  9
$CMLJUST
 70
     0
  9
$CMLSCALE
 40
1.0
  9
$PROXYGRAPHICS
 70
     1
  9
$MEASUREMENT
 70
     0
  9
$CELWEIGHT
370
    -1
  9
$ENDCAPS
280
     0
  9
$JOINSTYLE
280
     0
  9
$LWDISPLAY
290
     0
  9
$INSUNITS
 70
     0
  9
$HYPERLINKBASE
  1

  9
$STYLESHEET
  1

  9
$XEDIT
290
     1
  9
$CEPSNTYPE
380
     0
  9
$PSTYLEMODE
290
     1
  9
$FINGERPRINTGUID
  2
{3EF3B1E1-26CC-42C0-AB3B-A518CF65F475}
  9
$VERSIONGUID
  2
{C3A2E59B-9F97-45BC-8EAB-0A471E1175E4}
  9
$EXTNAMES
290
     1
  9
$PSVPSCALE
 40
0.0
  9
$OLESTARTUP
290
     0
  0
ENDSEC
  0
SECTION
  2
CLASSES
  0
CLASS
  1
ACDBDICTIONARYWDFLT
  2
AcDbDictionaryWithDefault
  3
ObjectDBX Classes
 90
        0
280
     0
281
     0
  0
CLASS
  1
ACDBPLACEHOLDER
  2
AcDbPlaceHolder
  3
ObjectDBX Classes
 90
        0
280
     0
281
     0
  0
CLASS
  1
LAYOUT
  2
AcDbLayout
  3
ObjectDBX Classes
 90
        0
280
     0
281
     0
  0
CLASS
  1
MATERIAL
  2
AcDbMaterial
  3
ObjectDBX Classes
 90
     1024
280
     0
281
     0
  0
CLASS
  1
VISUALSTYLE
  2
AcDbVisualStyle
  3
ObjectDBX Classes
 90
     4095
280
     0
281
     0
  0
CLASS
  1
TABLESTYLE
  2
AcDbTableStyle
  3
ObjectDBX Classes
 90
     4095
280
     0
281
     0
  0
CLASS
  1
DICTIONARYVAR
  2
AcDbDictionaryVar
  3
ObjectDBX Classes
 90
        0
280
     0
281
     0
  0
CLASS
  1
SORTENTSTABLE
  2
AcDbSortentsTable
  3
ObjectDBX Classes
 90
        0
280
     0
281
     0
  0
ENDSEC
  0
SECTION
  2
TABLES
  0
TABLE
  2
VPORT
  5
8
330
0
100
AcDbSymbolTable
 70
     1
  0
VPORT
  5
17F
330
8
100
AcDbSymbolTableRecord
100
AcDbViewportTableRecord
  2
*ACTIVE
 70
     0
 10
0.0
 20
0.0
 11
1.0
 21
1.0
 12
720.3838093146036
 22
790.2142892510627
 13
0.0
 23
0.0
 14
0.5
 24
0.5
 15
0.5
 25
0.5
 16
0.0
 26
0.0
 36
1.0
 17
0.0
 27
0.0
 37
0.0
 40
1642.622057048208
 41
1.801178203240058
 42
50.0
 43
0.0
 44
0.0
 50
0.0
 51
0.0
 71
     0
 72
   100
 73
     1
 74
     3
 75
     0
 76
     0
 77
     0
 78
     0
281
     0
 65
     1
110
0.0
120
0.0
130
0.0
111
1.0
121
0.0
131
0.0
112
0.0
122
1.0
132
0.0
 79
     0
146
0.0
  0
ENDTAB
  0
TABLE
  2
LTYPE
  5
5
330
0
100
AcDbSymbolTable
 70
     2
  0
LTYPE
  5
14
330
5
100
AcDbSymbolTableRecord
100
AcDbLinetypeTableRecord
  2
BYBLOCK
 70
     0
  3

 72
    65
 73
     0
 40
0.0
  0
LTYPE
  5
15
330
5
100
AcDbSymbolTableRecord
100
AcDbLinetypeTableRecord
  2
BYLAYER
 70
     0
  3

 72
    65
 73
     0
 40
0.0
  0
LTYPE
  5
16
330
5
100
AcDbSymbolTableRecord
100
AcDbLinetypeTableRecord
  2
CONTINUOUS
 70
     0
  3
Solid line
 72
    65
 73
     0
 40
0.0
  0
ENDTAB
  0
TABLE
  2
LAYER
  5
2
330
0
100
AcDbSymbolTable
 70
     4
  0
LAYER
  5
10
330
2
100
AcDbSymbolTableRecord
100
AcDbLayerTableRecord
  2
0
 70
     0
 62
     7
  6
CONTINUOUS
370
    -3
390
F5
  0
LAYER
  5
65
330
2
100
AcDbSymbolTableRecord
100
AcDbLayerTableRecord
  2
PV-CC
 70
     2
 62
     7
  6
CONTINUOUS
370
    -3
390
F5
  0
LAYER
  5
35D
330
2
100
AcDbSymbolTableRecord
100
AcDbLayerTableRecord
  2
1
 70
     0
 62
     7
  6
CONTINUOUS
370
    -3
390
F5
  0
LAYER
  5
503
330
2
100
AcDbSymbolTableRecord
100
AcDbLayerTableRecord
  2
Defpoints
 70
     0
 62
     7
  6
CONTINUOUS
290
     0
370
    -3
390
F5
  0
ENDTAB
  0
TABLE
  2
STYLE
  5
3
330
0
100
AcDbSymbolTable
 70
     2
  0
STYLE
  5
11
330
3
100
AcDbSymbolTableRecord
100
AcDbTextStyleTableRecord
  2
STANDARD
 70
     0
 40
0.0
 41
1.0
 50
0.0
 71
     0
 42
0.2
  3
txt
  4

  0
STYLE
  5
35E
330
3
100
AcDbSymbolTableRecord
100
AcDbTextStyleTableRecord
  2
blockfont
 70
     0
 40
0.0
 41
1.0
 50
0.0
 71
     0
 42
0.2
  3
simplex.shx
  4

  0
ENDTAB
  0
TABLE
  2
VIEW
  5
6
330
0
100
AcDbSymbolTable
 70
     0
  0
ENDTAB
  0
TABLE
  2
UCS
  5
7
330
0
100
AcDbSymbolTable
 70
     0
  0
ENDTAB
  0
TABLE
  2
APPID
  5
9
330
0
100
AcDbSymbolTable
 70
     2
  0
APPID
  5
12
330
9
100
AcDbSymbolTableRecord
100
AcDbRegAppTableRecord
  2
ACAD
 70
     0
  0
APPID
  5
1C2
330
9
100
AcDbSymbolTableRecord
100
AcDbRegAppTableRecord
  2
ACAD_EXEMPT_FROM_CAD_STANDARDS
 70
     0
  0
ENDTAB
  0
TABLE
  2
DIMSTYLE
  5
A
330
0
100
AcDbSymbolTable
 70
     3
100
AcDbDimStyleTable
 71
     1
340
27
  0
DIMSTYLE
105
27
330
A
100
AcDbSymbolTableRecord
100
AcDbDimStyleTableRecord
  2
STANDARD
 70
     0
340
11
  0
DIMSTYLE
105
209
330
A
100
AcDbSymbolTableRecord
100
AcDbDimStyleTableRecord
  2
ISO-25
 70
     0
 41
2.5
 42
0.625
 43
3.75
 44
1.25
 73
     0
 74
     0
 77
     1
 78
     8
140
2.5
141
2.5
143
0.03937007874016
147
0.625
171
     3
172
     1
271
     2
272
     2
274
     3
283
     0
284
     8
340
11
  0
ENDTAB
  0
TABLE
  2
BLOCK_RECORD
  5
1
330
0
100
AcDbSymbolTable
 70
    15
  0
BLOCK_RECORD
  5
1F
102
{ACAD_XDICTIONARY
360
EE
102
}
330
1
100
AcDbSymbolTableRecord
100
AcDbBlockTableRecord
  2
*MODEL_SPACE
340
1BD
  0
BLOCK_RECORD
  5
1B
102
{ACAD_XDICTIONARY
360
EC
102
}
330
1
100
AcDbSymbolTableRecord
100
AcDbBlockTableRecord
  2
*PAPER_SPACE
340
1BE
  0
BLOCK_RECORD
  5
48
330
1
100
AcDbSymbolTableRecord
100
AcDbBlockTableRecord
  2
*U0
340
0
102
{BLKREFS
331
67
102
}
  0
BLOCK_RECORD
  5
66
330
1
100
AcDbSymbolTableRecord
100
AcDbBlockTableRecord
  2
FRONT
340
0
  0
BLOCK_RECORD
  5
6B
330
1
100
AcDbSymbolTableRecord
100
AcDbBlockTableRecord
  2
*U2
340
0
102
{BLKREFS
331
99
102
}
  0
BLOCK_RECORD
  5
98
330
1
100
AcDbSymbolTableRecord
100
AcDbBlockTableRecord
  2
LEFT
340
0
  0
BLOCK_RECORD
  5
9D
330
1
100
AcDbSymbolTableRecord
100
AcDbBlockTableRecord
  2
*U4
340
0
102
{BLKREFS
331
C6
102
}
  0
BLOCK_RECORD
  5
C5
330
1
100
AcDbSymbolTableRecord
100
AcDbBlockTableRecord
  2
RIGHT
340
0
  0
BLOCK_RECORD
  5
CA
330
1
100
AcDbSymbolTableRecord
100
AcDbBlockTableRecord
  2
*U6
340
0
102
{BLKREFS
331
E7
102
}
  0
BLOCK_RECORD
  5
E6
330
1
100
AcDbSymbolTableRecord
100
AcDbBlockTableRecord
  2
TOP
340
0
  0
BLOCK_RECORD
  5
34A
330
1
100
AcDbSymbolTableRecord
100
AcDbBlockTableRecord
  2
DimnDraft3D1
340
0
  0
BLOCK_RECORD
  5
353
330
1
100
AcDbSymbolTableRecord
100
AcDbBlockTableRecord
  2
DimnDraft3D2
340
0
  0
BLOCK_RECORD
  5
504
330
1
100
AcDbSymbolTableRecord
100
AcDbBlockTableRecord
  2
*D11
340
0
  0
BLOCK_RECORD
  5
510
330
1
100
AcDbSymbolTableRecord
100
AcDbBlockTableRecord
  2
*D12
340
0
  0
BLOCK_RECORD
  5
53D
330
1
100
AcDbSymbolTableRecord
100
AcDbBlockTableRecord
  2
*D14
340
0
  0
ENDTAB
  0
ENDSEC
  0
SECTION
  2
BLOCKS
  0
BLOCK
  5
20
330
1F
100
AcDbEntity
  8
0
100
AcDbBlockBegin
  2
*MODEL_SPACE
 70
     0
 10
0.0
 20
0.0
 30
0.0
  3
*MODEL_SPACE
  1

  0
ENDBLK
  5
21
330
1F
100
AcDbEntity
  8
0
100
AcDbBlockEnd
  0
BLOCK
  5
1C
330
1B
100
AcDbEntity
 67
     1
  8
0
100
AcDbBlockBegin
  2
*PAPER_SPACE
 70
     0
 10
0.0
 20
0.0
 30
0.0
  3
*PAPER_SPACE
  1

  0
ENDBLK
  5
1D
330
1B
100
AcDbEntity
 67
     1
  8
0
100
AcDbBlockEnd
  0
BLOCK
  5
62
330
48
100
AcDbEntity
  8
0
100
AcDbBlockBegin
  2
*U0
 70
     1
 10
0.0
 20
0.0
 30
0.0
  3
*U0
  1
*ANON
  0
ARC
  5
49
330
48
100
AcDbEntity
  8
PV-CC
100
AcDbCircle
 10
0.0
 20
0.0
 30
0.0
 40
16.5
210
0.0
220
-1.0
230
0.0
100
AcDbArc
 50
269.9999999999997
 51
0.0
  0
ARC
  5
4A
330
48
100
AcDbEntity
  8
PV-CC
100
AcDbCircle
 10
0.0
 20
0.0
 30
0.0
 40
16.5
210
0.0
220
-1.0
230
0.0
100
AcDbArc
 50
359.9999999999992
 51
89.99999999999941
  0
ARC
  5
4B
330
48
100
AcDbEntity
  8
PV-CC
100
AcDbCircle
 10
-300.0
 20
600.0
 30
0.0
 40
16.5
210
0.0
220
-1.0
230
0.0
100
AcDbArc
 50
0.0
 51
180.0000000000003
  0
ARC
  5
4C
330
48
100
AcDbEntity
  8
PV-CC
100
AcDbCircle
 10
-300.0
 20
600.0
 30
0.0
 40
35.0
210
0.0
220
-1.0
230
0.0
100
AcDbArc
 50
298.1270682186039
 51
180.0
  0
ARC
  5
4D
330
48
100
AcDbEntity
  8
PV-CC
100
AcDbCircle
 10
-300.0
 20
600.0
 30
0.0
 40
35.0
210
0.0
220
-1.0
230
0.0
100
AcDbArc
 50
179.9999999999992
 51
241.8729317813944
  0
ARC
  5
4E
330
48
100
AcDbEntity
  8
PV-CC
100
AcDbCircle
 10
-300.0
 20
600.0
 30
0.0
 40
16.8
210
0.0
220
-1.0
230
0.0
100
AcDbArc
 50
349.1559374363023
 51
180.0000000000002
  0
ARC
  5
4F
330
48
100
AcDbEntity
  8
PV-CC
100
AcDbCircle
 10
-300.0
 20
600.0
 30
0.0
 40
16.8
210
0.0
220
-1.0
230
0.0
100
AcDbArc
 50
179.9999999999992
 51
190.8440625636959
  0
ARC
  5
50
330
48
100
AcDbEntity
  8
PV-CC
100
AcDbCircle
 10
-300.0
 20
115.0
 30
0.0
 40
35.0
210
0.0
220
-1.0
230
0.0
100
AcDbArc
 50
118.1270682186047
 51
180.0
  0
ARC
  5
51
330
48
100
AcDbEntity
  8
PV-CC
100
AcDbCircle
 10
-300.0
 20
115.0
 30
0.0
 40
35.0
210
0.0
220
-1.0
230
0.0
100
AcDbArc
 50
298.1270682186039
 51
61.87293178139518
  0
ARC
  5
52
330
48
100
AcDbEntity
  8
PV-CC
100
AcDbCircle
 10
-300.0
 20
115.0
 30
0.0
 40
35.0
210
0.0
220
-1.0
230
0.0
100
AcDbArc
 50
179.9999999999992
 51
241.8729317813944
  0
ARC
  5
53
330
48
100
AcDbEntity
  8
PV-CC
100
AcDbCircle
 10
-300.0
 20
115.0
 30
0.0
 40
16.8
210
0.0
220
-1.0
230
0.0
100
AcDbArc
 50
169.1559374363031
 51
180.0000000000002
  0
ARC
  5
54
330
48
100
AcDbEntity
  8
PV-CC
100
AcDbCircle
 10
-300.0
 20
115.0
 30
0.0
 40
16.8
210
0.0
220
-1.0
230
0.0
100
AcDbArc
 50
349.1559374363021
 51
10.84406256369683
  0
ARC
  5
55
330
48
100
AcDbEntity
  8
PV-CC
100
AcDbCircle
 10
-300.0
 20
115.0
 30
0.0
 40
16.8
210
0.0
220
-1.0
230
0.0
100
AcDbArc
 50
179.999999999999
 51
190.844062563696
  0
ARC
  5
56
330
48
100
AcDbEntity
  8
PV-CC
100
AcDbCircle
 10
0.0
 20
0.0
 30
0.0
 40
35.0
210
0.0
220
-1.0
230
0.0
100
AcDbArc
 50
208.1270682186039
 51
151.8729317813952
  0
ARC
  5
57
330
48
100
AcDbEntity
  8
PV-CC
100
AcDbCircle
 10
0.0
 20
0.0
 30
0.0
 40
16.8
210
0.0
220
-1.0
230
0.0
100
AcDbArc
 50
259.1559374363022
 51
100.8440625636968
  0
LINE
  5
58
330
48
100
AcDbEntity
  8
PV-CC
100
AcDbLine
 10
-283.4999999999999
 20
0.0
 30
48.5
 11
-283.4999999999999
 21
0.0
 31
551.4999999999998
  0
LINE
  5
59
330
48
100
AcDbEntity
  8
PV-CC
100
AcDbLine
 10
-316.5
 20
0.0
 30
48.5
 11
-316.5
 21
0.0
 31
551.4999999999998
  0
LINE
  5
5A
330
48
100
AcDbEntity
  8
PV-CC
100
AcDbLine
 10
-48.5
 20
0.0
 30
16.5
 11
-251.5
 21
0.0
 31
16.5
  0
LINE
  5
5B
330
48
100
AcDbEntity
  8
PV-CC
100
AcDbLine
 10
-48.5
 20
0.0
 30
-16.5
 11
-251.5
 21
0.0
 31
-16.5
  0
ARC
  5
5C
330
48
100
AcDbEntity
  8
PV-CC
100
AcDbCircle
 10
-251.5
 20
48.5
 30
0.0
 40
65.0
210
0.0
220
-1.0
230
0.0
100
AcDbArc
 50
179.9999999999998
 51
270.0
  0
ARC
  5
5D
330
48
100
AcDbEntity
  8
PV-CC
100
AcDbCircle
 10
-251.5
 20
48.5
 30
0.0
 40
32.0
210
0.0
220
-1.0
230
0.0
100
AcDbArc
 50
179.9999999999998
 51
270.0
  0
LINE
  5
5E
330
48
100
AcDbEntity
  8
PV-CC
100
AcDbLine
 10
-283.4999999999999
 20
0.0
 30
551.5000000000001
 11
-283.4999999999999
 21
0.0
 31
600.0
  0
LINE
  5
5F
330
48
100
AcDbEntity
  8
PV-CC
100
AcDbLine
 10
-316.5
 20
0.0
 30
600.0
 11
-316.5
 21
0.0
 31
551.5000000000001
  0
LINE
  5
60
330
48
100
AcDbEntity
  8
PV-CC
100
AcDbLine
 10
-48.49999999999983
 20
0.0
 30
-16.5
 11
0.0
 21
0.0
 31
-16.5
  0
LINE
  5
61
330
48
100
AcDbEntity
  8
PV-CC
100
AcDbLine
 10
0.0
 20
0.0
 30
16.5
 11
-48.49999999999983
 21
0.0
 31
16.5
  0
ENDBLK
  5
63
330
48
100
AcDbEntity
  8
0
100
AcDbBlockEnd
  0
BLOCK
  5
68
330
66
100
AcDbEntity
  8
0
100
AcDbBlockBegin
  2
FRONT
 70
     0
 10
0.0
 20
0.0
 30
0.0
  3
FRONT
  1

  0
INSERT
  5
67
330
66
100
AcDbEntity
  8
PV-CC
100
AcDbBlockReference
  2
*U0
 10
0.0
 20
0.0
 30
0.0
 50
180.0
210
0.0
220
1.0
230
0.0
  0
ENDBLK
  5
69
330
66
100
AcDbEntity
  8
0
100
AcDbBlockEnd
  0
BLOCK
  5
96
330
6B
100
AcDbEntity
  8
0
100
AcDbBlockBegin
  2
*U2
 70
     1
 10
0.0
 20
0.0
 30
0.0
  3
*U2
  1
*ANON
  0
LINE
  5
6C
330
6B
100
AcDbEntity
  8
PV-CC
100
AcDbLine
 10
0.0
 20
-73.50000000000004
 30
114.9999999999999
 11
0.0
 21
-57.0
 31
131.4999999999998
  0
LINE
  5
6D
330
6B
100
AcDbEntity
  8
PV-CC
100
AcDbLine
 10
0.0
 20
-57.0
 30
98.50000000000001
 11
0.0
 21
-73.50000000000004
 31
115.0
  0
ARC
  5
6E
330
6B
100
AcDbEntity
  8
PV-CC
100
AcDbCircle
 10
73.5
 20
0.0
 30
0.0
 40
16.5
210
-1.0
220
0.0
230
0.0
100
AcDbArc
 50
179.9999999999978
 51
0.0
  0
LINE
  5
6F
330
6B
100
AcDbEntity
  8
PV-CC
100
AcDbLine
 10
0.0
 20
0.0
 30
600.0
 11
0.0
 21
0.0
 31
635.0
  0
LINE
  5
70
330
6B
100
AcDbEntity
  8
PV-CC
100
AcDbLine
 10
0.0
 20
0.0
 30
565.0
 11
0.0
 21
0.0
 31
600.0000000000002
  0
LINE
  5
71
330
6B
100
AcDbEntity
  8
PV-CC
100
AcDbLine
 10
0.0
 20
-12.0
 30
600.0
 11
0.0
 21
-12.0
 31
633.0
  0
LINE
  5
72
330
6B
100
AcDbEntity
  8
PV-CC
100
AcDbLine
 10
0.0
 20
-12.0
 30
567.0
 11
0.0
 21
-12.0
 31
600.0000000000002
  0
LINE
  5
73
330
6B
100
AcDbEntity
  8
PV-CC
100
AcDbLine
 10
0.0
 20
0.0
 30
115.0
 11
0.0
 21
0.0
 31
150.0
  0
LINE
  5
74
330
6B
100
AcDbEntity
  8
PV-CC
100
AcDbLine
 10
0.0
 20
0.0
 30
80.0
 11
0.0
 21
0.0
 31
115.0000000000003
  0
LINE
  5
75
330
6B
100
AcDbEntity
  8
PV-CC
100
AcDbLine
 10
0.0
 20
-12.0
 30
115.0
 11
0.0
 21
-12.0
 31
148.0
  0
LINE
  5
76
330
6B
100
AcDbEntity
  8
PV-CC
100
AcDbLine
 10
0.0
 20
-12.0
 30
82.0
 11
0.0
 21
-12.0
 31
115.0000000000003
  0
LINE
  5
77
330
6B
100
AcDbEntity
  8
PV-CC
100
AcDbLine
 10
0.0
 20
0.0
 30
0.0
 11
0.0
 21
0.0
 31
35.0
  0
LINE
  5
78
330
6B
100
AcDbEntity
  8
PV-CC
100
AcDbLine
 10
0.0
 20
0.0
 30
-35.0
 11
0.0
 21
0.0
 31
0.0000000000004888
  0
LINE
  5
79
330
6B
100
AcDbEntity
  8
PV-CC
100
AcDbLine
 10
0.0
 20
-12.0
 30
0.0
 11
0.0
 21
-12.0
 31
33.0
  0
LINE
  5
7A
330
6B
100
AcDbEntity
  8
PV-CC
100
AcDbLine
 10
0.0
 20
-12.0
 30
-33.0
 11
0.0
 21
-12.0
 31
0.0000000000004609
  0
LINE
  5
7B
330
6B
100
AcDbEntity
  8
PV-CC
100
AcDbLine
 10
0.0
 20
-10.0
 30
35.0
 11
0.0
 21
0.0
 31
35.0
  0
LINE
  5
7C
330
6B
100
AcDbEntity
  8
PV-CC
100
AcDbLine
 10
0.0
 20
-10.0
 30
-35.0
 11
0.0
 21
0.0
 31
-35.0
  0
LINE
  5
7D
330
6B
100
AcDbEntity
  8
PV-CC
100
AcDbLine
 10
0.0
 20
-10.0
 30
150.0
 11
0.0
 21
0.0
 31
150.0
  0
LINE
  5
7E
330
6B
100
AcDbEntity
  8
PV-CC
100
AcDbLine
 10
0.0
 20
-10.0
 30
80.0
 11
0.0
 21
0.0
 31
80.0
  0
LINE
  5
7F
330
6B
100
AcDbEntity
  8
PV-CC
100
AcDbLine
 10
0.0
 20
-10.0
 30
635.0
 11
0.0
 21
0.0
 31
635.0
  0
LINE
  5
80
330
6B
100
AcDbEntity
  8
PV-CC
100
AcDbLine
 10
0.0
 20
-10.0
 30
565.0
 11
0.0
 21
0.0
 31
565.0
  0
LINE
  5
81
330
6B
100
AcDbEntity
  8
PV-CC
100
AcDbLine
 10
0.0
 20
-12.0
 30
583.4999999999999
 11
0.0
 21
-25.0
 31
583.4999999999999
  0
LINE
  5
82
330
6B
100
AcDbEntity
  8
PV-CC
100
AcDbLine
 10
0.0
 20
-12.0
 30
616.5
 11
0.0
 21
-25.0
 31
616.5
  0
LINE
  5
83
330
6B
100
AcDbEntity
  8
PV-CC
100
AcDbLine
 10
0.0
 20
-90.0
 30
48.5
 11
0.0
 21
-90.0
 31
551.4999999999998
  0
LINE
  5
84
330
6B
100
AcDbEntity
  8
PV-CC
100
AcDbLine
 10
0.0
 20
-57.0
 30
131.4999999999998
 11
0.0
 21
-57.0
 31
551.4999999999998
  0
LINE
  5
85
330
6B
100
AcDbEntity
  8
PV-CC
100
AcDbLine
 10
0.0
 20
-57.0
 30
48.5
 11
0.0
 21
-57.0
 31
98.50000000000001
  0
LINE
  5
86
330
6B
100
AcDbEntity
  8
PV-CC
100
AcDbLine
 10
0.0
 20
-12.0
 30
98.50000000000001
 11
0.0
 21
-57.0
 31
98.50000000000001
  0
LINE
  5
87
330
6B
100
AcDbEntity
  8
PV-CC
100
AcDbLine
 10
0.0
 20
-12.0
 30
131.4999999999998
 11
0.0
 21
-57.0
 31
131.4999999999998
  0
LINE
  5
88
330
6B
100
AcDbEntity
  8
PV-CC
100
AcDbLine
 10
0.0
 20
-12.0
 30
-16.5
 11
0.0
 21
-25.0
 31
-16.5
  0
LINE
  5
89
330
6B
100
AcDbEntity
  8
PV-CC
100
AcDbLine
 10
0.0
 20
-12.0
 30
16.5
 11
0.0
 21
-25.0
 31
16.5
  0
ARC
  5
8A
330
6B
100
AcDbEntity
  8
PV-CC
100
AcDbCircle
 10
10.0
 20
-33.0
 30
0.0
 40
2.0
210
-1.0
220
0.0
230
0.0
100
AcDbArc
 50
270.0000000000002
 51
0.000000000001239
  0
ARC
  5
8B
330
6B
100
AcDbEntity
  8
PV-CC
100
AcDbCircle
 10
10.0
 20
33.0
 30
0.0
 40
2.0
210
-1.0
220
0.0
230
0.0
100
AcDbArc
 50
359.999999999998
 51
89.99999999999982
  0
ARC
  5
8C
330
6B
100
AcDbEntity
  8
PV-CC
100
AcDbCircle
 10
10.0
 20
82.0
 30
0.0
 40
2.0
210
-1.0
220
0.0
230
0.0
100
AcDbArc
 50
270.0000000000002
 51
0.000000000001239
  0
ARC
  5
8D
330
6B
100
AcDbEntity
  8
PV-CC
100
AcDbCircle
 10
10.0
 20
148.0
 30
0.0
 40
2.0
210
-1.0
220
0.0
230
0.0
100
AcDbArc
 50
359.9999999999996
 51
89.99999999999982
  0
ARC
  5
8E
330
6B
100
AcDbEntity
  8
PV-CC
100
AcDbCircle
 10
10.0
 20
567.0
 30
0.0
 40
2.0
210
-1.0
220
0.0
230
0.0
100
AcDbArc
 50
270.0000000000002
 51
359.9999999999996
  0
ARC
  5
8F
330
6B
100
AcDbEntity
  8
PV-CC
100
AcDbCircle
 10
10.0
 20
633.0
 30
0.0
 40
2.0
210
-1.0
220
0.0
230
0.0
100
AcDbArc
 50
359.9999999999996
 51
89.99999999999982
  0
LINE
  5
90
330
6B
100
AcDbEntity
  8
PV-CC
100
AcDbLine
 10
0.0
 20
-90.0
 30
0.0
 11
0.0
 21
-90.0
 31
48.50000000000017
  0
LINE
  5
91
330
6B
100
AcDbEntity
  8
PV-CC
100
AcDbLine
 10
0.0
 20
-57.0
 30
48.50000000000017
 11
0.0
 21
-57.0
 31
0.0
  0
ARC
  5
92
330
6B
100
AcDbEntity
  8
PV-CC
100
AcDbCircle
 10
25.0
 20
551.4999999999998
 30
0.0
 40
32.0
210
-1.0
220
0.0
230
0.0
100
AcDbArc
 50
0.0000000000002036
 51
90.00000000000156
  0
ARC
  5
93
330
6B
100
AcDbEntity
  8
PV-CC
100
AcDbCircle
 10
25.0
 20
551.4999999999998
 30
0.0
 40
65.0
210
-1.0
220
0.0
230
0.0
100
AcDbArc
 50
0.0000000000002036
 51
90.00000000000156
  0
LINE
  5
94
330
6B
100
AcDbEntity
  8
PV-CC
100
AcDbLine
 10
0.0
 20
-25.0
 30
-16.5
 11
0.0
 21
-73.5
 31
-16.5
  0
LINE
  5
95
330
6B
100
AcDbEntity
  8
PV-CC
100
AcDbLine
 10
0.0
 20
-57.0
 30
16.5
 11
0.0
 21
-25.0
 31
16.5
  0
ENDBLK
  5
97
330
6B
100
AcDbEntity
  8
0
100
AcDbBlockEnd
  0
BLOCK
  5
9A
330
98
100
AcDbEntity
  8
0
100
AcDbBlockBegin
  2
LEFT
 70
     0
 10
0.0
 20
0.0
 30
0.0
  3
LEFT
  1

  0
INSERT
  5
99
330
98
100
AcDbEntity
  8
PV-CC
100
AcDbBlockReference
  2
*U2
 10
0.0
 20
0.0
 30
0.0
 50
270.0
210
0.0
220
1.0
230
0.0
  0
ENDBLK
  5
9B
330
98
100
AcDbEntity
  8
0
100
AcDbBlockEnd
  0
BLOCK
  5
C3
330
9D
100
AcDbEntity
  8
0
100
AcDbBlockBegin
  2
*U4
 70
     1
 10
0.0
 20
0.0
 30
0.0
  3
*U4
  1
*ANON
  0
ARC
  5
9E
330
9D
100
AcDbEntity
  8
PV-CC
100
AcDbCircle
 10
-73.5
 20
0.0
 30
0.0
 40
16.5
210
1.0
220
0.0
230
0.0
100
AcDbArc
 50
180.0
 51
270.0000000000002
  0
ARC
  5
9F
330
9D
100
AcDbEntity
  8
PV-CC
100
AcDbCircle
 10
-73.5
 20
0.0
 30
0.0
 40
16.5
210
1.0
220
0.0
230
0.0
100
AcDbArc
 50
90.0000000000006
 51
180.0000000000008
  0
LINE
  5
A0
330
9D
100
AcDbEntity
  8
PV-CC
100
AcDbLine
 10
0.0
 20
-57.0
 30
131.4999999999998
 11
0.0
 21
-73.50000000000004
 31
114.9999999999999
  0
LINE
  5
A1
330
9D
100
AcDbEntity
  8
PV-CC
100
AcDbLine
 10
0.0
 20
-73.50000000000004
 30
115.0
 11
0.0
 21
-57.0
 31
98.50000000000001
  0
LINE
  5
A2
330
9D
100
AcDbEntity
  8
PV-CC
100
AcDbLine
 10
0.0
 20
0.0
 30
635.0
 11
0.0
 21
0.0
 31
565.0
  0
LINE
  5
A3
330
9D
100
AcDbEntity
  8
PV-CC
100
AcDbLine
 10
0.0
 20
-12.0
 30
633.0
 11
0.0
 21
-12.0
 31
567.0
  0
LINE
  5
A4
330
9D
100
AcDbEntity
  8
PV-CC
100
AcDbLine
 10
0.0
 20
0.0
 30
150.0
 11
0.0
 21
0.0
 31
80.0
  0
LINE
  5
A5
330
9D
100
AcDbEntity
  8
PV-CC
100
AcDbLine
 10
0.0
 20
-12.0
 30
148.0
 11
0.0
 21
-12.0
 31
82.0
  0
LINE
  5
A6
330
9D
100
AcDbEntity
  8
PV-CC
100
AcDbLine
 10
0.0
 20
0.0
 30
35.0
 11
0.0
 21
0.0
 31
-35.0
  0
LINE
  5
A7
330
9D
100
AcDbEntity
  8
PV-CC
100
AcDbLine
 10
0.0
 20
-12.0
 30
33.0
 11
0.0
 21
-12.0
 31
-33.0
  0
LINE
  5
A8
330
9D
100
AcDbEntity
  8
PV-CC
100
AcDbLine
 10
0.0
 20
-10.0
 30
-35.0
 11
0.0
 21
0.0
 31
-35.0
  0
LINE
  5
A9
330
9D
100
AcDbEntity
  8
PV-CC
100
AcDbLine
 10
0.0
 20
-10.0
 30
35.0
 11
0.0
 21
0.0
 31
35.0
  0
LINE
  5
AA
330
9D
100
AcDbEntity
  8
PV-CC
100
AcDbLine
 10
0.0
 20
-10.0
 30
80.0
 11
0.0
 21
0.0
 31
80.0
  0
LINE
  5
AB
330
9D
100
AcDbEntity
  8
PV-CC
100
AcDbLine
 10
0.0
 20
-10.0
 30
150.0
 11
0.0
 21
0.0
 31
150.0
  0
LINE
  5
AC
330
9D
100
AcDbEntity
  8
PV-CC
100
AcDbLine
 10
0.0
 20
-10.0
 30
565.0
 11
0.0
 21
0.0
 31
565.0
  0
LINE
  5
AD
330
9D
100
AcDbEntity
  8
PV-CC
100
AcDbLine
 10
0.0
 20
-10.0
 30
635.0
 11
0.0
 21
0.0
 31
635.0
  0
LINE
  5
AE
330
9D
100
AcDbEntity
  8
PV-CC
100
AcDbLine
 10
0.0
 20
-12.0
 30
616.5
 11
0.0
 21
-25.0
 31
616.5
  0
LINE
  5
AF
330
9D
100
AcDbEntity
  8
PV-CC
100
AcDbLine
 10
0.0
 20
-12.0
 30
583.4999999999999
 11
0.0
 21
-25.0
 31
583.4999999999999
  0
LINE
  5
B0
330
9D
100
AcDbEntity
  8
PV-CC
100
AcDbLine
 10
0.0
 20
-57.0
 30
131.4999999999998
 11
0.0
 21
-57.0
 31
551.4999999999998
  0
LINE
  5
B1
330
9D
100
AcDbEntity
  8
PV-CC
100
AcDbLine
 10
0.0
 20
-57.0
 30
48.5
 11
0.0
 21
-57.0
 31
98.50000000000001
  0
LINE
  5
B2
330
9D
100
AcDbEntity
  8
PV-CC
100
AcDbLine
 10
0.0
 20
-90.0
 30
48.5
 11
0.0
 21
-90.0
 31
551.4999999999998
  0
LINE
  5
B3
330
9D
100
AcDbEntity
  8
PV-CC
100
AcDbLine
 10
0.0
 20
-12.0
 30
131.4999999999998
 11
0.0
 21
-57.0
 31
131.4999999999998
  0
LINE
  5
B4
330
9D
100
AcDbEntity
  8
PV-CC
100
AcDbLine
 10
0.0
 20
-12.0
 30
98.50000000000001
 11
0.0
 21
-57.0
 31
98.50000000000001
  0
LINE
  5
B5
330
9D
100
AcDbEntity
  8
PV-CC
100
AcDbLine
 10
0.0
 20
-12.0
 30
16.5
 11
0.0
 21
-25.0
 31
16.5
  0
LINE
  5
B6
330
9D
100
AcDbEntity
  8
PV-CC
100
AcDbLine
 10
0.0
 20
-12.0
 30
-16.5
 11
0.0
 21
-25.0
 31
-16.5
  0
ARC
  5
B7
330
9D
100
AcDbEntity
  8
PV-CC
100
AcDbCircle
 10
-10.0
 20
33.0
 30
0.0
 40
2.0
210
1.0
220
0.0
230
0.0
100
AcDbArc
 50
90.00000000000019
 51
180.0000000000012
  0
ARC
  5
B8
330
9D
100
AcDbEntity
  8
PV-CC
100
AcDbCircle
 10
-10.0
 20
-33.0
 30
0.0
 40
2.0
210
1.0
220
0.0
230
0.0
100
AcDbArc
 50
179.9999999999978
 51
269.9999999999997
  0
ARC
  5
B9
330
9D
100
AcDbEntity
  8
PV-CC
100
AcDbCircle
 10
-10.0
 20
148.0
 30
0.0
 40
2.0
210
1.0
220
0.0
230
0.0
100
AcDbArc
 50
90.00000000000019
 51
179.9999999999996
  0
ARC
  5
BA
330
9D
100
AcDbEntity
  8
PV-CC
100
AcDbCircle
 10
-10.0
 20
82.0
 30
0.0
 40
2.0
210
1.0
220
0.0
230
0.0
100
AcDbArc
 50
179.9999999999978
 51
269.9999999999997
  0
ARC
  5
BB
330
9D
100
AcDbEntity
  8
PV-CC
100
AcDbCircle
 10
-10.0
 20
633.0
 30
0.0
 40
2.0
210
1.0
220
0.0
230
0.0
100
AcDbArc
 50
90.00000000000019
 51
179.9999999999996
  0
ARC
  5
BC
330
9D
100
AcDbEntity
  8
PV-CC
100
AcDbCircle
 10
-10.0
 20
567.0
 30
0.0
 40
2.0
210
1.0
220
0.0
230
0.0
100
AcDbArc
 50
179.9999999999996
 51
269.9999999999997
  0
LINE
  5
BD
330
9D
100
AcDbEntity
  8
PV-CC
100
AcDbLine
 10
0.0
 20
-90.0
 30
48.49999999999983
 11
0.0
 21
-90.0
 31
0.0
  0
LINE
  5
BE
330
9D
100
AcDbEntity
  8
PV-CC
100
AcDbLine
 10
0.0
 20
-57.0
 30
16.49999999999999
 11
0.0
 21
-57.0
 31
48.49999999999983
  0
ARC
  5
BF
330
9D
100
AcDbEntity
  8
PV-CC
100
AcDbCircle
 10
-25.0
 20
551.4999999999998
 30
0.0
 40
65.0
210
1.0
220
0.0
230
0.0
100
AcDbArc
 50
89.99999999999761
 51
179.9999999999998
  0
ARC
  5
C0
330
9D
100
AcDbEntity
  8
PV-CC
100
AcDbCircle
 10
-25.0
 20
551.4999999999998
 30
0.0
 40
32.0
210
1.0
220
0.0
230
0.0
100
AcDbArc
 50
89.99999999999761
 51
179.9999999999998
  0
LINE
  5
C1
330
9D
100
AcDbEntity
  8
PV-CC
100
AcDbLine
 10
0.0
 20
-73.5
 30
-16.5
 11
0.0
 21
-25.0
 31
-16.5
  0
LINE
  5
C2
330
9D
100
AcDbEntity
  8
PV-CC
100
AcDbLine
 10
0.0
 20
-25.0
 30
16.5
 11
0.0
 21
-73.5
 31
16.5
  0
ENDBLK
  5
C4
330
9D
100
AcDbEntity
  8
0
100
AcDbBlockEnd
  0
BLOCK
  5
C7
330
C5
100
AcDbEntity
  8
0
100
AcDbBlockBegin
  2
RIGHT
 70
     0
 10
0.0
 20
0.0
 30
0.0
  3
RIGHT
  1

  0
INSERT
  5
C6
330
C5
100
AcDbEntity
  8
PV-CC
100
AcDbBlockReference
  2
*U4
 10
0.0
 20
0.0
 30
0.0
 50
90.0
210
0.0
220
1.0
230
0.0
  0
ENDBLK
  5
C8
330
C5
100
AcDbEntity
  8
0
100
AcDbBlockEnd
  0
BLOCK
  5
E4
330
CA
100
AcDbEntity
  8
0
100
AcDbBlockBegin
  2
*U6
 70
     1
 10
0.0
 20
0.0
 30
0.0
  3
*U6
  1
*ANON
  0
ARC
  5
CB
330
CA
100
AcDbEntity
  8
PV-CC
100
AcDbCircle
 10
-300.0
 20
-73.5
 30
0.0
 40
16.5
100
AcDbArc
 50
179.999999999997
 51
359.9999999999992
  0
LINE
  5
CC
330
CA
100
AcDbEntity
  8
PV-CC
100
AcDbLine
 10
-335.0
 20
0.0
 30
0.0
 11
-265.0
 21
0.0
 31
0.0
  0
LINE
  5
CD
330
CA
100
AcDbEntity
  8
PV-CC
100
AcDbLine
 10
-333.0
 20
-12.0
 30
0.0
 11
-267.0
 21
-12.0
 31
0.0
  0
LINE
  5
CE
330
CA
100
AcDbEntity
  8
PV-CC
100
AcDbLine
 10
-35.0
 20
0.0
 30
0.0
 11
35.0
 21
0.0
 31
0.0
  0
LINE
  5
CF
330
CA
100
AcDbEntity
  8
PV-CC
100
AcDbLine
 10
-33.0
 20
-12.0
 30
0.0
 11
33.0
 21
-12.0
 31
0.0
  0
LINE
  5
D0
330
CA
100
AcDbEntity
  8
PV-CC
100
AcDbLine
 10
35.0
 20
-10.0
 30
0.0
 11
35.0
 21
0.0
 31
0.0
  0
LINE
  5
D1
330
CA
100
AcDbEntity
  8
PV-CC
100
AcDbLine
 10
-35.0
 20
-10.0
 30
0.0
 11
-35.0
 21
0.0
 31
0.0
  0
LINE
  5
D2
330
CA
100
AcDbEntity
  8
PV-CC
100
AcDbLine
 10
-265.0
 20
-10.0
 30
0.0
 11
-265.0
 21
0.0
 31
0.0
  0
LINE
  5
D3
330
CA
100
AcDbEntity
  8
PV-CC
100
AcDbLine
 10
-335.0
 20
-10.0
 30
0.0
 11
-335.0
 21
0.0
 31
0.0
  0
LINE
  5
D4
330
CA
100
AcDbEntity
  8
PV-CC
100
AcDbLine
 10
-316.5
 20
-12.0
 30
0.0
 11
-316.5
 21
-25.0
 31
0.0
  0
LINE
  5
D5
330
CA
100
AcDbEntity
  8
PV-CC
100
AcDbLine
 10
-283.4999999999999
 20
-12.0
 30
0.0
 11
-283.4999999999999
 21
-25.0
 31
0.0
  0
LINE
  5
D6
330
CA
100
AcDbEntity
  8
PV-CC
100
AcDbLine
 10
-48.5
 20
-57.0
 30
0.0
 11
-251.5
 21
-57.0
 31
0.0
  0
LINE
  5
D7
330
CA
100
AcDbEntity
  8
PV-CC
100
AcDbLine
 10
-48.5
 20
-90.0
 30
0.0
 11
-251.5
 21
-90.0
 31
0.0
  0
LINE
  5
D8
330
CA
100
AcDbEntity
  8
PV-CC
100
AcDbLine
 10
-16.5
 20
-12.0
 30
0.0
 11
-16.5
 21
-25.0
 31
0.0
  0
LINE
  5
D9
330
CA
100
AcDbEntity
  8
PV-CC
100
AcDbLine
 10
16.5
 20
-12.0
 30
0.0
 11
16.5
 21
-25.0
 31
0.0
  0
ARC
  5
DA
330
CA
100
AcDbEntity
  8
PV-CC
100
AcDbCircle
 10
-33.0
 20
-10.0
 30
0.0
 40
2.0
100
AcDbArc
 50
180.0000000000002
 51
270.0000000000012
  0
ARC
  5
DB
330
CA
100
AcDbEntity
  8
PV-CC
100
AcDbCircle
 10
33.0
 20
-10.0
 30
0.0
 40
2.0
100
AcDbArc
 50
269.9999999999978
 51
359.9999999999997
  0
ARC
  5
DC
330
CA
100
AcDbEntity
  8
PV-CC
100
AcDbCircle
 10
-333.0
 20
-10.0
 30
0.0
 40
2.0
100
AcDbArc
 50
180.0000000000002
 51
269.9999999999996
  0
ARC
  5
DD
330
CA
100
AcDbEntity
  8
PV-CC
100
AcDbCircle
 10
-267.0
 20
-10.0
 30
0.0
 40
2.0
100
AcDbArc
 50
269.9999999999996
 51
359.9999999999997
  0
LINE
  5
DE
330
CA
100
AcDbEntity
  8
PV-CC
100
AcDbLine
 10
-300.0
 20
-90.0
 30
0.0
 11
-251.4999999999997
 21
-90.0
 31
0.0
  0
LINE
  5
DF
330
CA
100
AcDbEntity
  8
PV-CC
100
AcDbLine
 10
-251.4999999999997
 20
-57.0
 30
0.0
 11
-283.4999999999999
 21
-57.0
 31
0.0
  0
LINE
  5
E0
330
CA
100
AcDbEntity
  8
PV-CC
100
AcDbLine
 10
-283.4999999999999
 20
-73.5
 30
0.0
 11
-283.4999999999999
 21
-25.0
 31
0.0
  0
LINE
  5
E1
330
CA
100
AcDbEntity
  8
PV-CC
100
AcDbLine
 10
-316.5
 20
-24.99999999999983
 30
0.0
 11
-316.5
 21
-73.5
 31
0.0
  0
ARC
  5
E2
330
CA
100
AcDbEntity
  8
PV-CC
100
AcDbCircle
 10
-48.5
 20
-25.0
 30
0.0
 40
32.0
100
AcDbArc
 50
270.0000000000002
 51
0.0000000000015587
  0
ARC
  5
E3
330
CA
100
AcDbEntity
  8
PV-CC
100
AcDbCircle
 10
-48.5
 20
-25.0
 30
0.0
 40
65.0
100
AcDbArc
 50
270.0000000000002
 51
0.0000000000015587
  0
ENDBLK
  5
E5
330
CA
100
AcDbEntity
  8
0
100
AcDbBlockEnd
  0
BLOCK
  5
E8
330
E6
100
AcDbEntity
  8
0
100
AcDbBlockBegin
  2
TOP
 70
     0
 10
0.0
 20
0.0
 30
0.0
  3
TOP
  1

  0
INSERT
  5
E7
330
E6
100
AcDbEntity
  8
PV-CC
100
AcDbBlockReference
  2
*U6
 10
0.0
 20
0.0
 30
0.0
  0
ENDBLK
  5
E9
330
E6
100
AcDbEntity
  8
0
100
AcDbBlockEnd
  0
BLOCK
  5
34B
330
34A
100
AcDbEntity
  8
0
100
AcDbBlockBegin
  2
DimnDraft3D1
 70
     0
 10
0.0
 20
0.0
 30
0.0
  3
DimnDraft3D1
  1

  0
MTEXT
  5
34C
330
34A
100
AcDbEntity
  8
1
  6
Continuous
 62
    35
100
AcDbMText
 10
9.027102000000001
 20
236.245134
 30
0.0
 40
2.5
 41
0.0
 71
     7
 72
     5
  1
\W01.000;\W00.661;285 
  7
blockfont
 11
0.0000000000000001
 21
1.0
 31
0.0
 73
     2
 44
0.9036139999999999
1001
ACAD
1000
MTEXTBEGIN
1070
    73
1070
     2
1070
    44
1040
0.9036139999999999
1070
    74
1070
     0
1000
MTEXTEND
1000
ACAD_MTEXT_DEFINED_HEIGHT_BEGIN
1070
    46
1040
0.2
1000
ACAD_MTEXT_DEFINED_HEIGHT_END
  0
LINE
  5
34D
330
34A
100
AcDbEntity
  8
1
  6
Continuous
 62
    35
370
     5
100
AcDbLine
 10
27.178982
 20
290.791832
 30
0.0
 11
7.469810999999999
 21
290.791832
 31
0.0
  0
LINE
  5
34E
330
34A
100
AcDbEntity
  8
1
  6
Continuous
 62
    35
370
     5
100
AcDbLine
 10
75.177982
 20
148.291832
 30
0.0
 11
7.469810999999999
 21
148.291832
 31
0.0
  0
LINE
  5
34F
330
34A
100
AcDbEntity
  8
1
  6
Continuous
 62
    35
370
     5
100
AcDbLine
 10
9.469810999999999
 20
290.791832
 30
0.0
 11
9.469810999999999
 21
148.291832
 31
0.0
  0
SOLID
  5
350
330
34A
100
AcDbEntity
  8
1
  6
Continuous
 62
    35
370
     5
100
AcDbTrace
 10
9.469810999999999
 20
290.791832
 30
0.0
 11
9.930595
 21
287.291834
 31
0.0
 12
9.009026999999999
 22
287.29183
 32
0.0
 13
9.469810999999999
 23
290.791832
 33
0.0
  0
SOLID
  5
351
330
34A
100
AcDbEntity
  8
1
  6
Continuous
 62
    35
370
     5
100
AcDbTrace
 10
9.469810999999999
 20
148.291832
 30
0.0
 11
9.009026999999999
 21
151.79183
 31
0.0
 12
9.930595
 22
151.791834
 32
0.0
 13
9.469810999999999
 23
148.291832
 33
0.0
  0
ENDBLK
  5
352
330
34A
100
AcDbEntity
  8
0
100
AcDbBlockEnd
  0
BLOCK
  5
354
330
353
100
AcDbEntity
  8
0
100
AcDbBlockBegin
  2
DimnDraft3D2
 70
     0
 10
0.0
 20
0.0
 30
0.0
  3
DimnDraft3D2
  1

  0
MTEXT
  5
355
330
353
100
AcDbEntity
  8
1
  6
Continuous
 62
    35
100
AcDbMText
 10
97.818862
 20
293.351598
 30
0.0
 40
2.5
 41
0.0
 71
     7
 72
     5
  1
\W01.000;\W00.661;200 
  7
blockfont
 73
     2
 44
0.9036139999999999
1001
ACAD
1000
MTEXTBEGIN
1070
    73
1070
     2
1070
    44
1040
0.9036139999999999
1070
    74
1070
     0
1000
MTEXTEND
1000
ACAD_MTEXT_DEFINED_HEIGHT_BEGIN
1070
    46
1040
0.2
1000
ACAD_MTEXT_DEFINED_HEIGHT_END
  0
MTEXT
  5
356
330
353
100
AcDbEntity
  8
1
  6
Continuous
 62
    35
100
AcDbMText
 10
92.193862
 20
293.351598
 30
0.0
 40
2.5
 41
0.0
 71
     7
 72
     5
  1
\W01.000;%%c 
  7
blockfont
 73
     2
 44
0.9036139999999999
1001
ACAD
1000
MTEXTBEGIN
1070
    73
1070
     2
1070
    44
1040
0.9036139999999999
1070
    74
1070
     0
1000
MTEXTEND
1000
ACAD_MTEXT_DEFINED_HEIGHT_BEGIN
1070
    46
1040
0.2
1000
ACAD_MTEXT_DEFINED_HEIGHT_END
  0
LINE
  5
357
330
353
100
AcDbEntity
  8
1
  6
Continuous
 62
    35
370
     5
100
AcDbLine
 10
25.178982
 20
274.791832
 30
0.0
 11
25.178982
 21
294.28389
 31
0.0
  0
LINE
  5
358
330
353
100
AcDbEntity
  8
1
  6
Continuous
 62
    35
370
     5
100
AcDbLine
 10
125.178982
 20
274.791832
 30
0.0
 11
125.178982
 21
294.28389
 31
0.0
  0
LINE
  5
359
330
353
100
AcDbEntity
  8
1
  6
Continuous
 62
    35
370
     5
100
AcDbLine
 10
25.178982
 20
292.28389
 30
0.0
 11
125.178982
 21
292.28389
 31
0.0
  0
SOLID
  5
35A
330
353
100
AcDbEntity
  8
1
  6
Continuous
 62
    35
370
     5
100
AcDbTrace
 10
25.178982
 20
292.28389
 30
0.0
 11
28.678981
 21
292.744674
 31
0.0
 12
28.67898400000001
 22
291.823106
 32
0.0
 13
25.178982
 23
292.28389
 33
0.0
  0
SOLID
  5
35B
330
353
100
AcDbEntity
  8
1
  6
Continuous
 62
    35
370
     5
100
AcDbTrace
 10
125.178982
 20
292.28389
 30
0.0
 11
121.678984
 21
291.823106
 31
0.0
 12
121.678981
 22
292.744674
 32
0.0
 13
125.178982
 23
292.28389
 33
0.0
  0
ENDBLK
  5
35C
330
353
100
AcDbEntity
  8
0
100
AcDbBlockEnd
  0
BLOCK
  5
50E
330
504
100
AcDbEntity
  8
0
100
AcDbBlockBegin
  2
*D11
 70
     1
 10
0.0
 20
0.0
 30
0.0
  3
*D11
  1

  0
LINE
  5
51C
330
504
100
AcDbEntity
  8
1
  6
Continuous
 62
    35
370
    -2
100
AcDbLine
 10
1211.277455348974
 20
1021.266242084762
 30
0.0
 11
1191.568284348974
 21
1021.266242084762
 31
0.0
  0
LINE
  5
51D
330
504
100
AcDbEntity
  8
1
  6
Continuous
 62
    35
370
    -2
100
AcDbLine
 10
1259.276455348974
 20
878.766242084762
 30
0.0
 11
1191.568284348974
 21
878.766242084762
 31
0.0
  0
LINE
  5
51E
330
504
100
AcDbEntity
  8
1
  6
Continuous
 62
    35
370
    -2
100
AcDbLine
 10
1193.568284348974
 20
1017.766242084762
 30
0.0
 11
1193.568284348974
 21
882.266242084762
 31
0.0
  0
SOLID
  5
51F
330
504
100
AcDbEntity
  8
1
  6
Continuous
 62
    35
100
AcDbTrace
 10
1192.984951015641
 20
1017.766242084762
 30
0.0
 11
1194.151617682307
 21
1017.766242084762
 31
0.0
 12
1193.568284348974
 22
1021.266242084762
 32
0.0
 13
1193.568284348974
 23
1021.266242084762
 33
0.0
  0
SOLID
  5
520
330
504
100
AcDbEntity
  8
1
  6
Continuous
 62
    35
100
AcDbTrace
 10
1192.984951015641
 20
882.266242084762
 30
0.0
 11
1194.151617682307
 21
882.266242084762
 31
0.0
 12
1193.568284348974
 22
878.766242084762
 32
0.0
 13
1193.568284348974
 23
878.766242084762
 33
0.0
  0
MTEXT
  5
521
330
504
100
AcDbEntity
  8
1
  6
Continuous
 62
    35
370
    -3
100
AcDbMText
 10
1191.068284348974
 20
968.6711060847621
 30
0.0
 40
2.5
 41
0.0
 71
     5
 72
     1
  1
\A1;\C35;285
  7
blockfont
 11
0.0000000000000001
 21
1.0
 31
0.0
 73
     1
 44
1.0
1001
ACAD
1000
MTEXTBEGIN
1070
    73
1070
     1
1070
    44
1040
1.0
1070
    74
1070
     0
1000
MTEXTEND
  0
POINT
  5
522
330
504
100
AcDbEntity
  8
Defpoints
  6
Continuous
 62
     0
100
AcDbPoint
 10
1211.277455348974
 20
1021.266242084762
 30
0.0
  0
POINT
  5
523
330
504
100
AcDbEntity
  8
Defpoints
  6
Continuous
 62
     0
100
AcDbPoint
 10
1259.276455348974
 20
878.766242084762
 30
0.0
  0
POINT
  5
524
330
504
100
AcDbEntity
  8
Defpoints
  6
Continuous
 62
     0
100
AcDbPoint
 10
1193.568284348974
 20
878.766242084762
 30
0.0
  0
ENDBLK
  5
50F
330
504
100
AcDbEntity
  8
0
100
AcDbBlockEnd
  0
BLOCK
  5
51A
330
510
100
AcDbEntity
  8
0
100
AcDbBlockBegin
  2
*D12
 70
     1
 10
0.0
 20
0.0
 30
0.0
  3
*D12
  1

  0
LINE
  5
525
330
510
100
AcDbEntity
  8
1
  6
Continuous
 62
    35
370
    -2
100
AcDbLine
 10
1209.277455348974
 20
1005.266242084762
 30
0.0
 11
1209.277455348974
 21
1026.633300084762
 31
0.0
  0
LINE
  5
526
330
510
100
AcDbEntity
  8
1
  6
Continuous
 62
    35
370
    -2
100
AcDbLine
 10
1309.277455348974
 20
1005.266242084762
 30
0.0
 11
1309.277455348974
 21
1026.633300084762
 31
0.0
  0
LINE
  5
527
330
510
100
AcDbEntity
  8
1
  6
Continuous
 62
    35
370
    -2
100
AcDbLine
 10
1212.777455348974
 20
1024.633300084762
 30
0.0
 11
1305.777455348974
 21
1024.633300084762
 31
0.0
  0
SOLID
  5
528
330
510
100
AcDbEntity
  8
1
  6
Continuous
 62
    35
100
AcDbTrace
 10
1212.777455348974
 20
1025.216633418095
 30
0.0
 11
1212.777455348974
 21
1024.049966751429
 31
0.0
 12
1209.277455348974
 22
1024.633300084762
 32
0.0
 13
1209.277455348974
 23
1024.633300084762
 33
0.0
  0
SOLID
  5
529
330
510
100
AcDbEntity
  8
1
  6
Continuous
 62
    35
100
AcDbTrace
 10
1305.777455348974
 20
1025.216633418095
 30
0.0
 11
1305.777455348974
 21
1024.049966751429
 31
0.0
 12
1309.277455348974
 22
1024.633300084762
 32
0.0
 13
1309.277455348974
 23
1024.633300084762
 33
0.0
  0
MTEXT
  5
52A
330
510
100
AcDbEntity
  8
1
  6
Continuous
 62
    35
370
    -3
100
AcDbMText
 10
1281.542335348974
 20
1027.133300084762
 30
0.0
 40
2.5
 41
0.0
 71
     5
 72
     1
  1
\A1;\C35;%%c 200
  7
blockfont
 73
     1
 44
1.0
1001
ACAD
1000
MTEXTBEGIN
1070
    73
1070
     1
1070
    44
1040
1.0
1070
    74
1070
     0
1000
MTEXTEND
  0
POINT
  5
52B
330
510
100
AcDbEntity
  8
Defpoints
  6
Continuous
 62
     0
100
AcDbPoint
 10
1209.277455348974
 20
1005.266242084762
 30
0.0
  0
POINT
  5
52C
330
510
100
AcDbEntity
  8
Defpoints
  6
Continuous
 62
     0
100
AcDbPoint
 10
1309.277455348974
 20
1005.266242084762
 30
0.0
  0
POINT
  5
52D
330
510
100
AcDbEntity
  8
Defpoints
  6
Continuous
 62
     0
100
AcDbPoint
 10
1309.277455348974
 20
1024.633300084762
 30
0.0
  0
ENDBLK
  5
51B
330
510
100
AcDbEntity
  8
0
100
AcDbBlockEnd
  0
BLOCK
  5
548
330
53D
100
AcDbEntity
  8
0
100
AcDbBlockBegin
  2
*D14
 70
     1
 10
0.0
 20
0.0
 30
0.0
  3
*D14
  1

  0
LINE
  5
53E
330
53D
100
AcDbEntity
  8
0
 62
     0
370
    -2
100
AcDbLine
 10
552.7675580079594
 20
960.6002326131333
 30
0.0
 11
552.7675580079594
 21
967.0326998840383
 31
0.0
  0
LINE
  5
53F
330
53D
100
AcDbEntity
  8
0
 62
     0
370
    -2
100
AcDbLine
 10
571.7675580079594
 20
960.6002326131333
 30
0.0
 11
571.7675580079594
 21
967.0326998840383
 31
0.0
  0
LINE
  5
540
330
53D
100
AcDbEntity
  8
0
 62
     0
370
    -2
100
AcDbLine
 10
552.9475580079593
 20
966.8526998840384
 30
0.0
 11
561.7275580079595
 21
966.8526998840384
 31
0.0
  0
LINE
  5
541
330
53D
100
AcDbEntity
  8
0
 62
     0
370
    -2
100
AcDbLine
 10
571.5875580079595
 20
966.8526998840384
 30
0.0
 11
562.8075580079594
 21
966.8526998840384
 31
0.0
  0
SOLID
  5
542
330
53D
100
AcDbEntity
  8
0
 62
     0
100
AcDbTrace
 10
552.9475580079593
 20
966.8826998840383
 30
0.0
 11
552.9475580079593
 21
966.8226998840385
 31
0.0
 12
552.7675580079594
 22
966.8526998840384
 32
0.0
 13
552.7675580079594
 23
966.8526998840384
 33
0.0
  0
SOLID
  5
543
330
53D
100
AcDbEntity
  8
0
 62
     0
100
AcDbTrace
 10
571.5875580079595
 20
966.8826998840383
 30
0.0
 11
571.5875580079595
 21
966.8226998840385
 31
0.0
 12
571.7675580079594
 22
966.8526998840384
 32
0.0
 13
571.7675580079594
 23
966.8526998840384
 33
0.0
  0
MTEXT
  5
544
330
53D
100
AcDbEntity
  8
0
 62
     0
100
AcDbMText
 10
562.2675580079594
 20
966.8526998840384
 30
0.0
 40
0.18
 41
0.0
 71
     5
 72
     1
  1
\A1;19.0000
 73
     1
 44
1.0
1001
ACAD
1000
MTEXTBEGIN
1070
    73
1070
     1
1070
    44
1040
1.0
1070
    74
1070
     0
1000
MTEXTEND
  0
POINT
  5
545
330
53D
100
AcDbEntity
  8
Defpoints
 62
     0
100
AcDbPoint
 10
552.7675580079594
 20
960.5377326131334
 30
0.0
  0
POINT
  5
546
330
53D
100
AcDbEntity
  8
Defpoints
 62
     0
100
AcDbPoint
 10
571.7675580079594
 20
960.5377326131334
 30
0.0
  0
POINT
  5
547
330
53D
100
AcDbEntity
  8
Defpoints
 62
     0
100
AcDbPoint
 10
571.7675580079594
 20
966.8526998840384
 30
0.0
  0
ENDBLK
  5
549
330
53D
100
AcDbEntity
  8
0
100
AcDbBlockEnd
  0
ENDSEC
  0
SECTION
  2
ENTITIES
  0
LWPOLYLINE
  5
52E
330
1F
100
AcDbEntity
  8
0
100
AcDbPolyline
 90
        8
 70
     1
 43
0.0
 10
130.6605689083053
 20
179.6088863319905
 42
0.4142135623730951
 10
132.6605689083053
 20
177.6088863319905
 10
258.1605689083053
 20
177.6088863319905
 42
0.4142135623730951
 10
260.1605689083053
 20
179.6088863319905
 10
260.1605689083053
 20
356.1088863319906
 42
0.4142135623730951
 10
258.1605689083053
 20
358.1088863319906
 10
132.6605689083053
 20
358.1088863319906
 42
0.4142135623730951
 10
130.6605689083053
 20
356.1088863319906
  0
LWPOLYLINE
  5
52F
330
1F
100
AcDbEntity
  8
0
100
AcDbPolyline
 90
        4
 70
     1
 43
0.0
 10
130.6605689083052
 20
118.4374397888445
 10
260.1605689083053
 20
118.4374397888445
 10
260.1605689083053
 20
133.4374397888446
 10
130.6605689083052
 20
133.4374397888446
  0
LWPOLYLINE
  5
530
330
1F
100
AcDbEntity
  8
0
100
AcDbPolyline
 90
        4
 70
     1
 43
0.0
 10
130.6605689083052
 20
120.4374397888446
 10
260.1605689083053
 20
120.4374397888446
 10
260.1605689083053
 20
131.4374397888446
 10
130.6605689083052
 20
131.4374397888446
  0
LWPOLYLINE
  5
53A
330
1F
100
AcDbEntity
  8
0
100
AcDbPolyline
 90
        4
 70
     1
 43
0.0
 10
306.4274782005595
 20
177.6088863319905
 10
321.4274782005596
 20
177.6088863319905
 10
321.4274782005596
 20
358.1088863319906
 10
306.4274782005595
 20
358.1088863319906
  0
LWPOLYLINE
  5
54A
330
1F
100
AcDbEntity
  8
0
100
AcDbPolyline
 90
        4
 70
     1
 43
0.0
 10
308.4274782005596
 20
177.6088863319905
 10
319.4274782005596
 20
177.6088863319905
 10
319.4274782005596
 20
358.1088863319906
 10
308.4274782005596
 20
358.1088863319906
  0
ENDSEC
  0
SECTION
  2
OBJECTS
  0
DICTIONARY
  5
C
330
0
100
AcDbDictionary
281
     1
  3
ACAD_COLOR
350
1B9
  3
ACAD_GROUP
350
D
  3
ACAD_LAYOUT
350
1BC
  3
ACAD_MATERIAL
350
1A4
  3
ACAD_MLINESTYLE
350
17
  3
ACAD_PLOTSETTINGS
350
19
  3
ACAD_PLOTSTYLENAME
350
F4
  3
ACAD_TABLESTYLE
350
1BA
  3
ACAD_VISUALSTYLE
350
1A8
  3
AcDbVariableDictionary
350
1C8
  3
DWGPROPS
350
54B
1001
ACAD
1000
TREAT_AS_HARD
1070
     0
  0
DICTIONARY
  5
EE
330
1F
100
AcDbDictionary
280
     1
281
     1
  3
ACAD_LAYOUTSELFREF
360
1A1
  3
ACAD_SORTENTS
360
531
  0
DICTIONARY
  5
EC
330
1B
100
AcDbDictionary
280
     1
281
     1
  3
ACAD_LAYOUTSELFREF
360
1A0
  0
DICTIONARY
  5
1B9
102
{ACAD_REACTORS
330
C
102
}
330
C
100
AcDbDictionary
281
     1
  0
DICTIONARY
  5
D
102
{ACAD_REACTORS
330
C
102
}
330
C
100
AcDbDictionary
281
     1
1001
ACAD
1000
TREAT_AS_HARD
1070
     0
  0
DICTIONARY
  5
1BC
102
{ACAD_REACTORS
330
C
102
}
330
C
100
AcDbDictionary
281
     1
  3
Layout1
350
1BE
  3
Model
350
1BD
  0
DICTIONARY
  5
1A4
102
{ACAD_REACTORS
330
C
102
}
330
C
100
AcDbDictionary
281
     1
  3
ByBlock
350
1A6
  3
ByLayer
350
1A5
  3
Global
350
1A7
  0
DICTIONARY
  5
17
102
{ACAD_REACTORS
330
C
102
}
330
C
100
AcDbDictionary
281
     1
  3
STANDARD
350
18
1001
ACAD
1000
TREAT_AS_HARD
1070
     0
  0
DICTIONARY
  5
19
102
{ACAD_REACTORS
330
C
102
}
330
C
100
AcDbDictionary
281
     1
1001
ACAD
1000
TREAT_AS_HARD
1070
     0
  0
ACDBDICTIONARYWDFLT
  5
F4
102
{ACAD_REACTORS
330
C
102
}
330
C
100
AcDbDictionary
281
     1
  3
Normal
350
F5
100
AcDbDictionaryWithDefault
340
F5
  0
DICTIONARY
  5
1BA
102
{ACAD_REACTORS
330
C
102
}
330
C
100
AcDbDictionary
281
     1
  3
Standard
350
1BB
  0
DICTIONARY
  5
1A8
102
{ACAD_REACTORS
330
C
102
}
330
C
100
AcDbDictionary
281
     1
  3
2dWireframe
350
1AE
  3
3D Hidden
350
1B0
  3
3dWireframe
350
1AF
  3
Basic
350
1AD
  3
Brighten
350
1B4
  3
ColorChange
350
1B8
  3
Conceptual
350
1B1
  3
Dim
350
1B3
  3
Facepattern
350
1B7
  3
Flat
350
1A9
  3
FlatWithEdges
350
1AA
  3
Gouraud
350
1AB
  3
GouraudWithEdges
350
1AC
  3
Linepattern
350
1B6
  3
Realistic
350
1B2
  3
Thicken
350
1B5
  0
DICTIONARY
  5
1C8
102
{ACAD_REACTORS
330
C
102
}
330
C
100
AcDbDictionary
281
     1
  3
CTABLESTYLE
350
1C9
  3
DIMASSOC
350
1CC
  3
INDEXCTL
350
1CB
  3
SORTENTS
350
1CA
  0
XRECORD
  5
54B
102
{ACAD_REACTORS
330
C
102
}
330
C
100
AcDbXrecord
280
     1
  1
DWGPROPS COOKIE
  2

  3

  4

  6

  7

  8
kaschu
  9

300
=
301
=
302
=
303
=
304
=
305
=
306
=
307
=
308
=
309
=
 40
0.0070225347222222
 41
2451762.502849422
 42
2456437.432064665
  1

 90
        0
  0
XRECORD
  5
1A1
102
{ACAD_REACTORS
330
EE
102
}
330
EE
100
AcDbXrecord
280
     1
340
1F
  0
SORTENTSTABLE
  5
531
102
{ACAD_REACTORS
330
EE
102
}
330
EE
100
AcDbSortentsTable
330
1F
331
52E
  5
52E
331
53A
  5
53A
331
52F
  5
52F
331
530
  5
530
331
54A
  5
54A
  0
XRECORD
  5
1A0
102
{ACAD_REACTORS
330
EC
102
}
330
EC
100
AcDbXrecord
280
     1
340
1B
  0
LAYOUT
  5
1BE
102
{ACAD_XDICTIONARY
360
550
102
}
102
{ACAD_REACTORS
330
1BC
102
}
330
1BC
100
AcDbPlotSettings
  1

  2
\\druckserv1\AROBBE04
  4

  6

 40
0.0
 41
0.0
 42
0.0
 43
0.0
 44
0.0
 45
0.0
 46
0.0
 47
0.0
 48
0.0
 49
0.0
140
0.0
141
0.0
142
1.0
143
1.0
 70
   688
 72
     0
 73
     0
 74
     5
  7

 75
    16
147
1.0
148
0.0
149
0.0
100
AcDbLayout
  1
Layout1
 70
     1
 71
     1
 10
0.0
 20
0.0
 11
12.0
 21
9.0
 12
0.0
 22
0.0
 32
0.0
 14
1.000000000000000E+20
 24
1.000000000000000E+20
 34
1.000000000000000E+20
 15
-1.000000000000000E+20
 25
-1.000000000000000E+20
 35
-1.000000000000000E+20
146
0.0
 13
0.0
 23
0.0
 33
0.0
 16
1.0
 26
0.0
 36
0.0
 17
0.0
 27
1.0
 37
0.0
 76
     0
330
1B
  0
LAYOUT
  5
1BD
102
{ACAD_XDICTIONARY
360
54E
102
}
102
{ACAD_REACTORS
330
1BC
102
}
330
1BC
100
AcDbPlotSettings
  1

  2
\\druckserv1\AROBBE04
  4

  6

 40
0.0
 41
0.0
 42
0.0
 43
0.0
 44
0.0
 45
0.0
 46
0.0
 47
0.0
 48
0.0
 49
0.0
140
0.0
141
0.0
142
1.0
143
1.0
 70
  1712
 72
     0
 73
     0
 74
     0
  7

 75
     0
147
1.0
148
0.0
149
0.0
100
AcDbLayout
  1
Model
 70
     1
 71
     0
 10
0.0
 20
0.0
 11
12.0
 21
9.0
 12
0.0
 22
0.0
 32
0.0
 14
0.0
 24
0.0
 34
0.0
 15
0.0
 25
0.0
 35
0.0
146
0.0
 13
0.0
 23
0.0
 33
0.0
 16
1.0
 26
0.0
 36
0.0
 17
0.0
 27
1.0
 37
0.0
 76
     0
330
1F
331
17F
  0
MATERIAL
  5
1A6
102
{ACAD_XDICTIONARY
360
1D0
102
}
102
{ACAD_REACTORS
330
1A4
102
}
330
1A4
100
AcDbMaterial
  1
ByBlock
  0
MATERIAL
  5
1A5
102
{ACAD_XDICTIONARY
360
1CE
102
}
102
{ACAD_REACTORS
330
1A4
102
}
330
1A4
100
AcDbMaterial
  1
ByLayer
  0
MATERIAL
  5
1A7
102
{ACAD_XDICTIONARY
360
1D2
102
}
102
{ACAD_REACTORS
330
1A4
102
}
330
1A4
100
AcDbMaterial
  1
Global
  0
MLINESTYLE
  5
18
102
{ACAD_REACTORS
330
17
102
}
330
17
100
AcDbMlineStyle
  2
STANDARD
 70
     0
  3

 62
   256
 51
90.0
 52
90.0
 71
     2
 49
0.5
 62
   256
  6
BYLAYER
 49
-0.5
 62
   256
  6
BYLAYER
  0
ACDBPLACEHOLDER
  5
F5
102
{ACAD_REACTORS
330
F4
102
}
330
F4
  0
TABLESTYLE
  5
1BB
102
{ACAD_XDICTIONARY
360
54C
102
}
102
{ACAD_REACTORS
330
1BA
102
}
330
1BA
100
AcDbTableStyle
  3
Standard
 70
     0
 71
     0
 40
0.06
 41
0.06
280
     0
281
     0
  7
STANDARD
140
0.18
170
     2
 62
     0
 63
     7
283
     0
274
    -2
284
     1
 64
     0
275
    -2
285
     1
 65
     0
276
    -2
286
     1
 66
     0
277
    -2
287
     1
 67
     0
278
    -2
288
     1
 68
     0
279
    -2
289
     1
 69
     0
  7
STANDARD
140
0.25
170
     5
 62
     0
 63
     7
283
     0
274
    -2
284
     1
 64
     0
275
    -2
285
     1
 65
     0
276
    -2
286
     1
 66
     0
277
    -2
287
     1
 67
     0
278
    -2
288
     1
 68
     0
279
    -2
289
     1
 69
     0
  7
STANDARD
140
0.18
170
     5
 62
     0
 63
     7
283
     0
274
    -2
284
     1
 64
     0
275
    -2
285
     1
 65
     0
276
    -2
286
     1
 66
     0
277
    -2
287
     1
 67
     0
278
    -2
288
     1
 68
     0
279
    -2
289
     1
 69
     0
  0
VISUALSTYLE
  5
1AE
102
{ACAD_REACTORS
330
1A8
102
}
330
1A8
100
AcDbVisualStyle
  2
2dWireframe
 70
     4
 71
     0
 72
     2
 73
     0
 90
        0
 40
-0.6
 41
-30.0
 62
     5
 63
     7
 74
     1
 91
        4
 64
     7
 65
   257
 75
     1
175
     1
 42
1.0
 92
        0
 66
   257
 43
1.0
 76
     1
 77
     6
 78
     2
 67
     7
 79
     5
170
     0
171
     0
290
     0
174
     0
 93
        1
 44
0.0
173
     0
291
     0
 45
0.0
1001
ACAD
1000
AcDbSavedByObjectVersion
1070
     0
1000
AcDbSavedByObjectVersion
1070
     0
1000
AcDbSavedByObjectVersion
1070
     0
1000
AcDbSavedByObjectVersion
1070
     0
1000
AcDbSavedByObjectVersion
1070
     0
  0
VISUALSTYLE
  5
1B0
102
{ACAD_REACTORS
330
1A8
102
}
330
1A8
100
AcDbVisualStyle
  2
3D Hidden
 70
     6
 71
     1
 72
     2
 73
     2
 90
        0
 40
-0.6
 41
-30.0
 62
     5
 63
     7
 74
     2
 91
        2
 64
     7
 65
   257
 75
     2
175
     1
 42
40.0
 92
        0
 66
   257
 43
1.0
 76
     1
 77
     6
 78
     2
 67
     7
 79
     3
170
     0
171
     0
290
     0
174
     0
 93
        1
 44
0.0
173
     0
291
     0
 45
0.0
1001
ACAD
1000
AcDbSavedByObjectVersion
1070
     0
1000
AcDbSavedByObjectVersion
1070
     0
1000
AcDbSavedByObjectVersion
1070
     0
1000
AcDbSavedByObjectVersion
1070
     0
1000
AcDbSavedByObjectVersion
1070
     0
  0
VISUALSTYLE
  5
1AF
102
{ACAD_REACTORS
330
1A8
102
}
330
1A8
100
AcDbVisualStyle
  2
3dWireframe
 70
     5
 71
     0
 72
     2
 73
     0
 90
        0
 40
-0.6
 41
-30.0
 62
     5
 63
     7
 74
     1
 91
        4
 64
     7
 65
   257
 75
     1
175
     1
 42
1.0
 92
        0
 66
   257
 43
1.0
 76
     1
 77
     6
 78
     2
 67
     7
 79
     5
170
     0
171
     0
290
     0
174
     0
 93
        1
 44
0.0
173
     0
291
     0
 45
0.0
1001
ACAD
1000
AcDbSavedByObjectVersion
1070
     0
1000
AcDbSavedByObjectVersion
1070
     0
1000
AcDbSavedByObjectVersion
1070
     0
1000
AcDbSavedByObjectVersion
1070
     0
1000
AcDbSavedByObjectVersion
1070
     0
  0
VISUALSTYLE
  5
1AD
102
{ACAD_REACTORS
330
1A8
102
}
330
1A8
100
AcDbVisualStyle
  2
Basic
 70
     7
 71
     1
 72
     0
 73
     1
 90
        0
 40
-0.6
 41
-30.0
 62
     5
 63
     7
 74
     0
 91
        4
 64
     7
 65
   257
 75
     1
175
     1
 42
1.0
 92
        8
 66
     7
 43
1.0
 76
     1
 77
     6
 78
     2
 67
     7
 79
     5
170
     0
171
     0
290
     0
174
     0
 93
        1
 44
0.0
173
     0
291
     1
 45
0.0
1001
ACAD
1000
AcDbSavedByObjectVersion
1070
     0
1000
AcDbSavedByObjectVersion
1070
     0
1000
AcDbSavedByObjectVersion
1070
     0
1000
AcDbSavedByObjectVersion
1070
     0
1000
AcDbSavedByObjectVersion
1070
     0
  0
VISUALSTYLE
  5
1B4
102
{ACAD_REACTORS
330
1A8
102
}
330
1A8
100
AcDbVisualStyle
  2
Brighten
 70
    12
 71
     2
 72
     2
 73
     0
 90
        0
 40
-0.6
 41
-30.0
 62
     5
 63
     7
 74
     1
 91
        4
 64
     7
 65
   257
 75
     1
175
     1
 42
1.0
 92
        8
 66
     7
 43
1.0
 76
     1
 77
     6
 78
     2
 67
     7
 79
     5
170
     0
171
     0
290
     0
174
     0
 93
        1
 44
50.0
173
     0
291
     1
 45
0.0
1001
ACAD
1000
AcDbSavedByObjectVersion
1070
     0
1000
AcDbSavedByObjectVersion
1070
     0
1000
AcDbSavedByObjectVersion
1070
     0
1000
AcDbSavedByObjectVersion
1070
     0
1000
AcDbSavedByObjectVersion
1070
     0
  0
VISUALSTYLE
  5
1B8
102
{ACAD_REACTORS
330
1A8
102
}
330
1A8
100
AcDbVisualStyle
  2
ColorChange
 70
    16
 71
     2
 72
     2
 73
     3
 90
        0
 40
-0.6
 41
-30.0
 62
     5
 63
     8
 74
     1
 91
        4
 64
     7
 65
   257
 75
     1
175
     1
 42
1.0
 92
        8
 66
     8
 43
1.0
 76
     1
 77
     6
 78
     2
 67
     7
 79
     5
170
     0
171
     0
290
     0
174
     0
 93
        1
 44
0.0
173
     0
291
     1
 45
0.0
1001
ACAD
1000
AcDbSavedByObjectVersion
1070
     0
1000
AcDbSavedByObjectVersion
1070
     0
1000
AcDbSavedByObjectVersion
1070
     0
1000
AcDbSavedByObjectVersion
1070
     0
1000
AcDbSavedByObjectVersion
1070
     0
  0
VISUALSTYLE
  5
1B1
102
{ACAD_REACTORS
330
1A8
102
}
330
1A8
100
AcDbVisualStyle
  2
Conceptual
 70
     9
 71
     3
 72
     2
 73
     0
 90
        0
 40
-0.6
 41
-30.0
 62
     5
 63
     7
 74
     2
 91
        2
 64
     7
 65
   257
 75
     1
175
     1
 42
40.0
 92
        8
 66
     7
 43
1.0
 76
     1
 77
     6
 78
     2
 67
     7
 79
     3
170
     0
171
     0
290
     0
174
     0
 93
        1
 44
0.0
173
     0
291
     0
 45
0.0
1001
ACAD
1000
AcDbSavedByObjectVersion
1070
     0
1000
AcDbSavedByObjectVersion
1070
     0
1000
AcDbSavedByObjectVersion
1070
     0
1000
AcDbSavedByObjectVersion
1070
     0
1000
AcDbSavedByObjectVersion
1070
     0
  0
VISUALSTYLE
  5
1B3
102
{ACAD_REACTORS
330
1A8
102
}
330
1A8
100
AcDbVisualStyle
  2
Dim
 70
    11
 71
     2
 72
     2
 73
     0
 90
        0
 40
-0.6
 41
-30.0
 62
     5
 63
     7
 74
     1
 91
        4
 64
     7
 65
   257
 75
     1
175
     1
 42
1.0
 92
        8
 66
     7
 43
1.0
 76
     1
 77
     6
 78
     2
 67
     7
 79
     5
170
     0
171
     0
290
     0
174
     0
 93
        1
 44
-50.0
173
     0
291
     1
 45
0.0
1001
ACAD
1000
AcDbSavedByObjectVersion
1070
     0
1000
AcDbSavedByObjectVersion
1070
     0
1000
AcDbSavedByObjectVersion
1070
     0
1000
AcDbSavedByObjectVersion
1070
     0
1000
AcDbSavedByObjectVersion
1070
     0
  0
VISUALSTYLE
  5
1B7
102
{ACAD_REACTORS
330
1A8
102
}
330
1A8
100
AcDbVisualStyle
  2
Facepattern
 70
    15
 71
     2
 72
     2
 73
     0
 90
        0
 40
-0.6
 41
-30.0
 62
     5
 63
     7
 74
     1
 91
        4
 64
     7
 65
   257
 75
     1
175
     1
 42
1.0
 92
        8
 66
     7
 43
1.0
 76
     1
 77
     6
 78
     2
 67
     7
 79
     5
170
     0
171
     0
290
     0
174
     0
 93
        1
 44
0.0
173
     0
291
     1
 45
0.0
1001
ACAD
1000
AcDbSavedByObjectVersion
1070
     0
1000
AcDbSavedByObjectVersion
1070
     0
1000
AcDbSavedByObjectVersion
1070
     0
1000
AcDbSavedByObjectVersion
1070
     0
1000
AcDbSavedByObjectVersion
1070
     0
  0
VISUALSTYLE
  5
1A9
102
{ACAD_REACTORS
330
1A8
102
}
330
1A8
100
AcDbVisualStyle
  2
Flat
 70
     0
 71
     2
 72
     1
 73
     1
 90
        2
 40
-0.6
 41
30.0
 62
     5
 63
     7
 74
     0
 91
        4
 64
     7
 65
   257
 75
     1
175
     1
 42
1.0
 92
        8
 66
     7
 43
1.0
 76
     1
 77
     6
 78
     2
 67
     7
 79
     5
170
     0
171
     0
290
     0
174
     0
 93
       13
 44
0.0
173
     0
291
     1
 45
0.0
1001
ACAD
1000
AcDbSavedByObjectVersion
1070
     0
1000
AcDbSavedByObjectVersion
1070
     0
1000
AcDbSavedByObjectVersion
1070
     0
1000
AcDbSavedByObjectVersion
1070
     0
1000
AcDbSavedByObjectVersion
1070
     0
  0
VISUALSTYLE
  5
1AA
102
{ACAD_REACTORS
330
1A8
102
}
330
1A8
100
AcDbVisualStyle
  2
FlatWithEdges
 70
     1
 71
     2
 72
     1
 73
     1
 90
        2
 40
-0.6
 41
30.0
 62
     5
 63
     7
 74
     1
 91
        4
 64
     7
 65
   257
 75
     1
175
     1
 42
1.0
 92
        0
 66
   257
 43
1.0
 76
     1
 77
     6
 78
     2
 67
     7
 79
     5
170
     0
171
     0
290
     0
174
     0
 93
       13
 44
0.0
173
     0
291
     1
 45
0.0
1001
ACAD
1000
AcDbSavedByObjectVersion
1070
     0
1000
AcDbSavedByObjectVersion
1070
     0
1000
AcDbSavedByObjectVersion
1070
     0
1000
AcDbSavedByObjectVersion
1070
     0
1000
AcDbSavedByObjectVersion
1070
     0
  0
VISUALSTYLE
  5
1AB
102
{ACAD_REACTORS
330
1A8
102
}
330
1A8
100
AcDbVisualStyle
  2
Gouraud
 70
     2
 71
     2
 72
     2
 73
     1
 90
        2
 40
-0.6
 41
30.0
 62
     5
 63
     7
 74
     0
 91
        4
 64
     7
 65
   257
 75
     1
175
     1
 42
1.0
 92
        0
 66
     7
 43
1.0
 76
     1
 77
     6
 78
     2
 67
     7
 79
     5
170
     0
171
     0
290
     0
174
     0
 93
       13
 44
0.0
173
     0
291
     1
 45
0.0
1001
ACAD
1000
AcDbSavedByObjectVersion
1070
     0
1000
AcDbSavedByObjectVersion
1070
     0
1000
AcDbSavedByObjectVersion
1070
     0
1000
AcDbSavedByObjectVersion
1070
     0
1000
AcDbSavedByObjectVersion
1070
     0
  0
VISUALSTYLE
  5
1AC
102
{ACAD_REACTORS
330
1A8
102
}
330
1A8
100
AcDbVisualStyle
  2
GouraudWithEdges
 70
     3
 71
     2
 72
     2
 73
     1
 90
        2
 40
-0.6
 41
30.0
 62
     5
 63
     7
 74
     1
 91
        4
 64
     7
 65
   257
 75
     1
175
     1
 42
1.0
 92
        0
 66
   257
 43
1.0
 76
     1
 77
     6
 78
     2
 67
     7
 79
     5
170
     0
171
     0
290
     0
174
     0
 93
       13
 44
0.0
173
     0
291
     1
 45
0.0
1001
ACAD
1000
AcDbSavedByObjectVersion
1070
     0
1000
AcDbSavedByObjectVersion
1070
     0
1000
AcDbSavedByObjectVersion
1070
     0
1000
AcDbSavedByObjectVersion
1070
     0
1000
AcDbSavedByObjectVersion
1070
     0
  0
VISUALSTYLE
  5
1B6
102
{ACAD_REACTORS
330
1A8
102
}
330
1A8
100
AcDbVisualStyle
  2
Linepattern
 70
    14
 71
     2
 72
     2
 73
     0
 90
        0
 40
-0.6
 41
-30.0
 62
     5
 63
     7
 74
     1
 91
        4
 64
     7
 65
   257
 75
     7
175
     7
 42
1.0
 92
        8
 66
     7
 43
1.0
 76
     1
 77
     6
 78
     2
 67
     7
 79
     5
170
     0
171
     0
290
     0
174
     0
 93
        1
 44
0.0
173
     0
291
     1
 45
0.0
1001
ACAD
1000
AcDbSavedByObjectVersion
1070
     0
1000
AcDbSavedByObjectVersion
1070
     0
1000
AcDbSavedByObjectVersion
1070
     0
1000
AcDbSavedByObjectVersion
1070
     0
1000
AcDbSavedByObjectVersion
1070
     0
  0
VISUALSTYLE
  5
1B2
102
{ACAD_REACTORS
330
1A8
102
}
330
1A8
100
AcDbVisualStyle
  2
Realistic
 70
     8
 71
     2
 72
     2
 73
     0
 90
        0
 40
-0.6
 41
-30.0
 62
     5
 63
     7
 74
     1
 91
        0
 64
     7
 65
   257
 75
     1
175
     1
 42
1.0
 92
        8
 66
     8
 43
1.0
 76
     1
 77
     6
 78
     2
 67
     7
 79
     5
170
     0
171
     0
290
     0
174
     0
 93
       13
 44
0.0
173
     0
291
     0
 45
0.0
1001
ACAD
1000
AcDbSavedByObjectVersion
1070
     0
1000
AcDbSavedByObjectVersion
1070
     0
1000
AcDbSavedByObjectVersion
1070
     0
1000
AcDbSavedByObjectVersion
1070
     0
1000
AcDbSavedByObjectVersion
1070
     0
  0
VISUALSTYLE
  5
1B5
102
{ACAD_REACTORS
330
1A8
102
}
330
1A8
100
AcDbVisualStyle
  2
Thicken
 70
    13
 71
     2
 72
     2
 73
     0
 90
        0
 40
-0.6
 41
-30.0
 62
     5
 63
     7
 74
     1
 91
        4
 64
     7
 65
   257
 75
     1
175
     1
 42
1.0
 92
       12
 66
     7
 43
1.0
 76
     1
 77
     6
 78
     2
 67
     7
 79
     5
170
     0
171
     0
290
     0
174
     0
 93
        1
 44
0.0
173
     0
291
     1
 45
0.0
1001
ACAD
1000
AcDbSavedByObjectVersion
1070
     0
1000
AcDbSavedByObjectVersion
1070
     0
1000
AcDbSavedByObjectVersion
1070
     0
1000
AcDbSavedByObjectVersion
1070
     0
1000
AcDbSavedByObjectVersion
1070
     0
  0
DICTIONARYVAR
  5
1C9
102
{ACAD_REACTORS
330
1C8
102
}
330
1C8
100
DictionaryVariables
280
     0
  1
STANDARD
  0
DICTIONARYVAR
  5
1CC
102
{ACAD_REACTORS
330
1C8
102
}
330
1C8
100
DictionaryVariables
280
     0
  1
1
  0
DICTIONARYVAR
  5
1CB
102
{ACAD_REACTORS
330
1C8
102
}
330
1C8
100
DictionaryVariables
280
     0
  1
0
  0
DICTIONARYVAR
  5
1CA
102
{ACAD_REACTORS
330
1C8
102
}
330
1C8
100
DictionaryVariables
280
     0
  1
127
  0
DICTIONARY
  5
550
330
1BE
100
AcDbDictionary
280
     1
281
     1
  3
ACAD_XREC_ROUNDTRIP
360
551
  0
DICTIONARY
  5
54E
330
1BD
100
AcDbDictionary
280
     1
281
     1
  3
ACAD_XREC_ROUNDTRIP
360
54F
  0
DICTIONARY
  5
1D0
330
1A6
100
AcDbDictionary
280
     1
281
     1
  3
ACAD_XREC_ROUNDTRIP
360
1D1
  0
DICTIONARY
  5
1CE
330
1A5
100
AcDbDictionary
280
     1
281
     1
  3
ACAD_XREC_ROUNDTRIP
360
1CF
  0
DICTIONARY
  5
1D2
330
1A7
100
AcDbDictionary
280
     1
281
     1
  3
ACAD_XREC_ROUNDTRIP
360
1D3
  0
DICTIONARY
  5
54C
330
1BB
100
AcDbDictionary
280
     1
281
     1
  3
ACAD_XREC_ROUNDTRIP
360
54D
  0
XRECORD
  5
551
102
{ACAD_REACTORS
330
550
102
}
330
550
100
AcDbXrecord
280
     1
102
SHADEPLOT
 70
     0
102
SHADEPLOTRESLEVEL
 70
     2
102
SHADEPLOTCUSTOMDPI
 70
   300
  0
XRECORD
  5
54F
102
{ACAD_REACTORS
330
54E
102
}
330
54E
100
AcDbXrecord
280
     1
102
SHADEPLOT
 70
     0
102
SHADEPLOTRESLEVEL
 70
     2
102
SHADEPLOTCUSTOMDPI
 70
   300
  0
XRECORD
  5
1D1
102
{ACAD_REACTORS
330
1D0
102
}
330
1D0
100
AcDbXrecord
280
     1
102
MATERIAL
148
0.0
149
0.0
149
0.0
 93
        0
 94
       63
282
     0
 72
     1
 77
     1
171
     1
175
     1
179
     1
273
     0
  0
XRECORD
  5
1CF
102
{ACAD_REACTORS
330
1CE
102
}
330
1CE
100
AcDbXrecord
280
     1
102
MATERIAL
148
0.0
149
0.0
149
0.0
 93
        0
 94
       63
282
     0
 72
     1
 77
     1
171
     1
175
     1
179
     1
273
     0
  0
XRECORD
  5
1D3
102
{ACAD_REACTORS
330
1D2
102
}
330
1D2
100
AcDbXrecord
280
     1
102
MATERIAL
148
0.0
149
0.0
149
0.0
 93
        0
 94
       63
282
     0
 72
     1
 77
     1
171
     1
175
     1
179
     1
273
     0
  0
XRECORD
  5
54D
102
{ACAD_REACTORS
330
54C
102
}
330
54C
100
AcDbXrecord
280
     1
102
ACAD_ROUNDTRIP_PRE2007_TABLESTYLE
 90
      512
 91
        0
  1

 92
      512
 93
        0
  2

 94
      512
 95
        0
  3

  0
ENDSEC
  0
EOF
