  0
SECTION
  2
HEADER
  9
$ACADVER
  1
AC1027
  9
$ACADMAINTVER
 70
   125
  9
$DWGCODEPAGE
  3
ANSI_1252
  9
$LASTSAVEDBY
  1
kaschu
  9
$REQUIREDVERSIONS
160
                 0
  9
$INSBASE
 10
0.0
 20
0.0
 30
0.0
  9
$EXTMIN
 10
48.81236239963164
 20
39.99622992951078
 30
0.0
  9
$EXTMAX
 10
1095.505241724915
 20
987.1230004087969
 30
0.0
  9
$LIMMIN
 10
0.0
 20
0.0
  9
$LIMMAX
 10
420.0
 20
297.0
  9
$ORTHOMODE
 70
     1
  9
$REGENMODE
 70
     1
  9
$FILLMODE
 70
     1
  9
$QTEXTMODE
 70
     0
  9
$MIRRTEXT
 70
     1
  9
$LTSCALE
 40
1.0
  9
$ATTMODE
 70
     1
  9
$TEXTSIZE
 40
2.5
  9
$TRACEWID
 40
1.0
  9
$TEXTSTYLE
  7
Standard
  9
$CLAYER
  8
0
  9
$CELTYPE
  6
ByLayer
  9
$CECOLOR
 62
   256
  9
$CELTSCALE
 40
1.0
  9
$DISPSILH
 70
     0
  9
$DIMSCALE
 40
1.0
  9
$DIMASZ
 40
2.5
  9
$DIMEXO
 40
0.625
  9
$DIMDLI
 40
3.75
  9
$DIMRND
 40
0.0
  9
$DIMDLE
 40
0.0
  9
$DIMEXE
 40
1.25
  9
$DIMTP
 40
0.0
  9
$DIMTM
 40
0.0
  9
$DIMTXT
 40
2.5
  9
$DIMCEN
 40
2.5
  9
$DIMTSZ
 40
0.0
  9
$DIMTOL
 70
     0
  9
$DIMLIM
 70
     0
  9
$DIMTIH
 70
     0
  9
$DIMTOH
 70
     0
  9
$DIMSE1
 70
     0
  9
$DIMSE2
 70
     0
  9
$DIMTAD
 70
     1
  9
$DIMZIN
 70
     8
  9
$DIMBLK
  1

  9
$DIMASO
 70
     1
  9
$DIMSHO
 70
     1
  9
$DIMPOST
  1

  9
$DIMAPOST
  1

  9
$DIMALT
 70
     0
  9
$DIMALTD
 70
     3
  9
$DIMALTF
 40
0.03937007874016
  9
$DIMLFAC
 40
1.0
  9
$DIMTOFL
 70
     1
  9
$DIMTVP
 40
0.0
  9
$DIMTIX
 70
     0
  9
$DIMSOXD
 70
     0
  9
$DIMSAH
 70
     0
  9
$DIMBLK1
  1

  9
$DIMBLK2
  1

  9
$DIMSTYLE
  2
ISO-25
  9
$DIMCLRD
 70
     0
  9
$DIMCLRE
 70
     0
  9
$DIMCLRT
 70
     0
  9
$DIMTFAC
 40
1.0
  9
$DIMGAP
 40
0.625
  9
$DIMJUST
 70
     0
  9
$DIMSD1
 70
     0
  9
$DIMSD2
 70
     0
  9
$DIMTOLJ
 70
     0
  9
$DIMTZIN
 70
     8
  9
$DIMALTZ
 70
     0
  9
$DIMALTTZ
 70
     0
  9
$DIMUPT
 70
     0
  9
$DIMDEC
 70
     2
  9
$DIMTDEC
 70
     2
  9
$DIMALTU
 70
     2
  9
$DIMALTTD
 70
     3
  9
$DIMTXSTY
  7
Standard
  9
$DIMAUNIT
 70
     0
  9
$DIMADEC
 70
     0
  9
$DIMALTRND
 40
0.0
  9
$DIMAZIN
 70
     0
  9
$DIMDSEP
 70
    44
  9
$DIMATFIT
 70
     3
  9
$DIMFRAC
 70
     0
  9
$DIMLDRBLK
  1

  9
$DIMLUNIT
 70
     2
  9
$DIMLWD
 70
    -2
  9
$DIMLWE
 70
    -2
  9
$DIMTMOVE
 70
     0
  9
$DIMFXL
 40
1.0
  9
$DIMFXLON
 70
     0
  9
$DIMJOGANG
 40
0.7853981633974483
  9
$DIMTFILL
 70
     0
  9
$DIMTFILLCLR
 70
     0
  9
$DIMARCSYM
 70
     0
  9
$DIMLTYPE
  6

  9
$DIMLTEX1
  6

  9
$DIMLTEX2
  6

  9
$DIMTXTDIRECTION
 70
     0
  9
$LUNITS
 70
     2
  9
$LUPREC
 70
     4
  9
$SKETCHINC
 40
1.0
  9
$FILLETRAD
 40
10.0
  9
$AUNITS
 70
     0
  9
$AUPREC
 70
     0
  9
$MENU
  1
.
  9
$ELEVATION
 40
0.0
  9
$PELEVATION
 40
0.0
  9
$THICKNESS
 40
0.0
  9
$LIMCHECK
 70
     0
  9
$CHAMFERA
 40
0.0
  9
$CHAMFERB
 40
0.0
  9
$CHAMFERC
 40
0.0
  9
$CHAMFERD
 40
0.0
  9
$SKPOLY
 70
     0
  9
$TDCREATE
 40
2459082.501111111
  9
$TDUCREATE
 40
2459082.417789201
  9
$TDUPDATE
 40
2459300.464895833
  9
$TDUUPDATE
 40
2459300.423229167
  9
$TDINDWG
 40
0.0692476968
  9
$TDUSRTIMER
 40
0.0692476968
  9
$USRTIMER
 70
     1
  9
$ANGBASE
 50
0.0
  9
$ANGDIR
 70
     0
  9
$PDMODE
 70
     0
  9
$PDSIZE
 40
0.0
  9
$PLINEWID
 40
0.0
  9
$SPLFRAME
 70
     0
  9
$SPLINETYPE
 70
     6
  9
$SPLINESEGS
 70
     8
  9
$HANDSEED
  5
E9C
  9
$SURFTAB1
 70
     6
  9
$SURFTAB2
 70
     6
  9
$SURFTYPE
 70
     6
  9
$SURFU
 70
     6
  9
$SURFV
 70
     6
  9
$UCSBASE
  2

  9
$UCSNAME
  2

  9
$UCSORG
 10
0.0
 20
0.0
 30
0.0
  9
$UCSXDIR
 10
1.0
 20
0.0
 30
0.0
  9
$UCSYDIR
 10
0.0
 20
1.0
 30
0.0
  9
$UCSORTHOREF
  2

  9
$UCSORTHOVIEW
 70
     0
  9
$UCSORGTOP
 10
0.0
 20
0.0
 30
0.0
  9
$UCSORGBOTTOM
 10
0.0
 20
0.0
 30
0.0
  9
$UCSORGLEFT
 10
0.0
 20
0.0
 30
0.0
  9
$UCSORGRIGHT
 10
0.0
 20
0.0
 30
0.0
  9
$UCSORGFRONT
 10
0.0
 20
0.0
 30
0.0
  9
$UCSORGBACK
 10
0.0
 20
0.0
 30
0.0
  9
$PUCSBASE
  2

  9
$PUCSNAME
  2

  9
$PUCSORG
 10
0.0
 20
0.0
 30
0.0
  9
$PUCSXDIR
 10
1.0
 20
0.0
 30
0.0
  9
$PUCSYDIR
 10
0.0
 20
1.0
 30
0.0
  9
$PUCSORTHOREF
  2

  9
$PUCSORTHOVIEW
 70
     0
  9
$PUCSORGTOP
 10
0.0
 20
0.0
 30
0.0
  9
$PUCSORGBOTTOM
 10
0.0
 20
0.0
 30
0.0
  9
$PUCSORGLEFT
 10
0.0
 20
0.0
 30
0.0
  9
$PUCSORGRIGHT
 10
0.0
 20
0.0
 30
0.0
  9
$PUCSORGFRONT
 10
0.0
 20
0.0
 30
0.0
  9
$PUCSORGBACK
 10
0.0
 20
0.0
 30
0.0
  9
$USERI1
 70
     0
  9
$USERI2
 70
     0
  9
$USERI3
 70
     0
  9
$USERI4
 70
     0
  9
$USERI5
 70
     0
  9
$USERR1
 40
0.0
  9
$USERR2
 40
0.0
  9
$USERR3
 40
0.0
  9
$USERR4
 40
0.0
  9
$USERR5
 40
0.0
  9
$WORLDVIEW
 70
     1
  9
$SHADEDGE
 70
     3
  9
$SHADEDIF
 70
    70
  9
$TILEMODE
 70
     1
  9
$MAXACTVP
 70
    64
  9
$PINSBASE
 10
0.0
 20
0.0
 30
0.0
  9
$PLIMCHECK
 70
     0
  9
$PEXTMIN
 10
1.000000000000000E+20
 20
1.000000000000000E+20
 30
1.000000000000000E+20
  9
$PEXTMAX
 10
-1.000000000000000E+20
 20
-1.000000000000000E+20
 30
-1.000000000000000E+20
  9
$PLIMMIN
 10
0.0
 20
0.0
  9
$PLIMMAX
 10
420.0
 20
297.0
  9
$UNITMODE
 70
     0
  9
$VISRETAIN
 70
     1
  9
$PLINEGEN
 70
     0
  9
$PSLTSCALE
 70
     1
  9
$TREEDEPTH
 70
  3020
  9
$CMLSTYLE
  2
Standard
  9
$CMLJUST
 70
     0
  9
$CMLSCALE
 40
20.0
  9
$PROXYGRAPHICS
 70
     1
  9
$MEASUREMENT
 70
     1
  9
$CELWEIGHT
370
    -1
  9
$ENDCAPS
280
     0
  9
$JOINSTYLE
280
     0
  9
$LWDISPLAY
290
     0
  9
$INSUNITS
 70
     5
  9
$HYPERLINKBASE
  1

  9
$STYLESHEET
  1

  9
$XEDIT
290
     1
  9
$CEPSNTYPE
380
     0
  9
$PSTYLEMODE
290
     1
  9
$FINGERPRINTGUID
  2
{921A62D8-B26A-40CB-89FE-00D0C55F98C6}
  9
$VERSIONGUID
  2
{CFA9318A-6919-2445-B8E6-E7C6EC2B4E6B}
  9
$EXTNAMES
290
     1
  9
$PSVPSCALE
 40
0.0
  9
$OLESTARTUP
290
     0
  9
$SORTENTS
280
   127
  9
$INDEXCTL
280
     0
  9
$HIDETEXT
280
     1
  9
$XCLIPFRAME
280
     2
  9
$HALOGAP
280
     0
  9
$OBSCOLOR
 70
   257
  9
$OBSLTYPE
280
     0
  9
$INTERSECTIONDISPLAY
280
     0
  9
$INTERSECTIONCOLOR
 70
   257
  9
$DIMASSOC
280
     2
  9
$PROJECTNAME
  1

  9
$CAMERADISPLAY
290
     0
  9
$LENSLENGTH
 40
50.0
  9
$CAMERAHEIGHT
 40
0.0
  9
$STEPSPERSEC
 40
2.0
  9
$STEPSIZE
 40
6.0
  9
$3DDWFPREC
 40
2.0
  9
$PSOLWIDTH
 40
5.0
  9
$PSOLHEIGHT
 40
80.0
  9
$LOFTANG1
 40
1.570796326794897
  9
$LOFTANG2
 40
1.570796326794897
  9
$LOFTMAG1
 40
0.0
  9
$LOFTMAG2
 40
0.0
  9
$LOFTPARAM
 70
     7
  9
$LOFTNORMALS
280
     1
  9
$LATITUDE
 40
37.795
  9
$LONGITUDE
 40
-122.394
  9
$NORTHDIRECTION
 40
0.0
  9
$TIMEZONE
 70
 -8000
  9
$LIGHTGLYPHDISPLAY
280
     1
  9
$TILEMODELIGHTSYNCH
280
     1
  9
$CMATERIAL
347
44
  9
$SOLIDHIST
280
     0
  9
$SHOWHIST
280
     1
  9
$DWFFRAME
280
     2
  9
$DGNFRAME
280
     2
  9
$REALWORLDSCALE
290
     1
  9
$INTERFERECOLOR
 62
   256
  9
$INTERFEREOBJVS
345
33
  9
$INTERFEREVPVS
346
30
  9
$CSHADOW
280
     0
  9
$SHADOWPLANELOCATION
 40
0.0
  0
ENDSEC
  0
SECTION
  2
CLASSES
  0
CLASS
  1
ACDBDICTIONARYWDFLT
  2
AcDbDictionaryWithDefault
  3
ObjectDBX Classes
 90
        0
 91
        1
280
     0
281
     0
  0
CLASS
  1
VISUALSTYLE
  2
AcDbVisualStyle
  3
ObjectDBX Classes
 90
     4095
 91
       24
280
     0
281
     0
  0
CLASS
  1
MATERIAL
  2
AcDbMaterial
  3
ObjectDBX Classes
 90
     1153
 91
        3
280
     0
281
     0
  0
CLASS
  1
SCALE
  2
AcDbScale
  3
ObjectDBX Classes
 90
     1153
 91
       33
280
     0
281
     0
  0
CLASS
  1
TABLESTYLE
  2
AcDbTableStyle
  3
ObjectDBX Classes
 90
     4095
 91
        1
280
     0
281
     0
  0
CLASS
  1
MLEADERSTYLE
  2
AcDbMLeaderStyle
  3
ACDB_MLEADERSTYLE_CLASS
 90
     4095
 91
        1
280
     0
281
     0
  0
CLASS
  1
SUN
  2
AcDbSun
  3
SCENEOE
 90
     1153
 91
        1
280
     0
281
     0
  0
CLASS
  1
DICTIONARYVAR
  2
AcDbDictionaryVar
  3
ObjectDBX Classes
 90
        0
 91
        7
280
     0
281
     0
  0
CLASS
  1
CELLSTYLEMAP
  2
AcDbCellStyleMap
  3
ObjectDBX Classes
 90
     1152
 91
        5
280
     0
281
     0
  0
CLASS
  1
ACDBSECTIONVIEWSTYLE
  2
AcDbSectionViewStyle
  3
ObjectDBX Classes
 90
     1025
 91
        1
280
     0
281
     0
  0
CLASS
  1
ACDBDETAILVIEWSTYLE
  2
AcDbDetailViewStyle
  3
ObjectDBX Classes
 90
     1025
 91
        1
280
     0
281
     0
  0
CLASS
  1
DIMASSOC
  2
AcDbDimAssoc
  3
"AcDbDimAssoc|Product Desc:     AcDim ARX App For Dimension|Company:          Autodesk, Inc.|WEB Address:      www.autodesk.com"
 90
        0
 91
        0
280
     0
281
     0
  0
CLASS
  1
SORTENTSTABLE
  2
AcDbSortentsTable
  3
ObjectDBX Classes
 90
        0
 91
        1
280
     0
281
     0
  0
ENDSEC
  0
SECTION
  2
TABLES
  0
TABLE
  2
VPORT
  5
8
330
0
100
AcDbSymbolTable
 70
     1
1001
ACAD
1000
DbSaveVer
1071
      224
  0
VPORT
  5
29
330
8
100
AcDbSymbolTableRecord
100
AcDbViewportTableRecord
  2
*Active
 70
     0
 10
0.0
 20
0.0
 11
1.0
 21
1.0
 12
354.6902790312977
 22
353.7765404539941
 13
0.0
 23
0.0
 14
10.0
 24
10.0
 15
10.0
 25
10.0
 16
0.0
 26
0.0
 36
1.0
 17
0.0
 27
0.0
 37
0.0
 40
1125.713915255214
 41
2.182748538011695
 42
50.0
 43
0.0
 44
0.0
 50
0.0
 51
0.0
 71
     0
 72
   100
 73
     1
 74
     3
 75
     0
 76
     0
 77
     0
 78
     0
281
     0
 65
     1
110
0.0
120
0.0
130
0.0
111
1.0
121
0.0
131
0.0
112
0.0
122
1.0
132
0.0
 79
     0
146
0.0
348
2F
 60
     3
 61
     5
292
     1
282
     1
141
0.0
142
0.0
 63
   250
421
  3355443
361
6D
1001
ACAD_NAV_VCDISPLAY
1070
     3
  0
ENDTAB
  0
TABLE
  2
LTYPE
  5
5
330
0
100
AcDbSymbolTable
 70
    11
  0
LTYPE
  5
14
330
5
100
AcDbSymbolTableRecord
100
AcDbLinetypeTableRecord
  2
ByBlock
 70
     0
  3

 72
    65
 73
     0
 40
0.0
  0
LTYPE
  5
15
330
5
100
AcDbSymbolTableRecord
100
AcDbLinetypeTableRecord
  2
ByLayer
 70
     0
  3

 72
    65
 73
     0
 40
0.0
  0
LTYPE
  5
16
330
5
100
AcDbSymbolTableRecord
100
AcDbLinetypeTableRecord
  2
Continuous
 70
     0
  3
Solid line
 72
    65
 73
     0
 40
0.0
  0
LTYPE
  5
6F
330
5
100
AcDbSymbolTableRecord
100
AcDbLinetypeTableRecord
  2
CUSTOM
 70
     0
  3

 72
    65
 73
     0
 40
0.0
  0
LTYPE
  5
70
330
5
100
AcDbSymbolTableRecord
100
AcDbLinetypeTableRecord
  2
SOLID
 70
     0
  3

 72
    65
 73
     0
 40
0.0
  0
LTYPE
  5
71
330
5
100
AcDbSymbolTableRecord
100
AcDbLinetypeTableRecord
  2
DASHED
 70
     0
  3

 72
    65
 73
     2
 40
2.27109725292296
 49
1.13554862646148
 74
     0
 49
-1.13554862646148
 74
     0
  0
LTYPE
  5
72
330
5
100
AcDbSymbolTableRecord
100
AcDbLinetypeTableRecord
  2
LONG_DASH
 70
     0
  3

 72
    65
 73
     2
 40
2.27109725292296
 49
1.703322939692224
 74
     0
 49
-0.5677743132307414
 74
     0
  0
LTYPE
  5
73
330
5
100
AcDbSymbolTableRecord
100
AcDbLinetypeTableRecord
  2
SHORT_DASH
 70
     0
  3

 72
    65
 73
     4
 40
2.27109725292296
 49
0.4542194505845931
 74
     0
 49
-0.6813291758768897
 74
     0
 49
0.4542194505845931
 74
     0
 49
-0.6813291758768897
 74
     0
  0
LTYPE
  5
74
330
5
100
AcDbSymbolTableRecord
100
AcDbLinetypeTableRecord
  2
DOTTED
 70
     0
  3

 72
    65
 73
     8
 40
2.27109725292296
 49
0.1135548626461483
 74
     0
 49
-0.4542194505845931
 74
     0
 49
0.1135548626461483
 74
     0
 49
-0.4542194505845931
 74
     0
 49
0.1135548626461483
 74
     0
 49
-0.4542194505845931
 74
     0
 49
0.1135548626461483
 74
     0
 49
-0.4542194505845931
 74
     0
  0
LTYPE
  5
75
330
5
100
AcDbSymbolTableRecord
100
AcDbLinetypeTableRecord
  2
DOTDASH
 70
     0
  3

 72
    65
 73
     4
 40
2.27109725292296
 49
0.1135548626461483
 74
     0
 49
-0.5677743132307414
 74
     0
 49
1.021993763815334
 74
     0
 49
-0.5677743132307414
 74
     0
  0
LTYPE
  5
76
330
5
100
AcDbSymbolTableRecord
100
AcDbLinetypeTableRecord
  2
DOTDOTDASH
 70
     0
  3

 72
    65
 73
     6
 40
2.27109725292296
 49
0.1135548626461483
 74
     0
 49
-0.3406645879384448
 74
     0
 49
0.1135548626461483
 74
     0
 49
-0.3406645879384448
 74
     0
 49
1.021993763815334
 74
     0
 49
-0.3406645879384448
 74
     0
  0
LTYPE
  5
77
330
5
100
AcDbSymbolTableRecord
100
AcDbLinetypeTableRecord
  2
DASHDASHDOT
 70
     0
  3

 72
    65
 73
     6
 40
2.27109725292296
 49
0.1135548626461483
 74
     0
 49
-0.3406645879384448
 74
     0
 49
0.1135548626461483
 74
     0
 49
-0.3406645879384448
 74
     0
 49
1.021993763815334
 74
     0
 49
-0.3406645879384448
 74
     0
  0
ENDTAB
  0
TABLE
  2
LAYER
  5
2
102
{ACAD_XDICTIONARY
360
490
102
}
330
0
100
AcDbSymbolTable
 70
     3
  0
LAYER
  5
10
330
2
100
AcDbSymbolTableRecord
100
AcDbLayerTableRecord
  2
0
 70
     0
 62
     7
  6
Continuous
370
    -3
390
F
347
46
348
0
  0
LAYER
  5
46D
330
2
100
AcDbSymbolTableRecord
100
AcDbLayerTableRecord
  2
Defpoints
 70
     0
 62
     7
  6
Continuous
290
     0
370
    -3
390
F
347
46
348
0
  0
LAYER
  5
48D
102
{ACAD_XDICTIONARY
360
48E
102
}
330
2
100
AcDbSymbolTableRecord
100
AcDbLayerTableRecord
  2
Hewi
 70
     0
 62
     7
  6
Continuous
370
    -3
390
F
347
46
348
0
1001
AcAecLayerStandard
1000

1000

  0
ENDTAB
  0
TABLE
  2
STYLE
  5
3
330
0
100
AcDbSymbolTable
 70
     1
  0
STYLE
  5
11
330
3
100
AcDbSymbolTableRecord
100
AcDbTextStyleTableRecord
  2
Standard
 70
     0
 40
0.0
 41
1.0
 50
0.0
 71
     0
 42
2.5
  3
txt
  4

  0
ENDTAB
  0
TABLE
  2
VIEW
  5
6
330
0
100
AcDbSymbolTable
 70
     1
  0
ENDTAB
  0
TABLE
  2
UCS
  5
7
330
0
100
AcDbSymbolTable
 70
     0
  0
ENDTAB
  0
TABLE
  2
APPID
  5
9
330
0
100
AcDbSymbolTable
 70
     4
  0
APPID
  5
12
330
9
100
AcDbSymbolTableRecord
100
AcDbRegAppTableRecord
  2
ACAD
 70
     0
  0
APPID
  5
11A
330
9
100
AcDbSymbolTableRecord
100
AcDbRegAppTableRecord
  2
ACAD_NAV_VCDISPLAY
 70
     0
  0
APPID
  5
463
330
9
100
AcDbSymbolTableRecord
100
AcDbRegAppTableRecord
  2
ACAD_EXEMPT_FROM_CAD_STANDARDS
 70
     0
  0
APPID
  5
48F
330
9
100
AcDbSymbolTableRecord
100
AcDbRegAppTableRecord
  2
AcAecLayerStandard
 70
     0
  0
ENDTAB
  0
TABLE
  2
DIMSTYLE
  5
A
330
0
100
AcDbSymbolTable
 70
     2
100
AcDbDimStyleTable
 71
     1
340
27
  0
DIMSTYLE
105
27
330
A
100
AcDbSymbolTableRecord
100
AcDbDimStyleTableRecord
  2
ISO-25
 70
     0
 41
2.5
 42
0.625
 43
3.75
 44
1.25
 73
     0
 74
     0
 77
     1
 78
     8
140
2.5
141
2.5
143
0.03937007874016
147
0.625
171
     3
172
     1
271
     2
272
     2
274
     3
278
    44
283
     0
284
     8
340
11
  0
ENDTAB
  0
TABLE
  2
BLOCK_RECORD
  5
1
330
0
100
AcDbSymbolTable
 70
    10
  0
BLOCK_RECORD
  5
1F
102
{ACAD_XDICTIONARY
360
6E5
102
}
330
1
100
AcDbSymbolTableRecord
100
AcDbBlockTableRecord
  2
*Model_Space
340
22
 70
     0
280
     1
281
     0
  0
BLOCK_RECORD
  5
1B
330
1
100
AcDbSymbolTableRecord
100
AcDbBlockTableRecord
  2
*Paper_Space
340
1E
 70
     0
280
     1
281
     0
  0
BLOCK_RECORD
  5
23
330
1
100
AcDbSymbolTableRecord
100
AcDbBlockTableRecord
  2
*Paper_Space0
340
26
 70
     0
280
     1
281
     0
  0
BLOCK_RECORD
  5
46E
330
1
100
AcDbSymbolTableRecord
100
AcDbBlockTableRecord
  2
*D1
340
0
 70
     0
280
     1
281
     0
  0
BLOCK_RECORD
  5
66A
330
1
100
AcDbSymbolTableRecord
100
AcDbBlockTableRecord
  2
*D2
340
0
 70
     0
280
     1
281
     0
  0
ENDTAB
  0
ENDSEC
  0
SECTION
  2
BLOCKS
  0
BLOCK
  5
20
330
1F
100
AcDbEntity
  8
0
100
AcDbBlockBegin
  2
*Model_Space
 70
     0
 10
0.0
 20
0.0
 30
0.0
  3
*Model_Space
  1

  0
ENDBLK
  5
21
330
1F
100
AcDbEntity
  8
0
100
AcDbBlockEnd
  0
BLOCK
  5
1C
330
1B
100
AcDbEntity
 67
     1
  8
0
100
AcDbBlockBegin
  2
*Paper_Space
 70
     0
 10
0.0
 20
0.0
 30
0.0
  3
*Paper_Space
  1

  0
ENDBLK
  5
1D
330
1B
100
AcDbEntity
 67
     1
  8
0
100
AcDbBlockEnd
  0
BLOCK
  5
24
330
23
100
AcDbEntity
 67
     1
  8
0
100
AcDbBlockBegin
  2
*Paper_Space0
 70
     0
 10
0.0
 20
0.0
 30
0.0
  3
*Paper_Space0
  1

  0
ENDBLK
  5
25
330
23
100
AcDbEntity
 67
     1
  8
0
100
AcDbBlockEnd
  0
BLOCK
  5
46F
330
46E
100
AcDbEntity
  8
0
100
AcDbBlockBegin
  2
*D1
 70
     1
 10
0.0
 20
0.0
 30
0.0
  3
*D1
  1

  0
LINE
  5
47B
330
46E
100
AcDbEntity
  8
0
 62
     0
440
 16777216
370
    -2
100
AcDbLine
 10
169.1949724005773
 20
163.8184210226795
 30
0.0
 11
169.1949724005773
 21
189.5873868086067
 31
0.0
  0
LINE
  5
47C
330
46E
100
AcDbEntity
  8
0
 62
     0
440
 16777216
370
    -2
100
AcDbLine
 10
209.1949715756394
 20
163.8184210226795
 30
0.0
 11
209.1949715756394
 21
189.5873868086067
 31
0.0
  0
LINE
  5
47D
330
46E
100
AcDbEntity
  8
0
 62
     0
440
 16777216
370
    -2
100
AcDbLine
 10
171.6949724005774
 20
188.3373868086066
 30
0.0
 11
206.6949715756394
 21
188.3373868086066
 31
0.0
  0
SOLID
  5
47E
330
46E
100
AcDbEntity
  8
0
 62
     0
440
 16777216
100
AcDbTrace
 10
171.6949724005774
 20
188.7540534752734
 30
0.0
 11
171.6949724005774
 21
187.9207201419401
 31
0.0
 12
169.1949724005773
 22
188.3373868086066
 32
0.0
 13
169.1949724005773
 23
188.3373868086066
 33
0.0
  0
SOLID
  5
47F
330
46E
100
AcDbEntity
  8
0
 62
     0
440
 16777216
100
AcDbTrace
 10
206.6949715756394
 20
188.7540534752734
 30
0.0
 11
206.6949715756394
 21
187.9207201419401
 31
0.0
 12
209.1949715756394
 22
188.3373868086066
 32
0.0
 13
209.1949715756394
 23
188.3373868086066
 33
0.0
  0
MTEXT
  5
480
330
46E
100
AcDbEntity
  8
0
 62
     0
440
 16777216
100
AcDbMText
 10
189.1949719881084
 20
190.2123868086068
 30
0.0
 40
2.5
 41
0.0
 46
0.0
 71
     5
 72
     1
  1
40
 73
     1
 44
1.0
  0
POINT
  5
481
330
46E
100
AcDbEntity
  8
Defpoints
 62
     0
440
 16777216
100
AcDbPoint
 10
169.1949724005773
 20
163.1934210226795
 30
0.0
  0
POINT
  5
482
330
46E
100
AcDbEntity
  8
Defpoints
 62
     0
440
 16777216
100
AcDbPoint
 10
209.1949715756394
 20
163.1934210226795
 30
0.0
  0
POINT
  5
483
330
46E
100
AcDbEntity
  8
Defpoints
 62
     0
440
 16777216
100
AcDbPoint
 10
209.1949715756394
 20
188.3373868086066
 30
0.0
  0
ENDBLK
  5
470
330
46E
100
AcDbEntity
  8
0
100
AcDbBlockEnd
  0
BLOCK
  5
66B
330
66A
100
AcDbEntity
  8
0
100
AcDbBlockBegin
  2
*D2
 70
     1
 10
0.0
 20
0.0
 30
0.0
  3
*D2
  1

  0
LINE
  5
677
330
66A
100
AcDbEntity
  8
0
 62
     0
440
 16777216
370
    -2
100
AcDbLine
 10
827.7595291992735
 20
1013.325643810532
 30
0.0
 11
827.7595291992735
 21
145.1276556228231
 31
0.0
  0
LINE
  5
678
330
66A
100
AcDbEntity
  8
0
 62
     0
440
 16777216
370
    -2
100
AcDbLine
 10
927.7595321341673
 20
1013.325643810532
 30
0.0
 11
927.7595321341673
 21
145.1276556228231
 31
0.0
  0
LINE
  5
679
330
66A
100
AcDbEntity
  8
0
 62
     0
440
 16777216
370
    -2
100
AcDbLine
 10
830.2595291992735
 20
146.377655622823
 30
0.0
 11
925.2595321341672
 21
146.377655622823
 31
0.0
  0
SOLID
  5
67A
330
66A
100
AcDbEntity
  8
0
 62
     0
440
 16777216
100
AcDbTrace
 10
830.2595291992735
 20
146.7943222894897
 30
0.0
 11
830.2595291992735
 21
145.9609889561564
 31
0.0
 12
827.7595291992735
 22
146.377655622823
 32
0.0
 13
827.7595291992735
 23
146.377655622823
 33
0.0
  0
SOLID
  5
67B
330
66A
100
AcDbEntity
  8
0
 62
     0
440
 16777216
100
AcDbTrace
 10
925.2595321341672
 20
146.7943222894897
 30
0.0
 11
925.2595321341672
 21
145.9609889561564
 31
0.0
 12
927.7595321341673
 22
146.377655622823
 32
0.0
 13
927.7595321341673
 23
146.377655622823
 33
0.0
  0
MTEXT
  5
67C
330
66A
100
AcDbEntity
  8
0
 62
     0
440
 16777216
100
AcDbMText
 10
877.7595306667203
 20
148.2526556228231
 30
0.0
 40
2.5
 41
0.0
 46
0.0
 71
     5
 72
     1
  1
100
 73
     1
 44
1.0
  0
POINT
  5
67D
330
66A
100
AcDbEntity
  8
Defpoints
 62
     0
440
 16777216
100
AcDbPoint
 10
827.7595291992735
 20
1013.950643810532
 30
0.0
  0
POINT
  5
67E
330
66A
100
AcDbEntity
  8
Defpoints
 62
     0
440
 16777216
100
AcDbPoint
 10
927.7595321341673
 20
1013.950643810532
 30
0.0
  0
POINT
  5
67F
330
66A
100
AcDbEntity
  8
Defpoints
 62
     0
440
 16777216
100
AcDbPoint
 10
927.7595321341673
 20
146.377655622823
 30
0.0
  0
ENDBLK
  5
66C
330
66A
100
AcDbEntity
  8
0
100
AcDbBlockEnd
  0
ENDSEC
  0
SECTION
  2
ENTITIES
  0
LWPOLYLINE
  5
C62
330
1F
100
AcDbEntity
  8
Hewi
370
    13
100
AcDbPolyline
 90
       38
 70
     0
 43
0.0
 10
182.8156099423604
 20
83.39643594315578
 10
182.8123615488457
 20
83.39643594315578
 10
182.8123615488457
 20
90.89643620744528
 10
197.8123614536089
 20
90.89643620744528
 10
198.7024451837824
 20
90.79614785263789
 10
199.5478963990599
 20
90.50031166509473
 10
200.3063206452089
 20
90.02376210656553
 10
200.9396873636251
 20
89.39039536180974
 10
201.416236902337
 20
88.63197108411828
 10
201.7120730775769
 20
87.78651983368082
 10
201.8123614282113
 20
86.89643606649088
 10
201.8123614282113
 20
67.39643537933989
 10
201.7120730775769
 20
66.50635161214882
 10
201.416236902337
 20
65.66090036171278
 10
200.9396873636251
 20
64.90247608402075
 10
200.3063206452089
 20
64.26910933926496
 10
199.5478963990599
 20
63.79255978073491
 10
198.7024451837824
 20
63.49672359319288
 10
197.8123614536089
 20
63.39643523838606
 10
52.81236237423491
 20
63.39643523838606
 10
51.92227864406095
 20
63.49672359319288
 10
51.07682742878387
 20
63.79255978073491
 10
50.31840318263494
 20
64.26910933926496
 10
49.68503646421914
 20
64.90247608402075
 10
49.20848692550681
 20
65.66090036171278
 10
48.91265075026786
 20
66.50635161214882
 10
48.81236239963164
 20
67.39643537933989
 10
48.81236239963164
 20
86.89643606649088
 10
48.91265075026786
 20
87.78651983368082
 10
49.20848692550681
 20
88.63197108411828
 10
49.68503646421914
 20
89.39039536180974
 10
50.31840318263494
 20
90.02376210656553
 10
51.07682742878387
 20
90.50031166509473
 10
51.92227864406095
 20
90.79614785263789
 10
52.81236237423491
 20
90.89643620744528
 10
67.81236227899762
 20
90.89643620744528
 10
67.81236227899762
 20
83.39643594315578
 10
67.80911386941761
 20
83.39643594315578
  0
LWPOLYLINE
  5
C63
330
1F
100
AcDbEntity
  8
Hewi
370
    13
100
AcDbPolyline
 90
       19
 70
     0
 43
0.0
 10
63.8156107575137
 20
84.89643599601482
 10
58.81236233614072
 20
84.89643599601482
 10
58.36732047105397
 20
84.84629181861112
 10
57.94459486341475
 20
84.69837372484096
 10
57.56538274034028
 20
84.46009894557381
 10
57.2486993811317
 20
84.14341557319676
 10
57.01042461177621
 20
83.76420343435132
 10
56.86250652415674
 20
83.34147780913315
 10
56.81236234883863
 20
82.89643592553819
 10
56.81236234883863
 20
75.39643566124926
 10
56.86250652415674
 20
74.95139377765429
 10
57.01042461177621
 20
74.52866815243499
 10
57.2486993811317
 20
74.14945601358954
 10
57.56538274034028
 20
73.8327726412108
 10
57.94459486341475
 20
73.59449786194648
 10
58.36732047105397
 20
73.44657976817519
 10
58.81236233614072
 20
73.39643559077149
 10
71.81236225360135
 20
73.39643559077092
 10
71.81236225360135
 20
74.89643564362825
  0
LWPOLYLINE
  5
C64
330
1F
100
AcDbEntity
  8
Hewi
370
    13
100
AcDbPolyline
 90
       19
 70
     0
 43
0.0
 10
178.8123615742424
 20
74.89643564362825
 10
178.8123615742424
 20
73.39643559077149
 10
191.8123614917035
 20
73.39643559077149
 10
192.2574033567907
 20
73.44657976817519
 10
192.6801289644286
 20
73.59449786194648
 10
193.0593410875039
 20
73.8327726412108
 10
193.3760244467125
 20
74.14945601358954
 10
193.614299216068
 20
74.52866815243499
 10
193.762217303688
 20
74.95139377765429
 10
193.8123614790056
 20
75.39643566124926
 10
193.8123614790056
 20
82.89643592553819
 10
193.762217303688
 20
83.34147780913315
 10
193.614299216068
 20
83.76420343435132
 10
193.3760244467125
 20
84.14341557319676
 10
193.0593410875039
 20
84.46009894557381
 10
192.6801289644286
 20
84.69837372484096
 10
192.2574033567907
 20
84.84629181861112
 10
191.8123614917035
 20
84.89643599601482
 10
186.8091133087487
 20
84.89643599601482
  0
LWPOLYLINE
  5
C65
330
1F
100
AcDbEntity
  8
Hewi
370
    13
100
AcDbPolyline
 90
        7
 70
     0
 43
0.0
 10
68.81236227264889
 20
82.89643592553819
 10
68.82111313584892
 20
82.88768506197403
 10
68.84728914784182
 20
82.86150904889144
 10
68.9398136940199
 20
82.76898449886562
 10
69.10708194206882
 20
82.60171624385964
 10
69.39814870655664
 20
82.31064946726906
 10
69.81236226629971
 20
81.89643589029788
  0
LWPOLYLINE
  5
C66
330
1F
100
AcDbEntity
  8
Hewi
370
    13
100
AcDbPolyline
 90
       34
 70
     0
 43
0.0
 10
68.81236227264889
 20
82.89643592553819
 10
60.81236232344145
 20
82.89643592553819
 10
60.3673204583547
 20
82.84629174813392
 10
59.94459485071593
 20
82.69837365436149
 10
59.56538272764191
 20
82.46009887509661
 10
59.24869936843333
 20
82.143415502719
 10
59.01042459907785
 20
81.76420336387412
 10
58.86250651145792
 20
81.34147773865482
 10
58.81236233614072
 20
80.89643585505985
 10
58.81236233614072
 20
77.39643573172589
 10
58.86250651145792
 20
76.95139384812978
 10
59.01042459907785
 20
76.52866822291105
 10
59.24869936843333
 20
76.14945608406561
 10
59.56538272764191
 20
75.83277271168856
 10
59.94459485071593
 20
75.59449793242311
 10
60.3673204583547
 20
75.44657983865068
 10
60.81236232344145
 20
75.39643566124926
 10
189.8123615044014
 20
75.39643566124926
 10
190.2574033694886
 20
75.44657983865068
 10
190.6801289771283
 20
75.59449793242311
 10
191.0593411002018
 20
75.83277271168856
 10
191.3760244594095
 20
76.14945608406561
 10
191.6142992287659
 20
76.52866822291105
 10
191.762217316385
 20
76.95139384812978
 10
191.8123614917035
 20
77.39643573172589
 10
191.8123614917035
 20
80.89643585505985
 10
191.762217316385
 20
81.34147773865482
 10
191.6142992287659
 20
81.76420336387412
 10
191.3760244594095
 20
82.143415502719
 10
191.0593411002018
 20
82.46009887509661
 10
190.6801289771283
 20
82.69837365436149
 10
190.2574033694886
 20
82.84629174813392
 10
189.8123615044014
 20
82.89643592553819
 10
181.8123615551949
 20
82.89643592553819
  0
LWPOLYLINE
  5
C67
330
1F
100
AcDbEntity
  8
Hewi
370
    13
100
AcDbPolyline
 90
       18
 70
     0
 43
0.0
 10
181.8123615551949
 20
82.89643592553819
 10
181.8123615551949
 20
92.89643627792305
 10
181.7622173798768
 20
92.89643627792305
 10
181.6142992922578
 20
92.89643627792305
 10
181.3760245229018
 20
92.89643627792305
 10
181.0593411636937
 20
92.89643627792305
 10
180.6801290406188
 20
92.89643627792305
 10
180.25740343298
 20
92.89643627792305
 10
179.8123615678937
 20
92.89643627792305
 10
70.81236225995053
 20
92.89643627792305
 10
70.36732039486378
 20
92.89643627792305
 10
69.94459478722546
 20
92.89643627792305
 10
69.56538266415009
 20
92.89643627792305
 10
69.24869930494288
 20
92.89643627792305
 10
69.01042453558694
 20
92.89643627792305
 10
68.86250644796655
 20
92.89643627792305
 10
68.81236227264889
 20
92.89643627792305
 10
68.81236227264889
 20
82.89643592553819
  0
LINE
  5
C68
330
1F
100
AcDbEntity
  8
Hewi
370
    13
100
AcDbLine
 10
60.81236232344145
 20
77.39643573172589
 30
0.0
 11
60.449091061746
 21
76.89643571410602
 31
0.0
  0
LINE
  5
C69
330
1F
100
AcDbEntity
  8
Hewi
370
    13
100
AcDbLine
 10
178.8123615742424
 20
74.89643564362825
 30
0.0
 11
71.81236225360135
 21
74.89643564362825
 31
0.0
  0
LINE
  5
C6A
330
1F
100
AcDbEntity
  8
Hewi
370
    13
100
AcDbLine
 10
60.81236232344145
 20
80.89643585505985
 30
0.0
 11
60.31236232661649
 21
81.25970713186394
 31
0.0
  0
LINE
  5
C6B
330
1F
100
AcDbEntity
  8
Hewi
370
    13
100
AcDbLine
 10
71.81236225360135
 20
74.89643564362996
 30
0.0
 11
71.81236225360135
 21
75.39643566124926
 31
0.0
  0
LINE
  5
C6C
330
1F
100
AcDbEntity
  8
Hewi
370
    13
100
AcDbLine
 10
189.8123615044014
 20
80.89643585505985
 30
0.0
 11
190.1756327660987
 21
81.39643587267972
 31
0.0
  0
LWPOLYLINE
  5
C6D
330
1F
100
AcDbEntity
  8
Hewi
370
    13
100
AcDbPolyline
 90
       10
 70
     0
 43
0.0
 10
157.1011114093335
 20
63.39643523798901
 10
157.1053247016061
 20
63.39479890092906
 10
157.1720739812385
 20
63.38508921933073
 10
159.9879393503915
 20
63.31860009527009
 10
161.5192683330197
 20
63.30197653523516
 10
162.1061092026784
 20
63.2978205652849
 10
162.8123616758289
 20
63.29643523486158
 10
163.5186141489798
 20
63.2978205652849
 10
163.6876015194097
 20
63.29889804204572
 10
165.4657187684615
 20
63.31860009527009
  0
LWPOLYLINE
  5
C6E
330
1F
100
AcDbEntity
  8
Hewi
370
    13
100
AcDbPolyline
 90
        7
 70
     0
 43
0.0
 10
180.8123615615441
 20
81.89643589029788
 10
181.2265751212876
 20
82.31064946726906
 10
181.5176418857754
 20
82.60171624385964
 10
181.6849101338239
 20
82.76898449886562
 10
181.7774346800015
 20
82.86150904889144
 10
181.8036106919953
 20
82.88768506197403
 10
181.8123615551949
 20
82.89643592553819
  0
LWPOLYLINE
  5
C6F
330
1F
100
AcDbEntity
  8
Hewi
370
    13
100
AcDbPolyline
 90
       10
 70
     0
 43
0.0
 10
82.10111188551854
 20
63.39643523798901
 10
82.10532517779165
 20
63.39479890092906
 10
82.17207445742451
 20
63.38508921933073
 10
84.98793982657753
 20
63.31860009527009
 10
86.51926880920518
 20
63.30197653523516
 10
87.10610967886486
 20
63.2978205652849
 10
87.81236215201444
 20
63.29643523486158
 10
88.51861462516444
 20
63.2978205652849
 10
88.68760199559529
 20
63.29889804204572
 10
90.46571924464752
 20
63.31860009527009
  0
LWPOLYLINE
  5
C70
330
1F
100
AcDbEntity
  8
Hewi
370
    13
100
AcDbPolyline
 90
        5
 70
     0
 43
0.0
 10
168.5315724129746
 20
63.39643523798901
 10
168.5273532481196
 20
63.39479890092906
 10
168.4605109318208
 20
63.38508921933073
 10
167.0349732023064
 20
63.34630489173907
 10
165.4657187684615
 20
63.31860009527009
  0
LWPOLYLINE
  5
C71
330
1F
100
AcDbEntity
  8
Hewi
370
    13
100
AcDbPolyline
 90
        5
 70
     0
 43
0.0
 10
90.46571924464752
 20
63.31860009527009
 10
92.03497367849285
 20
63.34630489173907
 10
93.46051140800545
 20
63.38508921933073
 10
93.52735372430606
 20
63.39479890092906
 10
93.53157288916099
 20
63.39643523798901
  0
LWPOLYLINE
  5
C72
330
1F
100
AcDbEntity
  8
Hewi
370
    13
100
AcDbPolyline
 90
        3
 70
     0
 43
0.0
 10
90.46571924464752
 20
63.31860009527009
 10
89.10545549482458
 20
63.30197653523516
 10
88.71743457055073
 20
63.29922859557303
  0
LINE
  5
C73
330
1F
100
AcDbEntity
  8
Hewi
370
    13
100
AcDbLine
 10
189.8123615044014
 20
77.39643573172589
 30
0.0
 11
190.3123615012282
 21
77.03316445492067
 31
0.0
  0
LWPOLYLINE
  5
C74
330
1F
100
AcDbEntity
  8
Hewi
370
    13
100
AcDbPolyline
 90
       10
 70
     0
 43
0.0
 10
127.965719006555
 20
63.31860009527009
 10
126.1876017575027
 20
63.29889804204572
 10
126.0186143870724
 20
63.2978205652849
 10
125.3123619139214
 20
63.29643523486158
 10
124.6061094407714
 20
63.2978205652849
 10
124.0192685711126
 20
63.30197653523516
 10
122.487939588485
 20
63.31860009527009
 10
119.672074219332
 20
63.38508921933073
 10
119.6053249396991
 20
63.39479890092906
 10
119.6011116474255
 20
63.39643523798901
  0
LWPOLYLINE
  5
C75
330
1F
100
AcDbEntity
  8
Hewi
370
    13
100
AcDbPolyline
 90
        3
 70
     0
 43
0.0
 10
127.965719006555
 20
63.31860009527009
 10
126.605455256732
 20
63.30197653523516
 10
126.2174343324586
 20
63.29922859557303
  0
LWPOLYLINE
  5
C76
330
1F
100
AcDbEntity
  8
Hewi
370
    13
100
AcDbPolyline
 90
       18
 70
     0
 43
0.0
 10
182.815609958473
 20
82.89643592553648
 10
182.815609958473
 20
87.26643607952997
 10
182.9819557784699
 20
87.89643610173005
 10
183.0223034861883
 20
87.89643610173005
 10
183.1666828611742
 20
87.89643610173005
 10
183.4067030989508
 20
87.89643610173005
 10
183.7284150957371
 20
87.89643610173005
 10
184.1131221196551
 20
87.89643610173005
 10
184.5384663968266
 20
87.89643610173005
 10
184.9797284639285
 20
87.89643610173005
 10
185.4112637735406
 20
87.89643610173005
 10
185.8079930620379
 20
87.89643610173005
 10
186.1468598652227
 20
87.89643610173005
 10
186.4081704762257
 20
87.89643610173005
 10
186.5767384721616
 20
87.89643610173005
 10
186.6427672938248
 20
87.89643610173005
 10
186.8091131138226
 20
87.26643607952997
 10
186.8091131138226
 20
82.89643592553648
  0
LWPOLYLINE
  5
C77
330
1F
100
AcDbEntity
  8
Hewi
370
    13
100
AcDbPolyline
 90
        5
 70
     0
 43
0.0
 10
127.965719006555
 20
63.31860009527009
 10
129.5349734403999
 20
63.34630489173907
 10
130.9605111699134
 20
63.38508921933073
 10
131.0273534862126
 20
63.39479890092906
 10
131.031572651068
 20
63.39643523798901
  0
LWPOLYLINE
  5
C78
330
1F
100
AcDbEntity
  8
Hewi
370
    13
100
AcDbPolyline
 90
        3
 70
     0
 43
0.0
 10
165.4657187684615
 20
63.31860009527009
 10
164.1054550186391
 20
63.30197653523516
 10
163.7174340943647
 20
63.29922859557303
  0
LWPOLYLINE
  5
C79
330
1F
100
AcDbEntity
  8
Hewi
370
    13
100
AcDbPolyline
 90
       18
 70
     0
 43
0.0
 10
63.81561071402029
 20
82.89643592553648
 10
63.81561071402029
 20
87.26643607952997
 10
63.98195653401853
 20
87.89643610173005
 10
64.02230424173649
 20
87.89643610173005
 10
64.16668361672282
 20
87.89643610173005
 10
64.40670385449903
 20
87.89643610173005
 10
64.72841585128572
 20
87.89643610173005
 10
65.11312287520286
 20
87.89643610173005
 10
65.53846715237523
 20
87.89643610173005
 10
65.97972921947667
 20
87.89643610173005
 10
66.41126452908975
 20
87.89643610173005
 10
66.80799381758515
 20
87.89643610173005
 10
67.14686062077044
 20
87.89643610173005
 10
67.40817123177476
 20
87.89643610173005
 10
67.57673922770982
 20
87.89643610173005
 10
67.64276804937344
 20
87.89643610173005
 10
67.80911386937169
 20
87.26643607952997
 10
67.80911386937169
 20
82.89643592553648
  0
LWPOLYLINE
  5
C7A
330
1F
100
AcDbEntity
  8
Hewi
370
    13
100
AcDbPolyline
 90
       54
 70
     0
 43
0.0
 10
115.6270676015265
 20
63.39643523838606
 10
115.5686292349419
 20
63.39067082230275
 10
115.5124366220125
 20
63.37359909733482
 10
115.4509993594351
 20
63.3391403346788
 10
115.3992916559464
 20
63.29126964917879
 10
115.3601708874739
 20
63.23263238253492
 10
115.3357988739103
 20
63.16646883943878
 10
115.3275224166063
 20
63.09643522781403
 10
115.3275224166063
 20
49.58029634190882
 10
115.2526822799218
 20
49.24220172060802
 10
115.0421857459168
 20
48.96746076582576
 10
114.8975741201347
 20
48.87068765036804
 10
114.7354765867749
 20
48.80755565364797
 10
112.6656897348266
 20
48.25211584395578
 10
111.9755941267449
 20
47.89232934156603
 10
111.5019769252239
 20
47.27416219330325
 10
111.3335866176808
 20
46.51344929536793
 10
111.3335866176808
 20
42.62643450648186
 10
111.8228437530488
 20
42.12643448886171
 10
117.0510220029959
 20
40.71818046385419
 10
122.4167584597007
 20
39.99622992951078
 10
122.4626983794096
 20
39.99622992951078
 10
122.6742503856408
 20
39.99622992951078
 10
123.0391198447487
 20
39.99622992951078
 10
123.5361018700187
 20
39.99622992951078
 10
124.1363136725986
 20
39.99622992951078
 10
124.8048731242033
 20
39.99622992951078
 10
125.5029259796174
 20
39.99622992951078
 10
126.1899039442064
 20
39.99622992951078
 10
126.8258823557307
 20
39.99622992951078
 10
127.3739004606009
 20
39.99622992951078
 10
127.8021094385258
 20
39.99622992951078
 10
128.085623340185
 20
39.99622992951078
 10
128.2079653681435
 20
39.99622992951078
 10
133.4420440649146
 20
40.71818046385419
 10
138.801880074795
 20
42.12643448886171
 10
139.2911372101634
 20
42.62643450648186
 10
139.2911372101634
 20
46.51344929536793
 10
139.1227469026198
 20
47.27416219330325
 10
138.6491297010998
 20
47.89232934156603
 10
137.9590340930176
 20
48.25211584395578
 10
135.8892472410689
 20
48.80755565364797
 10
135.727149707709
 20
48.87068765036804
 10
135.5825380819269
 20
48.96746076582576
 10
135.3720415479219
 20
49.24220172060802
 10
135.2972014112374
 20
49.58029634190882
 10
135.2972014112374
 20
63.09643522781403
 10
135.2889249539339
 20
63.16646883943878
 10
135.2645529403708
 20
63.23263238253492
 10
135.2254321718974
 20
63.29126964917879
 10
135.1737244684091
 20
63.3391403346788
 10
135.1122872058313
 20
63.37359909733482
 10
135.0560945929019
 20
63.39067082230275
 10
134.9976562263177
 20
63.39643523838606
  0
LINE
  5
C7B
330
1F
100
AcDbEntity
  8
Hewi
370
    13
100
AcDbLine
 10
122.3169100647269
 20
74.89643573303613
 30
0.0
 11
122.3169100647269
 21
75.39643572085299
 31
0.0
  0
LINE
  5
C7C
330
1F
100
AcDbEntity
  8
Hewi
370
    13
100
AcDbLine
 10
128.3078137631159
 20
75.39643572085299
 30
0.0
 11
128.3078137631159
 21
74.89643552442021
 31
0.0
  0
LINE
  5
C7D
330
1F
100
AcDbEntity
  8
Hewi
370
    13
100
AcDbLine
 10
178.8123615742424
 20
75.39643566124926
 30
0.0
 11
178.8123615742424
 21
74.89643564362996
 31
0.0
  0
LWPOLYLINE
  5
D4F
330
1F
100
AcDbEntity
  8
Hewi
370
    13
100
AcDbPolyline
 90
       49
 70
     0
 43
0.0
 10
119.8225902564504
 20
428.4103855702828
 10
119.4626654074259
 20
429.6900484459059
 10
119.4393129593977
 20
429.7900817506509
 10
119.3893739180444
 20
431.0165113872509
 10
119.3973559199153
 20
431.2214107262469
 10
119.613085779019
 20
432.326026023518
 10
119.6991575286342
 20
432.6211888596788
 10
120.1225831435026
 20
433.5529278227868
 10
120.3271781730564
 20
433.9080661338187
 10
120.8923176861644
 20
434.6356948057458
 10
121.2449195760941
 20
435.0072539191018
 10
121.883691702902
 20
435.5200325146298
 10
122.3990459432539
 20
435.8548714168318
 10
123.0469935609012
 20
436.1615965640417
 10
123.7224836451564
 20
436.4016581790057
 10
124.4623290113127
 20
436.5499309161909
 10
125.138319293067
 20
436.6158369464957
 10
125.9296860232502
 20
436.5789380363217
 10
126.5642696654836
 20
436.4849604278407
 10
127.359263128038
 20
436.2468427041108
 10
127.9174637098781
 20
436.0166346905917
 10
128.663570967225
 20
435.5739689772539
 10
129.1192587070518
 20
435.2380771243
 10
129.7627865947861
 20
434.6014963699489
 10
130.0998107001151
 20
434.1945346647779
 10
130.5896385989654
 20
433.3889396885238
 10
130.8021335713933
 20
432.9466542066509
 10
131.0935240768895
 20
432.0105067569508
 10
131.1854108684479
 20
431.5669580262838
 10
131.2436055053181
 20
430.5505569374808
 10
131.2273679079299
 20
430.1356290506869
 10
131.0306979806541
 20
429.0984383825507
 10
130.9255662992113
 20
428.7358509172549
 10
130.4678313301669
 20
427.7430199753716
 10
130.2975456547874
 20
427.448973643115
 10
129.5894526934903
 20
426.5672526015438
 10
129.379804251751
 20
426.3497858578318
 10
128.4493183759982
 20
425.6430925989799
 10
128.2256778845912
 20
425.5021683601019
 10
127.1172039915063
 20
425.0270980682968
 10
126.9022401826864
 20
424.9553815979278
 10
125.6746342318233
 20
424.756967547138
 10
125.4864045347772
 20
424.7412028304388
 10
124.2098935989693
 20
424.8492328797198
 10
124.0604541623602
 20
424.8720793490929
 10
122.8126234406113
 20
425.2982474767649
 10
122.7072601179661
 20
425.340405086343
 10
121.5683359472618
 20
426.0765318837529
 10
121.5054651207915
 20
426.1189626526338
  0
LINE
  5
D50
330
1F
100
AcDbEntity
  8
Hewi
370
    13
100
AcDbLine
 10
126.6097974640565
 20
436.5209823808728
 30
0.0
 11
127.6863215289481
 21
436.1484091136118
 31
0.0
  0
LINE
  5
D51
330
1F
100
AcDbEntity
  8
Hewi
370
    13
100
AcDbLine
 10
130.1577757205141
 20
434.1913069697088
 30
0.0
 11
130.7165037724053
 21
433.1985643923618
 31
0.0
  0
LINE
  5
D52
330
1F
100
AcDbEntity
  8
Hewi
370
    13
100
AcDbLine
 10
121.4484120205311
 20
426.1082246197238
 30
0.0
 11
120.6683407352766
 21
426.9384075303459
 31
0.0
  0
LINE
  5
D53
330
1F
100
AcDbEntity
  8
Hewi
370
    13
100
AcDbLine
 10
130.9558378428123
 20
428.6863131020509
 30
0.0
 11
130.4562204082167
 21
427.662546880265
 31
0.0
  0
LINE
  5
D54
330
1F
100
AcDbEntity
  8
Hewi
370
    13
100
AcDbLine
 10
128.2154868118455
 20
425.4450150270039
 30
0.0
 11
127.1626351972631
 21
425.0100226397089
 31
0.0
  0
LINE
  5
D55
330
1F
100
AcDbEntity
  8
Hewi
370
    13
100
AcDbLine
 10
126.8786675557867
 20
424.9023279201028
 30
0.0
 11
125.7523094010043
 21
424.7319394984668
 31
0.0
  0
LINE
  5
D56
330
1F
100
AcDbEntity
  8
Hewi
370
    13
100
AcDbLine
 10
125.450820309114
 20
424.6953320947989
 30
0.0
 11
124.3164154559399
 21
424.7994499945518
 31
0.0
  0
LINE
  5
D57
330
1F
100
AcDbEntity
  8
Hewi
370
    13
100
AcDbLine
 10
119.3894874675347
 20
429.819877420195
 30
0.0
 11
119.356108838002
 21
430.95856118354
 31
0.0
  0
LINE
  5
D58
330
1F
100
AcDbEntity
  8
Hewi
370
    13
100
AcDbLine
 10
127.9702891711945
 20
436.0407143960397
 30
0.0
 11
128.926368782159
 21
435.4213383653158
 31
0.0
  0
LINE
  5
D59
330
1F
100
AcDbEntity
  8
Hewi
370
    13
100
AcDbLine
 10
131.2352363603104
 20
431.5371623567389
 30
0.0
 11
131.2686149898409
 21
430.3984785933951
 31
0.0
  0
LINE
  5
D5A
330
1F
100
AcDbEntity
  8
Hewi
370
    13
100
AcDbLine
 10
124.0149263637881
 20
424.836057396061
 30
0.0
 11
122.9384022988965
 21
425.2086306633218
 31
0.0
  0
LINE
  5
D5B
330
1F
100
AcDbEntity
  8
Hewi
370
    13
100
AcDbLine
 10
119.3561088369151
 20
431.2622646081808
 30
0.0
 11
119.5962049975164
 21
432.3758483195429
 31
0.0
  0
LINE
  5
D5C
330
1F
100
AcDbEntity
  8
Hewi
370
    13
100
AcDbLine
 10
125.3044255228092
 20
429.9722674477879
 30
0.0
 11
125.3123619139219
 21
430.6785198884667
 31
0.0
  0
LINE
  5
D5D
330
1F
100
AcDbEntity
  8
Hewi
370
    13
100
AcDbLine
 10
119.6688859850305
 20
432.6707266748829
 30
0.0
 11
120.1685034196271
 21
433.6944928966688
 31
0.0
  0
LINE
  5
D5E
330
1F
100
AcDbEntity
  8
Hewi
370
    13
100
AcDbLine
 10
130.3150823869096
 20
427.3936308523989
 30
0.0
 11
129.584979627582
 21
426.5191796917589
 31
0.0
  0
LINE
  5
D5F
330
1F
100
AcDbEntity
  8
Hewi
370
    13
100
AcDbLine
 10
121.2411368265802
 20
435.0651853634968
 30
0.0
 11
122.159293992081
 21
435.7395015400348
 31
0.0
  0
LINE
  5
D60
330
1F
100
AcDbEntity
  8
Hewi
370
    13
100
AcDbLine
 10
122.4092370159992
 20
435.91202474993
 30
0.0
 11
123.4620886305811
 21
436.3470171372249
 31
0.0
  0
LINE
  5
D61
330
1F
100
AcDbEntity
  8
Hewi
370
    13
100
AcDbLine
 10
125.1739035187302
 20
436.6617076821349
 30
0.0
 11
126.3083083719043
 21
436.5575897823817
 31
0.0
  0
LINE
  5
D62
330
1F
100
AcDbEntity
  8
Hewi
370
    13
100
AcDbLine
 10
120.3096414409351
 20
433.963408924535
 30
0.0
 11
121.0397442002618
 21
434.8378600851749
 31
0.0
  0
LINE
  5
D63
330
1F
100
AcDbEntity
  8
Hewi
370
    13
100
AcDbLine
 10
130.8576417956378
 20
432.9296483655067
 30
0.0
 11
131.1625553706831
 21
431.8320407115589
 31
0.0
  0
LINE
  5
D64
330
1F
100
AcDbEntity
  8
Hewi
370
    13
100
AcDbLine
 10
129.3835870012644
 20
426.2918544134369
 30
0.0
 11
128.4654298357632
 21
425.6175382368987
 31
0.0
  0
LINE
  5
D65
330
1F
100
AcDbEntity
  8
Hewi
370
    13
100
AcDbLine
 10
129.1763118073136
 20
435.2488151572098
 30
0.0
 11
129.9563830925681
 21
434.418632246588
 31
0.0
  0
LINE
  5
D66
330
1F
100
AcDbEntity
  8
Hewi
370
    13
100
AcDbLine
 10
122.6544346566497
 20
425.3163253808939
 30
0.0
 11
121.6983550456852
 21
425.9357014116188
 31
0.0
  0
LINE
  5
D67
330
1F
100
AcDbEntity
  8
Hewi
370
    13
100
AcDbLine
 10
131.2686149909291
 20
430.0947751687528
 30
0.0
 11
131.0285188303269
 21
428.9811914573919
 31
0.0
  0
LINE
  5
D68
330
1F
100
AcDbEntity
  8
Hewi
370
    13
100
AcDbLine
 10
120.4669481073301
 20
427.1657328072251
 30
0.0
 11
119.9082200554389
 21
428.1584753845718
 31
0.0
  0
LINE
  5
D69
330
1F
100
AcDbEntity
  8
Hewi
370
    13
100
AcDbLine
 10
119.7670820322064
 20
428.4273914114269
 30
0.0
 11
119.4621684571616
 21
429.5249990653759
 31
0.0
  0
LWPOLYLINE
  5
D6A
330
1F
100
AcDbEntity
  8
Hewi
370
    13
100
AcDbPolyline
 90
       16
 70
     0
 43
0.0
 10
188.550157010965
 20
219.17853095551
 10
188.550157010965
 20
219.019952320045
 10
188.398646623792
 20
219.019952320045
 10
188.0823015801484
 20
219.019952320045
 10
187.6195067041021
 20
219.019952320045
 10
187.03715795166
 20
219.019952320045
 10
186.3690993155619
 20
219.019952320045
 10
185.6541559354427
 20
219.019952320045
 10
184.9338777218431
 20
219.019952320045
 10
184.2501246264296
 20
219.019952320045
 10
183.6426338937704
 20
219.019952320045
 10
183.1467106771056
 20
219.019952320045
 10
182.791176231181
 20
219.019952320045
 10
182.5966929256779
 20
219.019952320045
 10
182.5745634233967
 20
219.019952320045
 10
182.5745634233967
 20
219.17853095551
  0
LWPOLYLINE
  5
D6B
330
1F
100
AcDbEntity
  8
Hewi
370
    13
100
AcDbPolyline
 90
       49
 70
     0
 43
0.0
 10
121.5054651207915
 20
480.6189598008419
 10
121.5683359472618
 20
480.5765290319617
 10
122.7072601179661
 20
479.8404022345509
 10
122.8126234406113
 20
479.7982446249728
 10
124.0604541623602
 20
479.3720764973008
 10
124.2098935989693
 20
479.3492300279289
 10
125.4864045347772
 20
479.2411999786467
 10
125.6746342318233
 20
479.2569646953458
 10
126.9022401826864
 20
479.4553787461366
 10
127.1172039915063
 20
479.5270952165057
 10
128.2256778845912
 20
480.0021655083108
 10
128.4493183759982
 20
480.1430897471887
 10
129.379804251751
 20
480.8497830060408
 10
129.5894526934903
 20
481.0672497497518
 10
130.2975456547874
 20
481.9489707913239
 10
130.4678313301669
 20
482.2430171235797
 10
130.9255662992113
 20
483.2358480654638
 10
131.0306979806541
 20
483.59843553076
 10
131.2273679079299
 20
484.6356261988956
 10
131.2436055053181
 20
485.0505540856898
 10
131.1854108684479
 20
486.0669551744918
 10
131.0935240768895
 20
486.5105039051587
 10
130.8021335713933
 20
487.4466513548587
 10
130.5896385989654
 20
487.8889368367327
 10
130.0998107001151
 20
488.6945318129866
 10
129.7627865947861
 20
489.1014935181568
 10
129.1192587070518
 20
489.7380742725086
 10
128.663570967225
 20
490.0739661254627
 10
127.9174637098781
 20
490.5166318387999
 10
127.359263128038
 20
490.7468398523198
 10
126.5642696654836
 20
490.9849575760498
 10
125.9296860232502
 20
491.0789351845308
 10
125.138319293067
 20
491.1158340947038
 10
124.4623290113127
 20
491.0499280643997
 10
123.7224836451564
 20
490.9016553272151
 10
123.0469935609012
 20
490.6615937122498
 10
122.3990459432539
 20
490.3548685650409
 10
121.883691702902
 20
490.020029662838
 10
121.2449195760941
 20
489.5072510673097
 10
120.8923176861644
 20
489.1356919539547
 10
120.3271781730564
 20
488.4080632820268
 10
120.1225831435026
 20
488.0529249709949
 10
119.6991575286342
 20
487.1211860078878
 10
119.613085779019
 20
486.8260231717257
 10
119.3973559199153
 20
485.7214078744546
 10
119.3893739180444
 20
485.5165085354598
 10
119.4393129593977
 20
484.2900788988587
 10
119.4626654074259
 20
484.1900455941148
 10
119.8225902564504
 20
482.9103827184916
  0
LINE
  5
D6C
330
1F
100
AcDbEntity
  8
Hewi
370
    13
100
AcDbLine
 10
123.7460562720566
 20
436.4547118568308
 30
0.0
 11
124.8724144268403
 21
436.6251002784669
 31
0.0
  0
LINE
  5
D6D
330
1F
100
AcDbEntity
  8
Hewi
370
    13
100
AcDbLine
 10
131.2686149909291
 20
484.5947723169619
 30
0.0
 11
131.0285188303269
 21
483.4811886055998
 31
0.0
  0
LINE
  5
D6E
330
1F
100
AcDbEntity
  8
Hewi
370
    13
100
AcDbLine
 10
126.8786675557867
 20
479.4023250683109
 30
0.0
 11
125.7523094010043
 21
479.2319366466757
 31
0.0
  0
LINE
  5
D6F
330
1F
100
AcDbEntity
  8
Hewi
370
    13
100
AcDbLine
 10
125.1739035187302
 20
491.1617048303427
 30
0.0
 11
126.3083083719043
 21
491.0575869305906
 31
0.0
  0
LWPOLYLINE
  5
D70
330
1F
100
AcDbEntity
  8
Hewi
370
    13
100
AcDbPolyline
 90
       32
 70
     1
 43
0.0
 10
51.07682904804869
 20
640.1785089260758
 10
50.31840481844302
 20
640.1785089260758
 10
49.68503811384199
 20
640.1785089260758
 10
49.20848858552517
 20
640.1785089260758
 10
48.91265241673818
 20
640.1785089260758
 10
48.81236406829021
 20
640.1785089260758
 10
48.81236406829021
 20
340.1785246240109
 10
48.91265241673818
 20
340.1785246240109
 10
49.20848858552517
 20
340.1785246240109
 10
49.68503811384199
 20
340.1785246240109
 10
50.31840481844302
 20
340.1785246240109
 10
51.07682904804869
 20
340.1785246240109
 10
51.9222802448844
 20
340.1785246240109
 10
52.81236395564474
 20
340.1785246240109
 10
197.8123598722004
 20
340.1785246240109
 10
198.7024435829589
 20
340.1785246240109
 10
199.5478947797951
 20
340.1785246240109
 10
200.3063190094013
 20
340.1785246240109
 10
200.9396857140023
 20
340.1785246240109
 10
201.4162352423182
 20
340.1785246240109
 10
201.7120714111065
 20
340.1785246240109
 10
201.8123597595527
 20
340.1785246240109
 10
201.8123597595527
 20
640.1785089260758
 10
201.7120714111065
 20
640.1785089260758
 10
201.4162352423182
 20
640.1785089260758
 10
200.9396857140023
 20
640.1785089260758
 10
200.3063190094013
 20
640.1785089260758
 10
199.5478947797951
 20
640.1785089260758
 10
198.7024435829589
 20
640.1785089260758
 10
197.8123598722004
 20
640.1785089260758
 10
52.81236395564474
 20
640.1785089260758
 10
51.9222802448844
 20
640.1785089260758
  0
LINE
  5
D71
330
1F
100
AcDbEntity
  8
Hewi
370
    13
100
AcDbLine
 10
124.0149263637881
 20
479.3360545442697
 30
0.0
 11
122.9384022988965
 21
479.7086278115299
 31
0.0
  0
LINE
  5
D72
330
1F
100
AcDbEntity
  8
Hewi
370
    13
100
AcDbLine
 10
119.3894874675347
 20
484.3198745684039
 30
0.0
 11
119.356108838002
 21
485.4585583317478
 31
0.0
  0
LINE
  5
D73
330
1F
100
AcDbEntity
  8
Hewi
370
    13
100
AcDbLine
 10
121.2411368265802
 20
489.5651825117048
 30
0.0
 11
122.159293992081
 21
490.2394986882428
 31
0.0
  0
LINE
  5
D74
330
1F
100
AcDbEntity
  8
Hewi
370
    13
100
AcDbLine
 10
126.6097974640565
 20
491.0209795290817
 30
0.0
 11
127.6863215289481
 21
490.6484062618209
 31
0.0
  0
LINE
  5
D75
330
1F
100
AcDbEntity
  8
Hewi
370
    13
100
AcDbLine
 10
130.8576417956378
 20
487.4296455137158
 30
0.0
 11
131.1625553706831
 21
486.3320378597667
 31
0.0
  0
LINE
  5
D76
330
1F
100
AcDbEntity
  8
Hewi
370
    13
100
AcDbLine
 10
120.4669481073301
 20
481.6657299554337
 30
0.0
 11
119.9082200554389
 21
482.6584725327808
 31
0.0
  0
LINE
  5
D77
330
1F
100
AcDbEntity
  8
Hewi
370
    13
100
AcDbLine
 10
119.7670820322064
 20
482.9273885596359
 30
0.0
 11
119.4621684571616
 21
484.0249962135839
 31
0.0
  0
LINE
  5
D78
330
1F
100
AcDbEntity
  8
Hewi
370
    13
100
AcDbLine
 10
127.9702891711945
 20
490.5407115442479
 30
0.0
 11
128.926368782159
 21
489.9213355135238
 31
0.0
  0
LINE
  5
D79
330
1F
100
AcDbEntity
  8
Hewi
370
    13
100
AcDbLine
 10
119.6688859850305
 20
487.1707238230909
 30
0.0
 11
120.1685034196271
 21
488.1944900448778
 31
0.0
  0
LINE
  5
D7A
330
1F
100
AcDbEntity
  8
Hewi
370
    13
100
AcDbLine
 10
130.9558378428123
 20
483.1863102502599
 30
0.0
 11
130.4562204082167
 21
482.1625440284727
 31
0.0
  0
LINE
  5
D7B
330
1F
100
AcDbEntity
  8
Hewi
370
    13
100
AcDbLine
 10
128.2154868118455
 20
479.9450121752128
 30
0.0
 11
127.1626351972631
 21
479.5100197879166
 31
0.0
  0
LINE
  5
D7C
330
1F
100
AcDbEntity
  8
Hewi
370
    13
100
AcDbLine
 10
119.3561088369151
 20
485.7622617563898
 30
0.0
 11
119.5962049975164
 21
486.8758454677507
 31
0.0
  0
LINE
  5
D7D
330
1F
100
AcDbEntity
  8
Hewi
370
    13
100
AcDbLine
 10
125.3123619139219
 20
485.1785170366757
 30
0.0
 11
125.3044255228092
 21
484.4722645959968
 31
0.0
  0
LINE
  5
D7E
330
1F
100
AcDbEntity
  8
Hewi
370
    13
100
AcDbLine
 10
131.2352363603104
 20
486.0371595049469
 30
0.0
 11
131.2686149898409
 21
484.8984757416027
 31
0.0
  0
LINE
  5
D7F
330
1F
100
AcDbEntity
  8
Hewi
370
    13
100
AcDbLine
 10
122.6544346566497
 20
479.8163225291029
 30
0.0
 11
121.6983550456852
 21
480.4356985598268
 31
0.0
  0
LINE
  5
D80
330
1F
100
AcDbEntity
  8
Hewi
370
    13
100
AcDbLine
 10
129.1763118073136
 20
489.7488123054187
 30
0.0
 11
129.9563830925681
 21
488.9186293947967
 31
0.0
  0
LINE
  5
D81
330
1F
100
AcDbEntity
  8
Hewi
370
    13
100
AcDbLine
 10
120.3096414409351
 20
488.4634060727427
 30
0.0
 11
121.0397442002618
 21
489.3378572333839
 31
0.0
  0
LINE
  5
D82
330
1F
100
AcDbEntity
  8
Hewi
370
    13
100
AcDbLine
 10
130.1577757205141
 20
488.6913041179167
 30
0.0
 11
130.7165037724053
 21
487.6985615405707
 31
0.0
  0
LINE
  5
D83
330
1F
100
AcDbEntity
  8
Hewi
370
    13
100
AcDbLine
 10
121.4484120205311
 20
480.6082217679317
 30
0.0
 11
120.6683407352766
 21
481.4384046785538
 31
0.0
  0
LINE
  5
D84
330
1F
100
AcDbEntity
  8
Hewi
370
    13
100
AcDbLine
 10
130.3150823869096
 20
481.8936280006076
 30
0.0
 11
129.584979627582
 21
481.0191768399667
 31
0.0
  0
LINE
  5
D85
330
1F
100
AcDbEntity
  8
Hewi
370
    13
100
AcDbLine
 10
123.7460562720566
 20
490.9547090050399
 30
0.0
 11
124.8724144268403
 21
491.125097426676
 31
0.0
  0
LINE
  5
D86
330
1F
100
AcDbEntity
  8
Hewi
370
    13
100
AcDbLine
 10
129.3835870012644
 20
480.7918515616457
 30
0.0
 11
128.4654298357632
 21
480.1175353851079
 31
0.0
  0
LINE
  5
D87
330
1F
100
AcDbEntity
  8
Hewi
370
    13
100
AcDbLine
 10
122.4092370159992
 20
490.4120218981387
 30
0.0
 11
123.4620886305811
 21
490.8470142854338
 31
0.0
  0
LINE
  5
D88
330
1F
100
AcDbEntity
  8
Hewi
370
    13
100
AcDbLine
 10
125.450820309114
 20
479.1953292430078
 30
0.0
 11
124.3164154559399
 21
479.2994471427609
 31
0.0
  0
LWPOLYLINE
  5
D89
330
1F
100
AcDbEntity
  8
Hewi
370
    13
100
AcDbPolyline
 90
       26
 70
     1
 43
0.0
 10
123.8764679686342
 20
424.8528692887459
 10
125.3123619139219
 20
424.6785202024259
 10
126.7482558592105
 20
424.8528692887459
 10
128.1007008676602
 20
425.3657840125438
 10
129.2910977513197
 20
426.1874556344416
 10
130.2502649702242
 20
427.2701315864289
 10
130.9224592120454
 20
428.5508906775428
 10
131.2686149907722
 20
429.9552998447787
 10
131.2686149907722
 20
431.401739932156
 10
130.9224592120454
 20
432.8061490993909
 10
130.2502649702242
 20
434.086908190505
 10
129.2910977513197
 20
435.169584142492
 10
128.1007008676602
 20
435.9912557643898
 10
126.7482558592105
 20
436.5041704881879
 10
125.3123619139219
 20
436.6785195745088
 10
123.8764679686342
 20
436.5041704881879
 10
122.5240229601832
 20
435.9912557643898
 10
121.333626076525
 20
435.169584142492
 10
120.3744588576196
 20
434.086908190505
 10
119.7022646157993
 20
432.8061490993909
 10
119.3561088370711
 20
431.401739932156
 10
119.3561088370711
 20
429.9552998447787
 10
119.7022646157993
 20
428.5508906775428
 10
120.3744588576196
 20
427.2701315864289
 10
121.333626076525
 20
426.1874556344416
 10
122.5240229601832
 20
425.3657840125438
  0
LWPOLYLINE
  5
D8A
330
1F
100
AcDbEntity
  8
Hewi
370
    13
100
AcDbPolyline
 90
       26
 70
     1
 43
0.0
 10
160.0240219041211
 20
541.3657779426759
 10
161.3764669125707
 20
540.852863218878
 10
162.8123608578589
 20
540.6785141325578
 10
164.2482548031471
 20
540.852863218878
 10
165.6006998115977
 20
541.3657779426768
 10
166.7910966952563
 20
542.1874495645739
 10
167.7502639141612
 20
543.2701255165608
 10
168.4224581559824
 20
544.5508846076749
 10
168.7686139347093
 20
545.9552937749109
 10
168.7686139347093
 20
547.4017338622878
 10
168.4224581559824
 20
548.8061430295227
 10
167.7502639141612
 20
550.0869021206366
 10
166.7910966952563
 20
551.1695780726237
 10
165.6006998115977
 20
551.9912496945218
 10
164.2482548031471
 20
552.5041644183199
 10
162.8123608578589
 20
552.6785135046399
 10
161.3764669125707
 20
552.5041644183199
 10
160.0240219041211
 20
551.9912496945218
 10
158.833625020462
 20
551.1695780726237
 10
157.8744578015571
 20
550.0869021206366
 10
157.2022635597354
 20
548.8061430295227
 10
156.8561077810086
 20
547.4017338622878
 10
156.8561077810086
 20
545.9552937749109
 10
157.2022635597354
 20
544.5508846076749
 10
157.8744578015571
 20
543.2701255165608
 10
158.833625020462
 20
542.1874495645739
  0
LWPOLYLINE
  5
D8B
330
1F
100
AcDbEntity
  8
Hewi
370
    13
100
AcDbPolyline
 90
       26
 70
     1
 43
0.0
 10
122.5240229601832
 20
604.8657746199467
 10
123.8764679686342
 20
604.3528598961487
 10
125.3123619139219
 20
604.1785108098277
 10
126.7482558592105
 20
604.3528598961487
 10
128.1007008676602
 20
604.8657746199467
 10
129.2910977513197
 20
605.6874462418437
 10
130.2502649702242
 20
606.7701221938308
 10
130.9224592120454
 20
608.0508812849458
 10
131.2686149907722
 20
609.4552904521807
 10
131.2686149907722
 20
610.9017305395578
 10
130.9224592120454
 20
612.306139706793
 10
130.2502649702242
 20
613.5868987979066
 10
129.2910977513197
 20
614.6695747498949
 10
128.1007008676602
 20
615.4912463717918
 10
126.7482558592105
 20
616.0041610955898
 10
125.3123619139219
 20
616.1785101819108
 10
123.8764679686342
 20
616.0041610955898
 10
122.5240229601832
 20
615.4912463717918
 10
121.333626076525
 20
614.6695747498949
 10
120.3744588576196
 20
613.5868987979066
 10
119.7022646157993
 20
612.306139706793
 10
119.3561088370711
 20
610.9017305395578
 10
119.3561088370711
 20
609.4552904521807
 10
119.7022646157993
 20
608.0508812849449
 10
120.3744588576196
 20
606.7701221938308
 10
121.333626076525
 20
605.6874462418437
  0
LWPOLYLINE
  5
D8C
330
1F
100
AcDbEntity
  8
Hewi
370
    13
100
AcDbPolyline
 90
       26
 70
     1
 43
0.0
 10
93.76861604683517
 20
545.9552937749109
 10
93.76861604683517
 20
547.4017338622878
 10
93.42246026810745
 20
548.8061430295227
 10
92.75026602628713
 20
550.0869021206366
 10
91.79109880738087
 20
551.1695780726237
 10
90.60070192372268
 20
551.9912496945218
 10
89.24825691527349
 20
552.5041644183199
 10
87.81236296998532
 20
552.6785135046399
 10
86.37646902469715
 20
552.5041644183199
 10
85.02402401624568
 20
551.9912496945218
 10
83.83362713258794
 20
551.1695780726237
 10
82.87445991368214
 20
550.0869021206366
 10
82.20226567186228
 20
548.8061430295227
 10
81.85610989313545
 20
547.4017338622878
 10
81.85610989313545
 20
545.9552937749109
 10
82.20226567186228
 20
544.5508846076749
 10
82.87445991368214
 20
543.2701255165608
 10
83.83362713258794
 20
542.1874495645739
 10
85.02402401624568
 20
541.3657779426759
 10
86.37646902469715
 20
540.852863218878
 10
87.81236296998532
 20
540.6785141325578
 10
89.24825691527349
 20
540.852863218878
 10
90.60070192372268
 20
541.3657779426768
 10
91.79109880738087
 20
542.1874495645739
 10
92.75026602628713
 20
543.2701255165608
 10
93.42246026810745
 20
544.5508846076749
  0
LWPOLYLINE
  5
D8D
330
1F
100
AcDbEntity
  8
Hewi
370
    13
100
AcDbPolyline
 90
       26
 70
     1
 43
0.0
 10
131.2686149907722
 20
484.4552969929867
 10
131.2686149907722
 20
485.9017370803636
 10
130.9224592120454
 20
487.3061462475999
 10
130.2502649702242
 20
488.5869053387137
 10
129.2910977513197
 20
489.6695812907008
 10
128.1007008676602
 20
490.4912529125978
 10
126.7482558592105
 20
491.0041676363956
 10
125.3123619139219
 20
491.1785167227168
 10
123.8764679686342
 20
491.0041676363956
 10
122.5240229601832
 20
490.4912529125978
 10
121.333626076525
 20
489.6695812907008
 10
120.3744588576196
 20
488.5869053387137
 10
119.7022646157993
 20
487.3061462475999
 10
119.3561088370711
 20
485.9017370803636
 10
119.3561088370711
 20
484.4552969929867
 10
119.7022646157993
 20
483.0508878257518
 10
120.3744588576196
 20
481.770128734638
 10
121.333626076525
 20
480.6874527826509
 10
122.5240229601832
 20
479.8657811607528
 10
123.8764679686342
 20
479.3528664369547
 10
125.3123619139219
 20
479.1785173506338
 10
126.7482558592105
 20
479.3528664369547
 10
128.1007008676602
 20
479.8657811607528
 10
129.2910977513197
 20
480.6874527826509
 10
130.2502649702242
 20
481.770128734638
 10
130.9224592120454
 20
483.0508878257518
  0
LWPOLYLINE
  5
D8E
330
1F
100
AcDbEntity
  8
Hewi
370
    13
100
AcDbPolyline
 90
       26
 70
     1
 43
0.0
 10
131.2686149907722
 20
500.9017362954668
 10
130.9224592120454
 20
502.3061454627028
 10
130.2502649702242
 20
503.5869045538166
 10
129.2910977513197
 20
504.6695805058037
 10
128.1007008676602
 20
505.4912521277016
 10
126.7482558592105
 20
506.0041668514998
 10
125.3123619139219
 20
506.1785159378199
 10
123.8764679686342
 20
506.0041668514998
 10
122.5240229601832
 20
505.4912521277016
 10
121.333626076525
 20
504.6695805058037
 10
120.3744588576196
 20
503.5869045538166
 10
119.7022646157993
 20
502.3061454627028
 10
119.3561088370711
 20
500.9017362954668
 10
119.3561088370711
 20
499.4552962080909
 10
119.7022646157993
 20
498.0508870408549
 10
120.3744588576196
 20
496.7701279497409
 10
121.333626076525
 20
495.6874519977538
 10
122.5240229601832
 20
494.8657803758557
 10
123.8764679686342
 20
494.3528656520576
 10
125.3123619139219
 20
494.1785165657377
 10
126.7482558592105
 20
494.3528656520576
 10
128.1007008676602
 20
494.8657803758557
 10
129.2910977513197
 20
495.6874519977538
 10
130.2502649702242
 20
496.7701279497409
 10
130.9224592120454
 20
498.0508870408549
 10
131.2686149907722
 20
499.4552962080909
  0
LWPOLYLINE
  5
D8F
330
1F
100
AcDbEntity
  8
Hewi
370
    13
100
AcDbPolyline
 90
       20
 70
     0
 43
0.0
 10
73.81236336197753
 20
752.6785030393488
 10
73.88220490126514
 20
752.6785030393488
 10
73.95204643828083
 20
750.6785031440023
 10
73.95885914225482
 20
750.4834128321943
 10
73.96541003783522
 20
750.2958197316615
 10
73.97257235100915
 20
750.090717922466
 10
73.97860039897887
 20
749.9180972181912
 10
73.98316107085202
 20
749.787496666437
 10
73.98600234317609
 20
749.706133274485
 10
73.98696720678936
 20
749.6785031963287
 10
176.637756621054
 20
749.6785031963287
 10
176.6384276138292
 20
749.6977179149199
 10
176.6404148062775
 20
749.7546236598342
 10
176.6444258943825
 20
749.8694861919601
 10
176.6499981646079
 20
750.0290551296551
 10
176.6568236924163
 20
750.224512668018
 10
176.664525298052
 20
750.4450577923615
 10
176.672677389562
 20
750.6785031440023
 10
176.7425189265791
 20
752.6785030393488
 10
176.8123606971385
 20
752.6785030393488
  0
LWPOLYLINE
  5
D90
330
1F
100
AcDbEntity
  8
Hewi
370
    13
100
AcDbPolyline
 90
       11
 70
     0
 43
0.0
 10
60.81236373034972
 20
756.1785028562066
 10
60.36732187497046
 20
756.128358683194
 10
60.2245784946108
 20
756.0806158939186
 10
59.94459627655306
 20
755.9804406023753
 10
59.65126648212344
 20
755.7965368649433
 10
59.56538416174999
 20
755.7421658439745
 10
59.24870080944902
 20
755.4254824993271
 10
59.01042604529084
 20
755.0462703936874
 10
58.86250796089825
 20
754.6235448054848
 10
58.81236378667336
 20
754.1785029608596
 10
58.81236378667336
 20
752.6785030393488
  0
LWPOLYLINE
  5
D91
330
1F
100
AcDbEntity
  8
Hewi
370
    13
100
AcDbPolyline
 90
       11
 70
     0
 43
0.0
 10
191.81236004117
 20
752.6785030393488
 10
191.81236004117
 20
754.1785029608596
 10
191.762215866946
 20
754.6235448054848
 10
191.6142977825534
 20
755.0462703936874
 10
191.3760230183952
 20
755.4254824993271
 10
191.0593396660942
 20
755.7421658439745
 10
190.9734573457212
 20
755.7965368649433
 10
190.6801275512912
 20
755.9804406023753
 10
190.4001453332334
 20
756.0806158939186
 10
190.2574019528733
 20
756.128358683194
 10
189.8123600974945
 20
756.1785028562066
  0
LINE
  5
D92
330
1F
100
AcDbEntity
  8
Hewi
370
    13
100
AcDbLine
 10
60.81236373034972
 20
756.1785028562066
 30
0.0
 11
189.8123600974945
 21
756.1785028562066
 31
0.0
  0
LINE
  5
D93
330
1F
100
AcDbEntity
  8
Hewi
370
    13
100
AcDbLine
 10
60.81236373034972
 20
756.1785028562066
 30
0.0
 11
60.44909247657824
 21
756.0806158939186
 31
0.0
  0
LWPOLYLINE
  5
D94
330
1F
100
AcDbEntity
  8
Hewi
370
    13
100
AcDbPolyline
 90
       49
 70
     0
 43
0.0
 10
121.5054651207915
 20
495.6189590159457
 10
121.5683359472618
 20
495.5765282470649
 10
122.7072601179661
 20
494.8404014496538
 10
122.8126234406113
 20
494.7982438400766
 10
124.0604541623602
 20
494.372075712405
 10
124.2098935989693
 20
494.3492292430318
 10
125.4864045347772
 20
494.2411991937498
 10
125.6746342318233
 20
494.2569639104489
 10
126.9022401826864
 20
494.45537796124
 10
127.1172039915063
 20
494.5270944316088
 10
128.2256778845912
 20
495.0021647234137
 10
128.4493183759982
 20
495.1430889622919
 10
129.379804251751
 20
495.8497822211439
 10
129.5894526934903
 20
496.0672489648557
 10
130.2975456547874
 20
496.9489700064267
 10
130.4678313301669
 20
497.2430163386838
 10
130.9255662992113
 20
498.2358472805666
 10
131.0306979806541
 20
498.5984347458628
 10
131.2273679079299
 20
499.6356254139985
 10
131.2436055053181
 20
500.0505533007927
 10
131.1854108684479
 20
501.066954389595
 10
131.0935240768895
 20
501.5105031202616
 10
130.8021335713933
 20
502.4466505699628
 10
130.5896385989654
 20
502.8889360518356
 10
130.0998107001151
 20
503.6945310280899
 10
129.7627865947861
 20
504.1014927332609
 10
129.1192587070518
 20
504.7380734876118
 10
128.663570967225
 20
505.0739653405659
 10
127.9174637098781
 20
505.5166310539028
 10
127.359263128038
 20
505.7468390674229
 10
126.5642696654836
 20
505.984956791153
 10
125.9296860232502
 20
506.0789343996337
 10
125.138319293067
 20
506.1158333098068
 10
124.4623290113127
 20
506.0499272795028
 10
123.7224836451564
 20
505.9016545423179
 10
123.0469935609012
 20
505.6615929273537
 10
122.3990459432539
 20
505.354867780144
 10
121.883691702902
 20
505.0200288779418
 10
121.2449195760941
 20
504.5072502824138
 10
120.8923176861644
 20
504.1356911690578
 10
120.3271781730564
 20
503.4080624971307
 10
120.1225831435026
 20
503.0529241860977
 10
119.6991575286342
 20
502.1211852229908
 10
119.613085779019
 20
501.82602238683
 10
119.3973559199153
 20
500.7214070895587
 10
119.3893739180444
 20
500.5165077505627
 10
119.4393129593977
 20
499.2900781139618
 10
119.4626654074259
 20
499.1900448092179
 10
119.8225902564504
 20
497.9103819335947
  0
LINE
  5
D95
330
1F
100
AcDbEntity
  8
Hewi
370
    13
100
AcDbLine
 10
125.3044255228092
 20
499.4722638111
 30
0.0
 11
125.3123619139219
 21
500.1785162517786
 31
0.0
  0
LINE
  5
D96
330
1F
100
AcDbEntity
  8
Hewi
370
    13
100
AcDbLine
 10
125.1739035187302
 20
506.1617040454458
 30
0.0
 11
126.3083083719043
 21
506.0575861456937
 31
0.0
  0
LINE
  5
D97
330
1F
100
AcDbEntity
  8
Hewi
370
    13
100
AcDbLine
 10
126.6097974640565
 20
506.0209787441848
 30
0.0
 11
127.6863215289481
 21
505.6484054769238
 31
0.0
  0
LWPOLYLINE
  5
D98
330
1F
100
AcDbEntity
  8
Hewi
370
    13
100
AcDbPolyline
 90
        9
 70
     0
 43
0.0
 10
73.81236336197753
 20
752.6785030393488
 10
60.81236373034972
 20
752.6785030393488
 10
60.36732187497046
 20
752.6785030393488
 10
59.94459627655306
 20
752.6785030393488
 10
59.56538416174999
 20
752.6785030393488
 10
59.24870080944902
 20
752.6785030393488
 10
59.01042604529084
 20
752.6785030393488
 10
58.86250796089825
 20
752.6785030393488
 10
58.81236378667336
 20
752.6785030393488
  0
LINE
  5
D99
330
1F
100
AcDbEntity
  8
Hewi
370
    13
100
AcDbLine
 10
189.8123600974945
 20
756.1785028562066
 30
0.0
 11
190.3123600834128
 21
756.0806158939186
 31
0.0
  0
LWPOLYLINE
  5
D9A
330
1F
100
AcDbEntity
  8
Hewi
370
    13
100
AcDbPolyline
 90
        9
 70
     0
 43
0.0
 10
191.81236004117
 20
752.6785030393488
 10
191.762215866946
 20
752.6785030393488
 10
191.6142977825534
 20
752.6785030393488
 10
191.3760230183952
 20
752.6785030393488
 10
191.0593396660942
 20
752.6785030393488
 10
190.6801275512912
 20
752.6785030393488
 10
190.2574019528733
 20
752.6785030393488
 10
189.8123600974945
 20
752.6785030393488
 10
176.8123606971385
 20
752.6785030393488
  0
LWPOLYLINE
  5
D9B
330
1F
100
AcDbEntity
  8
Hewi
370
    13
100
AcDbPolyline
 90
       49
 70
     0
 43
0.0
 10
84.00546617685495
 20
542.1189565827659
 10
84.06833700332526
 20
542.0765258138848
 10
85.2072611740291
 20
541.3403990164739
 10
85.31262449667428
 20
541.2982414068968
 10
86.56045521842315
 20
540.8720732792247
 10
86.70989465503225
 20
540.8492268098517
 10
87.98640559083924
 20
540.7411967605709
 10
88.17463528788584
 20
540.7569614772698
 10
89.40224123874987
 20
540.95537552806
 10
89.61720504756749
 20
541.027091998429
 10
90.72567894065333
 20
541.5021622902337
 10
90.94931943206075
 20
541.6430865291117
 10
91.87980530781306
 20
542.3497797879648
 10
92.08945374955282
 20
542.5672465316758
 10
92.79754671084992
 20
543.4489675732467
 10
92.96783238623039
 20
543.7430139055037
 10
93.42556735527342
 20
544.7358448473866
 10
93.53069903671713
 20
545.0984323126828
 10
93.72736896399102
 20
546.1356229808189
 10
93.74360656138014
 20
546.5505508676127
 10
93.68541192450994
 20
547.5669519564149
 10
93.59352513295197
 20
548.0105006870827
 10
93.30213462745632
 20
548.9466481367827
 10
93.08963965502789
 20
549.3889336186558
 10
92.59981175617804
 20
550.1945285949099
 10
92.26278765084908
 20
550.6014903000808
 10
91.61925976311477
 20
551.2380710544319
 10
91.16357202328799
 20
551.5739629073858
 10
90.41746476594154
 20
552.0166286207237
 10
89.85926418410008
 20
552.246836634243
 10
89.06427072154611
 20
552.4849543579729
 10
88.42968707931323
 20
552.5789319664538
 10
87.63832034913002
 20
552.6158308766268
 10
86.9623300673752
 20
552.549924846323
 10
86.22248470121894
 20
552.4016521091379
 10
85.54699461696419
 20
552.1615904941738
 10
84.89904699931731
 20
551.8548653469637
 10
84.38369275896411
 20
551.5200264447618
 10
83.74492063215667
 20
551.0072478492337
 10
83.39231874222695
 20
550.635688735878
 10
82.82717922911933
 20
549.9080600639509
 10
82.62258419956514
 20
549.5529217529178
 10
82.19915858469585
 20
548.6211827898109
 10
82.11308683508059
 20
548.3260199536497
 10
81.89735697597825
 20
547.2214046563789
 10
81.88937497410689
 20
547.0165053173828
 10
81.93931401545933
 20
545.7900756807829
 10
81.96266646348977
 20
545.6900423760379
 10
82.32259131251295
 20
544.4103795004149
  0
LINE
  5
D9C
330
1F
100
AcDbEntity
  8
Hewi
370
    13
100
AcDbLine
 10
119.6688859850305
 20
502.170723038195
 30
0.0
 11
120.1685034196271
 21
503.1944892599809
 31
0.0
  0
LINE
  5
D9D
330
1F
100
AcDbEntity
  8
Hewi
370
    13
100
AcDbLine
 10
120.3096414409351
 20
503.4634052878467
 30
0.0
 11
121.0397442002618
 21
504.3378564484868
 31
0.0
  0
LINE
  5
D9E
330
1F
100
AcDbEntity
  8
Hewi
370
    13
100
AcDbLine
 10
129.3835870012644
 20
495.7918507767488
 30
0.0
 11
128.4654298357632
 21
495.1175346002108
 31
0.0
  0
LINE
  5
D9F
330
1F
100
AcDbEntity
  8
Hewi
370
    13
100
AcDbLine
 10
131.2686149909291
 20
499.5947715320649
 30
0.0
 11
131.0285188303269
 21
498.481187820703
 31
0.0
  0
LINE
  5
DA0
330
1F
100
AcDbEntity
  8
Hewi
370
    13
100
AcDbLine
 10
123.7460562720566
 20
505.9547082201428
 30
0.0
 11
124.8724144268403
 21
506.1250966417788
 31
0.0
  0
LINE
  5
DA1
330
1F
100
AcDbEntity
  8
Hewi
370
    13
100
AcDbLine
 10
130.1577757205141
 20
503.6913033330209
 30
0.0
 11
130.7165037724053
 21
502.6985607556738
 31
0.0
  0
LINE
  5
DA2
330
1F
100
AcDbEntity
  8
Hewi
370
    13
100
AcDbLine
 10
130.9558378428123
 20
498.1863094653627
 30
0.0
 11
130.4562204082167
 21
497.1625432435768
 31
0.0
  0
LINE
  5
DA3
330
1F
100
AcDbEntity
  8
Hewi
370
    13
100
AcDbLine
 10
119.3561088369151
 20
500.7622609714929
 30
0.0
 11
119.5962049975164
 21
501.8758446828538
 31
0.0
  0
LINE
  5
DA4
330
1F
100
AcDbEntity
  8
Hewi
370
    13
100
AcDbLine
 10
128.2154868118455
 20
494.9450113903156
 30
0.0
 11
127.1626351972631
 21
494.5100190030208
 31
0.0
  0
LINE
  5
DA5
330
1F
100
AcDbEntity
  8
Hewi
370
    13
100
AcDbLine
 10
130.8576417956378
 20
502.4296447288187
 30
0.0
 11
131.1625553706831
 21
501.3320370748698
 31
0.0
  0
LINE
  5
DA6
330
1F
100
AcDbEntity
  8
Hewi
370
    13
100
AcDbLine
 10
119.3894874675347
 20
499.3198737835067
 30
0.0
 11
119.356108838002
 21
500.4585575468509
 31
0.0
  0
LINE
  5
DA7
330
1F
100
AcDbEntity
  8
Hewi
370
    13
100
AcDbLine
 10
122.4092370159992
 20
505.4120211132416
 30
0.0
 11
123.4620886305811
 21
505.8470135005369
 31
0.0
  0
LINE
  5
DA8
330
1F
100
AcDbEntity
  8
Hewi
370
    13
100
AcDbLine
 10
124.0149263637881
 20
494.3360537593727
 30
0.0
 11
122.9384022988965
 21
494.7086270266328
 31
0.0
  0
LINE
  5
DA9
330
1F
100
AcDbEntity
  8
Hewi
370
    13
100
AcDbLine
 10
121.4484120205311
 20
495.6082209830356
 30
0.0
 11
120.6683407352766
 21
496.4384038936579
 31
0.0
  0
LINE
  5
DAA
330
1F
100
AcDbEntity
  8
Hewi
370
    13
100
AcDbLine
 10
120.4669481073301
 20
496.6657291705367
 30
0.0
 11
119.9082200554389
 21
497.6584717478837
 31
0.0
  0
LINE
  5
DAB
330
1F
100
AcDbEntity
  8
Hewi
370
    13
100
AcDbLine
 10
131.2352363603104
 20
501.0371587200507
 30
0.0
 11
131.2686149898409
 21
499.8984749567058
 31
0.0
  0
LINE
  5
DAC
330
1F
100
AcDbEntity
  8
Hewi
370
    13
100
AcDbLine
 10
127.9702891711945
 20
505.5407107593517
 30
0.0
 11
128.926368782159
 21
504.9213347286277
 31
0.0
  0
LINE
  5
DAD
330
1F
100
AcDbEntity
  8
Hewi
370
    13
100
AcDbLine
 10
125.450820309114
 20
494.1953284581107
 30
0.0
 11
124.3164154559399
 21
494.2994463578637
 31
0.0
  0
LINE
  5
DAE
330
1F
100
AcDbEntity
  8
Hewi
370
    13
100
AcDbLine
 10
129.1763118073136
 20
504.7488115205218
 30
0.0
 11
129.9563830925681
 21
503.9186286098998
 31
0.0
  0
LINE
  5
DAF
330
1F
100
AcDbEntity
  8
Hewi
370
    13
100
AcDbLine
 10
122.6544346566497
 20
494.8163217442057
 30
0.0
 11
121.6983550456852
 21
495.4356977749299
 31
0.0
  0
LINE
  5
DB0
330
1F
100
AcDbEntity
  8
Hewi
370
    13
100
AcDbLine
 10
119.7670820322064
 20
497.9273877747387
 30
0.0
 11
119.4621684571616
 21
499.0249954286867
 31
0.0
  0
LINE
  5
DB1
330
1F
100
AcDbEntity
  8
Hewi
370
    13
100
AcDbLine
 10
121.2411368265802
 20
504.5651817268089
 30
0.0
 11
122.159293992081
 21
505.2394979033466
 31
0.0
  0
LINE
  5
DB2
330
1F
100
AcDbEntity
  8
Hewi
370
    13
100
AcDbLine
 10
130.3150823869096
 20
496.8936272157107
 30
0.0
 11
129.584979627582
 21
496.0191760550709
 31
0.0
  0
LINE
  5
DB3
330
1F
100
AcDbEntity
  8
Hewi
370
    13
100
AcDbLine
 10
126.8786675557867
 20
494.4023242834149
 30
0.0
 11
125.7523094010043
 21
494.2319358617786
 31
0.0
  0
LINE
  5
DB4
330
1F
100
AcDbEntity
  8
Hewi
370
    13
100
AcDbLine
 10
93.76861604699206
 20
546.094769098885
 30
0.0
 11
93.52851988639031
 21
544.9811853875238
 31
0.0
  0
LWPOLYLINE
  5
DB5
330
1F
100
AcDbEntity
  8
Hewi
370
    13
100
AcDbPolyline
 90
       49
 70
     0
 43
0.0
 10
159.005464064729
 20
542.1189565827659
 10
159.0683348911993
 20
542.0765258138848
 10
160.2072590619032
 20
541.3403990164739
 10
160.3126223845488
 20
541.2982414068968
 10
161.5604531062972
 20
540.8720732792247
 10
161.7098925429077
 20
540.8492268098517
 10
162.9864034787138
 20
540.7411967605709
 10
163.1746331757599
 20
540.7569614772698
 10
164.4022391266239
 20
540.95537552806
 10
164.6172029354429
 20
541.027091998429
 10
165.7256768285269
 20
541.5021622902337
 10
165.9493173199353
 20
541.6430865291117
 10
166.8798031956885
 20
542.3497797879648
 10
167.0894516374282
 20
542.5672465316758
 10
167.7975445987244
 20
543.4489675732467
 10
167.967830274104
 20
543.7430139055037
 10
168.4255652431479
 20
544.7358448473866
 10
168.5306969245907
 20
545.0984323126828
 10
168.7273668518673
 20
546.1356229808189
 10
168.7436044492556
 20
546.5505508676127
 10
168.6854098123854
 20
547.5669519564149
 10
168.5935230208265
 20
548.0105006870827
 10
168.3021325153309
 20
548.9466481367827
 10
168.0896375429024
 20
549.3889336186558
 10
167.5998096440521
 20
550.1945285949099
 10
167.2627855387231
 20
550.6014903000808
 10
166.6192576509893
 20
551.2380710544319
 10
166.1635699111621
 20
551.5739629073858
 10
165.4174626538147
 20
552.0166286207237
 10
164.8592620719755
 20
552.246836634243
 10
164.0642686094211
 20
552.4849543579729
 10
163.4296849671868
 20
552.5789319664538
 10
162.638318237005
 20
552.6158308766268
 10
161.9623279552502
 20
552.549924846323
 10
161.222482589093
 20
552.4016521091379
 10
160.5469925048378
 20
552.1615904941738
 10
159.8990448871909
 20
551.8548653469637
 10
159.3836906468395
 20
551.5200264447618
 10
158.7449185200312
 20
551.0072478492337
 10
158.3923166301015
 20
550.635688735878
 10
157.8271771169943
 20
549.9080600639509
 10
157.6225820874401
 20
549.5529217529178
 10
157.1991564725708
 20
548.6211827898109
 10
157.113084722956
 20
548.3260199536497
 10
156.8973548638523
 20
547.2214046563789
 10
156.8893728619814
 20
547.0165053173828
 10
156.9393119033343
 20
545.7900756807829
 10
156.9626643513634
 20
545.6900423760379
 10
157.3225892003879
 20
544.4103795004149
  0
LINE
  5
DB6
330
1F
100
AcDbEntity
  8
Hewi
370
    13
100
AcDbLine
 10
93.35764285170126
 20
548.9296422956386
 30
0.0
 11
93.66255642674468
 21
547.8320346416906
 31
0.0
  0
LINE
  5
DB7
330
1F
100
AcDbEntity
  8
Hewi
370
    13
100
AcDbLine
 10
92.6577767765757
 20
550.1913008998409
 30
0.0
 11
93.21650482846644
 21
549.1985583224938
 31
0.0
  0
LINE
  5
DB8
330
1F
100
AcDbEntity
  8
Hewi
370
    13
100
AcDbLine
 10
93.45583889887576
 20
544.6863070321827
 30
0.0
 11
92.95622146427877
 21
543.6625408103967
 31
0.0
  0
LINE
  5
DB9
330
1F
100
AcDbEntity
  8
Hewi
370
    13
100
AcDbLine
 10
91.88358805732695
 20
542.2918483435686
 30
0.0
 11
90.96543089182569
 21
541.6175321670308
 31
0.0
  0
LINE
  5
DBA
330
1F
100
AcDbEntity
  8
Hewi
370
    13
100
AcDbLine
 10
87.95082136517612
 20
540.6953260249308
 30
0.0
 11
86.81641651200198
 21
540.7994439246839
 31
0.0
  0
LINE
  5
DBB
330
1F
100
AcDbEntity
  8
Hewi
370
    13
100
AcDbLine
 10
82.8096424969981
 20
549.9634028546669
 30
0.0
 11
83.53974525632521
 21
550.8378540153067
 31
0.0
  0
LINE
  5
DBC
330
1F
100
AcDbEntity
  8
Hewi
370
    13
100
AcDbLine
 10
83.74113788264185
 20
551.0651792936288
 30
0.0
 11
84.65929504814312
 21
551.7394954701668
 31
0.0
  0
LINE
  5
DBD
330
1F
100
AcDbEntity
  8
Hewi
370
    13
100
AcDbLine
 10
87.80442657887261
 20
545.9722613779198
 30
0.0
 11
87.81236296998441
 21
546.6785138185988
 31
0.0
  0
LINE
  5
DBE
330
1F
100
AcDbEntity
  8
Hewi
370
    13
100
AcDbLine
 10
86.51492741984975
 20
540.8360513261929
 30
0.0
 11
85.43840335495815
 21
541.2086245934537
 31
0.0
  0
LINE
  5
DBF
330
1F
100
AcDbEntity
  8
Hewi
370
    13
100
AcDbLine
 10
81.88948852359727
 20
545.8198713503269
 30
0.0
 11
81.85610989406541
 21
546.9585551136709
 31
0.0
  0
LINE
  5
DC0
330
1F
100
AcDbEntity
  8
Hewi
370
    13
100
AcDbLine
 10
86.24605732811961
 20
552.4547057869628
 30
0.0
 11
87.37241548290331
 21
552.6250942085988
 31
0.0
  0
LINE
  5
DC1
330
1F
100
AcDbEntity
  8
Hewi
370
    13
100
AcDbLine
 10
91.67631286337609
 20
551.2488090873417
 30
0.0
 11
92.45638414863107
 21
550.41862617672
 31
0.0
  0
LINE
  5
DC2
330
1F
100
AcDbEntity
  8
Hewi
370
    13
100
AcDbLine
 10
85.1544357127118
 20
541.3163193110257
 30
0.0
 11
84.19835610174823
 21
541.9356953417499
 31
0.0
  0
LINE
  5
DC3
330
1F
100
AcDbEntity
  8
Hewi
370
    13
100
AcDbLine
 10
82.96694916339266
 20
543.1657267373567
 30
0.0
 11
82.40822111150146
 21
544.1584693147039
 31
0.0
  0
LINE
  5
DC4
330
1F
100
AcDbEntity
  8
Hewi
370
    13
100
AcDbLine
 10
82.16888704109397
 20
548.6707206050149
 30
0.0
 11
82.66850447569003
 21
549.6944868268009
 31
0.0
  0
LINE
  5
DC5
330
1F
100
AcDbEntity
  8
Hewi
370
    13
100
AcDbLine
 10
89.10979852011815
 20
552.520976311005
 30
0.0
 11
90.18632258501066
 21
552.1484030437437
 31
0.0
  0
LINE
  5
DC6
330
1F
100
AcDbEntity
  8
Hewi
370
    13
100
AcDbLine
 10
82.26708308826847
 20
544.4273853415587
 30
0.0
 11
81.96216951322458
 21
545.5249929955067
 31
0.0
  0
LINE
  5
DC7
330
1F
100
AcDbEntity
  8
Hewi
370
    13
100
AcDbLine
 10
87.67390457479269
 20
552.6617016122669
 30
0.0
 11
88.80830942796638
 21
552.5575837125139
 31
0.0
  0
LINE
  5
DC8
330
1F
100
AcDbEntity
  8
Hewi
370
    13
100
AcDbLine
 10
90.470290227257
 20
552.0407083261717
 30
0.0
 11
91.42636983822104
 21
551.4213322954478
 31
0.0
  0
LINE
  5
DC9
330
1F
100
AcDbEntity
  8
Hewi
370
    13
100
AcDbLine
 10
93.73523741637246
 20
547.5371562868709
 30
0.0
 11
93.7686160459043
 21
546.3984725235267
 31
0.0
  0
LINE
  5
DCA
330
1F
100
AcDbEntity
  8
Hewi
370
    13
100
AcDbLine
 10
83.94841307659408
 20
542.1082185498557
 30
0.0
 11
83.16834179133911
 21
542.9384014604781
 31
0.0
  0
LINE
  5
DCB
330
1F
100
AcDbEntity
  8
Hewi
370
    13
100
AcDbLine
 10
92.81508344297208
 20
543.3936247825309
 30
0.0
 11
92.08498068364542
 21
542.5191736218907
 31
0.0
  0
LINE
  5
DCC
330
1F
100
AcDbEntity
  8
Hewi
370
    13
100
AcDbLine
 10
81.85610989297675
 20
547.2622585383127
 30
0.0
 11
82.0962060535794
 21
548.3758422496738
 31
0.0
  0
LINE
  5
DCD
330
1F
100
AcDbEntity
  8
Hewi
370
    13
100
AcDbLine
 10
90.71548786790708
 20
541.4450089571358
 30
0.0
 11
89.66263625332521
 21
541.0100165698407
 31
0.0
  0
LINE
  5
DCE
330
1F
100
AcDbEntity
  8
Hewi
370
    13
100
AcDbLine
 10
84.90923807206218
 20
551.9120186800618
 30
0.0
 11
85.96208968664404
 21
552.3470110673569
 31
0.0
  0
LINE
  5
DCF
330
1F
100
AcDbEntity
  8
Hewi
370
    13
100
AcDbLine
 10
89.37866861184966
 20
540.9023218502349
 30
0.0
 11
88.25231045706596
 21
540.7319334285985
 31
0.0
  0
LINE
  5
DD0
330
1F
100
AcDbEntity
  8
Hewi
370
    13
100
AcDbLine
 10
168.4558367867489
 20
544.6863070321827
 30
0.0
 11
167.9562193521542
 21
543.6625408103967
 31
0.0
  0
LINE
  5
DD1
330
1F
100
AcDbEntity
  8
Hewi
370
    13
100
AcDbLine
 10
157.2670809761434
 20
544.4273853415587
 30
0.0
 11
156.9621674010982
 21
545.5249929955067
 31
0.0
  0
LINE
  5
DD2
330
1F
100
AcDbEntity
  8
Hewi
370
    13
100
AcDbLine
 10
128.8123618153558
 20
274.6785280513918
 30
0.0
 11
121.8123620124875
 21
274.6785280513918
 31
0.0
  0
LWPOLYLINE
  5
DD3
330
1F
100
AcDbEntity
  8
Hewi
370
    13
100
AcDbPolyline
 90
       49
 70
     0
 43
0.0
 10
121.5054651207915
 20
605.6189532600357
 10
121.5683359472618
 20
605.5765224911557
 10
122.7072601179661
 20
604.8403956937451
 10
122.8126234406113
 20
604.7982380841668
 10
124.0604541623602
 20
604.372069956495
 10
124.2098935989693
 20
604.3492234871229
 10
125.4864045347772
 20
604.2411934378407
 10
125.6746342318233
 20
604.2569581545397
 10
126.9022401826864
 20
604.4553722053298
 10
127.1172039915063
 20
604.5270886756999
 10
128.2256778845912
 20
605.002158967504
 10
128.4493183759982
 20
605.143083206383
 10
129.379804251751
 20
605.8497764652348
 10
129.5894526934903
 20
606.0672432089457
 10
130.2975456547874
 20
606.9489642505178
 10
130.4678313301669
 20
607.2430105827737
 10
130.9255662992113
 20
608.235841524658
 10
131.0306979806541
 20
608.5984289899528
 10
131.2273679079299
 20
609.6356196580899
 10
131.2436055053181
 20
610.0505475448827
 10
131.1854108684479
 20
611.0669486336856
 10
131.0935240768895
 20
611.5104973643529
 10
130.8021335713933
 20
612.4466448140529
 10
130.5896385989654
 20
612.8889302959268
 10
130.0998107001151
 20
613.6945252721808
 10
129.7627865947861
 20
614.1014869773506
 10
129.1192587070518
 20
614.7380677317029
 10
128.663570967225
 20
615.0739595846568
 10
127.9174637098781
 20
615.5166252979937
 10
127.359263128038
 20
615.7468333115128
 10
126.5642696654836
 20
615.9849510352436
 10
125.9296860232502
 20
616.0789286437249
 10
125.138319293067
 20
616.1158275538976
 10
124.4623290113127
 20
616.0499215235939
 10
123.7224836451564
 20
615.9016487864088
 10
123.0469935609012
 20
615.661587171444
 10
122.3990459432539
 20
615.3548620242337
 10
121.883691702902
 20
615.0200231220318
 10
121.2449195760941
 20
614.5072445265039
 10
120.8923176861644
 20
614.135685413149
 10
120.3271781730564
 20
613.4080567412207
 10
120.1225831435026
 20
613.0529184301889
 10
119.6991575286342
 20
612.1211794670808
 10
119.613085779019
 20
611.8260166309199
 10
119.3973559199153
 20
610.7214013336489
 10
119.3893739180444
 20
610.5165019946538
 10
119.4393129593977
 20
609.2900723580529
 10
119.4626654074259
 20
609.1900390533088
 10
119.8225902564504
 20
607.9103761776858
  0
LINE
  5
DD4
330
1F
100
AcDbEntity
  8
Hewi
370
    13
100
AcDbLine
 10
165.4702881151324
 20
552.0407083261717
 30
0.0
 11
166.4263677260955
 21
551.4213322954478
 31
0.0
  0
LINE
  5
DD5
330
1F
100
AcDbEntity
  8
Hewi
370
    13
100
AcDbLine
 10
128.8123618153558
 20
254.678529097921
 30
0.0
 11
121.8123620124875
 21
254.678529097921
 31
0.0
  0
LINE
  5
DD6
330
1F
100
AcDbEntity
  8
Hewi
370
    13
100
AcDbLine
 10
167.8150813308461
 20
543.3936247825309
 30
0.0
 11
167.0849785715195
 21
542.5191736218907
 31
0.0
  0
LINE
  5
DD7
330
1F
100
AcDbEntity
  8
Hewi
370
    13
100
AcDbLine
 10
168.7352353042474
 20
547.5371562868709
 30
0.0
 11
168.7686139337797
 21
546.3984725235267
 31
0.0
  0
LINE
  5
DD8
330
1F
100
AcDbEntity
  8
Hewi
370
    13
100
AcDbLine
 10
157.9669470512676
 20
543.1657267373567
 30
0.0
 11
157.4082189993764
 21
544.1584693147039
 31
0.0
  0
LINE
  5
DD9
330
1F
100
AcDbEntity
  8
Hewi
370
    13
100
AcDbLine
 10
157.1688849289689
 20
548.6707206050149
 30
0.0
 11
157.6685023635641
 21
549.6944868268009
 31
0.0
  0
LINE
  5
DDA
330
1F
100
AcDbEntity
  8
Hewi
370
    13
100
AcDbLine
 10
162.9508192530515
 20
540.6953260249308
 30
0.0
 11
161.8164143998769
 21
540.7994439246839
 31
0.0
  0
LINE
  5
DDB
330
1F
100
AcDbEntity
  8
Hewi
370
    13
100
AcDbLine
 10
167.6577746644502
 20
550.1913008998409
 30
0.0
 11
168.2165027163419
 21
549.1985583224938
 31
0.0
  0
LINE
  5
DDC
330
1F
100
AcDbEntity
  8
Hewi
370
    13
100
AcDbLine
 10
166.6763107512502
 20
551.2488090873417
 30
0.0
 11
167.4563820365051
 21
550.41862617672
 31
0.0
  0
LINE
  5
DDD
330
1F
100
AcDbEntity
  8
Hewi
370
    13
100
AcDbLine
 10
158.7411357705164
 20
551.0651792936288
 30
0.0
 11
159.6592929360181
 21
551.7394954701668
 31
0.0
  0
LINE
  5
DDE
330
1F
100
AcDbEntity
  8
Hewi
370
    13
100
AcDbLine
 10
159.9092359599367
 20
551.9120186800618
 30
0.0
 11
160.9620875745181
 21
552.3470110673569
 31
0.0
  0
LINE
  5
DDF
330
1F
100
AcDbEntity
  8
Hewi
370
    13
100
AcDbLine
 10
164.1097964079931
 20
552.520976311005
 30
0.0
 11
165.1863204728852
 21
552.1484030437437
 31
0.0
  0
LINE
  5
DE0
330
1F
100
AcDbEntity
  8
Hewi
370
    13
100
AcDbLine
 10
168.3576407395753
 20
548.9296422956386
 30
0.0
 11
168.6625543146201
 21
547.8320346416906
 31
0.0
  0
LINE
  5
DE1
330
1F
100
AcDbEntity
  8
Hewi
370
    13
100
AcDbLine
 10
165.715485755782
 20
541.4450089571358
 30
0.0
 11
164.6626341411997
 21
541.0100165698407
 31
0.0
  0
LINE
  5
DE2
330
1F
100
AcDbEntity
  8
Hewi
370
    13
100
AcDbLine
 10
166.8835859452015
 20
542.2918483435686
 30
0.0
 11
165.9654287797007
 21
541.6175321670308
 31
0.0
  0
LINE
  5
DE3
330
1F
100
AcDbEntity
  8
Hewi
370
    13
100
AcDbLine
 10
158.9484109644681
 20
542.1082185498557
 30
0.0
 11
158.1683396792136
 21
542.9384014604781
 31
0.0
  0
LINE
  5
DE4
330
1F
100
AcDbEntity
  8
Hewi
370
    13
100
AcDbLine
 10
156.8894864114718
 20
545.8198713503269
 30
0.0
 11
156.8561077819395
 21
546.9585551136709
 31
0.0
  0
LINE
  5
DE5
330
1F
100
AcDbEntity
  8
Hewi
370
    13
100
AcDbLine
 10
156.8561077808522
 20
547.2622585383127
 30
0.0
 11
157.0962039414539
 21
548.3758422496738
 31
0.0
  0
LINE
  5
DE6
330
1F
100
AcDbEntity
  8
Hewi
370
    13
100
AcDbLine
 10
162.6739024626672
 20
552.6617016122669
 30
0.0
 11
163.8083073158409
 21
552.5575837125139
 31
0.0
  0
LINE
  5
DE7
330
1F
100
AcDbEntity
  8
Hewi
370
    13
100
AcDbLine
 10
161.2460552159941
 20
552.4547057869628
 30
0.0
 11
162.3724133707769
 21
552.6250942085988
 31
0.0
  0
LINE
  5
DE8
330
1F
100
AcDbEntity
  8
Hewi
370
    13
100
AcDbLine
 10
128.8123618153558
 20
294.678527004863
 30
0.0
 11
121.8123620124875
 21
294.678527004863
 31
0.0
  0
LINE
  5
DE9
330
1F
100
AcDbEntity
  8
Hewi
370
    13
100
AcDbLine
 10
128.8123618153558
 20
314.6785259583339
 30
0.0
 11
121.8123620124875
 21
314.6785259583339
 31
0.0
  0
LINE
  5
DEA
330
1F
100
AcDbEntity
  8
Hewi
370
    13
100
AcDbLine
 10
160.1544336005872
 20
541.3163193110257
 30
0.0
 11
159.1983539896232
 21
541.9356953417499
 31
0.0
  0
LINE
  5
DEB
330
1F
100
AcDbEntity
  8
Hewi
370
    13
100
AcDbLine
 10
161.5149253077247
 20
540.8360513261929
 30
0.0
 11
160.4384012428331
 21
541.2086245934537
 31
0.0
  0
LINE
  5
DEC
330
1F
100
AcDbEntity
  8
Hewi
370
    13
100
AcDbLine
 10
128.8123618153558
 20
334.678524911805
 30
0.0
 11
121.8123620124875
 21
334.678524911805
 31
0.0
  0
LINE
  5
DED
330
1F
100
AcDbEntity
  8
Hewi
370
    13
100
AcDbLine
 10
168.7686139348666
 20
546.094769098885
 30
0.0
 11
168.5285177742644
 21
544.9811853875238
 31
0.0
  0
LINE
  5
DEE
330
1F
100
AcDbEntity
  8
Hewi
370
    13
100
AcDbLine
 10
162.8044244667458
 20
545.9722613779198
 30
0.0
 11
162.8123608578589
 21
546.6785138185988
 31
0.0
  0
LINE
  5
DEF
330
1F
100
AcDbEntity
  8
Hewi
370
    13
100
AcDbLine
 10
164.3786664997242
 20
540.9023218502349
 30
0.0
 11
163.2523083449409
 21
540.7319334285985
 31
0.0
  0
LINE
  5
DF0
330
1F
100
AcDbEntity
  8
Hewi
370
    13
100
AcDbLine
 10
157.8096403848717
 20
549.9634028546669
 30
0.0
 11
158.5397431441993
 21
550.8378540153067
 31
0.0
  0
LINE
  5
DF1
330
1F
100
AcDbEntity
  8
Hewi
370
    13
100
AcDbLine
 10
130.3150823869096
 20
606.8936214598019
 30
0.0
 11
129.584979627582
 21
606.0191702991609
 31
0.0
  0
LINE
  5
DF2
330
1F
100
AcDbEntity
  8
Hewi
370
    13
100
AcDbLine
 10
121.2411368265802
 20
614.5651759708986
 30
0.0
 11
122.159293992081
 21
615.2394921474368
 31
0.0
  0
LWPOLYLINE
  5
DF3
330
1F
100
AcDbEntity
  8
Hewi
370
    13
100
AcDbPolyline
 90
       20
 70
     0
 43
0.0
 10
176.8123604658662
 20
222.6785307723678
 10
176.7425189265791
 20
222.6785307723678
 10
176.672677389562
 20
224.6785306677147
 10
176.665864685588
 20
224.8736209795228
 10
176.6593137900095
 20
225.0612140800549
 10
176.6521514768342
 20
225.266315889251
 10
176.6461234288649
 20
225.438936593525
 10
176.6415627569918
 20
225.5695371452798
 10
176.6387214846686
 20
225.6509005372319
 10
176.637756621054
 20
225.6785306153881
 10
73.98696720678936
 20
225.6785306153881
 10
73.98629621401551
 20
225.6593158967966
 10
73.98430902156633
 20
225.6024101518828
 10
73.98029793346086
 20
225.4875476197568
 10
73.97472566323495
 20
225.3279786820618
 10
73.9679001354275
 20
225.1325211436988
 10
73.96019852979225
 20
224.911976019355
 10
73.95204643828083
 20
224.6785306677147
 10
73.88220490126514
 20
222.6785307723678
 10
73.81236313070622
 20
222.6785307723678
  0
LINE
  5
DF4
330
1F
100
AcDbEntity
  8
Hewi
370
    13
100
AcDbLine
 10
131.2352363603104
 20
611.0371529641407
 30
0.0
 11
131.2686149898409
 21
609.8984692007969
 31
0.0
  0
LINE
  5
DF5
330
1F
100
AcDbEntity
  8
Hewi
370
    13
100
AcDbLine
 10
130.9558378428123
 20
608.1863037094536
 30
0.0
 11
130.4562204082167
 21
607.1625374876667
 31
0.0
  0
LINE
  5
DF6
330
1F
100
AcDbEntity
  8
Hewi
370
    13
100
AcDbLine
 10
126.6097974640565
 20
616.0209729882748
 30
0.0
 11
127.6863215289481
 21
615.6483997210149
 31
0.0
  0
LINE
  5
DF7
330
1F
100
AcDbEntity
  8
Hewi
370
    13
100
AcDbLine
 10
130.1577757205141
 20
613.6912975771107
 30
0.0
 11
130.7165037724053
 21
612.6985549997638
 31
0.0
  0
LINE
  5
DF8
330
1F
100
AcDbEntity
  8
Hewi
370
    13
100
AcDbLine
 10
129.3835870012644
 20
605.7918450208397
 30
0.0
 11
128.4654298357632
 21
605.1175288443017
 31
0.0
  0
LINE
  5
DF9
330
1F
100
AcDbEntity
  8
Hewi
370
    13
100
AcDbLine
 10
126.8786675557867
 20
604.4023185275049
 30
0.0
 11
125.7523094010043
 21
604.2319301058699
 31
0.0
  0
LINE
  5
DFA
330
1F
100
AcDbEntity
  8
Hewi
370
    13
100
AcDbLine
 10
120.4669481073301
 20
606.6657234146279
 30
0.0
 11
119.9082200554389
 21
607.6584659919737
 31
0.0
  0
LINE
  5
DFB
330
1F
100
AcDbEntity
  8
Hewi
370
    13
100
AcDbLine
 10
119.3894874675347
 20
609.3198680275978
 30
0.0
 11
119.356108838002
 21
610.4585517909416
 31
0.0
  0
LINE
  5
DFC
330
1F
100
AcDbEntity
  8
Hewi
370
    13
100
AcDbLine
 10
121.4484120205311
 20
605.6082152271259
 30
0.0
 11
120.6683407352766
 21
606.4383981377479
 31
0.0
  0
LINE
  5
DFD
330
1F
100
AcDbEntity
  8
Hewi
370
    13
100
AcDbLine
 10
119.7670820322064
 20
607.9273820188287
 30
0.0
 11
119.4621684571616
 21
609.0249896727779
 31
0.0
  0
LINE
  5
DFE
330
1F
100
AcDbEntity
  8
Hewi
370
    13
100
AcDbLine
 10
119.3561088369151
 20
610.7622552155827
 30
0.0
 11
119.5962049975164
 21
611.875838926945
 31
0.0
  0
LINE
  5
DFF
330
1F
100
AcDbEntity
  8
Hewi
370
    13
100
AcDbLine
 10
125.1739035187302
 20
616.1616982895367
 30
0.0
 11
126.3083083719043
 21
616.0575803897849
 31
0.0
  0
LINE
  5
E00
330
1F
100
AcDbEntity
  8
Hewi
370
    13
100
AcDbLine
 10
119.6688859850305
 20
612.170717282285
 30
0.0
 11
120.1685034196271
 21
613.1944835040716
 31
0.0
  0
LINE
  5
E01
330
1F
100
AcDbEntity
  8
Hewi
370
    13
100
AcDbLine
 10
127.9702891711945
 20
615.5407050034417
 30
0.0
 11
128.926368782159
 21
614.9213289727177
 31
0.0
  0
LINE
  5
E02
330
1F
100
AcDbEntity
  8
Hewi
370
    13
100
AcDbLine
 10
130.8576417956378
 20
612.4296389729098
 30
0.0
 11
131.1625553706831
 21
611.3320313189607
 31
0.0
  0
LINE
  5
E03
330
1F
100
AcDbEntity
  8
Hewi
370
    13
100
AcDbLine
 10
129.1763118073136
 20
614.7488057646129
 30
0.0
 11
129.9563830925681
 21
613.9186228539907
 31
0.0
  0
LINE
  5
E04
330
1F
100
AcDbEntity
  8
Hewi
370
    13
100
AcDbLine
 10
131.2686149909291
 20
609.5947657761557
 30
0.0
 11
131.0285188303269
 21
608.4811820647936
 31
0.0
  0
LINE
  5
E05
330
1F
100
AcDbEntity
  8
Hewi
370
    13
100
AcDbLine
 10
122.6544346566497
 20
604.8163159882968
 30
0.0
 11
121.6983550456852
 21
605.4356920190208
 31
0.0
  0
LINE
  5
E06
330
1F
100
AcDbEntity
  8
Hewi
370
    13
100
AcDbLine
 10
125.3123619139219
 20
610.1785104958688
 30
0.0
 11
125.3044255228092
 21
609.4722580551907
 31
0.0
  0
LINE
  5
E07
330
1F
100
AcDbEntity
  8
Hewi
370
    13
100
AcDbLine
 10
128.2154868118455
 20
604.9450056344059
 30
0.0
 11
127.1626351972631
 21
604.5100132471108
 31
0.0
  0
LINE
  5
E08
330
1F
100
AcDbEntity
  8
Hewi
370
    13
100
AcDbLine
 10
125.450820309114
 20
604.1953227022016
 30
0.0
 11
124.3164154559399
 21
604.2994406019548
 31
0.0
  0
LINE
  5
E09
330
1F
100
AcDbEntity
  8
Hewi
370
    13
100
AcDbLine
 10
120.3096414409351
 20
613.4633995319367
 30
0.0
 11
121.0397442002618
 21
614.3378506925777
 31
0.0
  0
LINE
  5
E0A
330
1F
100
AcDbEntity
  8
Hewi
370
    13
100
AcDbLine
 10
122.4092370159992
 20
615.4120153573329
 30
0.0
 11
123.4620886305811
 21
615.8470077446278
 31
0.0
  0
LINE
  5
E0B
330
1F
100
AcDbEntity
  8
Hewi
370
    13
100
AcDbLine
 10
123.7460562720566
 20
615.9547024642336
 30
0.0
 11
124.8724144268403
 21
616.1250908858688
 31
0.0
  0
LINE
  5
E0C
330
1F
100
AcDbEntity
  8
Hewi
370
    13
100
AcDbLine
 10
124.0149263637881
 20
604.3360480034638
 30
0.0
 11
122.9384022988965
 21
604.7086212707236
 31
0.0
  0
LWPOLYLINE
  5
E0D
330
1F
100
AcDbEntity
  8
Hewi
370
    13
100
AcDbPolyline
 90
       18
 70
     0
 43
0.0
 10
121.8123620124884
 20
340.178527008195
 10
121.8123620124884
 20
249.6785293595539
 10
121.8625061867119
 20
249.2334875149279
 10
122.010424271105
 20
248.8107619267259
 10
122.248699035264
 20
248.4315498210858
 10
122.5653823875641
 20
248.1148664764377
 10
122.9445945023672
 20
247.8765917180378
 10
123.3673201007855
 20
247.7286736372189
 10
123.8123619561652
 20
247.6785294642059
 10
126.8123618716804
 20
247.6785294642059
 10
127.2574037270592
 20
247.7286736372189
 10
127.6801293254761
 20
247.8765917180378
 10
128.0593414402801
 20
248.1148664764377
 10
128.3760247925797
 20
248.4315498210858
 10
128.6142995567393
 20
248.8107619267259
 10
128.7622176411319
 20
249.2334875149279
 10
128.8123618153558
 20
249.6785293595539
 10
128.8123618153558
 20
340.178527008195
  0
LWPOLYLINE
  5
E0E
330
1F
100
AcDbEntity
  8
Hewi
370
    13
100
AcDbPolyline
 90
       32
 70
     0
 43
0.0
 10
58.81236378667336
 20
222.6785307723678
 10
58.81236378667336
 20
219.6785309293468
 10
58.82489983023015
 20
219.567270468191
 10
58.86187935132785
 20
219.46158907114
 10
58.92144804236796
 20
219.3667860447299
 10
59.00061888044183
 20
219.2876152085679
 10
59.09542190914317
 20
219.2280465189679
 10
59.20110330874695
 20
219.1910669987637
 10
59.31236377259256
 20
219.17853095551
 10
59.34997190326021
 20
219.17853095551
 10
59.46091046655602
 20
219.17853095551
 10
59.63961653967499
 20
219.17853095551
 10
59.87712905390026
 20
219.17853095551
 10
60.16153814000199
 20
219.17853095551
 10
60.47858233881516
 20
219.17853095551
 10
60.81236373034972
 20
219.17853095551
 10
189.8123600974945
 20
219.17853095551
 10
190.1461414890291
 20
219.17853095551
 10
190.4631856878418
 20
219.17853095551
 10
190.7475947739435
 20
219.17853095551
 10
190.9851072881697
 20
219.17853095551
 10
191.1638133612882
 20
219.17853095551
 10
191.2747519245836
 20
219.17853095551
 10
191.3123600552517
 20
219.17853095551
 10
191.4236205190959
 20
219.1910669987637
 10
191.5293019187006
 20
219.2280465189679
 10
191.624104947401
 20
219.2876152085679
 10
191.7032757854763
 20
219.3667860447299
 10
191.7628444765164
 20
219.46158907114
 10
191.7998239976136
 20
219.567270468191
 10
191.81236004117
 20
219.6785309293468
 10
191.81236004117
 20
222.6785307723678
  0
LWPOLYLINE
  5
E0F
330
1F
100
AcDbEntity
  8
Hewi
370
    13
100
AcDbPolyline
 90
        9
 70
     0
 43
0.0
 10
176.8123604658662
 20
222.6785307723678
 10
189.8123600974945
 20
222.6785307723678
 10
190.2574019528733
 20
222.6785307723678
 10
190.6801275512912
 20
222.6785307723678
 10
191.0593396660942
 20
222.6785307723678
 10
191.3760230183952
 20
222.6785307723678
 10
191.6142977825534
 20
222.6785307723678
 10
191.762215866946
 20
222.6785307723678
 10
191.81236004117
 20
222.6785307723678
  0
LWPOLYLINE
  5
E10
330
1F
100
AcDbEntity
  8
Hewi
370
    13
100
AcDbPolyline
 90
        9
 70
     0
 43
0.0
 10
58.81236378667336
 20
222.6785307723678
 10
58.86250796089825
 20
222.6785307723678
 10
59.01042604529084
 20
222.6785307723678
 10
59.24870080944902
 20
222.6785307723678
 10
59.56538416174999
 20
222.6785307723678
 10
59.94459627655306
 20
222.6785307723678
 10
60.36732187497046
 20
222.6785307723678
 10
60.81236373034972
 20
222.6785307723678
 10
73.81236313070622
 20
222.6785307723678
  0
LINE
  5
E11
330
1F
100
AcDbEntity
  8
Hewi
370
    13
100
AcDbLine
 10
191.81236004117
 20
640.1784934288679
 30
0.0
 11
191.81236004117
 21
752.6785030393488
 31
0.0
  0
LINE
  5
E12
330
1F
100
AcDbEntity
  8
Hewi
370
    13
100
AcDbLine
 10
58.81236378667336
 20
340.1785204516849
 30
0.0
 11
58.81236378667336
 21
222.6785307723678
 31
0.0
  0
LINE
  5
E13
330
1F
100
AcDbEntity
  8
Hewi
370
    13
100
AcDbLine
 10
176.8123604635952
 20
640.1784934288679
 30
0.0
 11
176.8123604635952
 21
752.6785030393488
 31
0.0
  0
LWPOLYLINE
  5
E14
330
1F
100
AcDbEntity
  8
Hewi
370
    13
100
AcDbPolyline
 90
       26
 70
     1
 43
0.0
 10
139.2911369052517
 20
358.449132995623
 10
138.7005202314335
 20
361.772080232396
 10
137.3318324601791
 20
364.85712484346
 10
135.2646167497719
 20
367.5249752497019
 10
132.6190121632812
 20
369.620585682753
 10
129.5487716228904
 20
371.022166881478
 10
126.2323263489361
 20
371.6482640411468
 10
122.8624160859544
 20
371.46249067061
 10
119.6348877693031
 20
370.475643242905
 10
116.7373136131587
 20
368.7450737434859
 10
114.338090095222
 20
366.3713565812939
 10
112.5766513655321
 20
363.492443569686
 10
111.5553658404933
 20
360.275646668472
 10
111.3335869225925
 20
356.9079144209709
 10
111.9242035964103
 20
353.5849671841979
 10
113.2928913676655
 20
350.4999225731339
 10
115.3601070780719
 20
347.8320721668918
 10
118.0057116645635
 20
345.736461733841
 10
121.0759522049543
 20
344.3348805351158
 10
124.3923974789077
 20
343.7087833754469
 10
127.7623077418907
 20
343.8945567459839
 10
130.9898360585412
 20
344.8814041736889
 10
133.8874102146851
 20
346.6119736731079
 10
136.2866337326231
 20
348.9856908352999
 10
138.0480724623112
 20
351.864603846908
 10
139.0693579873518
 20
355.0814007481218
  0
LINE
  5
E15
330
1F
100
AcDbEntity
  8
Hewi
370
    13
100
AcDbLine
 10
191.81236004117
 20
222.6785307723678
 30
0.0
 11
191.81236004117
 21
340.1785283493
 31
0.0
  0
LINE
  5
E16
330
1F
100
AcDbEntity
  8
Hewi
370
    13
100
AcDbLine
 10
176.8123604635952
 20
222.6785307723678
 30
0.0
 11
176.8123604635952
 21
340.1785283493
 31
0.0
  0
LINE
  5
E17
330
1F
100
AcDbEntity
  8
Hewi
370
    13
100
AcDbLine
 10
58.81236378667336
 20
752.6785030393488
 30
0.0
 11
58.81236378667336
 21
640.1785092240978
 31
0.0
  0
LINE
  5
E18
330
1F
100
AcDbEntity
  8
Hewi
370
    13
100
AcDbLine
 10
73.81236336424809
 20
752.6785030393488
 30
0.0
 11
73.81236336424809
 21
640.1785092240978
 31
0.0
  0
LINE
  5
E19
330
1F
100
AcDbEntity
  8
Hewi
370
    13
100
AcDbLine
 10
73.81236336424809
 20
340.1785204516849
 30
0.0
 11
73.81236336424809
 21
222.6785307723678
 31
0.0
  0
LWPOLYLINE
  5
E1A
330
1F
100
AcDbEntity
  8
Hewi
370
    13
100
AcDbPolyline
 90
       26
 70
     1
 43
0.0
 10
122.5391005481519
 20
356.8305727140189
 10
122.8226144436262
 20
356.1915277588699
 10
123.2508234122101
 20
355.6389016032919
 10
123.7988415051263
 20
355.2048108707311
 10
124.4348199027777
 20
354.9144833367088
 10
125.1217978523841
 20
354.7847917822068
 10
125.8198506925719
 20
354.8232734089609
 10
126.4884101295924
 20
355.0276918046999
 10
127.0886219190802
 20
355.3861669152939
 10
127.5856039335103
 20
355.8778654703187
 10
127.9504733846602
 20
356.4742117370089
 10
128.1620253862757
 20
357.1405482379749
 10
128.2079653049827
 20
357.838149917815
 10
128.0856232796923
 20
358.5264747025749
 10
127.802109384218
 20
359.1655196577237
 10
127.3739004156332
 20
359.7181458133018
 10
126.825882322717
 20
360.1522365458631
 10
126.1899039250652
 20
360.4425640798839
 10
125.5029259754615
 20
360.5722556343869
 10
124.8048731352723
 20
360.533774007633
 10
124.1363136982513
 20
360.3293556118949
 10
123.5361019087645
 20
359.9708805013002
 10
123.0391198943339
 20
359.479181946275
 10
122.674250443184
 20
358.8828356795849
 10
122.4626984415681
 20
358.2164991786188
 10
122.4167585228615
 20
357.518897498779
  0
LWPOLYLINE
  5
E1B
330
1F
100
AcDbEntity
  8
Hewi
370
    13
100
AcDbPolyline
 90
       18
 70
     0
 43
0.0
 10
76.88059058942918
 20
219.178530972711
 10
77.05016015099181
 20
219.0078202863238
 10
77.05016015099181
 20
218.84924165086
 10
76.89864976381932
 20
218.84924165086
 10
76.58230472017521
 20
218.84924165086
 10
76.11950984412942
 20
218.84924165086
 10
75.53716109168817
 20
218.84924165086
 10
74.8691024555892
 20
218.84924165086
 10
74.15415907547094
 20
218.84924165086
 10
73.43388086186997
 20
218.84924165086
 10
72.75012776645735
 20
218.84924165086
 10
72.14263703379675
 20
218.84924165086
 10
71.64671381713197
 20
218.84924165086
 10
71.29117937120827
 20
218.84924165086
 10
71.09669606570605
 20
218.84924165086
 10
71.07456656342447
 20
218.84924165086
 10
71.07456656342447
 20
219.0078202863238
 10
71.24413612498575
 20
219.178530972711
  0
LWPOLYLINE
  5
E4E
330
1F
100
AcDbEntity
  8
Hewi
370
    13
100
AcDbPolyline
 90
       10
 70
     0
 43
0.0
 10
420.3871698543825
 20
756.1785028562066
 10
408.3871701923235
 20
756.1785028562066
 10
408.3871701923235
 20
756.1283586831941
 10
408.3871701923235
 20
755.9804406023754
 10
408.3871701923235
 20
755.7421658439746
 10
408.3871701923235
 20
755.425482499327
 10
408.3871701923235
 20
755.0462703936873
 10
408.3871701923235
 20
754.6235448054849
 10
408.3871701923235
 20
754.1785029608595
 10
408.3871701923235
 20
752.6785030393489
  0
LWPOLYLINE
  5
E4F
330
1F
100
AcDbEntity
  8
Hewi
370
    13
100
AcDbPolyline
 90
       32
 70
     1
 43
0.0
 10
414.387170023353
 20
340.1785246240109
 10
433.887169474201
 20
340.1785246240109
 10
434.7772531849596
 20
340.1785246240109
 10
435.6227043817944
 20
340.1785246240109
 10
436.3811286114005
 20
340.1785246240109
 10
437.0144953160015
 20
340.1785246240109
 10
437.4910448443188
 20
340.1785246240109
 10
437.7868810131048
 20
340.1785246240109
 10
437.8871693615537
 20
340.1785246240109
 10
437.8871693615537
 20
640.1785089260759
 10
437.7868810131048
 20
640.1785089260759
 10
437.4910448443188
 20
640.1785089260759
 10
437.0144953160015
 20
640.1785089260759
 10
436.3811286114005
 20
640.1785089260759
 10
435.6227043817944
 20
640.1785089260759
 10
434.7772531849596
 20
640.1785089260759
 10
433.887169474201
 20
640.1785089260759
 10
414.387170023353
 20
640.1785089260759
 10
413.4970863125936
 20
640.1785089260759
 10
412.6516351157579
 20
640.1785089260759
 10
411.8932108861518
 20
640.1785089260759
 10
411.2598441815516
 20
640.1785089260759
 10
410.7832946532344
 20
640.1785089260759
 10
410.4874584844483
 20
640.1785089260759
 10
410.3871701359994
 20
640.1785089260759
 10
410.3871701359994
 20
340.1785246240109
 10
410.4874584844483
 20
340.1785246240109
 10
410.7832946532344
 20
340.1785246240109
 10
411.2598441815516
 20
340.1785246240109
 10
411.8932108861518
 20
340.1785246240109
 10
412.6516351157579
 20
340.1785246240109
 10
413.4970863125936
 20
340.1785246240109
  0
LWPOLYLINE
  5
E50
330
1F
100
AcDbEntity
  8
Hewi
370
    13
100
AcDbPolyline
 90
       11
 70
     0
 43
0.0
 10
425.8871696994929
 20
752.6785030393489
 10
425.8871696994929
 20
754.1785029608595
 10
425.8370255252693
 20
754.6235448054849
 10
425.6891074408768
 20
755.0462703936873
 10
425.4508326767172
 20
755.425482499327
 10
425.1341493244181
 20
755.7421658439746
 10
425.0482670040446
 20
755.7965368649432
 10
424.7549372096146
 20
755.9804406023754
 10
424.4749549915568
 20
756.0806158939185
 10
424.3322116111967
 20
756.1283586831941
 10
423.8871697558169
 20
756.1785028562066
  0
LWPOLYLINE
  5
E51
330
1F
100
AcDbEntity
  8
Hewi
370
    13
100
AcDbPolyline
 90
       16
 70
     0
 43
0.0
 10
418.3871699107067
 20
752.6785030393489
 10
418.4373140849311
 20
752.6785030393489
 10
418.5852321693237
 20
752.6785030393489
 10
418.8235069334823
 20
752.6785030393489
 10
419.1401902857823
 20
752.6785030393489
 10
419.519402400585
 20
752.6785030393489
 10
419.9421279990038
 20
752.6785030393489
 10
420.3871698543825
 20
752.6785030393489
 10
423.8871697558169
 20
752.6785030393489
 10
424.3322116111967
 20
752.6785030393489
 10
424.7549372096146
 20
752.6785030393489
 10
425.1341493244181
 20
752.6785030393489
 10
425.4508326767172
 20
752.6785030393489
 10
425.6891074408768
 20
752.6785030393489
 10
425.8370255252693
 20
752.6785030393489
 10
425.8871696994929
 20
752.6785030393489
  0
LINE
  5
E52
330
1F
100
AcDbEntity
  8
Hewi
370
    13
100
AcDbLine
 10
423.8871697558169
 20
756.1785028562066
 30
0.0
 11
420.3871698543825
 21
756.1785028562066
 31
0.0
  0
LINE
  5
E53
330
1F
100
AcDbEntity
  8
Hewi
370
    13
100
AcDbLine
 10
423.8871697558169
 20
756.1785028562066
 30
0.0
 11
424.3871697417352
 21
756.0806158939185
 31
0.0
  0
LINE
  5
E54
330
1F
100
AcDbEntity
  8
Hewi
370
    13
100
AcDbLine
 10
418.3871699107067
 20
754.1785029608595
 30
0.0
 11
418.3871699107067
 21
752.6785030393489
 31
0.0
  0
LWPOLYLINE
  5
E55
330
1F
100
AcDbEntity
  8
Hewi
370
    13
100
AcDbPolyline
 90
        4
 70
     0
 43
0.0
 10
437.9871693587365
 20
610.1785104958687
 10
437.9816280587156
 20
611.1782588729209
 10
437.9650044997352
 20
612.4840094761816
 10
437.8985153798894
 20
615.3998834327528
  0
LWPOLYLINE
  5
E56
330
1F
100
AcDbEntity
  8
Hewi
370
    13
100
AcDbPolyline
 90
        3
 70
     0
 43
0.0
 10
419.9421279990038
 20
756.1283586831941
 10
419.8695317787551
 20
756.1103545123505
 10
419.519402400585
 20
755.9804406023754
  0
LWPOLYLINE
  5
E57
330
1F
100
AcDbEntity
  8
Hewi
370
    13
100
AcDbPolyline
 90
        9
 70
     0
 43
0.0
 10
419.1401902857823
 20
755.7421658439746
 10
418.9729563318369
 20
755.5927164492318
 10
418.8235069334823
 20
755.425482499327
 10
418.6818895736987
 20
755.2235000356102
 10
418.5852321693237
 20
755.0462703936873
 10
418.5146213292973
 20
754.8810424772243
 10
418.4373140849311
 20
754.6235448054849
 10
418.422096785137
 20
754.5506421828445
 10
418.3959207737152
 20
754.365390284559
  0
LWPOLYLINE
  5
E58
330
1F
100
AcDbEntity
  8
Hewi
370
    13
100
AcDbPolyline
 90
       18
 70
     0
 43
0.0
 10
418.3871699107067
 20
232.68177865858
 10
414.0171700337723
 20
232.68177865858
 10
413.3871700515146
 20
232.855002756087
 10
413.3871700515146
 20
232.9480446735268
 10
413.3871700515146
 20
233.1416561164779
 10
413.3871700515146
 20
233.4245850916248
 10
413.3871700515146
 20
233.780388795337
 10
413.3871700515146
 20
234.188389209649
 10
413.3871700515146
 20
234.6248748335019
 10
413.3871700515146
 20
235.0644787089978
 10
413.3871700515146
 20
235.4816526567877
 10
413.3871700515146
 20
235.8521520433929
 10
413.3871700515146
 20
236.154444791173
 10
413.3871700515146
 20
236.3709627444168
 10
413.3871700515146
 20
236.4891226666937
 10
413.3871700515146
 20
236.5020575328127
 10
414.0171700337723
 20
236.6752816303201
 10
418.3871699107067
 20
236.6752816303201
  0
LWPOLYLINE
  5
E59
330
1F
100
AcDbEntity
  8
Hewi
370
    13
100
AcDbPolyline
 90
        6
 70
     0
 43
0.0
 10
437.8871693619494
 20
615.8965956625138
 10
437.8888056989053
 20
615.8923773280116
 10
437.8985153798894
 20
615.7973054638016
 10
437.9650044997352
 20
613.003038097303
 10
437.9816280587156
 20
611.5908177623928
 10
437.9871693587365
 20
610.1785104958687
  0
LWPOLYLINE
  5
E5A
330
1F
100
AcDbEntity
  8
Hewi
370
    13
100
AcDbPolyline
 90
        6
 70
     0
 43
0.0
 10
437.8871693619494
 20
490.8966022033198
 10
437.8888056989053
 20
490.8923838688179
 10
437.8985153798894
 20
490.7973120046078
 10
437.9650044997352
 20
488.0030446381088
 10
437.9816280587156
 20
486.5908243031988
 10
437.9871693587365
 20
485.1785170366756
  0
LWPOLYLINE
  5
E5B
330
1F
100
AcDbEntity
  8
Hewi
370
    13
100
AcDbPolyline
 90
        7
 70
     0
 43
0.0
 10
437.8871693619494
 20
604.4686446860228
 10
437.8888056989053
 20
604.4728569569558
 10
437.8985153798894
 20
604.5395900559838
 10
437.9650044997352
 20
607.5251535252309
 10
437.9816280587156
 20
608.8854172125129
 10
437.985784028403
 20
609.4722580551908
 10
437.9871693587365
 20
610.1785104958687
  0
LWPOLYLINE
  5
E5C
330
1F
100
AcDbEntity
  8
Hewi
370
    13
100
AcDbPolyline
 90
        3
 70
     0
 43
0.0
 10
419.1401902857823
 20
755.7421658439746
 10
419.2260726061549
 20
755.7965368649432
 10
419.519402400585
 20
755.9804406023754
  0
LWPOLYLINE
  5
E5D
330
1F
100
AcDbEntity
  8
Hewi
370
    13
100
AcDbPolyline
 90
        4
 70
     0
 43
0.0
 10
437.9871693587365
 20
485.1785170366756
 10
437.9816280587156
 20
486.1782654137268
 10
437.9650044997352
 20
487.4840160169878
 10
437.8985153798894
 20
490.3998899735588
  0
LWPOLYLINE
  5
E5E
330
1F
100
AcDbEntity
  8
Hewi
370
    13
100
AcDbPolyline
 90
        3
 70
     0
 43
0.0
 10
419.9421279990038
 20
756.1283586831941
 10
419.7993846186436
 20
756.0806158939185
 10
419.519402400585
 20
755.9804406023754
  0
LWPOLYLINE
  5
E5F
330
1F
100
AcDbEntity
  8
Hewi
370
    13
100
AcDbPolyline
 90
        7
 70
     0
 43
0.0
 10
437.8871693619494
 20
479.468651226829
 10
437.8888056989053
 20
479.4728634977627
 10
437.8985153798894
 20
479.5395965967897
 10
437.9650044997352
 20
482.5251600660367
 10
437.9816280587156
 20
483.8854237533187
 10
437.985784028403
 20
484.4722645959969
 10
437.9871693587365
 20
485.1785170366756
  0
LINE
  5
E60
330
1F
100
AcDbEntity
  8
Hewi
370
    13
100
AcDbLine
 10
420.3871698543825
 20
756.1785028562066
 30
0.0
 11
420.0238986006106
 21
756.0806158939185
 31
0.0
  0
LWPOLYLINE
  5
E61
330
1F
100
AcDbEntity
  8
Hewi
370
    13
100
AcDbPolyline
 90
        3
 70
     0
 43
0.0
 10
419.519402400585
 20
755.9804406023754
 10
419.3871698825441
 20
755.9105536777961
 10
419.1401902857823
 20
755.7421658439746
  0
LINE
  5
E62
330
1F
100
AcDbEntity
  8
Hewi
370
    13
100
AcDbLine
 10
419.9421279990038
 20
756.1283586831941
 30
0.0
 11
420.3871698543825
 21
756.1785028562066
 31
0.0
  0
LWPOLYLINE
  5
E63
330
1F
100
AcDbEntity
  8
Hewi
370
    13
100
AcDbPolyline
 90
       18
 70
     0
 43
0.0
 10
425.0464880566414
 20
219.178530950796
 10
425.2173110036492
 20
219.0078202863238
 10
425.2173110036492
 20
218.8492416508599
 10
425.1521454308085
 20
218.8492416508599
 10
424.9164995919199
 20
218.8492416508599
 10
424.5240683666033
 20
218.8492416508599
 10
423.9976584312453
 20
218.8492416508599
 10
423.3678628178649
 20
218.8492416508599
 10
422.6712829583002
 20
218.8492416508599
 10
421.9484015420229
 20
218.8492416508599
 10
421.2412298093786
 20
218.8492416508599
 10
420.5908660110071
 20
218.8492416508599
 10
420.0351069268909
 20
218.8492416508599
 10
419.6062512548969
 20
218.8492416508599
 10
419.3292225278582
 20
218.8492416508599
 10
419.220120648426
 20
218.8492416508599
 10
419.220120648426
 20
219.0078202863238
 10
419.3909435954346
 20
219.178530950796
  0
LWPOLYLINE
  5
E64
330
1F
100
AcDbEntity
  8
Hewi
370
    13
100
AcDbPolyline
 90
        6
 70
     0
 43
0.0
 10
437.8871693619494
 20
552.3965989852427
 10
437.8888056989053
 20
552.3923806507416
 10
437.8985153798894
 20
552.2973087865307
 10
437.9650044997352
 20
549.5030414200328
 10
437.9816280587156
 20
548.0908210851228
 10
437.9871693587365
 20
546.6785138185989
  0
LWPOLYLINE
  5
E65
330
1F
100
AcDbEntity
  8
Hewi
370
    13
100
AcDbPolyline
 90
        6
 70
     0
 43
0.0
 10
437.8871693619494
 20
436.3966050551109
 10
437.8888056989053
 20
436.3923867206099
 10
437.8985153798894
 20
436.2973148563987
 10
437.9650044997352
 20
433.5030474899008
 10
437.9816280587156
 20
432.0908271549908
 10
437.9871693587365
 20
430.6785198884667
  0
LWPOLYLINE
  5
E66
330
1F
100
AcDbEntity
  8
Hewi
370
    13
100
AcDbPolyline
 90
        4
 70
     0
 43
0.0
 10
437.9871693587365
 20
430.6785198884667
 10
437.9816280587156
 20
431.6782682655189
 10
437.9650044997352
 20
432.9840188687799
 10
437.8985153798894
 20
435.8998928253499
  0
LWPOLYLINE
  5
E67
330
1F
100
AcDbEntity
  8
Hewi
370
    13
100
AcDbPolyline
 90
       18
 70
     0
 43
0.0
 10
418.3871699107067
 20
742.6817519720907
 10
414.0171700337723
 20
742.6817519720907
 10
413.3871700515146
 20
742.8549760695978
 10
413.3871700515146
 20
742.9480179870374
 10
413.3871700515146
 20
743.1416294299886
 10
413.3871700515146
 20
743.4245584051354
 10
413.3871700515146
 20
743.7803621088478
 10
413.3871700515146
 20
744.1883625231596
 10
413.3871700515146
 20
744.6248481470122
 10
413.3871700515146
 20
745.0644520225083
 10
413.3871700515146
 20
745.4816259702984
 10
413.3871700515146
 20
745.8521253569031
 10
413.3871700515146
 20
746.1544181046833
 10
413.3871700515146
 20
746.3709360579275
 10
413.3871700515146
 20
746.489095980204
 10
413.3871700515146
 20
746.5020308463236
 10
414.0171700337723
 20
746.6752549438306
 10
418.3871699107067
 20
746.6752549438306
  0
LWPOLYLINE
  5
E68
330
1F
100
AcDbEntity
  8
Hewi
370
    13
100
AcDbPolyline
 90
        7
 70
     0
 43
0.0
 10
437.8871693619494
 20
424.9686540786199
 10
437.8888056989053
 20
424.9728663495538
 10
437.8985153798894
 20
425.0395994485818
 10
437.9650044997352
 20
428.0251629178289
 10
437.9816280587156
 20
429.3854266051098
 10
437.985784028403
 20
429.9722674477878
 10
437.9871693587365
 20
430.6785198884667
  0
LWPOLYLINE
  5
E69
330
1F
100
AcDbEntity
  8
Hewi
370
    13
100
AcDbPolyline
 90
        3
 70
     0
 43
0.0
 10
419.1385746274873
 20
219.17853095551
 10
419.1385746274873
 20
219.019952320045
 10
419.2322606625047
 20
219.019952320045
  0
LINE
  5
E6A
330
1F
100
AcDbEntity
  8
Hewi
370
    13
100
AcDbLine
 10
425.1357649827114
 20
219.17853095551
 30
0.0
 11
425.1357649827114
 21
219.089312703258
 31
0.0
  0
LWPOLYLINE
  5
E6B
330
1F
100
AcDbEntity
  8
Hewi
370
    13
100
AcDbPolyline
 90
        4
 70
     0
 43
0.0
 10
437.9871693587365
 20
546.6785138185989
 10
437.9816280587156
 20
547.6782621956508
 10
437.9650044997352
 20
548.984012798911
 10
437.8985153798894
 20
551.8998867554817
  0
LWPOLYLINE
  5
E6C
330
1F
100
AcDbEntity
  8
Hewi
370
    13
100
AcDbPolyline
 90
        7
 70
     0
 43
0.0
 10
437.8871693619494
 20
540.9686480087518
 10
437.8888056989053
 20
540.9728602796858
 10
437.8985153798894
 20
541.0395933787137
 10
437.9650044997352
 20
544.0251568479598
 10
437.9816280587156
 20
545.3854205352418
 10
437.985784028403
 20
545.9722613779199
 10
437.9871693587365
 20
546.6785138185989
  0
LWPOLYLINE
  5
E6D
330
1F
100
AcDbEntity
  8
Hewi
370
    13
100
AcDbPolyline
 90
       16
 70
     0
 43
0.0
 10
425.8871696994929
 20
222.6785307723679
 10
425.8370255252693
 20
222.6785307723679
 10
425.6891074408768
 20
222.6785307723679
 10
425.4508326767172
 20
222.6785307723679
 10
425.1341493244181
 20
222.6785307723679
 10
424.7549372096146
 20
222.6785307723679
 10
424.3322116111967
 20
222.6785307723679
 10
423.8871697558169
 20
222.6785307723679
 10
420.3871698543825
 20
222.6785307723679
 10
419.9421279990038
 20
222.6785307723679
 10
419.519402400585
 20
222.6785307723679
 10
419.1401902857823
 20
222.6785307723679
 10
418.8235069334823
 20
222.6785307723679
 10
418.5852321693237
 20
222.6785307723679
 10
418.4373140849311
 20
222.6785307723679
 10
418.3871699107067
 20
222.6785307723679
  0
LWPOLYLINE
  5
E6E
330
1F
100
AcDbEntity
  8
Hewi
370
    13
100
AcDbPolyline
 90
       24
 70
     0
 43
0.0
 10
418.887169896625
 20
219.17853095551
 10
418.9247780272935
 20
219.17853095551
 10
419.0357165905888
 20
219.17853095551
 10
419.2144226637074
 20
219.17853095551
 10
419.4519351779327
 20
219.17853095551
 10
419.7363442640344
 20
219.17853095551
 10
420.0533884628485
 20
219.17853095551
 10
420.3871698543825
 20
219.17853095551
 10
423.8871697558169
 20
219.17853095551
 10
424.2209511473511
 20
219.17853095551
 10
424.5379953461642
 20
219.17853095551
 10
424.8224044322678
 20
219.17853095551
 10
425.0599169464931
 20
219.17853095551
 10
425.2386230196125
 20
219.17853095551
 10
425.3495615829069
 20
219.17853095551
 10
425.3871697135746
 20
219.17853095551
 10
425.4984301774193
 20
219.1910669987637
 10
425.604111577024
 20
219.2280465189679
 10
425.6989146057248
 20
219.2876152085678
 10
425.7780854437997
 20
219.36678604473
 10
425.8376541348398
 20
219.46158907114
 10
425.874633655937
 20
219.567270468191
 10
425.8871696994929
 20
219.6785309293468
 10
425.8871696994929
 20
222.6785307723679
  0
LWPOLYLINE
  5
E6F
330
1F
100
AcDbEntity
  8
Hewi
370
    13
100
AcDbPolyline
 90
        7
 70
     0
 43
0.0
 10
437.8871693619494
 20
494.4686504419319
 10
437.8888056989053
 20
494.4728627128657
 10
437.8985153798894
 20
494.5395958118938
 10
437.9650044997352
 20
497.5251592811398
 10
437.9816280587156
 20
498.8854229684216
 10
437.985784028403
 20
499.4722638110999
 10
437.9871693587365
 20
500.1785162517787
  0
LWPOLYLINE
  5
E70
330
1F
100
AcDbEntity
  8
Hewi
370
    13
100
AcDbPolyline
 90
       10
 70
     0
 43
0.0
 10
408.3871701923235
 20
222.6785307723679
 10
408.3871701923235
 20
219.6785309293468
 10
408.3871701923235
 20
219.567270468191
 10
408.3871701923235
 20
219.46158907114
 10
408.3871701923235
 20
219.36678604473
 10
408.3871701923235
 20
219.2876152085678
 10
408.3871701923235
 20
219.2280465189679
 10
408.3871701923235
 20
219.1910669987637
 10
408.3871701923235
 20
219.17853095551
 10
418.887169896625
 20
219.17853095551
  0
LWPOLYLINE
  5
E71
330
1F
100
AcDbEntity
  8
Hewi
370
    13
100
AcDbPolyline
 90
        6
 70
     0
 43
0.0
 10
437.8871693619494
 20
505.8966014184229
 10
437.8888056989053
 20
505.8923830839217
 10
437.8985153798894
 20
505.7973112197108
 10
437.9650044997352
 20
503.0030438532128
 10
437.9816280587156
 20
501.5908235183028
 10
437.9871693587365
 20
500.1785162517787
  0
LWPOLYLINE
  5
E72
330
1F
100
AcDbEntity
  8
Hewi
370
    13
100
AcDbPolyline
 90
        4
 70
     0
 43
0.0
 10
437.9871693587365
 20
500.1785162517787
 10
437.9816280587156
 20
501.17826462883
 10
437.9650044997352
 20
502.4840152320908
 10
437.8985153798894
 20
505.3998891886617
  0
LWPOLYLINE
  5
E73
330
1F
100
AcDbEntity
  8
Hewi
370
    13
100
AcDbPolyline
 90
       54
 70
     0
 43
0.0
 10
437.8871693615537
 20
347.9994893348228
 10
437.8929337772706
 20
347.9410887389649
 10
437.9100055011576
 20
347.8849324452549
 10
437.9444642616272
 20
347.8235348916937
 10
437.9923349440923
 20
347.7718606086728
 10
438.0509722070192
 20
347.7327651252988
 10
438.1171357459207
 20
347.7084088642059
 10
438.1871693531047
 20
347.7001377562619
 10
451.7033073820848
 20
347.7001377562619
 10
452.0414019819509
 20
347.6253459913319
 10
452.3161429193142
 20
347.4149855084788
 10
452.4129160286365
 20
347.270467350166
 10
452.4760480213545
 20
347.108474586018
 10
453.0314877958308
 20
345.0400255085199
 10
453.3912742754109
 20
344.3503759329708
 10
454.0094413844799
 20
343.8770648465418
 10
454.7701542341874
 20
343.7087833754467
 10
458.6571687766354
 20
343.7087833754467
 10
459.1571687625546
 20
344.1977242870969
 10
460.5654226982806
 20
349.422299486673
 10
461.2873731868521
 20
354.7847917822068
 10
461.2873731868521
 20
354.9144833367088
 10
461.2873731868521
 20
355.2048108707309
 10
461.2873731868521
 20
355.6389016032917
 10
461.2873731868521
 20
356.1915277588698
 10
461.2873731868521
 20
356.8305727140189
 10
461.2873731868521
 20
357.5188974987789
 10
461.2873731868521
 20
358.2164991786187
 10
461.2873731868521
 20
358.8828356795848
 10
461.2873731868521
 20
359.4791819462748
 10
461.2873731868521
 20
359.9708805013002
 10
461.2873731868521
 20
360.3293556118949
 10
461.2873731868521
 20
360.533774007633
 10
461.2873731868521
 20
360.5722556343867
 10
460.5654226982806
 20
365.8249723907797
 10
459.1571687625546
 20
371.1593231294967
 10
458.6571687766354
 20
371.6482640411468
 10
454.7701542341874
 20
371.6482640411468
 10
454.0094413844799
 20
371.4799825700518
 10
453.3912742754109
 20
371.006671483623
 10
453.0314877958308
 20
370.3170219080739
 10
452.4760480213545
 20
368.2485728305758
 10
452.4129160286365
 20
368.0865800664278
 10
452.3161429193142
 20
367.942061908115
 10
452.0414019819509
 20
367.7317014252619
 10
451.7033073820848
 20
367.6569096603328
 10
438.1871693531047
 20
367.6569096603328
 10
438.1171357459207
 20
367.6486385523879
 10
438.0509722070192
 20
367.624282291295
 10
437.9923349440923
 20
367.5851868079208
 10
437.9444642616272
 20
367.5335125248998
 10
437.9100055011576
 20
367.4721149713387
 10
437.8929337772706
 20
367.4159586776288
 10
437.8871693615537
 20
367.357558081771
  0
LINE
  5
E74
330
1F
100
AcDbEntity
  8
Hewi
370
    13
100
AcDbLine
 10
408.3871701923235
 20
222.6785307723679
 30
0.0
 11
418.3871699107067
 21
222.6785307723679
 31
0.0
  0
LWPOLYLINE
  5
E75
330
1F
100
AcDbEntity
  8
Hewi
370
    13
100
AcDbPolyline
 90
       16
 70
     0
 43
0.0
 10
418.3871699107067
 20
222.6785307723679
 10
418.3871699107067
 20
219.6785309293468
 10
418.3893576264581
 20
219.6318090984217
 10
418.3959016293129
 20
219.5854961238509
 10
418.3997059542625
 20
219.567270468191
 10
418.4190327653531
 20
219.502896050256
 10
418.4366854753607
 20
219.46158907114
 10
418.4608498264542
 20
219.4172816606588
 10
418.4962541663999
 20
219.36678604473
 10
418.5336165159887
 20
219.3249775572538
 10
418.5754250044756
 20
219.2876152085678
 10
418.6371699036672
 20
219.2455182501129
 10
418.6702280331765
 20
219.2280465189679
 10
418.7577603777181
 20
219.1955680414738
 10
418.7759094327803
 20
219.1910669987637
 10
418.887169896625
 20
219.17853095551
  0
LINE
  5
E76
330
1F
100
AcDbEntity
  8
Hewi
370
    13
100
AcDbLine
 10
418.3871699107067
 20
752.6785030393489
 30
0.0
 11
408.3871701923235
 21
752.6785030393489
 31
0.0
  0
LINE
  5
E77
330
1F
100
AcDbEntity
  8
Hewi
370
    13
100
AcDbLine
 10
418.3871699107067
 20
752.6785030393489
 30
0.0
 11
418.3871699107067
 21
640.1785092240979
 31
0.0
  0
LINE
  5
E78
330
1F
100
AcDbEntity
  8
Hewi
370
    13
100
AcDbLine
 10
418.3871699107067
 20
340.1785204516848
 30
0.0
 11
418.3871699107067
 21
222.6785307723679
 31
0.0
  0
LINE
  5
E79
330
1F
100
AcDbEntity
  8
Hewi
370
    13
100
AcDbLine
 10
425.8871696994929
 20
222.6785307723679
 30
0.0
 11
425.8871696994929
 21
340.1785283493
 31
0.0
  0
LINE
  5
E7A
330
1F
100
AcDbEntity
  8
Hewi
370
    13
100
AcDbLine
 10
425.8871696994929
 20
640.1784934288677
 30
0.0
 11
425.8871696994929
 21
752.6785030393489
 31
0.0
  0
LINE
  5
E7B
330
1F
100
AcDbEntity
  8
Hewi
370
    13
100
AcDbLine
 10
408.3871701923235
 20
752.6785030393489
 30
0.0
 11
408.3871701923235
 21
222.6785307723679
 31
0.0
  0
LINE
  5
E8B
330
1F
100
AcDbEntity
  8
Hewi
100
AcDbLine
 10
125.3123619139221
 20
219.17853095551
 30
0.0
 11
125.3123619139221
 21
219.17853095551
 31
0.0
  0
ENDSEC
  0
SECTION
  2
OBJECTS
  0
DICTIONARY
  5
C
330
0
100
AcDbDictionary
281
     1
  3
ACAD_CIP_PREVIOUS_PRODUCT_INFO
350
119
  3
ACAD_COLOR
350
114
  3
ACAD_DETAILVIEWSTYLE
350
10E
  3
ACAD_GROUP
350
D
  3
ACAD_IMAGE_DICT
350
6E
  3
ACAD_LAYOUT
350
1A
  3
ACAD_MATERIAL
350
43
  3
ACAD_MLEADERSTYLE
350
6B
  3
ACAD_MLINESTYLE
350
17
  3
ACAD_PLOTSETTINGS
350
19
  3
ACAD_PLOTSTYLENAME
350
E
  3
ACAD_SCALELIST
350
47
  3
ACAD_SECTIONVIEWSTYLE
350
10F
  3
ACAD_TABLESTYLE
350
69
  3
ACAD_VISUALSTYLE
350
2A
  3
ACDB_RECOMPOSE_DATA
350
E8F
  3
AcDbVariableDictionary
350
107
  3
AcDsDecomposeData
350
E95
  0
SUN
  5
6D
330
29
100
AcDbSun
 90
        1
290
     1
 63
     7
421
 16777215
 40
1.0
291
     1
 91
  2455826
 92
 54000000
292
     0
 70
     0
 71
   256
280
     1
1001
ACAD
1000
AcDbSavedByObjectVersion
1070
     0
1000
AcDbSavedByObjectVersion
1070
     0
1000
AcDbSavedByObjectVersion
1070
     0
1000
AcDbSavedByObjectVersion
1070
     0
1000
AcDbSavedByObjectVersion
1070
     0
1000
AcDbSavedByObjectVersion
1070
     0
1000
AcDbSavedByObjectVersion
1070
     0
  0
DICTIONARY
  5
490
330
2
100
AcDbDictionary
280
     1
281
     1
  3
ACAD_LAYERSTATES
360
491
  0
DICTIONARY
  5
48E
330
48D
100
AcDbDictionary
280
     1
281
     1
  0
DICTIONARY
  5
6E5
330
1F
100
AcDbDictionary
280
     1
281
     1
  3
ACAD_SORTENTS
360
6E6
  0
XRECORD
  5
119
102
{ACAD_REACTORS
330
C
102
}
330
C
100
AcDbXrecord
280
     1
300
ACDLT
300
2021
300

  0
DICTIONARY
  5
114
102
{ACAD_REACTORS
330
C
102
}
330
C
100
AcDbDictionary
281
     1
  0
DICTIONARY
  5
10E
102
{ACAD_REACTORS
330
C
102
}
330
C
100
AcDbDictionary
281
     1
  3
Metric50
350
116
  0
DICTIONARY
  5
D
102
{ACAD_REACTORS
330
C
102
}
330
C
100
AcDbDictionary
281
     1
  0
DICTIONARY
  5
6E
102
{ACAD_REACTORS
330
C
102
}
330
C
100
AcDbDictionary
281
     1
  0
DICTIONARY
  5
1A
102
{ACAD_REACTORS
330
C
102
}
330
C
100
AcDbDictionary
281
     1
  3
Layout1
350
1E
  3
Layout2
350
26
  3
Model
350
22
  0
DICTIONARY
  5
43
102
{ACAD_REACTORS
330
C
102
}
330
C
100
AcDbDictionary
281
     1
  3
ByBlock
350
45
  3
ByLayer
350
44
  3
Global
350
46
  0
DICTIONARY
  5
6B
102
{ACAD_REACTORS
330
C
102
}
330
C
100
AcDbDictionary
281
     1
  3
Standard
350
6C
  0
DICTIONARY
  5
17
102
{ACAD_REACTORS
330
C
102
}
330
C
100
AcDbDictionary
281
     1
  3
Standard
350
18
  0
DICTIONARY
  5
19
102
{ACAD_REACTORS
330
C
102
}
330
C
100
AcDbDictionary
281
     1
  0
ACDBDICTIONARYWDFLT
  5
E
102
{ACAD_REACTORS
330
C
102
}
330
C
100
AcDbDictionary
281
     1
  3
Normal
350
F
100
AcDbDictionaryWithDefault
340
F
  0
DICTIONARY
  5
47
102
{ACAD_REACTORS
330
C
102
}
330
C
100
AcDbDictionary
281
     1
  3
A0
350
48
  3
A1
350
49
  3
A2
350
4A
  3
A3
350
4B
  3
A4
350
4C
  3
A5
350
4D
  3
A6
350
4E
  3
A7
350
4F
  3
A8
350
50
  3
A9
350
51
  3
B0
350
52
  3
B1
350
53
  3
B2
350
54
  3
B3
350
55
  3
B4
350
56
  3
B5
350
57
  3
B6
350
58
  3
B7
350
59
  3
B8
350
5A
  3
B9
350
5B
  3
C0
350
5C
  3
C1
350
5D
  3
C2
350
5E
  3
C3
350
5F
  3
C4
350
60
  3
C5
350
61
  3
C6
350
62
  3
C7
350
63
  3
C8
350
64
  3
C9
350
65
  3
D0
350
66
  3
D1
350
67
  3
D2
350
68
  0
DICTIONARY
  5
10F
102
{ACAD_REACTORS
330
C
102
}
330
C
100
AcDbDictionary
281
     1
  3
Metric50
350
115
  0
DICTIONARY
  5
69
102
{ACAD_REACTORS
330
C
102
}
330
C
100
AcDbDictionary
281
     1
  3
Standard
350
6A
  0
DICTIONARY
  5
2A
102
{ACAD_REACTORS
330
C
102
}
330
C
100
AcDbDictionary
281
     1
  3
2dWireframe
350
2F
  3
Basic
350
32
  3
Brighten
350
36
  3
ColorChange
350
3A
  3
Conceptual
350
34
  3
Dim
350
35
  3
EdgeColorOff
350
3D
  3
Facepattern
350
39
  3
Flat
350
2B
  3
FlatWithEdges
350
2C
  3
Gouraud
350
2D
  3
GouraudWithEdges
350
2E
  3
Hidden
350
31
  3
JitterOff
350
3B
  3
Linepattern
350
38
  3
OverhangOff
350
3C
  3
Realistic
350
33
  3
Shaded
350
42
  3
Shaded with edges
350
41
  3
Shades of Gray
350
3E
  3
Sketchy
350
3F
  3
Thicken
350
37
  3
Wireframe
350
30
  3
X-Ray
350
40
  0
XRECORD
  5
E8F
102
{ACAD_REACTORS
330
C
102
}
330
C
100
AcDbXrecord
280
     1
 90
        1
330
6A
  0
DICTIONARY
  5
107
102
{ACAD_REACTORS
330
C
102
}
330
C
100
AcDbDictionary
281
     1
  3
CANNOSCALE
350
108
  3
CENTEREXE
350
110
  3
CENTERLTYPEFILE
350
111
  3
CMLEADERSTYLE
350
10D
  3
CTABLESTYLE
350
10C
  3
CVIEWDETAILSTYLE
350
485
  3
CVIEWSECTIONSTYLE
350
486
  0
DICTIONARY
  5
E95
102
{ACAD_REACTORS
330
C
102
}
330
C
100
AcDbDictionary
281
     1
  3
AcDsRecords
350
E97
  3
AcDsSchemas
350
E96
1001
ACAD
1070
     2
  0
DICTIONARY
  5
491
102
{ACAD_REACTORS
330
490
102
}
330
490
100
AcDbDictionary
281
     1
  0
SORTENTSTABLE
  5
6E6
102
{ACAD_REACTORS
330
6E5
102
}
330
6E5
100
AcDbSortentsTable
330
1F
  0
ACDBDETAILVIEWSTYLE
  5
116
102
{ACAD_XDICTIONARY
360
E9A
102
}
102
{ACAD_REACTORS
330
10E
102
}
330
10E
100
AcDbModelDocViewStyle
 70
     0
  3
Metric50
290
     0
100
AcDbDetailViewStyle
 70
     0
 71
     0
 90
        3
 71
     1
340
11
 62
   256
 40
5.0
340
0
 62
   256
 40
5.0
300

 40
0.0
280
     1
 71
     2
340
16
 90
       25
 62
   256
 71
     3
340
11
 62
   256
 40
5.0
 90
        0
 40
15.0
 90
        1
300
%<\AcVar ViewDetailId>% (%<\AcVar ViewScale \f "%sn">%)
 71
     4
340
16
 90
       25
 62
   256
340
16
 90
       25
 62
   256
280
     0
  0
LAYOUT
  5
1E
102
{ACAD_REACTORS
330
1A
102
}
330
1A
100
AcDbPlotSettings
  1

  2
none_device
  4

  6

 40
0.0
 41
0.0
 42
0.0
 43
0.0
 44
0.0
 45
0.0
 46
0.0
 47
0.0
 48
0.0
 49
0.0
140
0.0
141
0.0
142
1.0
143
1.0
 70
   688
 72
     1
 73
     0
 74
     5
  7

 75
    16
147
1.0
 76
     0
 77
     2
 78
   300
148
0.0
149
0.0
100
AcDbLayout
  1
Layout1
 70
     1
 71
     1
 10
0.0
 20
0.0
 11
420.0
 21
297.0
 12
0.0
 22
0.0
 32
0.0
 14
1.000000000000000E+20
 24
1.000000000000000E+20
 34
1.000000000000000E+20
 15
-1.000000000000000E+20
 25
-1.000000000000000E+20
 35
-1.000000000000000E+20
146
0.0
 13
0.0
 23
0.0
 33
0.0
 16
1.0
 26
0.0
 36
0.0
 17
0.0
 27
1.0
 37
0.0
 76
     0
330
1B
  0
LAYOUT
  5
26
102
{ACAD_REACTORS
330
1A
102
}
330
1A
100
AcDbPlotSettings
  1

  2
none_device
  4

  6

 40
0.0
 41
0.0
 42
0.0
 43
0.0
 44
0.0
 45
0.0
 46
0.0
 47
0.0
 48
0.0
 49
0.0
140
0.0
141
0.0
142
1.0
143
1.0
 70
   688
 72
     1
 73
     0
 74
     5
  7

 75
    16
147
1.0
 76
     0
 77
     2
 78
   300
148
0.0
149
0.0
100
AcDbLayout
  1
Layout2
 70
     1
 71
     2
 10
0.0
 20
0.0
 11
0.0
 21
0.0
 12
0.0
 22
0.0
 32
0.0
 14
0.0
 24
0.0
 34
0.0
 15
0.0
 25
0.0
 35
0.0
146
0.0
 13
0.0
 23
0.0
 33
0.0
 16
1.0
 26
0.0
 36
0.0
 17
0.0
 27
1.0
 37
0.0
 76
     0
330
23
  0
LAYOUT
  5
22
102
{ACAD_REACTORS
330
1A
102
}
330
1A
100
AcDbPlotSettings
  1

  2
none_device
  4
Letter_(8.50_x_11.00_Inches)
  6

 40
6.349999999999997
 41
6.349999999999997
 42
6.350005079999997
 43
6.350005079999997
 44
215.9
 45
279.4
 46
0.0
 47
0.0
 48
0.0
 49
0.0
140
0.0
141
0.0
142
1.0
143
1.0
 70
  1712
 72
     1
 73
     0
 74
     0
  7

 75
     0
147
1.0
 76
     0
 77
     2
 78
   300
148
0.0
149
0.0
100
AcDbLayout
  1
Model
 70
     1
 71
     0
 10
0.0
 20
0.0
 11
420.0
 21
297.0
 12
0.0
 22
0.0
 32
0.0
 14
-45.25316535320677
 24
93.29113539721936
 34
0.0
 15
0.1687797052525326
 25
133.2911345722814
 35
0.0
146
0.0
 13
0.0
 23
0.0
 33
0.0
 16
1.0
 26
0.0
 36
0.0
 17
0.0
 27
1.0
 37
0.0
 76
     0
330
1F
331
29
  0
MATERIAL
  5
45
102
{ACAD_REACTORS
330
43
102
}
330
43
100
AcDbMaterial
  1
ByBlock
  0
MATERIAL
  5
44
102
{ACAD_REACTORS
330
43
102
}
330
43
100
AcDbMaterial
  1
ByLayer
  0
MATERIAL
  5
46
102
{ACAD_REACTORS
330
43
102
}
330
43
100
AcDbMaterial
  1
Global
  0
MLEADERSTYLE
  5
6C
102
{ACAD_REACTORS
330
6B
102
}
330
6B
100
AcDbMLeaderStyle
179
     2
170
     2
171
     1
172
     0
 90
        2
 40
0.0
 41
0.0
173
     1
 91
-1056964608
340
14
 92
       -2
290
     1
 42
2.0
291
     1
 43
8.0
  3
Standard
 44
4.0
300

342
11
174
     1
178
     6
175
     1
176
     0
 93
-1056964608
 45
4.0
292
     0
297
     0
 46
4.0
 94
-1056964608
 47
1.0
 49
1.0
140
1.0
293
     1
141
0.0
294
     1
177
     0
142
1.0
295
     0
296
     0
143
3.75
271
     0
272
     9
273
     9
298
     0
  0
MLINESTYLE
  5
18
102
{ACAD_REACTORS
330
17
102
}
330
17
100
AcDbMlineStyle
  2
STANDARD
 70
     0
  3

 62
   256
 51
90.0
 52
90.0
 71
     2
 49
0.5
 62
   256
  6
BYLAYER
 49
-0.5
 62
   256
  6
BYLAYER
  0
ACDBPLACEHOLDER
  5
F
102
{ACAD_REACTORS
330
E
102
}
330
E
  0
SCALE
  5
48
102
{ACAD_REACTORS
330
47
102
}
330
47
100
AcDbScale
 70
     0
300
1:1
140
1.0
141
1.0
290
     1
  0
SCALE
  5
49
102
{ACAD_REACTORS
330
47
102
}
330
47
100
AcDbScale
 70
     0
300
1:2
140
1.0
141
2.0
290
     0
  0
SCALE
  5
4A
102
{ACAD_REACTORS
330
47
102
}
330
47
100
AcDbScale
 70
     0
300
1:4
140
1.0
141
4.0
290
     0
  0
SCALE
  5
4B
102
{ACAD_REACTORS
330
47
102
}
330
47
100
AcDbScale
 70
     0
300
1:5
140
1.0
141
5.0
290
     0
  0
SCALE
  5
4C
102
{ACAD_REACTORS
330
47
102
}
330
47
100
AcDbScale
 70
     0
300
1:8
140
1.0
141
8.0
290
     0
  0
SCALE
  5
4D
102
{ACAD_REACTORS
330
47
102
}
330
47
100
AcDbScale
 70
     0
300
1:10
140
1.0
141
10.0
290
     0
  0
SCALE
  5
4E
102
{ACAD_REACTORS
330
47
102
}
330
47
100
AcDbScale
 70
     0
300
1:16
140
1.0
141
16.0
290
     0
  0
SCALE
  5
4F
102
{ACAD_REACTORS
330
47
102
}
330
47
100
AcDbScale
 70
     0
300
1:20
140
1.0
141
20.0
290
     0
  0
SCALE
  5
50
102
{ACAD_REACTORS
330
47
102
}
330
47
100
AcDbScale
 70
     0
300
1:30
140
1.0
141
30.0
290
     0
  0
SCALE
  5
51
102
{ACAD_REACTORS
330
47
102
}
330
47
100
AcDbScale
 70
     0
300
1:40
140
1.0
141
40.0
290
     0
  0
SCALE
  5
52
102
{ACAD_REACTORS
330
47
102
}
330
47
100
AcDbScale
 70
     0
300
1:50
140
1.0
141
50.0
290
     0
  0
SCALE
  5
53
102
{ACAD_REACTORS
330
47
102
}
330
47
100
AcDbScale
 70
     0
300
1:100
140
1.0
141
100.0
290
     0
  0
SCALE
  5
54
102
{ACAD_REACTORS
330
47
102
}
330
47
100
AcDbScale
 70
     0
300
2:1
140
2.0
141
1.0
290
     0
  0
SCALE
  5
55
102
{ACAD_REACTORS
330
47
102
}
330
47
100
AcDbScale
 70
     0
300
4:1
140
4.0
141
1.0
290
     0
  0
SCALE
  5
56
102
{ACAD_REACTORS
330
47
102
}
330
47
100
AcDbScale
 70
     0
300
8:1
140
8.0
141
1.0
290
     0
  0
SCALE
  5
57
102
{ACAD_REACTORS
330
47
102
}
330
47
100
AcDbScale
 70
     0
300
10:1
140
10.0
141
1.0
290
     0
  0
SCALE
  5
58
102
{ACAD_REACTORS
330
47
102
}
330
47
100
AcDbScale
 70
     0
300
100:1
140
100.0
141
1.0
290
     0
  0
SCALE
  5
59
102
{ACAD_REACTORS
330
47
102
}
330
47
100
AcDbScale
 70
     0
300
1/128" = 1'-0"
140
0.0078125
141
12.0
290
     0
  0
SCALE
  5
5A
102
{ACAD_REACTORS
330
47
102
}
330
47
100
AcDbScale
 70
     0
300
1/64" = 1'-0"
140
0.015625
141
12.0
290
     0
  0
SCALE
  5
5B
102
{ACAD_REACTORS
330
47
102
}
330
47
100
AcDbScale
 70
     0
300
1/32" = 1'-0"
140
0.03125
141
12.0
290
     0
  0
SCALE
  5
5C
102
{ACAD_REACTORS
330
47
102
}
330
47
100
AcDbScale
 70
     0
300
1/16" = 1'-0"
140
0.0625
141
12.0
290
     0
  0
SCALE
  5
5D
102
{ACAD_REACTORS
330
47
102
}
330
47
100
AcDbScale
 70
     0
300
3/32" = 1'-0"
140
0.09375
141
12.0
290
     0
  0
SCALE
  5
5E
102
{ACAD_REACTORS
330
47
102
}
330
47
100
AcDbScale
 70
     0
300
1/8" = 1'-0"
140
0.125
141
12.0
290
     0
  0
SCALE
  5
5F
102
{ACAD_REACTORS
330
47
102
}
330
47
100
AcDbScale
 70
     0
300
3/16" = 1'-0"
140
0.1875
141
12.0
290
     0
  0
SCALE
  5
60
102
{ACAD_REACTORS
330
47
102
}
330
47
100
AcDbScale
 70
     0
300
1/4" = 1'-0"
140
0.25
141
12.0
290
     0
  0
SCALE
  5
61
102
{ACAD_REACTORS
330
47
102
}
330
47
100
AcDbScale
 70
     0
300
3/8" = 1'-0"
140
0.375
141
12.0
290
     0
  0
SCALE
  5
62
102
{ACAD_REACTORS
330
47
102
}
330
47
100
AcDbScale
 70
     0
300
1/2" = 1'-0"
140
0.5
141
12.0
290
     0
  0
SCALE
  5
63
102
{ACAD_REACTORS
330
47
102
}
330
47
100
AcDbScale
 70
     0
300
3/4" = 1'-0"
140
0.75
141
12.0
290
     0
  0
SCALE
  5
64
102
{ACAD_REACTORS
330
47
102
}
330
47
100
AcDbScale
 70
     0
300
1" = 1'-0"
140
1.0
141
12.0
290
     0
  0
SCALE
  5
65
102
{ACAD_REACTORS
330
47
102
}
330
47
100
AcDbScale
 70
     0
300
1-1/2" = 1'-0"
140
1.5
141
12.0
290
     0
  0
SCALE
  5
66
102
{ACAD_REACTORS
330
47
102
}
330
47
100
AcDbScale
 70
     0
300
3" = 1'-0"
140
3.0
141
12.0
290
     0
  0
SCALE
  5
67
102
{ACAD_REACTORS
330
47
102
}
330
47
100
AcDbScale
 70
     0
300
6" = 1'-0"
140
6.0
141
12.0
290
     0
  0
SCALE
  5
68
102
{ACAD_REACTORS
330
47
102
}
330
47
100
AcDbScale
 70
     0
300
1'-0" = 1'-0"
140
12.0
141
12.0
290
     0
  0
ACDBSECTIONVIEWSTYLE
  5
115
102
{ACAD_XDICTIONARY
360
E98
102
}
102
{ACAD_REACTORS
330
10F
102
}
330
10F
100
AcDbModelDocViewStyle
 70
     0
  3
Metric50
290
     0
100
AcDbSectionViewStyle
 70
     0
 71
     0
 90
      102
 71
     1
340
11
 62
   256
 40
5.0
340
0
340
0
 62
   256
 40
5.0
300
I, O, Q, S, X, Z
 40
10.0
 90
        0
 40
2.5
 90
        0
 71
     2
340
16
 90
       25
 62
   256
340
16
 90
       50
 62
   256
 40
5.0
 40
2.5
 40
5.0
 71
     3
340
11
 62
   256
 40
5.0
 90
        0
 40
15.0
 90
        1
300
%<\AcVar ViewSectionStartId>%-%<\AcVar ViewSectionEndId>% (%<\AcVar ViewScale \f "%sn">%)
 71
     4
 62
   256
 62
   257
300
ANSI31
 40
1.0
 90
        0
290
     0
290
     0
 90
        6
 40
0.0
 40
1.570796326794896
 40
0.2617993877991494
 40
1.308996938995747
 40
-0.2617993877991494
 40
1.832595714594044
  0
TABLESTYLE
  5
6A
102
{ACAD_XDICTIONARY
360
109
102
}
102
{ACAD_REACTORS
330
69
102
}
330
69
100
AcDbTableStyle
280
     0
  3
Standard
 70
     0
 71
     0
 40
1.5
 41
1.5
280
     0
281
     0
  7
Standard
140
4.5
170
     2
 62
     0
 63
     7
283
     0
 90
        4
 91
        0
  1

274
    -2
284
     1
 64
     0
275
    -2
285
     1
 65
     0
276
    -2
286
     1
 66
     0
277
    -2
287
     1
 67
     0
278
    -2
288
     1
 68
     0
279
    -2
289
     1
 69
     0
  7
Standard
140
6.0
170
     5
 62
     0
 63
     7
283
     0
 90
        4
 91
        0
  1

274
    -2
284
     1
 64
     0
275
    -2
285
     1
 65
     0
276
    -2
286
     1
 66
     0
277
    -2
287
     1
 67
     0
278
    -2
288
     1
 68
     0
279
    -2
289
     1
 69
     0
  7
Standard
140
4.5
170
     5
 62
     0
 63
     7
283
     0
 90
        4
 91
        0
  1

274
    -2
284
     1
 64
     0
275
    -2
285
     1
 65
     0
276
    -2
286
     1
 66
     0
277
    -2
287
     1
 67
     0
278
    -2
288
     1
 68
     0
279
    -2
289
     1
 69
     0
  0
VISUALSTYLE
  5
2F
102
{ACAD_REACTORS
330
2A
102
}
330
2A
100
AcDbVisualStyle
  2
2dWireframe
 70
     4
177
     3
291
     0
 70
    58
 90
        0
176
     1
 90
        2
176
     1
 90
        0
176
     1
 90
        0
176
     1
 40
0.6
176
     1
 40
30.0
176
     1
 62
     7
420
 16777215
176
     1
 90
        1
176
     1
 90
        4
176
     1
 62
     7
176
     1
 62
   257
176
     1
 90
        1
176
     1
 90
        1
176
     1
 40
1.0
176
     1
 90
        0
176
     1
 62
   257
176
     1
 40
1.0
176
     1
 90
        1
176
     1
 90
        6
176
     1
 90
        2
176
     1
 62
     7
176
     1
 90
        5
176
     1
 90
        0
176
     1
 90
        0
176
     1
290
     0
176
     1
 90
        1
176
     1
 40
0.0
176
     1
 90
        0
176
     1
290
     1
176
     1
290
     1
176
     1
290
     0
176
     1
290
     0
176
     1
290
     0
176
     1
290
     0
176
     1
290
     0
176
     1
290
     0
176
     1
290
     0
176
     1
 90
       50
176
     1
 40
0.0
176
     1
 40
1.0
176
     1
 90
        0
176
     1
 62
    18
176
     1
 90
       50
176
     1
 90
        3
176
     1
 62
     5
420
      255
176
     1
290
     0
176
     1
 90
       50
176
     1
 90
       50
176
     1
 90
       50
176
     1
290
     0
176
     1
 90
       50
176
     1
 62
   256
176
     0
 40
1.0
176
     0
 90
        2
176
     1
  1
strokes_ogs.tif
176
     1
290
     0
176
     1
 40
1.0
176
     1
 40
1.0
176
     1
1001
ACAD
1000
AcDbSavedByObjectVersion
1070
     0
  0
VISUALSTYLE
  5
32
102
{ACAD_REACTORS
330
2A
102
}
330
2A
100
AcDbVisualStyle
  2
Basic
 70
     7
177
     3
291
     1
 70
    58
 90
        1
176
     1
 90
        0
176
     1
 90
        1
176
     1
 90
        0
176
     1
 40
0.6
176
     1
 40
30.0
176
     1
 62
     7
420
 16777215
176
     1
 90
        0
176
     1
 90
        4
176
     1
 62
     7
176
     1
 62
   257
176
     1
 90
        1
176
     1
 90
        1
176
     1
 40
1.0
176
     1
 90
        8
176
     1
 62
     7
176
     1
 40
1.0
176
     1
 90
        1
176
     1
 90
        6
176
     1
 90
        2
176
     1
 62
     7
176
     1
 90
        5
176
     1
 90
        0
176
     1
 90
        0
176
     1
290
     0
176
     1
 90
        1
176
     1
 40
0.0
176
     1
 90
        0
176
     1
290
     0
176
     1
290
     1
176
     1
290
     1
176
     1
290
     0
176
     1
290
     0
176
     1
290
     0
176
     1
290
     0
176
     1
290
     0
176
     1
290
     0
176
     1
 90
       50
176
     1
 40
0.0
176
     1
 40
1.0
176
     1
 90
        0
176
     1
 62
    18
176
     1
 90
       50
176
     1
 90
        3
176
     1
 62
     5
420
      255
176
     1
290
     0
176
     1
 90
       50
176
     1
 90
       50
176
     1
 90
       50
176
     1
290
     0
176
     1
 90
       50
176
     1
 62
   256
176
     0
 40
1.0
176
     0
 90
        2
176
     1
  1
strokes_ogs.tif
176
     1
290
     0
176
     1
 40
1.0
176
     1
 40
1.0
176
     1
1001
ACAD
1000
AcDbSavedByObjectVersion
1070
     0
  0
VISUALSTYLE
  5
36
102
{ACAD_REACTORS
330
2A
102
}
330
2A
100
AcDbVisualStyle
  2
Brighten
 70
    12
177
     3
291
     1
 70
    58
 90
        2
176
     1
 90
        2
176
     1
 90
        0
176
     1
 90
        0
176
     1
 40
0.6
176
     1
 40
30.0
176
     1
 62
     7
420
 16777215
176
     1
 90
        1
176
     1
 90
        4
176
     1
 62
     7
176
     1
 62
   257
176
     1
 90
        1
176
     1
 90
        1
176
     1
 40
1.0
176
     1
 90
        8
176
     1
 62
     7
176
     1
 40
1.0
176
     1
 90
        1
176
     1
 90
        6
176
     1
 90
        2
176
     1
 62
     7
176
     1
 90
        5
176
     1
 90
        0
176
     1
 90
        0
176
     1
290
     0
176
     1
 90
        1
176
     1
 40
50.0
176
     1
 90
        0
176
     1
290
     0
176
     1
290
     1
176
     1
290
     1
176
     1
290
     0
176
     1
290
     0
176
     1
290
     0
176
     1
290
     0
176
     1
290
     0
176
     1
290
     0
176
     1
 90
       50
176
     1
 40
0.0
176
     1
 40
1.0
176
     1
 90
        0
176
     1
 62
    18
176
     1
 90
       50
176
     1
 90
        3
176
     1
 62
     5
420
      255
176
     1
290
     0
176
     1
 90
       50
176
     1
 90
       50
176
     1
 90
       50
176
     1
290
     0
176
     1
 90
       50
176
     1
 62
   256
176
     0
 40
1.0
176
     0
 90
        2
176
     1
  1
strokes_ogs.tif
176
     1
290
     0
176
     1
 40
1.0
176
     1
 40
1.0
176
     1
1001
ACAD
1000
AcDbSavedByObjectVersion
1070
     0
  0
VISUALSTYLE
  5
3A
102
{ACAD_REACTORS
330
2A
102
}
330
2A
100
AcDbVisualStyle
  2
ColorChange
 70
    16
177
     3
291
     1
 70
    58
 90
        2
176
     1
 90
        2
176
     1
 90
        3
176
     1
 90
        0
176
     1
 40
0.6
176
     1
 40
30.0
176
     1
 62
     8
420
  8421504
176
     1
 90
        1
176
     1
 90
        4
176
     1
 62
     7
176
     1
 62
   257
176
     1
 90
        1
176
     1
 90
        1
176
     1
 40
1.0
176
     1
 90
        8
176
     1
 62
     8
420
  8421504
176
     1
 40
1.0
176
     1
 90
        1
176
     1
 90
        6
176
     1
 90
        2
176
     1
 62
     7
176
     1
 90
        5
176
     1
 90
        0
176
     1
 90
        0
176
     1
290
     0
176
     1
 90
        1
176
     1
 40
0.0
176
     1
 90
        0
176
     1
290
     0
176
     1
290
     1
176
     1
290
     1
176
     1
290
     0
176
     1
290
     0
176
     1
290
     0
176
     1
290
     0
176
     1
290
     0
176
     1
290
     0
176
     1
 90
       50
176
     1
 40
0.0
176
     1
 40
1.0
176
     1
 90
        0
176
     1
 62
    18
176
     1
 90
       50
176
     1
 90
        3
176
     1
 62
     5
420
      255
176
     1
290
     0
176
     1
 90
       50
176
     1
 90
       50
176
     1
 90
       50
176
     1
290
     0
176
     1
 90
       50
176
     1
 62
   256
176
     0
 40
1.0
176
     0
 90
        2
176
     1
  1
strokes_ogs.tif
176
     1
290
     0
176
     1
 40
1.0
176
     1
 40
1.0
176
     1
1001
ACAD
1000
AcDbSavedByObjectVersion
1070
     0
  0
VISUALSTYLE
  5
34
102
{ACAD_REACTORS
330
2A
102
}
330
2A
100
AcDbVisualStyle
  2
Conceptual
 70
     9
177
     3
291
     0
 70
    58
 90
        3
176
     1
 90
        2
176
     1
 90
        0
176
     1
 90
        0
176
     1
 40
0.6
176
     1
 40
30.0
176
     1
 62
     7
420
 16777215
176
     1
 90
        2
176
     1
 90
        2
176
     1
 62
     7
176
     1
 62
   257
176
     1
 90
        1
176
     1
 90
        1
176
     1
 40
179.0
176
     1
 90
        8
176
     1
 62
     7
176
     1
 40
1.0
176
     1
 90
        1
176
     1
 90
        6
176
     1
 90
        2
176
     1
 62
     7
176
     1
 90
        3
176
     1
 90
        0
176
     1
 90
        0
176
     1
290
     0
176
     1
 90
        1
176
     1
 40
0.0
176
     1
 90
        0
176
     1
290
     0
176
     1
290
     1
176
     1
290
     1
176
     1
290
     0
176
     1
290
     0
176
     1
290
     0
176
     1
290
     0
176
     1
290
     0
176
     1
290
     0
176
     1
 90
       50
176
     1
 40
0.0
176
     1
 40
1.0
176
     1
 90
        0
176
     1
 62
    18
176
     1
 90
       50
176
     1
 90
        3
176
     1
 62
     5
420
      255
176
     1
290
     0
176
     1
 90
       50
176
     1
 90
       50
176
     1
 90
       50
176
     1
290
     0
176
     1
 90
       50
176
     1
 62
   256
176
     0
 40
1.0
176
     0
 90
        2
176
     1
  1
strokes_ogs.tif
176
     1
290
     0
176
     1
 40
1.0
176
     1
 40
1.0
176
     1
1001
ACAD
1000
AcDbSavedByObjectVersion
1070
     0
  0
VISUALSTYLE
  5
35
102
{ACAD_REACTORS
330
2A
102
}
330
2A
100
AcDbVisualStyle
  2
Dim
 70
    11
177
     3
291
     1
 70
    58
 90
        2
176
     1
 90
        2
176
     1
 90
        0
176
     1
 90
        0
176
     1
 40
0.6
176
     1
 40
30.0
176
     1
 62
     7
420
 16777215
176
     1
 90
        1
176
     1
 90
        4
176
     1
 62
     7
176
     1
 62
   257
176
     1
 90
        1
176
     1
 90
        1
176
     1
 40
1.0
176
     1
 90
        8
176
     1
 62
     7
176
     1
 40
1.0
176
     1
 90
        1
176
     1
 90
        6
176
     1
 90
        2
176
     1
 62
     7
176
     1
 90
        5
176
     1
 90
        0
176
     1
 90
        0
176
     1
290
     0
176
     1
 90
        1
176
     1
 40
-50.0
176
     1
 90
        0
176
     1
290
     0
176
     1
290
     1
176
     1
290
     1
176
     1
290
     0
176
     1
290
     0
176
     1
290
     0
176
     1
290
     0
176
     1
290
     0
176
     1
290
     0
176
     1
 90
       50
176
     1
 40
0.0
176
     1
 40
1.0
176
     1
 90
        0
176
     1
 62
    18
176
     1
 90
       50
176
     1
 90
        3
176
     1
 62
     5
420
      255
176
     1
290
     0
176
     1
 90
       50
176
     1
 90
       50
176
     1
 90
       50
176
     1
290
     0
176
     1
 90
       50
176
     1
 62
   256
176
     0
 40
1.0
176
     0
 90
        2
176
     1
  1
strokes_ogs.tif
176
     1
290
     0
176
     1
 40
1.0
176
     1
 40
1.0
176
     1
1001
ACAD
1000
AcDbSavedByObjectVersion
1070
     0
  0
VISUALSTYLE
  5
3D
102
{ACAD_REACTORS
330
2A
102
}
330
2A
100
AcDbVisualStyle
  2
EdgeColorOff
 70
    22
177
     3
291
     1
 70
    58
 90
        2
176
     0
 90
        2
176
     0
 90
        0
176
     0
 90
        0
176
     0
 40
0.6
176
     0
 40
30.0
176
     0
 62
     7
420
 16777215
176
     0
 90
        1
176
     0
 90
        4
176
     0
 62
     7
176
     0
 62
   257
176
     0
 90
        1
176
     0
 90
        1
176
     0
 40
1.0
176
     0
 90
        8
176
     2
 62
     7
176
     0
 40
1.0
176
     0
 90
        1
176
     0
 90
        6
176
     0
 90
        2
176
     0
 62
     7
176
     0
 90
        5
176
     0
 90
        0
176
     0
 90
        0
176
     0
290
     0
176
     0
 90
        1
176
     0
 40
0.0
176
     0
 90
        0
176
     0
290
     0
176
     0
290
     1
176
     0
290
     1
176
     0
290
     0
176
     0
290
     0
176
     0
290
     0
176
     0
290
     0
176
     0
290
     0
176
     0
290
     0
176
     0
 90
       50
176
     0
 40
0.0
176
     0
 40
1.0
176
     0
 90
        0
176
     0
 62
    18
176
     0
 90
       50
176
     0
 90
        3
176
     0
 62
     5
420
      255
176
     0
290
     0
176
     0
 90
       50
176
     0
 90
       50
176
     0
 90
       50
176
     0
290
     0
176
     0
 90
       50
176
     0
 62
   256
176
     0
 40
1.0
176
     0
 90
        2
176
     0
  1
strokes_ogs.tif
176
     0
290
     0
176
     0
 40
1.0
176
     0
 40
1.0
176
     0
1001
ACAD
1000
AcDbSavedByObjectVersion
1070
     0
  0
VISUALSTYLE
  5
39
102
{ACAD_REACTORS
330
2A
102
}
330
2A
100
AcDbVisualStyle
  2
Facepattern
 70
    15
177
     3
291
     1
 70
    58
 90
        2
176
     1
 90
        2
176
     1
 90
        0
176
     1
 90
        0
176
     1
 40
0.6
176
     1
 40
30.0
176
     1
 62
     7
420
 16777215
176
     1
 90
        1
176
     1
 90
        4
176
     1
 62
     7
176
     1
 62
   257
176
     1
 90
        1
176
     1
 90
        1
176
     1
 40
1.0
176
     1
 90
        8
176
     1
 62
     7
176
     1
 40
1.0
176
     1
 90
        1
176
     1
 90
        6
176
     1
 90
        2
176
     1
 62
     7
176
     1
 90
        5
176
     1
 90
        0
176
     1
 90
        0
176
     1
290
     0
176
     1
 90
        1
176
     1
 40
0.0
176
     1
 90
        0
176
     1
290
     0
176
     1
290
     1
176
     1
290
     1
176
     1
290
     0
176
     1
290
     0
176
     1
290
     0
176
     1
290
     0
176
     1
290
     0
176
     1
290
     0
176
     1
 90
       50
176
     1
 40
0.0
176
     1
 40
1.0
176
     1
 90
        0
176
     1
 62
    18
176
     1
 90
       50
176
     1
 90
        3
176
     1
 62
     5
420
      255
176
     1
290
     0
176
     1
 90
       50
176
     1
 90
       50
176
     1
 90
       50
176
     1
290
     0
176
     1
 90
       50
176
     1
 62
   256
176
     0
 40
1.0
176
     0
 90
        2
176
     1
  1
strokes_ogs.tif
176
     1
290
     0
176
     1
 40
1.0
176
     1
 40
1.0
176
     1
1001
ACAD
1000
AcDbSavedByObjectVersion
1070
     0
  0
VISUALSTYLE
  5
2B
102
{ACAD_REACTORS
330
2A
102
}
330
2A
100
AcDbVisualStyle
  2
Flat
 70
     0
177
     3
291
     1
 70
    58
 90
        2
176
     1
 90
        1
176
     1
 90
        1
176
     1
 90
        2
176
     1
 40
0.6
176
     1
 40
30.0
176
     1
 62
     7
420
 16777215
176
     1
 90
        0
176
     1
 90
        0
176
     1
 62
     7
176
     1
 62
   257
176
     1
 90
        1
176
     1
 90
        1
176
     1
 40
1.0
176
     1
 90
        8
176
     1
 62
     7
176
     1
 40
1.0
176
     1
 90
        1
176
     1
 90
        6
176
     1
 90
        2
176
     1
 62
     7
176
     1
 90
        5
176
     1
 90
        0
176
     1
 90
        0
176
     1
290
     0
176
     1
 90
       13
176
     1
 40
0.0
176
     1
 90
        0
176
     1
290
     0
176
     1
290
     1
176
     1
290
     1
176
     1
290
     0
176
     1
290
     0
176
     1
290
     0
176
     1
290
     0
176
     1
290
     0
176
     1
290
     0
176
     1
 90
       50
176
     1
 40
0.0
176
     1
 40
1.0
176
     1
 90
        0
176
     1
 62
    18
176
     1
 90
       50
176
     1
 90
        3
176
     1
 62
     5
420
      255
176
     1
290
     0
176
     1
 90
       50
176
     1
 90
       50
176
     1
 90
       50
176
     1
290
     0
176
     1
 90
       50
176
     1
 62
   256
176
     0
 40
1.0
176
     0
 90
        2
176
     1
  1
strokes_ogs.tif
176
     1
290
     0
176
     1
 40
1.0
176
     1
 40
1.0
176
     1
1001
ACAD
1000
AcDbSavedByObjectVersion
1070
     0
  0
VISUALSTYLE
  5
2C
102
{ACAD_REACTORS
330
2A
102
}
330
2A
100
AcDbVisualStyle
  2
FlatWithEdges
 70
     1
177
     3
291
     1
 70
    58
 90
        2
176
     1
 90
        1
176
     1
 90
        1
176
     1
 90
        2
176
     1
 40
0.6
176
     1
 40
30.0
176
     1
 62
     7
420
 16777215
176
     1
 90
        1
176
     1
 90
        0
176
     1
 62
     7
176
     1
 62
   257
176
     1
 90
        1
176
     1
 90
        1
176
     1
 40
1.0
176
     1
 90
        0
176
     1
 62
   257
176
     1
 40
1.0
176
     1
 90
        1
176
     1
 90
        6
176
     1
 90
        2
176
     1
 62
     7
176
     1
 90
        5
176
     1
 90
        0
176
     1
 90
        0
176
     1
290
     0
176
     1
 90
       13
176
     1
 40
0.0
176
     1
 90
        0
176
     1
290
     0
176
     1
290
     1
176
     1
290
     1
176
     1
290
     0
176
     1
290
     0
176
     1
290
     0
176
     1
290
     0
176
     1
290
     0
176
     1
290
     0
176
     1
 90
       50
176
     1
 40
0.0
176
     1
 40
1.0
176
     1
 90
        0
176
     1
 62
    18
176
     1
 90
       50
176
     1
 90
        3
176
     1
 62
     5
420
      255
176
     1
290
     0
176
     1
 90
       50
176
     1
 90
       50
176
     1
 90
       50
176
     1
290
     0
176
     1
 90
       50
176
     1
 62
   256
176
     0
 40
1.0
176
     0
 90
        2
176
     1
  1
strokes_ogs.tif
176
     1
290
     0
176
     1
 40
1.0
176
     1
 40
1.0
176
     1
1001
ACAD
1000
AcDbSavedByObjectVersion
1070
     0
  0
VISUALSTYLE
  5
2D
102
{ACAD_REACTORS
330
2A
102
}
330
2A
100
AcDbVisualStyle
  2
Gouraud
 70
     2
177
     3
291
     1
 70
    58
 90
        2
176
     1
 90
        2
176
     1
 90
        1
176
     1
 90
        2
176
     1
 40
0.6
176
     1
 40
30.0
176
     1
 62
     7
420
 16777215
176
     1
 90
        0
176
     1
 90
        0
176
     1
 62
     7
176
     1
 62
   257
176
     1
 90
        1
176
     1
 90
        1
176
     1
 40
1.0
176
     1
 90
        0
176
     1
 62
     7
176
     1
 40
1.0
176
     1
 90
        1
176
     1
 90
        6
176
     1
 90
        2
176
     1
 62
     7
176
     1
 90
        5
176
     1
 90
        0
176
     1
 90
        0
176
     1
290
     0
176
     1
 90
       13
176
     1
 40
0.0
176
     1
 90
        0
176
     1
290
     0
176
     1
290
     1
176
     1
290
     1
176
     1
290
     0
176
     1
290
     0
176
     1
290
     0
176
     1
290
     0
176
     1
290
     0
176
     1
290
     0
176
     1
 90
       50
176
     1
 40
0.0
176
     1
 40
1.0
176
     1
 90
        0
176
     1
 62
    18
176
     1
 90
       50
176
     1
 90
        3
176
     1
 62
     5
420
      255
176
     1
290
     0
176
     1
 90
       50
176
     1
 90
       50
176
     1
 90
       50
176
     1
290
     0
176
     1
 90
       50
176
     1
 62
   256
176
     0
 40
1.0
176
     0
 90
        2
176
     1
  1
strokes_ogs.tif
176
     1
290
     0
176
     1
 40
1.0
176
     1
 40
1.0
176
     1
1001
ACAD
1000
AcDbSavedByObjectVersion
1070
     0
  0
VISUALSTYLE
  5
2E
102
{ACAD_REACTORS
330
2A
102
}
330
2A
100
AcDbVisualStyle
  2
GouraudWithEdges
 70
     3
177
     3
291
     1
 70
    58
 90
        2
176
     1
 90
        2
176
     1
 90
        1
176
     1
 90
        2
176
     1
 40
0.6
176
     1
 40
30.0
176
     1
 62
     7
420
 16777215
176
     1
 90
        1
176
     1
 90
        0
176
     1
 62
     7
176
     1
 62
   257
176
     1
 90
        1
176
     1
 90
        1
176
     1
 40
1.0
176
     1
 90
        0
176
     1
 62
   257
176
     1
 40
1.0
176
     1
 90
        1
176
     1
 90
        6
176
     1
 90
        2
176
     1
 62
     7
176
     1
 90
        5
176
     1
 90
        0
176
     1
 90
        0
176
     1
290
     0
176
     1
 90
       13
176
     1
 40
0.0
176
     1
 90
        0
176
     1
290
     0
176
     1
290
     1
176
     1
290
     1
176
     1
290
     0
176
     1
290
     0
176
     1
290
     0
176
     1
290
     0
176
     1
290
     0
176
     1
290
     0
176
     1
 90
       50
176
     1
 40
0.0
176
     1
 40
1.0
176
     1
 90
        0
176
     1
 62
    18
176
     1
 90
       50
176
     1
 90
        3
176
     1
 62
     5
420
      255
176
     1
290
     0
176
     1
 90
       50
176
     1
 90
       50
176
     1
 90
       50
176
     1
290
     0
176
     1
 90
       50
176
     1
 62
   256
176
     0
 40
1.0
176
     0
 90
        2
176
     1
  1
strokes_ogs.tif
176
     1
290
     0
176
     1
 40
1.0
176
     1
 40
1.0
176
     1
1001
ACAD
1000
AcDbSavedByObjectVersion
1070
     0
  0
VISUALSTYLE
  5
31
102
{ACAD_REACTORS
330
2A
102
}
330
2A
100
AcDbVisualStyle
  2
Hidden
 70
     6
177
     3
291
     0
 70
    58
 90
        1
176
     1
 90
        2
176
     1
 90
        2
176
     1
 90
        0
176
     1
 40
0.6
176
     1
 40
30.0
176
     1
 62
     7
420
 16777215
176
     1
 90
        2
176
     1
 90
        2
176
     1
 62
     7
176
     1
 62
   257
176
     1
 90
        2
176
     1
 90
        1
176
     1
 40
40.0
176
     1
 90
        0
176
     1
 62
   257
176
     1
 40
1.0
176
     1
 90
        1
176
     1
 90
        6
176
     1
 90
        2
176
     1
 62
     7
176
     1
 90
        3
176
     1
 90
        0
176
     1
 90
        0
176
     1
290
     0
176
     1
 90
        1
176
     1
 40
0.0
176
     1
 90
        0
176
     1
290
     0
176
     1
290
     1
176
     1
290
     1
176
     1
290
     0
176
     1
290
     0
176
     1
290
     0
176
     1
290
     0
176
     1
290
     0
176
     1
290
     0
176
     1
 90
       50
176
     1
 40
0.0
176
     1
 40
1.0
176
     1
 90
        0
176
     1
 62
    18
176
     1
 90
       50
176
     1
 90
        3
176
     1
 62
     5
420
      255
176
     1
290
     0
176
     1
 90
       50
176
     1
 90
       50
176
     1
 90
       50
176
     1
290
     0
176
     1
 90
       50
176
     1
 62
   256
176
     0
 40
1.0
176
     0
 90
        2
176
     1
  1
strokes_ogs.tif
176
     1
290
     0
176
     1
 40
1.0
176
     1
 40
1.0
176
     1
1001
ACAD
1000
AcDbSavedByObjectVersion
1070
     0
  0
VISUALSTYLE
  5
3B
102
{ACAD_REACTORS
330
2A
102
}
330
2A
100
AcDbVisualStyle
  2
JitterOff
 70
    20
177
     3
291
     1
 70
    58
 90
        2
176
     0
 90
        2
176
     0
 90
        0
176
     0
 90
        0
176
     0
 40
0.6
176
     0
 40
30.0
176
     0
 62
     7
420
 16777215
176
     0
 90
        1
176
     0
 90
        4
176
     0
 62
     7
176
     0
 62
   257
176
     0
 90
        1
176
     0
 90
        1
176
     0
 40
1.0
176
     0
 90
       10
176
     2
 62
     7
176
     0
 40
1.0
176
     0
 90
        1
176
     0
 90
        6
176
     0
 90
        2
176
     0
 62
     7
176
     0
 90
        5
176
     0
 90
        0
176
     0
 90
        0
176
     0
290
     0
176
     0
 90
        1
176
     0
 40
0.0
176
     0
 90
        0
176
     0
290
     0
176
     0
290
     1
176
     0
290
     1
176
     0
290
     0
176
     0
290
     0
176
     0
290
     0
176
     0
290
     0
176
     0
290
     0
176
     0
290
     0
176
     0
 90
       50
176
     0
 40
0.0
176
     0
 40
1.0
176
     0
 90
        0
176
     0
 62
    18
176
     0
 90
       50
176
     0
 90
        3
176
     0
 62
     5
420
      255
176
     0
290
     0
176
     0
 90
       50
176
     0
 90
       50
176
     0
 90
       50
176
     0
290
     0
176
     0
 90
       50
176
     0
 62
   256
176
     0
 40
1.0
176
     0
 90
        2
176
     0
  1
strokes_ogs.tif
176
     0
290
     0
176
     0
 40
1.0
176
     0
 40
1.0
176
     0
1001
ACAD
1000
AcDbSavedByObjectVersion
1070
     0
  0
VISUALSTYLE
  5
38
102
{ACAD_REACTORS
330
2A
102
}
330
2A
100
AcDbVisualStyle
  2
Linepattern
 70
    14
177
     3
291
     1
 70
    58
 90
        2
176
     1
 90
        2
176
     1
 90
        0
176
     1
 90
        0
176
     1
 40
0.6
176
     1
 40
30.0
176
     1
 62
     7
420
 16777215
176
     1
 90
        1
176
     1
 90
        4
176
     1
 62
     7
176
     1
 62
   257
176
     1
 90
        7
176
     1
 90
        7
176
     1
 40
1.0
176
     1
 90
        8
176
     1
 62
     7
176
     1
 40
1.0
176
     1
 90
        1
176
     1
 90
        6
176
     1
 90
        2
176
     1
 62
     7
176
     1
 90
        5
176
     1
 90
        0
176
     1
 90
        0
176
     1
290
     0
176
     1
 90
        1
176
     1
 40
0.0
176
     1
 90
        0
176
     1
290
     0
176
     1
290
     1
176
     1
290
     1
176
     1
290
     0
176
     1
290
     0
176
     1
290
     0
176
     1
290
     0
176
     1
290
     0
176
     1
290
     0
176
     1
 90
       50
176
     1
 40
0.0
176
     1
 40
1.0
176
     1
 90
        0
176
     1
 62
    18
176
     1
 90
       50
176
     1
 90
        3
176
     1
 62
     5
420
      255
176
     1
290
     0
176
     1
 90
       50
176
     1
 90
       50
176
     1
 90
       50
176
     1
290
     0
176
     1
 90
       50
176
     1
 62
   256
176
     0
 40
1.0
176
     0
 90
        2
176
     1
  1
strokes_ogs.tif
176
     1
290
     0
176
     1
 40
1.0
176
     1
 40
1.0
176
     1
1001
ACAD
1000
AcDbSavedByObjectVersion
1070
     0
  0
VISUALSTYLE
  5
3C
102
{ACAD_REACTORS
330
2A
102
}
330
2A
100
AcDbVisualStyle
  2
OverhangOff
 70
    21
177
     3
291
     1
 70
    58
 90
        2
176
     0
 90
        2
176
     0
 90
        0
176
     0
 90
        0
176
     0
 40
0.6
176
     0
 40
30.0
176
     0
 62
     7
420
 16777215
176
     0
 90
        1
176
     0
 90
        4
176
     0
 62
     7
176
     0
 62
   257
176
     0
 90
        1
176
     0
 90
        1
176
     0
 40
1.0
176
     0
 90
        9
176
     2
 62
     7
176
     0
 40
1.0
176
     0
 90
        1
176
     0
 90
        6
176
     0
 90
        2
176
     0
 62
     7
176
     0
 90
        5
176
     0
 90
        0
176
     0
 90
        0
176
     0
290
     0
176
     0
 90
        1
176
     0
 40
0.0
176
     0
 90
        0
176
     0
290
     0
176
     0
290
     1
176
     0
290
     1
176
     0
290
     0
176
     0
290
     0
176
     0
290
     0
176
     0
290
     0
176
     0
290
     0
176
     0
290
     0
176
     0
 90
       50
176
     0
 40
0.0
176
     0
 40
1.0
176
     0
 90
        0
176
     0
 62
    18
176
     0
 90
       50
176
     0
 90
        3
176
     0
 62
     5
420
      255
176
     0
290
     0
176
     0
 90
       50
176
     0
 90
       50
176
     0
 90
       50
176
     0
290
     0
176
     0
 90
       50
176
     0
 62
   256
176
     0
 40
1.0
176
     0
 90
        2
176
     0
  1
strokes_ogs.tif
176
     0
290
     0
176
     0
 40
1.0
176
     0
 40
1.0
176
     0
1001
ACAD
1000
AcDbSavedByObjectVersion
1070
     0
  0
VISUALSTYLE
  5
33
102
{ACAD_REACTORS
330
2A
102
}
330
2A
100
AcDbVisualStyle
  2
Realistic
 70
     8
177
     3
291
     0
 70
    58
 90
        2
176
     1
 90
        3
176
     1
 90
        0
176
     1
 90
        2
176
     1
 40
0.6
176
     1
 40
30.0
176
     1
 62
     7
420
 16777215
176
     1
 90
        0
176
     1
 90
        0
176
     1
 62
     7
176
     1
 62
   257
176
     1
 90
        1
176
     1
 90
        1
176
     1
 40
1.0
176
     1
 90
        8
176
     1
 62
   257
176
     1
 40
1.0
176
     1
 90
        1
176
     1
 90
        6
176
     1
 90
        2
176
     1
 62
     7
176
     1
 90
        3
176
     1
 90
        0
176
     1
 90
        0
176
     1
290
     0
176
     1
 90
       13
176
     1
 40
0.0
176
     1
 90
        0
176
     1
290
     0
176
     1
290
     1
176
     1
290
     1
176
     1
290
     0
176
     1
290
     0
176
     1
290
     0
176
     1
290
     0
176
     1
290
     0
176
     1
290
     0
176
     1
 90
       50
176
     1
 40
0.0
176
     1
 40
1.0
176
     1
 90
        0
176
     1
 62
    18
176
     1
 90
       50
176
     1
 90
        3
176
     1
 62
     5
420
      255
176
     1
290
     0
176
     1
 90
       50
176
     1
 90
       50
176
     1
 90
       50
176
     1
290
     0
176
     1
 90
       50
176
     1
 62
   256
176
     0
 40
1.0
176
     0
 90
        2
176
     1
  1
strokes_ogs.tif
176
     1
290
     0
176
     1
 40
1.0
176
     1
 40
1.0
176
     1
1001
ACAD
1000
AcDbSavedByObjectVersion
1070
     0
  0
VISUALSTYLE
  5
42
102
{ACAD_REACTORS
330
2A
102
}
330
2A
100
AcDbVisualStyle
  2
Shaded
 70
    27
177
     3
291
     0
 70
    58
 90
        2
176
     1
 90
        2
176
     1
 90
        1
176
     1
 90
        2
176
     1
 40
0.6
176
     1
 40
30.0
176
     1
 62
     7
420
 16777215
176
     1
 90
        0
176
     1
 90
        4
176
     1
 62
     7
176
     1
 62
   257
176
     1
 90
        1
176
     1
 90
        1
176
     1
 40
1.0
176
     1
 90
        8
176
     1
 62
   257
176
     1
 40
1.0
176
     1
 90
        1
176
     1
 90
        6
176
     1
 90
        2
176
     1
 62
     8
420
  7895160
176
     1
 90
        3
176
     1
 90
        0
176
     1
 90
        0
176
     1
290
     0
176
     1
 90
        5
176
     1
 40
0.0
176
     1
 90
        0
176
     1
290
     0
176
     1
290
     1
176
     1
290
     1
176
     1
290
     0
176
     1
290
     0
176
     1
290
     0
176
     1
290
     0
176
     1
290
     0
176
     1
290
     0
176
     1
 90
       50
176
     1
 40
0.0
176
     1
 40
1.0
176
     1
 90
        0
176
     1
 62
    18
176
     1
 90
       50
176
     1
 90
        3
176
     1
 62
     5
420
      255
176
     1
290
     0
176
     1
 90
       50
176
     1
 90
       50
176
     1
 90
       50
176
     1
290
     0
176
     1
 90
       50
176
     1
 62
   256
176
     0
 40
1.0
176
     0
 90
        2
176
     1
  1
strokes_ogs.tif
176
     1
290
     0
176
     1
 40
1.0
176
     1
 40
1.0
176
     1
1001
ACAD
1000
AcDbSavedByObjectVersion
1070
     0
  0
VISUALSTYLE
  5
41
102
{ACAD_REACTORS
330
2A
102
}
330
2A
100
AcDbVisualStyle
  2
Shaded with edges
 70
    26
177
     3
291
     0
 70
    58
 90
        2
176
     1
 90
        2
176
     1
 90
        1
176
     1
 90
        2
176
     1
 40
0.6
176
     1
 40
30.0
176
     1
 62
     7
420
 16777215
176
     1
 90
        1
176
     1
 90
       10
176
     1
 62
     7
176
     1
 62
   257
176
     1
 90
        2
176
     1
 90
        1
176
     1
 40
1.0
176
     1
 90
        8
176
     1
 62
   257
176
     1
 40
1.0
176
     1
 90
        1
176
     1
 90
        6
176
     1
 90
        2
176
     1
 62
     7
176
     1
 90
        3
176
     1
 90
        0
176
     1
 90
        0
176
     1
290
     0
176
     1
 90
        5
176
     1
 40
0.0
176
     1
 90
        0
176
     1
290
     0
176
     1
290
     1
176
     1
290
     1
176
     1
290
     0
176
     1
290
     0
176
     1
290
     0
176
     1
290
     0
176
     1
290
     0
176
     1
290
     0
176
     1
 90
       50
176
     1
 40
0.0
176
     1
 40
1.0
176
     1
 90
        0
176
     1
 62
    18
176
     1
 90
       50
176
     1
 90
        3
176
     1
 62
     5
420
      255
176
     1
290
     0
176
     1
 90
       50
176
     1
 90
       50
176
     1
 90
       50
176
     1
290
     0
176
     1
 90
       50
176
     1
 62
   256
176
     0
 40
1.0
176
     0
 90
        2
176
     1
  1
strokes_ogs.tif
176
     1
290
     0
176
     1
 40
1.0
176
     1
 40
1.0
176
     1
1001
ACAD
1000
AcDbSavedByObjectVersion
1070
     0
  0
VISUALSTYLE
  5
3E
102
{ACAD_REACTORS
330
2A
102
}
330
2A
100
AcDbVisualStyle
  2
Shades of Gray
 70
    23
177
     3
291
     0
 70
    58
 90
        2
176
     1
 90
        2
176
     1
 90
        3
176
     1
 90
        0
176
     1
 40
0.6
176
     1
 40
30.0
176
     1
 62
     7
420
 16777215
176
     1
 90
        2
176
     1
 90
        2
176
     1
 62
     7
176
     1
 62
     7
176
     1
 90
        1
176
     1
 90
        1
176
     1
 40
40.0
176
     1
 90
        8
176
     1
 62
     7
176
     1
 40
1.0
176
     1
 90
        1
176
     1
 90
        6
176
     1
 90
        2
176
     1
 62
     7
176
     1
 90
        3
176
     1
 90
        0
176
     1
 90
        0
176
     1
290
     0
176
     1
 90
        1
176
     1
 40
0.0
176
     1
 90
        0
176
     1
290
     0
176
     1
290
     1
176
     1
290
     1
176
     1
290
     0
176
     1
290
     0
176
     1
290
     0
176
     1
290
     0
176
     1
290
     0
176
     1
290
     0
176
     1
 90
       50
176
     1
 40
0.0
176
     1
 40
1.0
176
     1
 90
        0
176
     1
 62
    18
176
     1
 90
       50
176
     1
 90
        3
176
     1
 62
     5
420
      255
176
     1
290
     0
176
     1
 90
       50
176
     1
 90
       50
176
     1
 90
       50
176
     1
290
     0
176
     1
 90
       50
176
     1
 62
   256
176
     0
 40
1.0
176
     0
 90
        2
176
     1
  1
strokes_ogs.tif
176
     1
290
     0
176
     1
 40
1.0
176
     1
 40
1.0
176
     1
1001
ACAD
1000
AcDbSavedByObjectVersion
1070
     0
  0
VISUALSTYLE
  5
3F
102
{ACAD_REACTORS
330
2A
102
}
330
2A
100
AcDbVisualStyle
  2
Sketchy
 70
    24
177
     3
291
     0
 70
    58
 90
        1
176
     1
 90
        2
176
     1
 90
        2
176
     1
 90
        0
176
     1
 40
0.6
176
     1
 40
30.0
176
     1
 62
     7
420
 16777215
176
     1
 90
        2
176
     1
 90
        2
176
     1
 62
     7
176
     1
 62
     7
176
     1
 90
        1
176
     1
 90
        1
176
     1
 40
40.0
176
     1
 90
       11
176
     1
 62
     7
176
     1
 40
1.0
176
     1
 90
        1
176
     1
 90
        6
176
     1
 90
        2
176
     1
 62
     7
176
     1
 90
        6
176
     1
 90
        0
176
     1
 90
        0
176
     1
290
     0
176
     1
 90
        1
176
     1
 40
0.0
176
     1
 90
        0
176
     1
290
     0
176
     1
290
     1
176
     1
290
     1
176
     1
290
     0
176
     1
290
     0
176
     1
290
     0
176
     1
290
     0
176
     1
290
     0
176
     1
290
     0
176
     1
 90
       50
176
     1
 40
0.0
176
     1
 40
1.0
176
     1
 90
        0
176
     1
 62
    18
176
     1
 90
       50
176
     1
 90
        3
176
     1
 62
     5
420
      255
176
     1
290
     0
176
     1
 90
       50
176
     1
 90
       50
176
     1
 90
       50
176
     1
290
     0
176
     1
 90
       50
176
     1
 62
   256
176
     0
 40
1.0
176
     0
 90
        2
176
     1
  1
strokes_ogs.tif
176
     1
290
     0
176
     1
 40
1.0
176
     1
 40
1.0
176
     1
1001
ACAD
1000
AcDbSavedByObjectVersion
1070
     0
  0
VISUALSTYLE
  5
37
102
{ACAD_REACTORS
330
2A
102
}
330
2A
100
AcDbVisualStyle
  2
Thicken
 70
    13
177
     3
291
     1
 70
    58
 90
        2
176
     1
 90
        2
176
     1
 90
        0
176
     1
 90
        0
176
     1
 40
0.6
176
     1
 40
30.0
176
     1
 62
     7
420
 16777215
176
     1
 90
        1
176
     1
 90
        4
176
     1
 62
     7
176
     1
 62
   257
176
     1
 90
        1
176
     1
 90
        1
176
     1
 40
1.0
176
     1
 90
       12
176
     1
 62
     7
176
     1
 40
1.0
176
     1
 90
        1
176
     1
 90
        6
176
     1
 90
        2
176
     1
 62
     7
176
     1
 90
        5
176
     1
 90
        0
176
     1
 90
        0
176
     1
290
     0
176
     1
 90
        1
176
     1
 40
0.0
176
     1
 90
        0
176
     1
290
     0
176
     1
290
     1
176
     1
290
     1
176
     1
290
     0
176
     1
290
     0
176
     1
290
     0
176
     1
290
     0
176
     1
290
     0
176
     1
290
     0
176
     1
 90
       50
176
     1
 40
0.0
176
     1
 40
1.0
176
     1
 90
        0
176
     1
 62
    18
176
     1
 90
       50
176
     1
 90
        3
176
     1
 62
     5
420
      255
176
     1
290
     0
176
     1
 90
       50
176
     1
 90
       50
176
     1
 90
       50
176
     1
290
     0
176
     1
 90
       50
176
     1
 62
   256
176
     0
 40
1.0
176
     0
 90
        2
176
     1
  1
strokes_ogs.tif
176
     1
290
     0
176
     1
 40
1.0
176
     1
 40
1.0
176
     1
1001
ACAD
1000
AcDbSavedByObjectVersion
1070
     0
  0
VISUALSTYLE
  5
30
102
{ACAD_REACTORS
330
2A
102
}
330
2A
100
AcDbVisualStyle
  2
Wireframe
 70
     5
177
     3
291
     0
 70
    58
 90
        0
176
     1
 90
        2
176
     1
 90
        0
176
     1
 90
        0
176
     1
 40
0.6
176
     1
 40
30.0
176
     1
 62
     7
420
 16777215
176
     1
 90
        1
176
     1
 90
        4
176
     1
 62
     7
176
     1
 62
   257
176
     1
 90
        1
176
     1
 90
        1
176
     1
 40
1.0
176
     1
 90
        0
176
     1
 62
   257
176
     1
 40
1.0
176
     1
 90
        1
176
     1
 90
        6
176
     1
 90
        2
176
     1
 62
     7
176
     1
 90
        3
176
     1
 90
        0
176
     1
 90
        0
176
     1
290
     0
176
     1
 90
        1
176
     1
 40
0.0
176
     1
 90
        0
176
     1
290
     0
176
     1
290
     1
176
     1
290
     1
176
     1
290
     0
176
     1
290
     0
176
     1
290
     0
176
     1
290
     0
176
     1
290
     0
176
     1
290
     0
176
     1
 90
       50
176
     1
 40
0.0
176
     1
 40
1.0
176
     1
 90
        0
176
     1
 62
    18
176
     1
 90
       50
176
     1
 90
        3
176
     1
 62
     5
420
      255
176
     1
290
     0
176
     1
 90
       50
176
     1
 90
       50
176
     1
 90
       50
176
     1
290
     0
176
     1
 90
       50
176
     1
 62
   256
176
     0
 40
1.0
176
     0
 90
        2
176
     1
  1
strokes_ogs.tif
176
     1
290
     0
176
     1
 40
1.0
176
     1
 40
1.0
176
     1
1001
ACAD
1000
AcDbSavedByObjectVersion
1070
     0
  0
VISUALSTYLE
  5
40
102
{ACAD_REACTORS
330
2A
102
}
330
2A
100
AcDbVisualStyle
  2
X-Ray
 70
    25
177
     3
291
     0
 70
    58
 90
        2
176
     1
 90
        2
176
     1
 90
        1
176
     1
 90
        1
176
     1
 40
0.5
176
     1
 40
30.0
176
     1
 62
     7
420
 16777215
176
     1
 90
        1
176
     1
 90
        0
176
     1
 62
     7
176
     1
 62
   257
176
     1
 90
        1
176
     1
 90
        1
176
     1
 40
1.0
176
     1
 90
        8
176
     1
 62
     7
176
     1
 40
1.0
176
     1
 90
        1
176
     1
 90
        6
176
     1
 90
        2
176
     1
 62
     7
176
     1
 90
        3
176
     1
 90
        0
176
     1
 90
        0
176
     1
290
     0
176
     1
 90
       13
176
     1
 40
0.0
176
     1
 90
        0
176
     1
290
     0
176
     1
290
     1
176
     1
290
     1
176
     1
290
     0
176
     1
290
     0
176
     1
290
     0
176
     1
290
     0
176
     1
290
     0
176
     1
290
     0
176
     1
 90
       50
176
     1
 40
0.0
176
     1
 40
1.0
176
     1
 90
        0
176
     1
 62
    18
176
     1
 90
       50
176
     1
 90
        3
176
     1
 62
     5
420
      255
176
     1
290
     0
176
     1
 90
       50
176
     1
 90
       50
176
     1
 90
       50
176
     1
290
     0
176
     1
 90
       50
176
     1
 62
   256
176
     0
 40
1.0
176
     0
 90
        2
176
     1
  1
strokes_ogs.tif
176
     1
290
     0
176
     1
 40
1.0
176
     1
 40
1.0
176
     1
1001
ACAD
1000
AcDbSavedByObjectVersion
1070
     0
  0
DICTIONARYVAR
  5
108
102
{ACAD_REACTORS
330
107
102
}
330
107
100
DictionaryVariables
280
     0
  1
1:1
  0
DICTIONARYVAR
  5
110
102
{ACAD_REACTORS
330
107
102
}
330
107
100
DictionaryVariables
280
     0
  1
3.500000
  0
DICTIONARYVAR
  5
111
102
{ACAD_REACTORS
330
107
102
}
330
107
100
DictionaryVariables
280
     0
  1
acadiso.lin
  0
DICTIONARYVAR
  5
10D
102
{ACAD_REACTORS
330
107
102
}
330
107
100
DictionaryVariables
280
     0
  1
STANDARD
  0
DICTIONARYVAR
  5
10C
102
{ACAD_REACTORS
330
107
102
}
330
107
100
DictionaryVariables
280
     0
  1
STANDARD
  0
DICTIONARYVAR
  5
485
102
{ACAD_REACTORS
330
107
102
}
330
107
100
DictionaryVariables
280
     0
  1
Metric50
  0
DICTIONARYVAR
  5
486
102
{ACAD_REACTORS
330
107
102
}
330
107
100
DictionaryVariables
280
     0
  1
Metric50
  0
DICTIONARY
  5
E97
102
{ACAD_REACTORS
330
E95
102
}
330
E95
100
AcDbDictionary
281
     1
  0
DICTIONARY
  5
E96
102
{ACAD_REACTORS
330
E95
102
}
330
E95
100
AcDbDictionary
281
     1
  3
2237398300800
350
E90
  3
2237398300816
350
E91
  3
2237398300832
350
E92
  3
2237398300848
350
E93
  3
2237398300864
350
E94
  0
DICTIONARY
  5
E9A
330
116
100
AcDbDictionary
280
     1
281
     1
  3
ACAD_XREC_ROUNDTRIP
360
E9B
  0
DICTIONARY
  5
E98
330
115
100
AcDbDictionary
280
     1
281
     1
  3
ACAD_XREC_ROUNDTRIP
360
E99
  0
DICTIONARY
  5
109
330
6A
100
AcDbDictionary
280
     1
281
     1
  3
ACAD_ROUNDTRIP_2008_TABLESTYLE_CELLSTYLEMAP
360
E8E
  0
XRECORD
  5
E90
102
{ACAD_REACTORS
330
E96
102
}
330
E96
100
AcDbXrecord
280
     1
  1
AcDb_Thumbnail_Schema
102
{ATTRRECORD
341
E91
  2
AcDbDs::TreatedAsObjectData
280
     1
291
     1
102
ATTRRECORD}
102
{ATTRRECORD
341
E92
  2
AcDbDs::Legacy
280
     1
291
     1
102
ATTRRECORD}
  2
AcDbDs::ID
280
    10
 91
        8
102
{ATTRRECORD
341
E93
  2
AcDs:Indexable
280
     1
291
     1
102
ATTRRECORD}
102
{ATTRRECORD
341
E94
  2
AcDbDs::HandleAttribute
280
     7
282
     1
102
ATTRRECORD}
  2
Thumbnail_Data
280
    15
 91
        0
  0
XRECORD
  5
E91
102
{ACAD_REACTORS
330
E96
102
}
330
E96
100
AcDbXrecord
280
     1
  1
AcDbDs::TreatedAsObjectDataSchema
  2
AcDbDs::TreatedAsObjectData
280
     1
 91
        0
  0
XRECORD
  5
E92
102
{ACAD_REACTORS
330
E96
102
}
330
E96
100
AcDbXrecord
280
     1
  1
AcDbDs::LegacySchema
  2
AcDbDs::Legacy
280
     1
 91
        0
  0
XRECORD
  5
E93
102
{ACAD_REACTORS
330
E96
102
}
330
E96
100
AcDbXrecord
280
     1
  1
AcDbDs::IndexedPropertySchema
  2
AcDs:Indexable
280
     1
 91
        0
  0
XRECORD
  5
E94
102
{ACAD_REACTORS
330
E96
102
}
330
E96
100
AcDbXrecord
280
     1
  1
AcDbDs::HandleAttributeSchema
  2
AcDbDs::HandleAttribute
280
     7
 91
        1
284
     1
  0
XRECORD
  5
E9B
102
{ACAD_REACTORS
330
E9A
102
}
330
E9A
100
AcDbXrecord
280
     1
102
DISPLAYNAME
  1
Metric50
102
FLAGS
 90
        0
  0
XRECORD
  5
E99
102
{ACAD_REACTORS
330
E98
102
}
330
E98
100
AcDbXrecord
280
     1
102
DISPLAYNAME
  1
Metric50
102
FLAGS
 90
        0
  0
CELLSTYLEMAP
  5
E8E
102
{ACAD_REACTORS
330
109
102
}
330
109
100
AcDbCellStyleMap
 90
        3
300
CELLSTYLE
  1
TABLEFORMAT_BEGIN
 90
        5
170
     1
 91
        0
 92
    32768
 62
   257
 93
        1
300
CONTENTFORMAT
  1
CONTENTFORMAT_BEGIN
 90
        0
 91
        0
 92
        4
 93
        0
300

 40
0.0
140
1.0
 94
        5
 62
     0
340
11
144
6.0
309
CONTENTFORMAT_END
171
     1
301
MARGIN
  1
CELLMARGIN_BEGIN
 40
1.5
 40
1.5
 40
1.5
 40
1.5
 40
0.18
 40
0.18
309
CELLMARGIN_END
 94
        6
 95
        1
302
GRIDFORMAT
  1
GRIDFORMAT_BEGIN
 90
        0
 91
        1
 62
     0
 92
       -2
340
14
 93
        0
 40
0.045
309
GRIDFORMAT_END
 95
        2
302
GRIDFORMAT
  1
GRIDFORMAT_BEGIN
 90
        0
 91
        1
 62
     0
 92
       -2
340
14
 93
        0
 40
0.045
309
GRIDFORMAT_END
 95
        4
302
GRIDFORMAT
  1
GRIDFORMAT_BEGIN
 90
        0
 91
        1
 62
     0
 92
       -2
340
14
 93
        0
 40
0.045
309
GRIDFORMAT_END
 95
        8
302
GRIDFORMAT
  1
GRIDFORMAT_BEGIN
 90
        0
 91
        1
 62
     0
 92
       -2
340
14
 93
        0
 40
0.045
309
GRIDFORMAT_END
 95
       16
302
GRIDFORMAT
  1
GRIDFORMAT_BEGIN
 90
        0
 91
        1
 62
     0
 92
       -2
340
14
 93
        0
 40
0.045
309
GRIDFORMAT_END
 95
       32
302
GRIDFORMAT
  1
GRIDFORMAT_BEGIN
 90
        0
 91
        1
 62
     0
 92
       -2
340
14
 93
        0
 40
0.045
309
GRIDFORMAT_END
309
TABLEFORMAT_END
  1
CELLSTYLE_BEGIN
 90
        1
 91
        1
300
_TITLE
309
CELLSTYLE_END
300
CELLSTYLE
  1
TABLEFORMAT_BEGIN
 90
        5
170
     1
 91
        0
 92
        0
 62
   257
 93
        1
300
CONTENTFORMAT
  1
CONTENTFORMAT_BEGIN
 90
        0
 91
        0
 92
        4
 93
        0
300

 40
0.0
140
1.0
 94
        5
 62
     0
340
11
144
4.5
309
CONTENTFORMAT_END
171
     1
301
MARGIN
  1
CELLMARGIN_BEGIN
 40
1.5
 40
1.5
 40
1.5
 40
1.5
 40
0.18
 40
0.18
309
CELLMARGIN_END
 94
        6
 95
        1
302
GRIDFORMAT
  1
GRIDFORMAT_BEGIN
 90
        0
 91
        1
 62
     0
 92
       -2
340
14
 93
        0
 40
0.045
309
GRIDFORMAT_END
 95
        2
302
GRIDFORMAT
  1
GRIDFORMAT_BEGIN
 90
        0
 91
        1
 62
     0
 92
       -2
340
14
 93
        0
 40
0.045
309
GRIDFORMAT_END
 95
        4
302
GRIDFORMAT
  1
GRIDFORMAT_BEGIN
 90
        0
 91
        1
 62
     0
 92
       -2
340
14
 93
        0
 40
0.045
309
GRIDFORMAT_END
 95
        8
302
GRIDFORMAT
  1
GRIDFORMAT_BEGIN
 90
        0
 91
        1
 62
     0
 92
       -2
340
14
 93
        0
 40
0.045
309
GRIDFORMAT_END
 95
       16
302
GRIDFORMAT
  1
GRIDFORMAT_BEGIN
 90
        0
 91
        1
 62
     0
 92
       -2
340
14
 93
        0
 40
0.045
309
GRIDFORMAT_END
 95
       32
302
GRIDFORMAT
  1
GRIDFORMAT_BEGIN
 90
        0
 91
        1
 62
     0
 92
       -2
340
14
 93
        0
 40
0.045
309
GRIDFORMAT_END
309
TABLEFORMAT_END
  1
CELLSTYLE_BEGIN
 90
        2
 91
        1
300
_HEADER
309
CELLSTYLE_END
300
CELLSTYLE
  1
TABLEFORMAT_BEGIN
 90
        5
170
     1
 91
        0
 92
        0
 62
   257
 93
        1
300
CONTENTFORMAT
  1
CONTENTFORMAT_BEGIN
 90
        0
 91
        0
 92
        4
 93
        0
300

 40
0.0
140
1.0
 94
        2
 62
     0
340
11
144
4.5
309
CONTENTFORMAT_END
171
     1
301
MARGIN
  1
CELLMARGIN_BEGIN
 40
1.5
 40
1.5
 40
1.5
 40
1.5
 40
0.18
 40
0.18
309
CELLMARGIN_END
 94
        6
 95
        1
302
GRIDFORMAT
  1
GRIDFORMAT_BEGIN
 90
        0
 91
        1
 62
     0
 92
       -2
340
14
 93
        0
 40
0.045
309
GRIDFORMAT_END
 95
        2
302
GRIDFORMAT
  1
GRIDFORMAT_BEGIN
 90
        0
 91
        1
 62
     0
 92
       -2
340
14
 93
        0
 40
0.045
309
GRIDFORMAT_END
 95
        4
302
GRIDFORMAT
  1
GRIDFORMAT_BEGIN
 90
        0
 91
        1
 62
     0
 92
       -2
340
14
 93
        0
 40
0.045
309
GRIDFORMAT_END
 95
        8
302
GRIDFORMAT
  1
GRIDFORMAT_BEGIN
 90
        0
 91
        1
 62
     0
 92
       -2
340
14
 93
        0
 40
0.045
309
GRIDFORMAT_END
 95
       16
302
GRIDFORMAT
  1
GRIDFORMAT_BEGIN
 90
        0
 91
        1
 62
     0
 92
       -2
340
14
 93
        0
 40
0.045
309
GRIDFORMAT_END
 95
       32
302
GRIDFORMAT
  1
GRIDFORMAT_BEGIN
 90
        0
 91
        1
 62
     0
 92
       -2
340
14
 93
        0
 40
0.045
309
GRIDFORMAT_END
309
TABLEFORMAT_END
  1
CELLSTYLE_BEGIN
 90
        3
 91
        2
300
_DATA
309
CELLSTYLE_END
  0
ENDSEC
  0
SECTION
  2
ACDSDATA
 70
     2
 71
     8
  0
ACDSSCHEMA
 90
        0
  1
AcDb_Thumbnail_Schema
  2
AcDbDs::ID
280
    10
 91
        8
  2
Thumbnail_Data
280
    15
 91
        0
101
ACDSRECORD
 95
        0
 90
        1
  2
AcDbDs::TreatedAsObjectData
280
     1
291
     1
101
ACDSRECORD
 95
        0
 90
        2
  2
AcDbDs::Legacy
280
     1
291
     1
101
ACDSRECORD
  1
AcDbDs::ID
 90
        3
  2
AcDs:Indexable
280
     1
291
     1
101
ACDSRECORD
  1
AcDbDs::ID
 90
        4
  2
AcDbDs::HandleAttribute
280
     7
282
     1
  0
ACDSSCHEMA
 90
        1
  1
AcDbDs::TreatedAsObjectDataSchema
  2
AcDbDs::TreatedAsObjectData
280
     1
 91
        0
  0
ACDSSCHEMA
 90
        2
  1
AcDbDs::LegacySchema
  2
AcDbDs::Legacy
280
     1
 91
        0
  0
ACDSSCHEMA
 90
        3
  1
AcDbDs::IndexedPropertySchema
  2
AcDs:Indexable
280
     1
 91
        0
  0
ACDSSCHEMA
 90
        4
  1
AcDbDs::HandleAttributeSchema
  2
AcDbDs::HandleAttribute
280
     7
 91
        1
284
     1
  0
ACDSRECORD
 90
        0
  2
AcDbDs::ID
280
    10
320
22
  2
Thumbnail_Data
280
    15
 94
     1030
310
89504E470D0A1A0A0000000D49484452000001000000007B0803000000AC3EAEE200000300504C5445FFFFFFFFFFFFFFFFFF0000000000000000000000000000000000000000000000000000330000660000990000CC0000FF0033000033330033660033990033CC0033FF0066000066330066660066990066CC0066FF0099
310
000099330099660099990099CC0099FF00CC0000CC3300CC6600CC9900CCCC00CCFF00FF0000FF3300FF6600FF9900FFCC00FFFF3300003300333300663300993300CC3300FF3333003333333333663333993333CC3333FF3366003366333366663366993366CC3366FF3399003399333399663399993399CC3399FF33CC00
310
33CC3333CC6633CC9933CCCC33CCFF33FF0033FF3333FF6633FF9933FFCC33FFFF6600006600336600666600996600CC6600FF6633006633336633666633996633CC6633FF6666006666336666666666996666CC6666FF6699006699336699666699996699CC6699FF66CC0066CC3366CC6666CC9966CCCC66CCFF66FF0066
310
FF3366FF6666FF9966FFCC66FFFF9900009900339900669900999900CC9900FF9933009933339933669933999933CC9933FF9966009966339966669966999966CC9966FF9999009999339999669999999999CC9999FF99CC0099CC3399CC6699CC9999CCCC99CCFF99FF0099FF3399FF6699FF9999FFCC99FFFFCC0000CC00
310
33CC0066CC0099CC00CCCC00FFCC3300CC3333CC3366CC3399CC33CCCC33FFCC6600CC6633CC6666CC6699CC66CCCC66FFCC9900CC9933CC9966CC9999CC99CCCC99FFCCCC00CCCC33CCCC66CCCC99CCCCCCCCCCFFCCFF00CCFF33CCFF66CCFF99CCFFCCCCFFFFFF0000FF0033FF0066FF0099FF00CCFF00FFFF3300FF3333
310
FF3366FF3399FF33CCFF33FFFF6600FF6633FF6666FF6699FF66CCFF66FFFF9900FF9933FF9966FF9999FF99CCFF99FFFFCC00FFCC33FFCC66FFCC99FFCCCCFFCCFFFFFF00FFFF33FFFF66FFFF99FFFFCCFFFFFF0000000D0D0D1A1A1A2828283535354343435050505D5D5D6B6B6B787878868686939393A1A1A1AEAEAEBB
310
BBBBC9C9C9D6D6D6E4E4E4F1F1F1FFFFFF000000000000000000000000000000000000000000000000000000000000AD4AB4E4000000974944415478DAEDDA3B0E80201045D1D9FF3259899DB1100CD8BD39A704AB9BD1F8AB02000000000000F8697C4A0F30C9726F8FFC0958AD09504D4F815613D0FB22080000000D1DBC
310
04C87A4D3036561F9B4901DA4FC0381A1A01041040000104104080F400938FC77DEE04DFB6F39E055603300990740AD4FADB788300BB078405D8FF3FC27F1300000000000000000000000000C0B10BC80601D8BD8BF2160000000049454E44AE426082E827100D90FC2294FE77589224499224499224E91B2D8D8953F2D6A8
310
C9FD0000000049454E44AE426082
  0
ENDSEC
  0
EOF
