  0
SECTION
  2
HEADER
  9
$ACADVER
  1
AC1015
  9
$ACADMAINTVER
 70
    20
  9
$DWGCODEPAGE
  3
ANSI_1252
  9
$INSBASE
 10
0.0
 20
0.0
 30
0.0
  9
$EXTMIN
 10
267.3422964386227
 20
348.8075919150062
 30
0.0
  9
$EXTMAX
 10
1310.880659902828
 20
1279.975019802355
 30
0.0
  9
$LIMMIN
 10
0.0
 20
0.0
  9
$LIMMAX
 10
420.0
 20
297.0
  9
$ORTHOMODE
 70
     0
  9
$REGENMODE
 70
     1
  9
$FILLMODE
 70
     1
  9
$QTEXTMODE
 70
     0
  9
$MIRRTEXT
 70
     0
  9
$LTSCALE
 40
1.0
  9
$ATTMODE
 70
     1
  9
$TEXTSIZE
 40
2.5
  9
$TRACEWID
 40
1.0
  9
$TEXTSTYLE
  7
Standard
  9
$CLAYER
  8
0
  9
$CELTYPE
  6
ByLayer
  9
$CECOLOR
 62
   256
  9
$CELTSCALE
 40
1.0
  9
$DISPSILH
 70
     0
  9
$DIMSCALE
 40
1.0
  9
$DIMASZ
 40
2.5
  9
$DIMEXO
 40
0.625
  9
$DIMDLI
 40
3.75
  9
$DIMRND
 40
0.0
  9
$DIMDLE
 40
0.0
  9
$DIMEXE
 40
1.25
  9
$DIMTP
 40
0.0
  9
$DIMTM
 40
0.0
  9
$DIMTXT
 40
2.5
  9
$DIMCEN
 40
2.5
  9
$DIMTSZ
 40
0.0
  9
$DIMTOL
 70
     0
  9
$DIMLIM
 70
     0
  9
$DIMTIH
 70
     0
  9
$DIMTOH
 70
     0
  9
$DIMSE1
 70
     0
  9
$DIMSE2
 70
     0
  9
$DIMTAD
 70
     1
  9
$DIMZIN
 70
     8
  9
$DIMBLK
  1

  9
$DIMASO
 70
     1
  9
$DIMSHO
 70
     1
  9
$DIMPOST
  1

  9
$DIMAPOST
  1

  9
$DIMALT
 70
     0
  9
$DIMALTD
 70
     3
  9
$DIMALTF
 40
0.03937007874016
  9
$DIMLFAC
 40
1.0
  9
$DIMTOFL
 70
     1
  9
$DIMTVP
 40
0.0
  9
$DIMTIX
 70
     0
  9
$DIMSOXD
 70
     0
  9
$DIMSAH
 70
     0
  9
$DIMBLK1
  1

  9
$DIMBLK2
  1

  9
$DIMSTYLE
  2
ISO-25
  9
$DIMCLRD
 70
     0
  9
$DIMCLRE
 70
     0
  9
$DIMCLRT
 70
     0
  9
$DIMTFAC
 40
1.0
  9
$DIMGAP
 40
0.625
  9
$DIMJUST
 70
     0
  9
$DIMSD1
 70
     0
  9
$DIMSD2
 70
     0
  9
$DIMTOLJ
 70
     0
  9
$DIMTZIN
 70
     8
  9
$DIMALTZ
 70
     0
  9
$DIMALTTZ
 70
     0
  9
$DIMUPT
 70
     0
  9
$DIMDEC
 70
     2
  9
$DIMTDEC
 70
     2
  9
$DIMALTU
 70
     2
  9
$DIMALTTD
 70
     3
  9
$DIMTXSTY
  7
Standard
  9
$DIMAUNIT
 70
     0
  9
$DIMADEC
 70
     0
  9
$DIMALTRND
 40
0.0
  9
$DIMAZIN
 70
     0
  9
$DIMDSEP
 70
    44
  9
$DIMATFIT
 70
     3
  9
$DIMFRAC
 70
     0
  9
$DIMLDRBLK
  1

  9
$DIMLUNIT
 70
     2
  9
$DIMLWD
 70
    -2
  9
$DIMLWE
 70
    -2
  9
$DIMTMOVE
 70
     0
  9
$LUNITS
 70
     2
  9
$LUPREC
 70
     4
  9
$SKETCHINC
 40
1.0
  9
$FILLETRAD
 40
0.0
  9
$AUNITS
 70
     0
  9
$AUPREC
 70
     0
  9
$MENU
  1
.
  9
$ELEVATION
 40
0.0
  9
$PELEVATION
 40
0.0
  9
$THICKNESS
 40
0.0
  9
$LIMCHECK
 70
     0
  9
$CHAMFERA
 40
0.0
  9
$CHAMFERB
 40
0.0
  9
$CHAMFERC
 40
0.0
  9
$CHAMFERD
 40
0.0
  9
$SKPOLY
 70
     0
  9
$TDCREATE
 40
2454768.552548658
  9
$TDUCREATE
 40
2454768.469215324
  9
$TDUPDATE
 40
2455847.538618530
  9
$TDUUPDATE
 40
2455847.455285197
  9
$TDINDWG
 40
0.0753207870
  9
$TDUSRTIMER
 40
0.0753153125
  9
$USRTIMER
 70
     1
  9
$ANGBASE
 50
0.0
  9
$ANGDIR
 70
     0
  9
$PDMODE
 70
     0
  9
$PDSIZE
 40
0.0
  9
$PLINEWID
 40
0.0
  9
$SPLFRAME
 70
     0
  9
$SPLINETYPE
 70
     6
  9
$SPLINESEGS
 70
     8
  9
$HANDSEED
  5
21BE
  9
$SURFTAB1
 70
     6
  9
$SURFTAB2
 70
     6
  9
$SURFTYPE
 70
     6
  9
$SURFU
 70
     6
  9
$SURFV
 70
     6
  9
$UCSBASE
  2

  9
$UCSNAME
  2

  9
$UCSORG
 10
0.0
 20
0.0
 30
0.0
  9
$UCSXDIR
 10
1.0
 20
0.0
 30
0.0
  9
$UCSYDIR
 10
0.0
 20
1.0
 30
0.0
  9
$UCSORTHOREF
  2

  9
$UCSORTHOVIEW
 70
     0
  9
$UCSORGTOP
 10
0.0
 20
0.0
 30
0.0
  9
$UCSORGBOTTOM
 10
0.0
 20
0.0
 30
0.0
  9
$UCSORGLEFT
 10
0.0
 20
0.0
 30
0.0
  9
$UCSORGRIGHT
 10
0.0
 20
0.0
 30
0.0
  9
$UCSORGFRONT
 10
0.0
 20
0.0
 30
0.0
  9
$UCSORGBACK
 10
0.0
 20
0.0
 30
0.0
  9
$PUCSBASE
  2

  9
$PUCSNAME
  2

  9
$PUCSORG
 10
0.0
 20
0.0
 30
0.0
  9
$PUCSXDIR
 10
1.0
 20
0.0
 30
0.0
  9
$PUCSYDIR
 10
0.0
 20
1.0
 30
0.0
  9
$PUCSORTHOREF
  2

  9
$PUCSORTHOVIEW
 70
     0
  9
$PUCSORGTOP
 10
0.0
 20
0.0
 30
0.0
  9
$PUCSORGBOTTOM
 10
0.0
 20
0.0
 30
0.0
  9
$PUCSORGLEFT
 10
0.0
 20
0.0
 30
0.0
  9
$PUCSORGRIGHT
 10
0.0
 20
0.0
 30
0.0
  9
$PUCSORGFRONT
 10
0.0
 20
0.0
 30
0.0
  9
$PUCSORGBACK
 10
0.0
 20
0.0
 30
0.0
  9
$USERI1
 70
     0
  9
$USERI2
 70
     0
  9
$USERI3
 70
     0
  9
$USERI4
 70
     0
  9
$USERI5
 70
     0
  9
$USERR1
 40
0.0
  9
$USERR2
 40
0.0
  9
$USERR3
 40
0.0
  9
$USERR4
 40
0.0
  9
$USERR5
 40
0.0
  9
$WORLDVIEW
 70
     1
  9
$SHADEDGE
 70
     3
  9
$SHADEDIF
 70
    70
  9
$TILEMODE
 70
     1
  9
$MAXACTVP
 70
    64
  9
$PINSBASE
 10
0.0
 20
0.0
 30
0.0
  9
$PLIMCHECK
 70
     0
  9
$PEXTMIN
 10
0.0
 20
0.0
 30
0.0
  9
$PEXTMAX
 10
0.0
 20
0.0
 30
0.0
  9
$PLIMMIN
 10
0.0
 20
0.0
  9
$PLIMMAX
 10
12.0
 20
9.0
  9
$UNITMODE
 70
     0
  9
$VISRETAIN
 70
     1
  9
$PLINEGEN
 70
     0
  9
$PSLTSCALE
 70
     1
  9
$TREEDEPTH
 70
  3020
  9
$CMLSTYLE
  2
Standard
  9
$CMLJUST
 70
     0
  9
$CMLSCALE
 40
20.0
  9
$PROXYGRAPHICS
 70
     1
  9
$MEASUREMENT
 70
     1
  9
$CELWEIGHT
370
    -1
  9
$ENDCAPS
280
     0
  9
$JOINSTYLE
280
     0
  9
$LWDISPLAY
290
     0
  9
$INSUNITS
 70
     4
  9
$HYPERLINKBASE
  1

  9
$STYLESHEET
  1

  9
$XEDIT
290
     1
  9
$CEPSNTYPE
380
     0
  9
$PSTYLEMODE
290
     1
  9
$FINGERPRINTGUID
  2
{A9F5D530-972F-4813-857A-78B9B08CAD27}
  9
$VERSIONGUID
  2
{4FB36FB3-288A-49F8-95CD-792E93335C44}
  9
$EXTNAMES
290
     1
  9
$PSVPSCALE
 40
0.0
  9
$OLESTARTUP
290
     0
  0
ENDSEC
  0
SECTION
  2
CLASSES
  0
CLASS
  1
ACDBDICTIONARYWDFLT
  2
AcDbDictionaryWithDefault
  3
ObjectDBX Classes
 90
        0
280
     0
281
     0
  0
CLASS
  1
DICTIONARYVAR
  2
AcDbDictionaryVar
  3
ObjectDBX Classes
 90
        0
280
     0
281
     0
  0
CLASS
  1
TABLESTYLE
  2
AcDbTableStyle
  3
ObjectDBX Classes
 90
     4095
280
     0
281
     0
  0
CLASS
  1
MATERIAL
  2
AcDbMaterial
  3
ObjectDBX Classes
 90
     1024
280
     0
281
     0
  0
CLASS
  1
VISUALSTYLE
  2
AcDbVisualStyle
  3
ObjectDBX Classes
 90
     4095
280
     0
281
     0
  0
CLASS
  1
SORTENTSTABLE
  2
AcDbSortentsTable
  3
ObjectDBX Classes
 90
        0
280
     0
281
     0
  0
CLASS
  1
DIMASSOC
  2
AcDbDimAssoc
  3
"AcDbDimAssoc|Product Desc:     AcDim ARX App For Dimension|Company:          Autodesk, Inc.|WEB Address:      www.autodesk.com"
 90
    32768
280
     0
281
     0
  0
CLASS
  1
ACDBPLACEHOLDER
  2
AcDbPlaceHolder
  3
ObjectDBX Classes
 90
        0
280
     0
281
     0
  0
CLASS
  1
LAYOUT
  2
AcDbLayout
  3
ObjectDBX Classes
 90
        0
280
     0
281
     0
  0
ENDSEC
  0
SECTION
  2
TABLES
  0
TABLE
  2
VPORT
  5
8
330
0
100
AcDbSymbolTable
 70
     1
  0
VPORT
  5
EA
330
8
100
AcDbSymbolTableRecord
100
AcDbViewportTableRecord
  2
*Active
 70
     0
 10
0.0
 20
0.0
 11
1.0
 21
1.0
 12
739.4229174233405
 22
545.141382322723
 13
0.0
 23
0.0
 14
10.0
 24
10.0
 15
10.0
 25
10.0
 16
0.0
 26
0.0
 36
1.0
 17
0.0
 27
0.0
 37
0.0
 40
526.486925440272
 41
1.913928012519561
 42
50.0
 43
0.0
 44
0.0
 50
0.0
 51
0.0
 71
     0
 72
  1000
 73
     1
 74
     3
 75
     0
 76
     0
 77
     0
 78
     0
281
     0
 65
     1
110
0.0
120
0.0
130
0.0
111
1.0
121
0.0
131
0.0
112
0.0
122
1.0
132
0.0
 79
     0
146
0.0
  0
ENDTAB
  0
TABLE
  2
LTYPE
  5
5
330
0
100
AcDbSymbolTable
 70
     2
  0
LTYPE
  5
14
330
5
100
AcDbSymbolTableRecord
100
AcDbLinetypeTableRecord
  2
ByBlock
 70
     0
  3

 72
    65
 73
     0
 40
0.0
  0
LTYPE
  5
15
330
5
100
AcDbSymbolTableRecord
100
AcDbLinetypeTableRecord
  2
ByLayer
 70
     0
  3

 72
    65
 73
     0
 40
0.0
  0
LTYPE
  5
16
330
5
100
AcDbSymbolTableRecord
100
AcDbLinetypeTableRecord
  2
Continuous
 70
     0
  3
Solid line
 72
    65
 73
     0
 40
0.0
  0
ENDTAB
  0
TABLE
  2
LAYER
  5
2
102
{ACAD_XDICTIONARY
360
141
102
}
330
0
100
AcDbSymbolTable
 70
     3
  0
LAYER
  5
10
330
2
100
AcDbSymbolTableRecord
100
AcDbLayerTableRecord
  2
0
 70
     0
 62
     7
  6
Continuous
370
    -3
390
F
  0
LAYER
  5
124
330
2
100
AcDbSymbolTableRecord
100
AcDbLayerTableRecord
  2
Defpoints
 70
     0
 62
     7
  6
Continuous
290
     0
370
    -3
390
F
  0
LAYER
  5
13E
330
2
100
AcDbSymbolTableRecord
100
AcDbLayerTableRecord
  2
Hewi
 70
     0
 62
     7
  6
Continuous
370
    -3
390
F
  0
ENDTAB
  0
TABLE
  2
STYLE
  5
3
330
0
100
AcDbSymbolTable
 70
     1
  0
STYLE
  5
11
330
3
100
AcDbSymbolTableRecord
100
AcDbTextStyleTableRecord
  2
Standard
 70
     0
 40
0.0
 41
1.0
 50
0.0
 71
     0
 42
2.5
  3
txt
  4

  0
ENDTAB
  0
TABLE
  2
VIEW
  5
6
330
0
100
AcDbSymbolTable
 70
     0
  0
ENDTAB
  0
TABLE
  2
UCS
  5
7
330
0
100
AcDbSymbolTable
 70
     0
  0
ENDTAB
  0
TABLE
  2
APPID
  5
9
330
0
100
AcDbSymbolTable
 70
     3
  0
APPID
  5
12
330
9
100
AcDbSymbolTableRecord
100
AcDbRegAppTableRecord
  2
ACAD
 70
     0
  0
APPID
  5
9E
330
9
100
AcDbSymbolTableRecord
100
AcDbRegAppTableRecord
  2
ACAD_PSEXT
 70
     0
  0
APPID
  5
212
330
9
100
AcDbSymbolTableRecord
100
AcDbRegAppTableRecord
  2
ACAD_EXEMPT_FROM_CAD_STANDARDS
 70
     0
  0
ENDTAB
  0
TABLE
  2
DIMSTYLE
  5
A
330
0
100
AcDbSymbolTable
 70
     3
100
AcDbDimStyleTable
 71
     1
340
27
  0
DIMSTYLE
105
27
330
A
100
AcDbSymbolTableRecord
100
AcDbDimStyleTableRecord
  2
ISO-25
 70
     0
 41
2.5
 42
0.625
 43
3.75
 44
1.25
 73
     0
 74
     0
 77
     1
 78
     8
140
2.5
141
2.5
143
0.03937007874016
147
0.625
171
     3
172
     1
271
     2
272
     2
274
     3
278
    44
283
     0
284
     8
340
11
  0
DIMSTYLE
105
254
330
A
100
AcDbSymbolTableRecord
100
AcDbDimStyleTableRecord
  2
Standard
 70
     0
340
11
  0
ENDTAB
  0
TABLE
  2
BLOCK_RECORD
  5
1
330
0
100
AcDbSymbolTable
 70
     3
  0
BLOCK_RECORD
  5
1F
102
{ACAD_XDICTIONARY
360
116
102
}
330
1
100
AcDbSymbolTableRecord
100
AcDbBlockTableRecord
  2
*Model_Space
340
22
  0
BLOCK_RECORD
  5
D2
330
1
100
AcDbSymbolTableRecord
100
AcDbBlockTableRecord
  2
*Paper_Space
340
D3
  0
BLOCK_RECORD
  5
D6
330
1
100
AcDbSymbolTableRecord
100
AcDbBlockTableRecord
  2
*Paper_Space0
340
D7
  0
ENDTAB
  0
ENDSEC
  0
SECTION
  2
BLOCKS
  0
BLOCK
  5
20
330
1F
100
AcDbEntity
  8
0
100
AcDbBlockBegin
  2
*Model_Space
 70
     0
 10
0.0
 20
0.0
 30
0.0
  3
*Model_Space
  1

  0
ENDBLK
  5
21
330
1F
100
AcDbEntity
  8
0
100
AcDbBlockEnd
  0
BLOCK
  5
D4
330
D2
100
AcDbEntity
 67
     1
  8
0
100
AcDbBlockBegin
  2
*Paper_Space
 70
     0
 10
0.0
 20
0.0
 30
0.0
  3
*Paper_Space
  1

  0
ENDBLK
  5
D5
330
D2
100
AcDbEntity
 67
     1
  8
0
100
AcDbBlockEnd
  0
BLOCK
  5
D8
330
D6
100
AcDbEntity
 67
     1
  8
0
100
AcDbBlockBegin
  2
*Paper_Space0
 70
     0
 10
0.0
 20
0.0
 30
0.0
  3
*Paper_Space0
  1

  0
ENDBLK
  5
D9
330
D6
100
AcDbEntity
 67
     1
  8
0
100
AcDbBlockEnd
  0
ENDSEC
  0
SECTION
  2
ENTITIES
  0
LINE
  5
1BF6
330
1F
100
AcDbEntity
  8
Hewi
  6
Continuous
100
AcDbLine
 10
732.0968766062033
 20
660.9553605991667
 30
0.0
 11
1191.996876606219
 21
660.9553605991667
 31
0.0
  0
LINE
  5
1BF7
330
1F
100
AcDbEntity
  8
Hewi
  6
Continuous
100
AcDbLine
 10
1192.096876606203
 20
694.3553605991318
 30
0.0
 11
1191.996876606219
 21
694.2553605991697
 31
0.0
  0
LINE
  5
1BF8
330
1F
100
AcDbEntity
  8
Hewi
  6
Continuous
100
AcDbLine
 10
1191.996876606219
 20
661.0553605991725
 30
0.0
 11
1192.096876606203
 21
660.9553605991667
 31
0.0
  0
LINE
  5
1BF9
330
1F
100
AcDbEntity
  8
Hewi
  6
Continuous
100
AcDbLine
 10
1199.090088233311
 20
694.3553605991318
 30
0.0
 11
1192.096876606203
 21
694.3553605991318
 31
0.0
  0
LINE
  5
1BFA
330
1F
100
AcDbEntity
  8
Hewi
  6
Continuous
100
AcDbLine
 10
1192.096876606203
 20
660.9553605991667
 30
0.0
 11
1199.090088233311
 21
660.9553605991667
 31
0.0
  0
LINE
  5
1BFB
330
1F
100
AcDbEntity
  8
Hewi
  6
Continuous
100
AcDbLine
 10
685.1968766062017
 20
660.9553605991667
 30
0.0
 11
732.0968766062033
 21
660.9553605991667
 31
0.0
  0
LINE
  5
1BFC
330
1F
100
AcDbEntity
  8
Hewi
  6
Continuous
100
AcDbLine
 10
1191.996876606219
 20
694.3553605991318
 30
0.0
 11
732.0968766062033
 21
694.3553605991318
 31
0.0
  0
LINE
  5
1BFD
330
1F
100
AcDbEntity
  8
Hewi
  6
Continuous
100
AcDbLine
 10
732.0968766062033
 20
694.3553605991318
 30
0.0
 11
685.1968766062017
 21
694.3553605991318
 31
0.0
  0
LINE
  5
1BFE
330
1F
100
AcDbEntity
  8
Hewi
  6
Continuous
100
AcDbLine
 10
606.9968766062193
 20
531.2053605991667
 30
0.0
 11
606.9968766062193
 21
701.1053605991755
 31
0.0
  0
LINE
  5
1BFF
330
1F
100
AcDbEntity
  8
Hewi
  6
Continuous
100
AcDbLine
 10
623.2913802426301
 20
526.1124921342842
 30
0.0
 11
606.9968766062193
 21
525.8280705153147
 31
0.0
  0
LINE
  5
1C00
330
1F
100
AcDbEntity
  8
Hewi
  6
Continuous
100
AcDbLine
 10
606.9968766062193
 20
525.8280705153147
 30
0.0
 11
606.9968766062193
 21
531.2053605991667
 31
0.0
  0
LINE
  5
1C01
330
1F
100
AcDbEntity
  8
Hewi
  6
Continuous
100
AcDbLine
 10
606.9968766062193
 20
706.4826506829404
 30
0.0
 11
623.2913802426301
 21
706.198229064029
 31
0.0
  0
LINE
  5
1C02
330
1F
100
AcDbEntity
  8
Hewi
  6
Continuous
100
AcDbLine
 10
606.9968766062193
 20
706.4826506829404
 30
0.0
 11
606.9968766062193
 21
701.1053605991755
 31
0.0
  0
LINE
  5
1C03
330
1F
100
AcDbEntity
  8
Hewi
  6
Continuous
100
AcDbLine
 10
625.7968766062149
 20
528.6621037569411
 30
0.0
 11
625.7968766062149
 21
531.2053605991667
 31
0.0
  0
LINE
  5
1C04
330
1F
100
AcDbEntity
  8
Hewi
  6
Continuous
100
AcDbLine
 10
625.7968766062149
 20
703.648617441372
 30
0.0
 11
625.7968766062149
 21
701.1053605991755
 31
0.0
  0
LINE
  5
1C05
330
1F
100
AcDbEntity
  8
Hewi
  6
Continuous
100
AcDbLine
 10
625.7968766062149
 20
701.1053605991755
 30
0.0
 11
625.7968766062149
 21
531.2053605991667
 31
0.0
  0
LINE
  5
1C06
330
1F
100
AcDbEntity
  8
Hewi
  6
Continuous
100
AcDbLine
 10
625.7968766062149
 20
698.1044954622766
 30
0.0
 11
683.1826540394067
 21
697.1028229912326
 31
0.0
  0
LINE
  5
1C07
330
1F
100
AcDbEntity
  8
Hewi
  6
Continuous
100
AcDbLine
 10
683.1826540394067
 20
658.2078982070369
 30
0.0
 11
625.7968766062149
 21
657.2062257359639
 31
0.0
  0
LINE
  5
1C08
330
1F
100
AcDbEntity
  8
Hewi
  6
Continuous
100
AcDbLine
 10
391.6195865224254
 20
525.8280705153147
 30
0.0
 11
334.8195865224152
 21
525.8280705153147
 31
0.0
  0
LINE
  5
1C09
330
1F
100
AcDbEntity
  8
Hewi
  6
Continuous
100
AcDbLine
 10
329.5195865224341
 20
525.8280705153147
 30
0.0
 11
272.7195865224312
 21
525.8280705153147
 31
0.0
  0
LINE
  5
1C0A
330
1F
100
AcDbEntity
  8
Hewi
  6
Continuous
100
AcDbLine
 10
272.7195865224312
 20
706.4826506829404
 30
0.0
 11
391.6195865224254
 21
706.4826506829404
 31
0.0
  0
LINE
  5
1C0B
330
1F
100
AcDbEntity
  8
Hewi
  6
Continuous
100
AcDbLine
 10
294.1195865224326
 20
655.2559286962632
 30
0.0
 11
294.1195865224326
 21
558.4553605991667
 31
0.0
  0
LINE
  5
1C0C
330
1F
100
AcDbEntity
  8
Hewi
  6
Continuous
100
AcDbLine
 10
296.0695865224225
 20
657.2062257359639
 30
0.0
 11
296.0695865224225
 21
657.1521150347388
 31
0.0
  0
LINE
  5
1C0D
330
1F
100
AcDbEntity
  8
Hewi
  6
Continuous
100
AcDbLine
 10
294.4204516592763
 20
659.2559135110486
 30
0.0
 11
294.4204516592763
 21
696.0548076872355
 31
0.0
  0
LINE
  5
1C0E
330
1F
100
AcDbEntity
  8
Hewi
  6
Continuous
100
AcDbLine
 10
296.0695865224225
 20
657.1521150347388
 30
0.0
 11
305.5058277740645
 21
657.1521150347388
 31
0.0
  0
LINE
  5
1C0F
330
1F
100
AcDbEntity
  8
Hewi
  6
Continuous
100
AcDbLine
 10
307.5157918990626
 20
657.0927678139696
 30
0.0
 11
305.5651749948192
 21
657.0927678139696
 31
0.0
  0
LINE
  5
1C10
330
1F
100
AcDbEntity
  8
Hewi
  6
Continuous
100
AcDbLine
 10
296.0695865224225
 20
657.2062257359639
 30
0.0
 11
296.4701394343247
 21
657.2062257359639
 31
0.0
  0
LINE
  5
1C11
330
1F
100
AcDbEntity
  8
Hewi
  6
Continuous
100
AcDbLine
 10
296.4701394343247
 20
698.1044954622766
 30
0.0
 11
367.8690336105028
 21
698.1044954622766
 31
0.0
  0
LINE
  5
1C12
330
1F
100
AcDbEntity
  8
Hewi
  6
Continuous
100
AcDbLine
 10
299.4695865224312
 20
553.1053605991318
 30
0.0
 11
364.8695865224254
 21
553.1053605991318
 31
0.0
  0
LINE
  5
1C13
330
1F
100
AcDbEntity
  8
Hewi
  6
Continuous
100
AcDbLine
 10
305.5058277740645
 20
657.1521150347388
 30
0.0
 11
305.5651749948192
 21
657.0927678139696
 31
0.0
  0
LINE
  5
1C14
330
1F
100
AcDbEntity
  8
Hewi
  6
Continuous
100
AcDbLine
 10
306.3835110739347
 20
660.2575859821362
 30
0.0
 11
306.3835110739347
 21
695.0531352161624
 31
0.0
  0
LINE
  5
1C15
330
1F
100
AcDbEntity
  8
Hewi
  6
Continuous
100
AcDbLine
 10
307.5157918990626
 20
657.0927678139696
 30
0.0
 11
306.4006615059516
 21
658.2078982070369
 31
0.0
  0
LINE
  5
1C16
330
1F
100
AcDbEntity
  8
Hewi
  6
Continuous
100
AcDbLine
 10
306.4006615059516
 20
697.1028229912326
 30
0.0
 11
307.0526493264442
 21
697.7548108117616
 31
0.0
  0
LINE
  5
1C17
330
1F
100
AcDbEntity
  8
Hewi
  6
Continuous
100
AcDbLine
 10
309.0523447167616
 20
697.7891116758101
 30
0.0
 11
355.286828328095
 21
697.7891116758101
 31
0.0
  0
LINE
  5
1C18
330
1F
100
AcDbEntity
  8
Hewi
  6
Continuous
100
AcDbLine
 10
334.8195865224152
 20
525.8664811740736
 30
0.0
 11
329.5195865224341
 21
525.8664811740736
 31
0.0
  0
LINE
  5
1C19
330
1F
100
AcDbEntity
  8
Hewi
  6
Continuous
100
AcDbLine
 10
329.5195865224341
 20
525.8280705153147
 30
0.0
 11
329.5195865224341
 21
525.8664811740736
 31
0.0
  0
LINE
  5
1C1A
330
1F
100
AcDbEntity
  8
Hewi
  6
Continuous
100
AcDbLine
 10
334.8195865224152
 20
525.8280705153147
 30
0.0
 11
334.8195865224152
 21
525.8664811740736
 31
0.0
  0
LINE
  5
1C1B
330
1F
100
AcDbEntity
  8
Hewi
  6
Continuous
100
AcDbLine
 10
355.7735410658897
 20
658.1426078938811
 30
0.0
 11
355.7735410658897
 21
660.0451482415365
 31
0.0
  0
LINE
  5
1C1C
330
1F
100
AcDbEntity
  8
Hewi
  6
Continuous
100
AcDbLine
 10
357.9385115388977
 20
658.2078982070369
 30
0.0
 11
356.8233811458011
 21
657.0927678139696
 31
0.0
  0
LINE
  5
1C1D
330
1F
100
AcDbEntity
  8
Hewi
  6
Continuous
100
AcDbLine
 10
357.2865237184124
 20
697.7548108117616
 30
0.0
 11
357.9385115388977
 21
697.1028229912326
 31
0.0
  0
LINE
  5
1C1E
330
1F
100
AcDbEntity
  8
Hewi
  6
Continuous
100
AcDbLine
 10
358.6833224215625
 20
657.1521150347388
 30
0.0
 11
368.2695865224414
 21
657.1521150347388
 31
0.0
  0
LINE
  5
1C1F
330
1F
100
AcDbEntity
  8
Hewi
  6
Continuous
100
AcDbLine
 10
358.6239752008223
 20
657.0927678139696
 30
0.0
 11
356.8233811458011
 21
657.0927678139696
 31
0.0
  0
LINE
  5
1C20
330
1F
100
AcDbEntity
  8
Hewi
  6
Continuous
100
AcDbLine
 10
367.8690336105028
 20
657.2062257359639
 30
0.0
 11
368.2695865224414
 21
657.2062257359639
 31
0.0
  0
LINE
  5
1C21
330
1F
100
AcDbEntity
  8
Hewi
  6
Continuous
100
AcDbLine
 10
357.9556619709074
 20
695.0531352161624
 30
0.0
 11
357.9556619709074
 21
660.2575859821362
 31
0.0
  0
LINE
  5
1C22
330
1F
100
AcDbEntity
  8
Hewi
  6
Continuous
100
AcDbLine
 10
358.6833224215625
 20
657.1521150347388
 30
0.0
 11
358.6239752008223
 21
657.0927678139696
 31
0.0
  0
LINE
  5
1C23
330
1F
100
AcDbEntity
  8
Hewi
  6
Continuous
100
AcDbLine
 10
368.2695865224414
 20
657.1521150347388
 30
0.0
 11
368.2695865224414
 21
657.2062257359639
 31
0.0
  0
LINE
  5
1C24
330
1F
100
AcDbEntity
  8
Hewi
  6
Continuous
100
AcDbLine
 10
369.9187213855803
 20
696.0548076872355
 30
0.0
 11
369.9187213855803
 21
659.2559135110486
 31
0.0
  0
LINE
  5
1C25
330
1F
100
AcDbEntity
  8
Hewi
  6
Continuous
100
AcDbLine
 10
370.2195865224312
 20
655.2559286962632
 30
0.0
 11
370.2195865224312
 21
558.4553605991667
 31
0.0
  0
LINE
  5
1C26
330
1F
100
AcDbEntity
  8
Hewi
  6
Continuous
100
AcDbLine
 10
396.9968766062193
 20
531.2053605991667
 30
0.0
 11
396.9968766062193
 21
701.1053605991755
 31
0.0
  0
LINE
  5
1C27
330
1F
100
AcDbEntity
  8
Hewi
  6
Continuous
100
AcDbLine
 10
606.9968766062193
 20
526.8049707318123
 30
0.0
 11
606.9968766062193
 21
696.7049707318063
 31
0.0
  0
LINE
  5
1C28
330
1F
100
AcDbEntity
  8
Hewi
  6
Continuous
100
AcDbLine
 10
308.8530042107413
 20
658.7387021350432
 30
0.0
 11
308.8530042107413
 21
696.5720190632699
 31
0.0
  0
LINE
  5
1C29
330
1F
100
AcDbEntity
  8
Hewi
  6
Continuous
100
AcDbLine
 10
354.9862449865359
 20
658.2387782874566
 30
0.0
 11
309.3529280583352
 21
658.2387782874566
 31
0.0
  0
LINE
  5
1C2A
330
1F
100
AcDbEntity
  8
Hewi
  6
Continuous
100
AcDbLine
 10
354.9862449865359
 20
697.0719429108129
 30
0.0
 11
309.3529280583352
 21
697.0719429108129
 31
0.0
  0
LINE
  5
1C2B
330
1F
100
AcDbEntity
  8
Hewi
  6
Continuous
100
AcDbLine
 10
355.4861688341225
 20
696.5720190632699
 30
0.0
 11
355.4861688341225
 21
658.7387021350432
 31
0.0
  0
LINE
  5
1C2C
330
1F
100
AcDbEntity
  8
Hewi
  6
Continuous
100
AcDbLine
 10
308.3695865224254
 20
656.6053605991465
 30
0.0
 11
307.4195865224137
 21
656.6053605991465
 31
0.0
  0
LINE
  5
1C2D
330
1F
100
AcDbEntity
  8
Hewi
  6
Continuous
100
AcDbLine
 10
355.8695865224327
 20
646.9500709742415
 30
0.0
 11
308.4695865224312
 21
646.9500709742415
 31
0.0
  0
LINE
  5
1C2E
330
1F
100
AcDbEntity
  8
Hewi
  6
Continuous
100
AcDbLine
 10
308.4695865224312
 20
655.5553605991725
 30
0.0
 11
308.4695865224312
 21
646.9500709742415
 31
0.0
  0
LINE
  5
1C2F
330
1F
100
AcDbEntity
  8
Hewi
  6
Continuous
100
AcDbLine
 10
309.3195865224079
 20
657.5553605991728
 30
0.0
 11
309.3195865224079
 21
658.2578975492497
 31
0.0
  0
LINE
  5
1C30
330
1F
100
AcDbEntity
  8
Hewi
  6
Continuous
100
AcDbLine
 10
355.0195865224123
 20
657.5553605991728
 30
0.0
 11
355.0195865224123
 21
658.2578975492497
 31
0.0
  0
LINE
  5
1C31
330
1F
100
AcDbEntity
  8
Hewi
  6
Continuous
100
AcDbLine
 10
355.8695865224327
 20
655.5553605991725
 30
0.0
 11
355.8695865224327
 21
646.9500709742415
 31
0.0
  0
LINE
  5
1C32
330
1F
100
AcDbEntity
  8
Hewi
  6
Continuous
100
AcDbLine
 10
356.9195865224137
 20
656.6053605991465
 30
0.0
 11
355.9695865224312
 21
656.6053605991465
 31
0.0
  0
LINE
  5
1C33
330
1F
100
AcDbEntity
  8
Hewi
  6
Continuous
100
AcDbLine
 10
267.3422964386227
 20
531.2053605991667
 30
0.0
 11
267.3422964386227
 21
701.1053605991755
 31
0.0
  0
ARC
  5
1C34
330
1F
100
AcDbEntity
  8
Hewi
  6
Continuous
100
AcDbCircle
 10
1199.090088233311
 20
665.9553605991521
 30
0.0
 40
5.0
100
AcDbArc
 50
270.0
 51
332.0954496636837
  0
ARC
  5
1C35
330
1F
100
AcDbEntity
  8
Hewi
  6
Continuous
100
AcDbCircle
 10
1199.090088233311
 20
689.3553605991756
 30
0.0
 40
5.0
100
AcDbArc
 50
27.90455033631629
 51
90.0
  0
ARC
  5
1C36
330
1F
100
AcDbEntity
  8
Hewi
  6
Continuous
100
AcDbCircle
 10
1176.996876606219
 20
677.6553605991347
 30
0.0
 40
30.0
100
AcDbArc
 50
332.0954496636837
 51
0.0
  0
ARC
  5
1C37
330
1F
100
AcDbEntity
  8
Hewi
  6
Continuous
100
AcDbCircle
 10
1176.996876606219
 20
677.6553605991347
 30
0.0
 40
30.0
100
AcDbArc
 50
0.0
 51
27.90455033631629
  0
ARC
  5
1C38
330
1F
100
AcDbEntity
  8
Hewi
  6
Continuous
100
AcDbCircle
 10
-623.246876606212
 20
528.6621037569411
 30
0.0
 40
2.549999999999998
210
0.0
220
0.0
230
-1.0
100
AcDbArc
 50
180.0
 51
269.0000000001318
  0
ARC
  5
1C39
330
1F
100
AcDbEntity
  8
Hewi
  6
Continuous
100
AcDbCircle
 10
-623.246876606212
 20
703.648617441372
 30
0.0
 40
2.549999999999998
210
0.0
220
0.0
230
-1.0
100
AcDbArc
 50
90.99999999986822
 51
180.0
  0
ARC
  5
1C3A
330
1F
100
AcDbEntity
  8
Hewi
  6
Continuous
100
AcDbCircle
 10
-683.1468766062133
 20
660.2575859821362
 30
0.0
 40
2.049999999999998
210
0.0
220
0.0
230
-1.0
100
AcDbArc
 50
180.0
 51
269.0000000001318
  0
ARC
  5
1C3B
330
1F
100
AcDbEntity
  8
Hewi
  6
Continuous
100
AcDbCircle
 10
-683.1468766062133
 20
695.0531352161624
 30
0.0
 40
2.049999999999998
210
0.0
220
0.0
230
-1.0
100
AcDbArc
 50
90.99999999986822
 51
180.0
  0
ARC
  5
1C3C
330
1F
100
AcDbEntity
  8
Hewi
  6
Continuous
100
AcDbCircle
 10
-299.4695865224312
 20
558.4553605991667
 30
0.0
 40
5.349999999999996
210
0.0
220
0.0
230
-1.0
100
AcDbArc
 50
270.0
 51
0.0
  0
ARC
  5
1C3D
330
1F
100
AcDbEntity
  8
Hewi
  6
Continuous
100
AcDbCircle
 10
-364.8695865224254
 20
558.4553605991667
 30
0.0
 40
5.349999999999996
210
0.0
220
0.0
230
-1.0
100
AcDbArc
 50
180.0
 51
270.0
  0
ARC
  5
1C3E
330
1F
100
AcDbEntity
  8
Hewi
  6
Continuous
100
AcDbCircle
 10
-391.6195865224254
 20
531.2053605991667
 30
0.0
 40
5.377290083806274
210
0.0
220
0.0
230
-1.0
100
AcDbArc
 50
180.0
 51
270.0
  0
ARC
  5
1C3F
330
1F
100
AcDbEntity
  8
Hewi
  6
Continuous
100
AcDbCircle
 10
-391.6195865224254
 20
701.1053605991755
 30
0.0
 40
5.377290083806274
210
0.0
220
0.0
230
-1.0
100
AcDbArc
 50
90.0
 51
180.0
  0
ARC
  5
1C40
330
1F
100
AcDbEntity
  8
Hewi
  6
Continuous
100
AcDbCircle
 10
307.4195865224137
 20
655.5553605991725
 30
0.0
 40
1.05
100
AcDbArc
 50
0.0
 51
90.0
  0
ARC
  5
1C41
330
1F
100
AcDbEntity
  8
Hewi
  6
Continuous
100
AcDbCircle
 10
356.9195865224137
 20
655.5553605991725
 30
0.0
 40
1.05
100
AcDbArc
 50
90.0
 51
180.0
  0
CIRCLE
  5
1C42
330
1F
100
AcDbEntity
  8
Hewi
  6
Continuous
100
AcDbCircle
 10
-332.1695865224137
 20
677.6553605991347
 30
0.0
 40
17.2
210
0.0
220
0.0
230
-1.0
  0
CIRCLE
  5
1C43
330
1F
100
AcDbEntity
  8
Hewi
  6
Continuous
100
AcDbCircle
 10
332.1695865224137
 20
677.6553605991347
 30
0.0
 40
14.04
  0
ARC
  5
1C44
330
1F
100
AcDbEntity
  8
Hewi
  6
Continuous
100
AcDbCircle
 10
-272.7195865224312
 20
531.2053605991667
 30
0.0
 40
5.377290083806274
210
0.0
220
0.0
230
-1.0
100
AcDbArc
 50
270.0
 51
0.0
  0
ARC
  5
1C45
330
1F
100
AcDbEntity
  8
Hewi
  6
Continuous
100
AcDbCircle
 10
-272.7195865224312
 20
701.1053605991755
 30
0.0
 40
5.377290083806274
210
0.0
220
0.0
230
-1.0
100
AcDbArc
 50
0.0
 51
90.0
  0
ELLIPSE
  5
1C46
330
1F
100
AcDbEntity
  8
Hewi
  6
Continuous
100
AcDbEllipse
 10
296.0695865224225
 20
655.2018179950091
 30
0.0
 11
0.0
 21
-1.950297039685619
 31
0.0
210
0.0
220
0.0
230
1.0
 40
0.9998476951563914
 41
3.141592653589792
 42
4.712388980384688
  0
ELLIPSE
  5
1C47
330
1F
100
AcDbEntity
  8
Hewi
  6
Continuous
100
AcDbEllipse
 10
296.0695865224225
 20
655.2559286962632
 30
0.0
 11
0.0
 21
-1.950297039685619
 31
0.0
210
0.0
220
0.0
230
-1.0
 40
0.9998476951563914
 41
1.570796326794896
 42
3.141592653589792
  0
ELLIPSE
  5
1C48
330
1F
100
AcDbEntity
  8
Hewi
  6
Continuous
100
AcDbEllipse
 10
296.470763931753
 20
696.0541831898145
 30
0.0
 11
-1.450010487797641
 21
1.450010487797641
 31
0.0
210
0.0
220
0.0
230
1.0
 40
0.9996954598818872
 41
5.497939437029716
 42
7.068431177329449
  0
ELLIPSE
  5
1C49
330
1F
100
AcDbEntity
  8
Hewi
  6
Continuous
100
AcDbEllipse
 10
296.470763931753
 20
659.2565380084843
 30
0.0
 11
1.450010487797638
 21
1.450010487797641
 31
0.0
210
0.0
220
0.0
230
1.0
 40
0.9996954598818872
 41
2.356346783439929
 42
3.926838523739654
  0
ELLIPSE
  5
1C4A
330
1F
100
AcDbEntity
  8
Hewi
  6
Continuous
100
AcDbEllipse
 10
306.40096613883
 20
660.2575859821362
 30
0.0
 11
0.0000000000000024
 21
2.049999999992424
 31
0.0
210
0.0
220
0.0
230
1.0
 40
0.0085146658186356
 41
1.570796326794896
 42
3.124139361073233
  0
ELLIPSE
  5
1C4B
330
1F
100
AcDbEntity
  8
Hewi
  6
Continuous
100
AcDbEllipse
 10
306.40096613883
 20
695.0531352161624
 30
0.0
 11
0.0000000000000024
 21
2.049999999992337
 31
0.0
210
0.0
220
0.0
230
1.0
 40
0.0085146658186351
 41
0.0174532925167423
 42
1.570796326794896
  0
ELLIPSE
  5
1C4C
330
1F
100
AcDbEntity
  8
Hewi
  6
Continuous
100
AcDbEllipse
 10
307.5154720345127
 20
658.1429277584093
 30
0.0
 11
0.7426882986280599
 21
-0.7426882986280596
 31
0.0
210
0.0
220
0.0
230
-1.0
 40
0.9996954598818875
 41
5.497939437029716
 42
7.068431177329455
  0
ELLIPSE
  5
1C4D
330
1F
100
AcDbEntity
  8
Hewi
  6
Continuous
100
AcDbEllipse
 10
309.0523447167616
 20
697.7542015459611
 30
0.0
 11
1.999999999992733
 21
0.0
 31
0.0
210
0.0
220
0.0
230
1.0
 40
0.0174550649282032
 41
1.570796326794896
 42
3.124139361072645
  0
ELLIPSE
  5
1C4E
330
1F
100
AcDbEntity
  8
Hewi
  6
Continuous
100
AcDbEllipse
 10
355.286828328095
 20
697.7542015459611
 30
0.0
 11
1.999999999992887
 21
0.0
 31
0.0
210
0.0
220
0.0
230
1.0
 40
0.0174550649282036
 41
0.0174532925172215
 42
1.570796326794896
  0
ELLIPSE
  5
1C4F
330
1F
100
AcDbEntity
  8
Hewi
  6
Continuous
100
AcDbEllipse
 10
356.8237010103439
 20
658.1429277584093
 30
0.0
 11
0.7426882986280595
 21
0.7426882986280603
 31
0.0
210
0.0
220
0.0
230
-1.0
 40
0.9996954598818875
 41
2.356346783439934
 42
3.926838523739689
  0
ELLIPSE
  5
1C50
330
1F
100
AcDbEntity
  8
Hewi
  6
Continuous
100
AcDbEllipse
 10
357.9382069059974
 20
660.2575859821362
 30
0.0
 11
0.0000000000000024
 21
2.049999999992742
 31
0.0
210
0.0
220
0.0
230
1.0
 40
0.0085146658186357
 41
3.159045946107143
 42
4.712388980384688
  0
ELLIPSE
  5
1C51
330
1F
100
AcDbEntity
  8
Hewi
  6
Continuous
100
AcDbEllipse
 10
357.9382069059974
 20
695.0531352161624
 30
0.0
 11
0.0000000000000024
 21
2.049999999993052
 31
0.0
210
0.0
220
0.0
230
1.0
 40
0.0085146658186361
 41
4.712388980384688
 42
6.265732014662362
  0
ELLIPSE
  5
1C52
330
1F
100
AcDbEntity
  8
Hewi
  6
Continuous
100
AcDbEllipse
 10
367.8684091129435
 20
696.0541831898725
 30
0.0
 11
-1.450010487797148
 21
-1.450010487798127
 31
0.0
210
0.0
220
0.0
230
1.0
 40
0.9996954598818872
 41
2.356346783439929
 42
3.926838523739663
  0
ELLIPSE
  5
1C53
330
1F
100
AcDbEntity
  8
Hewi
  6
Continuous
100
AcDbEllipse
 10
367.8684091130817
 20
659.2565380084843
 30
0.0
 11
1.450010487797641
 21
-1.450010487797638
 31
0.0
210
0.0
220
0.0
230
-1.0
 40
0.9996954598818872
 41
5.497939437029733
 42
7.068431177329449
  0
ELLIPSE
  5
1C54
330
1F
100
AcDbEntity
  8
Hewi
  6
Continuous
100
AcDbEllipse
 10
368.2695865224414
 20
655.2018179950091
 30
0.0
 11
0.0
 21
-1.950297039685619
 31
0.0
210
0.0
220
0.0
230
1.0
 40
0.9998476951563914
 41
1.570796326794896
 42
3.141592653589792
  0
ELLIPSE
  5
1C55
330
1F
100
AcDbEntity
  8
Hewi
  6
Continuous
100
AcDbEllipse
 10
368.2695865224414
 20
655.2559286962632
 30
0.0
 11
0.0
 21
-1.950297039685619
 31
0.0
210
0.0
220
0.0
230
-1.0
 40
0.9998476951563914
 41
3.141592653589792
 42
4.712388980384688
  0
ELLIPSE
  5
1C56
330
1F
100
AcDbEntity
  8
Hewi
  6
Continuous
100
AcDbEllipse
 10
309.3530803746288
 20
658.7388544515115
 30
0.0
 11
-0.3536610945846709
 21
-0.3536610945849101
 31
0.0
210
0.0
220
0.0
230
1.0
 40
0.9996954598818874
 41
5.497939437029716
 42
7.068431177329457
  0
ELLIPSE
  5
1C57
330
1F
100
AcDbEntity
  8
Hewi
  6
Continuous
100
AcDbEllipse
 10
309.3530803747672
 20
696.5718667468017
 30
0.0
 11
-0.3536610945847904
 21
0.3536610945847904
 31
0.0
210
0.0
220
0.0
230
1.0
 40
0.9996954598818874
 41
5.497939437029701
 42
7.068431177329442
  0
ELLIPSE
  5
1C58
330
1F
100
AcDbEntity
  8
Hewi
  6
Continuous
100
AcDbEllipse
 10
354.9860926700966
 20
658.7388544514679
 30
0.0
 11
0.3536610945847904
 21
-0.3536610945847904
 31
0.0
210
0.0
220
0.0
230
1.0
 40
0.9996954598818874
 41
5.497939437029716
 42
7.068431177329457
  0
ELLIPSE
  5
1C59
330
1F
100
AcDbEntity
  8
Hewi
  6
Continuous
100
AcDbEllipse
 10
354.9860926700966
 20
696.5718667468017
 30
0.0
 11
0.3536610945847904
 21
0.3536610945847905
 31
0.0
210
0.0
220
0.0
230
1.0
 40
0.9996954598818874
 41
5.497939437029728
 42
7.068431177329442
  0
SPLINE
  5
1C5A
330
1F
100
AcDbEntity
  8
Hewi
  6
Continuous
100
AcDbSpline
210
0.0
220
0.0
230
1.0
 70
     8
 71
     3
 72
    16
 73
    12
 74
     0
 42
0.0000000001
 43
0.0000000001
 40
0.0
 40
0.0
 40
0.0
 40
0.0
 40
0.2374321488140412
 40
0.2374321488140412
 40
0.4753570973094587
 40
0.4753570973094587
 40
0.7044621804489401
 40
0.7044621804489401
 40
0.9153180847886474
 40
0.9153180847886474
 40
1.0
 40
1.0
 40
1.0
 40
1.0
 10
309.3195865224079
 20
657.5553605991728
 30
0.0
 10
309.3195865224079
 20
657.4419037534526
 30
0.0
 10
309.2987823950498
 20
657.3270469278059
 30
0.0
 10
309.218193554927
 20
657.1132886747355
 30
0.0
 10
309.1570824307528
 20
657.0112915699127
 30
0.0
 10
309.0046414241623
 20
656.8399184010477
 30
0.0
 10
308.9120710244133
 20
656.7669517042077
 30
0.0
 10
308.7151121653696
 20
656.6640311916843
 30
0.0
 10
308.6092857524309
 20
656.6297263074075
 30
0.0
 10
308.4581930118475
 20
656.6084713926092
 30
0.0
 10
308.4138267873168
 20
656.6053605991465
 30
0.0
 10
308.3695865224254
 20
656.6053605991465
 30
0.0
  0
SPLINE
  5
1C5B
330
1F
100
AcDbEntity
  8
Hewi
  6
Continuous
100
AcDbSpline
210
0.0
220
0.0
230
1.0
 70
     8
 71
     3
 72
    16
 73
    12
 74
     0
 42
0.0000000001
 43
0.0000000001
 40
0.0
 40
0.0
 40
0.0
 40
0.0
 40
0.1942684013936249
 40
0.1942684013936249
 40
0.388096082899196
 40
0.388096082899196
 40
0.5885706772438784
 40
0.5885706772438784
 40
0.8045285325061183
 40
0.8045285325061183
 40
1.0
 40
1.0
 40
1.0
 40
1.0
 10
355.9695865224312
 20
656.6053605991465
 30
0.0
 10
355.8694788628163
 20
656.6053605991465
 30
0.0
 10
355.7679917721507
 20
656.6217079990154
 30
0.0
 10
355.5795138734793
 20
656.6834856574122
 30
0.0
 10
355.4899676570459
 20
656.7296004972295
 30
0.0
 10
355.330211828481
 20
656.8455866696304
 30
0.0
 10
355.2586664988812
 20
656.917632295007
 30
0.0
 10
355.1390405132224
 20
657.0822609938033
 30
0.0
 10
355.0915619312982
 20
657.1781110263827
 30
0.0
 10
355.0336736771313
 20
657.3671697186791
 30
0.0
 10
355.0195865224123
 20
657.4616479040696
 30
0.0
 10
355.0195865224123
 20
657.5553605991728
 30
0.0
  0
LINE
  5
1C8A
330
1F
100
AcDbEntity
  8
Hewi
100
AcDbLine
 10
685.1968766062164
 20
660.2575859821362
 30
0.0
 11
685.1968766062164
 21
695.0531352161624
 31
0.0
  0
LINE
  5
1CEE
330
1F
100
AcDbEntity
  8
Hewi
  6
Continuous
100
AcDbLine
 10
606.9968766062193
 20
354.1848819987927
 30
0.0
 11
606.9968766062193
 21
473.0848819988302
 31
0.0
  0
LINE
  5
1CEF
330
1F
100
AcDbEntity
  8
Hewi
  6
Continuous
100
AcDbLine
 10
625.7968766062222
 20
473.0848819988302
 30
0.0
 11
625.7968766062222
 21
354.1848819987927
 31
0.0
  0
LINE
  5
1CF0
330
1F
100
AcDbEntity
  8
Hewi
  6
Continuous
100
AcDbLine
 10
606.9968766062193
 20
478.4621720826243
 30
0.0
 11
623.2913802426519
 21
478.1777504636838
 31
0.0
  0
LINE
  5
1CF1
330
1F
100
AcDbEntity
  8
Hewi
  6
Continuous
100
AcDbLine
 10
606.9968766062193
 20
473.0848819988302
 30
0.0
 11
606.9968766062193
 21
478.4621720826243
 31
0.0
  0
LINE
  5
1CF2
330
1F
100
AcDbEntity
  8
Hewi
  6
Continuous
100
AcDbLine
 10
625.7968766062222
 20
475.6281388410416
 30
0.0
 11
625.7968766062222
 21
473.0848819988302
 31
0.0
  0
LINE
  5
1CF3
330
1F
100
AcDbEntity
  8
Hewi
  6
Continuous
100
AcDbLine
 10
606.9968766062193
 20
348.8075919150133
 30
0.0
 11
606.9968766062193
 21
354.1848819987927
 31
0.0
  0
LINE
  5
1CF4
330
1F
100
AcDbEntity
  8
Hewi
  6
Continuous
100
AcDbLine
 10
623.2913802426519
 20
349.0920135339683
 30
0.0
 11
606.9968766062193
 21
348.8075919150133
 31
0.0
  0
LINE
  5
1CF5
330
1F
100
AcDbEntity
  8
Hewi
  6
Continuous
100
AcDbLine
 10
625.7968766062222
 20
354.1848819987927
 30
0.0
 11
625.7968766062222
 21
351.6416251566107
 31
0.0
  0
ARC
  5
1CF6
330
1F
100
AcDbEntity
  8
Hewi
  6
Continuous
100
AcDbCircle
 10
623.246876606212
 20
475.6281388410416
 30
0.0
 40
2.549999999999998
100
AcDbArc
 50
0.0
 51
89.00000000013179
  0
ARC
  5
1CF7
330
1F
100
AcDbEntity
  8
Hewi
  6
Continuous
100
AcDbCircle
 10
623.246876606212
 20
351.6416251566107
 30
0.0
 40
2.549999999999998
100
AcDbArc
 50
270.9999999998682
 51
0.0
  0
LINE
  5
1CF8
330
1F
100
AcDbEntity
  8
Hewi
  6
Continuous
100
AcDbLine
 10
685.1968766062313
 20
395.0015666708923
 30
0.0
 11
1191.996876606219
 21
395.0015666708923
 31
0.0
  0
LINE
  5
1CF9
330
1F
100
AcDbEntity
  8
Hewi
  6
Continuous
100
AcDbLine
 10
1199.19275658423
 20
428.3515666708836
 30
0.0
 11
1192.126165928148
 21
428.3515666708836
 31
0.0
  0
LINE
  5
1CFA
330
1F
100
AcDbEntity
  8
Hewi
  6
Continuous
100
AcDbLine
 10
1192.126165928148
 20
395.0515666708807
 30
0.0
 11
1199.19275658423
 21
395.0515666708807
 31
0.0
  0
LINE
  5
1CFB
330
1F
100
AcDbEntity
  8
Hewi
  6
Continuous
100
AcDbLine
 10
1192.126165928148
 20
428.3515666708836
 30
0.0
 11
1191.996876606219
 21
428.2222773490056
 31
0.0
  0
LINE
  5
1CFC
330
1F
100
AcDbEntity
  8
Hewi
  6
Continuous
100
AcDbLine
 10
1191.996876606219
 20
395.1808559927585
 30
0.0
 11
1192.126165928148
 21
395.0515666708807
 31
0.0
  0
LINE
  5
1CFD
330
1F
100
AcDbEntity
  8
Hewi
  6
Continuous
100
AcDbLine
 10
1191.996876606219
 20
428.4015666708866
 30
0.0
 11
685.1968766062313
 21
428.4015666708866
 31
0.0
  0
ARC
  5
1D01
330
1F
100
AcDbEntity
  8
Hewi
  6
Continuous
100
AcDbCircle
 10
1199.19275658423
 20
400.1015666708836
 30
0.0
 40
5.049999999999998
100
AcDbArc
 50
270.0
 51
332.3544770516587
  0
ARC
  5
1D02
330
1F
100
AcDbEntity
  8
Hewi
  6
Continuous
100
AcDbCircle
 10
1199.19275658423
 20
423.3015666708807
 30
0.0
 40
5.049999999999998
100
AcDbArc
 50
27.64552294834134
 51
90.0
  0
ARC
  5
1D03
330
1F
100
AcDbEntity
  8
Hewi
  6
Continuous
100
AcDbCircle
 10
1177.046876606244
 20
411.7015666708892
 30
0.0
 40
30.05
100
AcDbArc
 50
332.3544770516587
 51
27.64552294834134
  0
LINE
  5
20F5
330
1F
100
AcDbEntity
  8
Hewi
  6
Continuous
100
AcDbLine
 10
606.9968766062193
 20
531.2053605991668
 30
0.0
 11
606.9968766062193
 21
701.1053605991755
 31
0.0
  0
LINE
  5
20F6
330
1F
100
AcDbEntity
  8
Hewi
  6
Continuous
100
AcDbLine
 10
606.9968766062193
 20
706.4826506829549
 30
0.0
 11
623.2913802426153
 21
706.1982290639998
 31
0.0
  0
LINE
  5
20F7
330
1F
100
AcDbEntity
  8
Hewi
  6
Continuous
100
AcDbLine
 10
606.9968766062193
 20
706.4826506829549
 30
0.0
 11
606.9968766062193
 21
701.1053605991755
 31
0.0
  0
LINE
  5
20F8
330
1F
100
AcDbEntity
  8
Hewi
  6
Continuous
100
AcDbLine
 10
623.2913802426153
 20
526.112492134328
 30
0.0
 11
606.9968766062193
 21
525.8280705153583
 31
0.0
  0
LINE
  5
20F9
330
1F
100
AcDbEntity
  8
Hewi
  6
Continuous
100
AcDbLine
 10
606.9968766062193
 20
525.8280705153583
 30
0.0
 11
606.9968766062193
 21
531.2053605991668
 31
0.0
  0
LINE
  5
20FA
330
1F
100
AcDbEntity
  8
Hewi
  6
Continuous
100
AcDbLine
 10
625.7968766062073
 20
703.6486174413576
 30
0.0
 11
625.7968766062073
 21
701.1053605991755
 31
0.0
  0
LINE
  5
20FB
330
1F
100
AcDbEntity
  8
Hewi
  6
Continuous
100
AcDbLine
 10
625.7968766062073
 20
528.6621037569703
 30
0.0
 11
625.7968766062073
 21
531.2053605991668
 31
0.0
  0
LINE
  5
20FC
330
1F
100
AcDbEntity
  8
Hewi
  6
Continuous
100
AcDbLine
 10
625.7968766062073
 20
701.1053605991755
 30
0.0
 11
625.7968766062073
 21
531.2053605991668
 31
0.0
  0
ARC
  5
2108
330
1F
100
AcDbEntity
  8
Hewi
  6
Continuous
100
AcDbCircle
 10
-623.2468766062262
 20
703.6486174413576
 30
0.0
 40
2.549999999999998
210
0.0
220
0.0
230
-1.0
100
AcDbArc
 50
90.99999999987149
 51
180.0
  0
ARC
  5
2109
330
1F
100
AcDbEntity
  8
Hewi
  6
Continuous
100
AcDbCircle
 10
-623.2468766062262
 20
528.6621037569703
 30
0.0
 40
2.549999999999998
210
0.0
220
0.0
230
-1.0
100
AcDbArc
 50
180.0
 51
269.0000000001285
  0
LINE
  5
216A
330
1F
100
AcDbEntity
  8
Hewi
  6
Continuous
100
AcDbLine
 10
606.9968766062193
 20
354.1848819988146
 30
0.0
 11
606.9968766062193
 21
473.0848819988087
 31
0.0
  0
LINE
  5
216B
330
1F
100
AcDbEntity
  8
Hewi
  6
Continuous
100
AcDbLine
 10
625.7968766062362
 20
473.0848819988087
 30
0.0
 11
625.7968766062362
 21
354.1848819988146
 31
0.0
  0
LINE
  5
216C
330
1F
100
AcDbEntity
  8
Hewi
  6
Continuous
100
AcDbLine
 10
606.9968766062193
 20
478.4621720826173
 30
0.0
 11
623.2913802426443
 21
478.1777504636623
 31
0.0
  0
LINE
  5
216D
330
1F
100
AcDbEntity
  8
Hewi
  6
Continuous
100
AcDbLine
 10
606.9968766062193
 20
473.0848819988087
 30
0.0
 11
606.9968766062193
 21
478.4621720826173
 31
0.0
  0
LINE
  5
216E
330
1F
100
AcDbEntity
  8
Hewi
  6
Continuous
100
AcDbLine
 10
625.7968766062362
 20
475.62813884102
 30
0.0
 11
625.7968766062362
 21
473.0848819988087
 31
0.0
  0
LINE
  5
216F
330
1F
100
AcDbEntity
  8
Hewi
  6
Continuous
100
AcDbLine
 10
606.9968766062193
 20
348.8075919150062
 30
0.0
 11
606.9968766062193
 21
354.1848819988146
 31
0.0
  0
LINE
  5
2170
330
1F
100
AcDbEntity
  8
Hewi
  6
Continuous
100
AcDbLine
 10
623.2913802426443
 20
349.0920135339468
 30
0.0
 11
606.9968766062193
 21
348.8075919150062
 31
0.0
  0
LINE
  5
2171
330
1F
100
AcDbEntity
  8
Hewi
  6
Continuous
100
AcDbLine
 10
625.7968766062362
 20
354.1848819988146
 30
0.0
 11
625.7968766062362
 21
351.641625156589
 31
0.0
  0
ARC
  5
2172
330
1F
100
AcDbEntity
  8
Hewi
  6
Continuous
100
AcDbCircle
 10
623.2468766062262
 20
475.62813884102
 30
0.0
 40
2.549999999999998
100
AcDbArc
 50
0.0
 51
89.00000000012846
  0
ARC
  5
2173
330
1F
100
AcDbEntity
  8
Hewi
  6
Continuous
100
AcDbCircle
 10
623.2468766062262
 20
351.641625156589
 30
0.0
 40
2.549999999999998
100
AcDbArc
 50
270.9999999998715
 51
0.0
  0
LINE
  5
2180
330
1F
100
AcDbEntity
  8
Hewi
  6
Continuous
100
AcDbLine
 10
670.996876606219
 20
389.1347648113508
 30
0.0
 11
670.996876606219
 21
389.2348429363111
 31
0.0
  0
LINE
  5
2181
330
1F
100
AcDbEntity
  8
Hewi
  6
Continuous
100
AcDbLine
 10
670.996876606219
 20
438.0346944988189
 30
0.0
 11
670.996876606219
 21
438.1346819988167
 31
0.0
  0
LINE
  5
2182
330
1F
100
AcDbEntity
  8
Hewi
  6
Continuous
100
AcDbLine
 10
665.9968766062193
 20
438.0348819988205
 30
0.0
 11
664.9015945728283
 21
438.0348819988205
 31
0.0
  0
LINE
  5
2183
330
1F
100
AcDbEntity
  8
Hewi
  6
Continuous
100
AcDbLine
 10
677.9968766062193
 20
438.0348819988205
 30
0.0
 11
665.9968766062193
 21
438.0348819988205
 31
0.0
  0
LINE
  5
2184
330
1F
100
AcDbEntity
  8
Hewi
  6
Continuous
100
AcDbLine
 10
684.6468766062572
 20
390.2848819988205
 30
0.0
 11
682.5968766062324
 21
390.2674193175111
 31
0.0
  0
LINE
  5
2185
330
1F
100
AcDbEntity
  8
Hewi
  6
Continuous
100
AcDbLine
 10
685.1968766062313
 20
436.4348819988147
 30
0.0
 11
685.1968766062313
 21
390.8348819988089
 31
0.0
  0
LINE
  5
2186
330
1F
100
AcDbEntity
  8
Hewi
  6
Continuous
100
AcDbLine
 10
682.5968766062324
 20
437.0023446801562
 30
0.0
 11
684.6468766062572
 21
436.9848819988176
 31
0.0
  0
LINE
  5
2187
330
1F
100
AcDbEntity
  8
Hewi
  6
Continuous
100
AcDbLine
 10
670.6314245944922
 20
438.1348819988118
 30
0.0
 11
679.6968766062383
 21
438.1348819988118
 31
0.0
  0
LINE
  5
2188
330
1F
100
AcDbEntity
  8
Hewi
  6
Continuous
100
AcDbLine
 10
606.9968766062193
 20
354.1848819988146
 30
0.0
 11
606.9968766062193
 21
473.0848819988087
 31
0.0
  0
LINE
  5
2189
330
1F
100
AcDbEntity
  8
Hewi
  6
Continuous
100
AcDbLine
 10
625.7968766062362
 20
473.0848819988087
 30
0.0
 11
625.7968766062362
 21
354.1848819988146
 31
0.0
  0
LINE
  5
218A
330
1F
100
AcDbEntity
  8
Hewi
  6
Continuous
100
AcDbLine
 10
685.1968766062313
 20
387.8488065502962
 30
0.0
 11
685.1968766062313
 21
378.9371073817813
 31
0.0
  0
LINE
  5
218B
330
1F
100
AcDbEntity
  8
Hewi
  6
Continuous
100
AcDbLine
 10
683.1826540394285
 20
388.9157970622539
 30
0.0
 11
684.1652016330157
 21
388.8986466302224
 31
0.0
  0
LINE
  5
218C
330
1F
100
AcDbEntity
  8
Hewi
  6
Continuous
100
AcDbLine
 10
645.8302968201131
 20
389.5677848827393
 30
0.0
 11
683.1826540394285
 21
388.9157970622539
 31
0.0
  0
LINE
  5
218D
330
1F
100
AcDbEntity
  8
Hewi
  6
Continuous
100
AcDbLine
 10
644.8968766062502
 20
436.752123804493
 30
0.0
 11
644.8968766062502
 21
390.5176401931451
 31
0.0
  0
LINE
  5
218E
330
1F
100
AcDbEntity
  8
Hewi
  6
Continuous
100
AcDbLine
 10
683.1826540394285
 20
438.3539669353406
 30
0.0
 11
645.8302968201131
 21
437.7019791148551
 31
0.0
  0
LINE
  5
218F
330
1F
100
AcDbEntity
  8
Hewi
  6
Continuous
100
AcDbLine
 10
684.1652016330157
 20
438.3711173674303
 30
0.0
 11
683.1826540394285
 21
438.3539669353406
 31
0.0
  0
LINE
  5
2190
330
1F
100
AcDbEntity
  8
Hewi
  6
Continuous
100
AcDbLine
 10
685.1968766062313
 20
448.3326566158423
 30
0.0
 11
685.1968766062313
 21
439.4209574473127
 31
0.0
  0
LINE
  5
2191
330
1F
100
AcDbEntity
  8
Hewi
  6
Continuous
100
AcDbLine
 10
625.7968766062362
 20
451.3840168619419
 30
0.0
 11
683.1826540394285
 21
450.382344390927
 31
0.0
  0
LINE
  5
2192
330
1F
100
AcDbEntity
  8
Hewi
  6
Continuous
100
AcDbLine
 10
606.9968766062193
 20
478.4621720826173
 30
0.0
 11
623.2913802426443
 21
478.1777504636623
 31
0.0
  0
LINE
  5
2193
330
1F
100
AcDbEntity
  8
Hewi
  6
Continuous
100
AcDbLine
 10
606.9968766062193
 20
473.0848819988087
 30
0.0
 11
606.9968766062193
 21
478.4621720826173
 31
0.0
  0
LINE
  5
2194
330
1F
100
AcDbEntity
  8
Hewi
  6
Continuous
100
AcDbLine
 10
625.7968766062362
 20
475.62813884102
 30
0.0
 11
625.7968766062362
 21
473.0848819988087
 31
0.0
  0
LINE
  5
2195
330
1F
100
AcDbEntity
  8
Hewi
  6
Continuous
100
AcDbLine
 10
644.8969126564665
 20
390.9254746360159
 30
0.0
 11
651.6868996837254
 21
390.806954971594
 31
0.0
  0
LINE
  5
2196
330
1F
100
AcDbEntity
  8
Hewi
  6
Continuous
100
AcDbLine
 10
682.5968766062324
 20
390.2674193175111
 30
0.0
 11
651.6868996837254
 21
390.806954971594
 31
0.0
  0
LINE
  5
2197
330
1F
100
AcDbEntity
  8
Hewi
  6
Continuous
100
AcDbLine
 10
682.5968766062324
 20
390.8173355498068
 30
0.0
 11
682.5968766062324
 21
390.2674193175111
 31
0.0
  0
LINE
  5
2198
330
1F
100
AcDbEntity
  8
Hewi
  6
Continuous
100
AcDbLine
 10
652.4409983651672
 20
391.3437083624806
 30
0.0
 11
652.4409983651672
 21
435.926055635143
 31
0.0
  0
LINE
  5
2199
330
1F
100
AcDbEntity
  8
Hewi
  6
Continuous
100
AcDbLine
 10
682.5968766062324
 20
436.4524284478021
 30
0.0
 11
682.5968766062324
 21
390.8173355498068
 31
0.0
  0
LINE
  5
219A
330
1F
100
AcDbEntity
  8
Hewi
  6
Continuous
100
AcDbLine
 10
651.6868996837254
 20
436.4628090260151
 30
0.0
 11
682.5968766062324
 21
437.0023446801562
 31
0.0
  0
LINE
  5
219B
330
1F
100
AcDbEntity
  8
Hewi
  6
Continuous
100
AcDbLine
 10
682.5968766062324
 20
437.0023446801562
 30
0.0
 11
682.5968766062324
 21
436.4524284478021
 31
0.0
  0
LINE
  5
219C
330
1F
100
AcDbEntity
  8
Hewi
  6
Continuous
100
AcDbLine
 10
644.8969126564665
 20
436.3442893616077
 30
0.0
 11
651.6868996837254
 21
436.4628090260151
 31
0.0
  0
LINE
  5
219D
330
1F
100
AcDbEntity
  8
Hewi
  6
Continuous
100
AcDbLine
 10
606.9968766062193
 20
348.8075919150062
 30
0.0
 11
606.9968766062193
 21
354.1848819988146
 31
0.0
  0
LINE
  5
219E
330
1F
100
AcDbEntity
  8
Hewi
  6
Continuous
100
AcDbLine
 10
623.2913802426443
 20
349.0920135339468
 30
0.0
 11
606.9968766062193
 21
348.8075919150062
 31
0.0
  0
LINE
  5
219F
330
1F
100
AcDbEntity
  8
Hewi
  6
Continuous
100
AcDbLine
 10
625.7968766062362
 20
354.1848819988146
 30
0.0
 11
625.7968766062362
 21
351.641625156589
 31
0.0
  0
LINE
  5
21A0
330
1F
100
AcDbEntity
  8
Hewi
  6
Continuous
100
AcDbLine
 10
683.1826540394285
 20
376.8874196067111
 30
0.0
 11
625.7968766062362
 21
375.8857471356525
 31
0.0
  0
ARC
  5
21A1
330
1F
100
AcDbEntity
  8
Hewi
  6
Continuous
100
AcDbCircle
 10
-684.6468766062572
 20
390.8348819988089
 30
0.0
 40
0.55
210
0.0
220
0.0
230
-1.0
100
AcDbArc
 50
180.0
 51
270.0
  0
ARC
  5
21A2
330
1F
100
AcDbEntity
  8
Hewi
  6
Continuous
100
AcDbCircle
 10
-684.6468766062572
 20
436.4348819988147
 30
0.0
 40
0.55
210
0.0
220
0.0
230
-1.0
100
AcDbArc
 50
90.0
 51
180.0
  0
ARC
  5
21A3
330
1F
100
AcDbEntity
  8
Hewi
  6
Continuous
100
AcDbCircle
 10
684.1468766062572
 20
387.8488065502962
 30
0.0
 40
1.05
100
AcDbArc
 50
0.0
 51
89.00000000012846
  0
ARC
  5
21A4
330
1F
100
AcDbEntity
  8
Hewi
  6
Continuous
100
AcDbCircle
 10
645.8468766062324
 20
390.5176401931451
 30
0.0
 40
0.9500000000000287
100
AcDbArc
 50
180.0
 51
269.0000000001285
  0
ARC
  5
21A5
330
1F
100
AcDbEntity
  8
Hewi
  6
Continuous
100
AcDbCircle
 10
645.8468766062324
 20
436.752123804493
 30
0.0
 40
0.9500000000000351
100
AcDbArc
 50
90.99999999987149
 51
180.0
  0
ARC
  5
21A6
330
1F
100
AcDbEntity
  8
Hewi
  6
Continuous
100
AcDbCircle
 10
684.1468766062572
 20
439.4209574473127
 30
0.0
 40
1.05
100
AcDbArc
 50
270.9999999998715
 51
0.0
  0
ARC
  5
21A7
330
1F
100
AcDbEntity
  8
Hewi
  6
Continuous
100
AcDbCircle
 10
683.1468766062502
 20
448.3326566158423
 30
0.0
 40
2.049999999999998
100
AcDbArc
 50
0.0
 51
89.00000000012846
  0
ARC
  5
21A8
330
1F
100
AcDbEntity
  8
Hewi
  6
Continuous
100
AcDbCircle
 10
623.2468766062262
 20
475.62813884102
 30
0.0
 40
2.549999999999998
100
AcDbArc
 50
0.0
 51
89.00000000012846
  0
ARC
  5
21A9
330
1F
100
AcDbEntity
  8
Hewi
  6
Continuous
100
AcDbCircle
 10
623.2468766062262
 20
351.641625156589
 30
0.0
 40
2.549999999999998
100
AcDbArc
 50
270.9999999998715
 51
0.0
  0
ARC
  5
21AA
330
1F
100
AcDbEntity
  8
Hewi
  6
Continuous
100
AcDbCircle
 10
-683.1468766062502
 20
378.9371073817813
 30
0.0
 40
2.049999999999998
210
0.0
220
0.0
230
-1.0
100
AcDbArc
 50
180.0
 51
269.0000000001285
  0
SPLINE
  5
21AB
330
1F
100
AcDbEntity
  8
Hewi
  6
Continuous
100
AcDbSpline
210
0.0
220
0.0
230
1.0
 70
     8
 71
     3
 72
    20
 73
    16
 74
     0
 42
0.0000000001
 43
0.0000000001
 40
0.0
 40
0.0
 40
0.0
 40
0.0
 40
0.0448216244176226
 40
0.0448216244176226
 40
0.4448491916774028
 40
0.4448491916774028
 40
0.5252634315391714
 40
0.5252634315391714
 40
0.7629352579103631
 40
0.7629352579103631
 40
0.8719267528456127
 40
0.8719267528456127
 40
0.9825376433141823
 40
0.9825376433141823
 40
1.0
 40
1.0
 40
1.0
 40
1.0
 10
651.6868996837254
 20
390.806954971594
 30
0.0
 10
651.7008944508672
 20
390.8067106919982
 30
0.0
 10
651.7149071450072
 20
390.8067754707074
 30
0.0
 10
651.8527334753927
 20
390.8104371176953
 30
0.0
 10
651.9793679822144
 20
390.8371869173054
 30
0.0
 10
652.1211215677791
 20
390.9033286467815
 30
0.0
 10
652.1448318429062
 20
390.9157808487428
 30
0.0
 10
652.2355106644941
 20
390.9697613042582
 30
0.0
 10
652.3007782896494
 20
391.0224111478523
 30
0.0
 10
652.3757424796094
 20
391.1223462619447
 30
0.0
 10
652.3967369891074
 20
391.1580589286381
 30
0.0
 10
652.4278557334652
 20
391.2358802088195
 30
0.0
 10
652.4380545583807
 20
391.2793222534593
 30
0.0
 10
652.4408077364173
 20
391.3297447359284
 30
0.0
 10
652.4409983651672
 20
391.3367285042689
 30
0.0
 10
652.4409983651672
 20
391.3437083624806
 30
0.0
  0
SPLINE
  5
21AC
330
1F
100
AcDbEntity
  8
Hewi
  6
Continuous
100
AcDbSpline
210
0.0
220
0.0
230
1.0
 70
     8
 71
     3
 72
    18
 73
    14
 74
     0
 42
0.0000000001
 43
0.0000000001
 40
0.0
 40
0.0
 40
0.0
 40
0.0
 40
0.0481967151535535
 40
0.0481967151535535
 40
0.1374380954146597
 40
0.1374380954146597
 40
0.266597740243724
 40
0.266597740243724
 40
0.3727335680792507
 40
0.3727335680792507
 40
0.6631693004613061
 40
0.6631693004613061
 40
1.0
 40
1.0
 40
1.0
 40
1.0
 10
652.4409983651672
 20
435.926055635143
 30
0.0
 10
652.4409983651672
 20
435.9451314372484
 30
0.0
 10
652.4395573953041
 20
435.9642834519393
 30
0.0
 10
652.4315452283665
 20
436.017805795512
 30
0.0
 10
652.4214803576864
 20
436.0517881851476
 30
0.0
 10
652.3886978230333
 20
436.1280659279211
 30
0.0
 10
652.3620139733501
 20
436.1687184037793
 30
0.0
 10
652.3074863517282
 20
436.2330144851214
 30
0.0
 10
652.2802592007035
 20
436.2589620328428
 30
0.0
 10
652.1746899318134
 20
436.3444151537762
 30
0.0
 10
652.0871544577494
 20
436.3875009809483
 30
0.0
 10
651.8969489241107
 20
436.4496266679409
 30
0.0
 10
651.7909503157672
 20
436.4646252365847
 30
0.0
 10
651.6868996837254
 20
436.4628090260151
 30
0.0
  0
ENDSEC
  0
SECTION
  2
OBJECTS
  0
DICTIONARY
  5
C
330
0
100
AcDbDictionary
281
     1
  3
ACAD_COLOR
350
6B
  3
ACAD_GROUP
350
D
  3
ACAD_LAYOUT
350
1A
  3
ACAD_MATERIAL
350
6A
  3
ACAD_MLINESTYLE
350
17
  3
ACAD_PLOTSETTINGS
350
19
  3
ACAD_PLOTSTYLENAME
350
E
  3
ACAD_TABLESTYLE
350
7E
  3
ACAD_VISUALSTYLE
350
EF
  3
AcDbVariableDictionary
350
5E
  3
DWGPROPS
350
21B5
  0
DICTIONARY
  5
141
330
2
100
AcDbDictionary
280
     1
281
     1
  3
ACAD_LAYERSTATES
360
142
  0
DICTIONARY
  5
116
330
1F
100
AcDbDictionary
280
     1
281
     1
  3
ACAD_SORTENTS
360
117
  0
DICTIONARY
  5
6B
102
{ACAD_REACTORS
330
C
102
}
330
C
100
AcDbDictionary
281
     1
  0
DICTIONARY
  5
D
102
{ACAD_REACTORS
330
C
102
}
330
C
100
AcDbDictionary
281
     1
  0
DICTIONARY
  5
1A
102
{ACAD_REACTORS
330
C
102
}
330
C
100
AcDbDictionary
281
     1
  3
Layout1
350
D3
  3
Layout2
350
D7
  3
Model
350
22
  0
DICTIONARY
  5
6A
102
{ACAD_REACTORS
330
C
102
}
330
C
100
AcDbDictionary
281
     1
  3
ByBlock
350
ED
  3
ByLayer
350
EC
  3
Global
350
EE
  0
DICTIONARY
  5
17
102
{ACAD_REACTORS
330
C
102
}
330
C
100
AcDbDictionary
281
     1
  3
Standard
350
18
  0
DICTIONARY
  5
19
102
{ACAD_REACTORS
330
C
102
}
330
C
100
AcDbDictionary
281
     1
  0
ACDBDICTIONARYWDFLT
  5
E
102
{ACAD_REACTORS
330
C
102
}
330
C
100
AcDbDictionary
281
     1
  3
Normal
350
F
100
AcDbDictionaryWithDefault
340
F
  0
DICTIONARY
  5
7E
102
{ACAD_REACTORS
330
C
102
}
330
C
100
AcDbDictionary
281
     1
  3
Standard
350
7F
  0
DICTIONARY
  5
EF
102
{ACAD_REACTORS
330
C
102
}
330
C
100
AcDbDictionary
281
     1
  3
2dWireframe
350
F5
  3
3D Hidden
350
F7
  3
3dWireframe
350
F6
  3
Basic
350
F4
  3
Brighten
350
FB
  3
ColorChange
350
FF
  3
Conceptual
350
F8
  3
Dim
350
FA
  3
Facepattern
350
FE
  3
Flat
350
F0
  3
FlatWithEdges
350
F1
  3
Gouraud
350
F2
  3
GouraudWithEdges
350
F3
  3
Linepattern
350
FD
  3
Realistic
350
F9
  3
Thicken
350
FC
  0
DICTIONARY
  5
5E
102
{ACAD_REACTORS
330
C
102
}
330
C
100
AcDbDictionary
281
     1
  3
CTABLESTYLE
350
84
  3
DIMASSOC
350
5F
  3
HIDETEXT
350
63
  3
INDEXCTL
350
327
  3
PSOLHEIGHT
350
21B4
  3
PSOLWIDTH
350
21B3
  3
SORTENTS
350
326
  0
XRECORD
  5
21B5
102
{ACAD_REACTORS
330
C
102
}
330
C
100
AcDbXrecord
280
     1
  1
DWGPROPS COOKIE
  2

  3

  4

  6

  7

  8
kaschu
  9

300
=
301
=
302
=
303
=
304
=
305
=
306
=
307
=
308
=
309
=
 40
0.0753204166666667
 41
2454768.552548658
 42
2455847.53861853
  1

 90
        0
  0
DICTIONARY
  5
142
102
{ACAD_REACTORS
330
141
102
}
330
141
100
AcDbDictionary
281
     1
  0
SORTENTSTABLE
  5
117
102
{ACAD_REACTORS
330
116
102
}
330
116
100
AcDbSortentsTable
330
1F
  0
LAYOUT
  5
D3
102
{ACAD_XDICTIONARY
360
21BA
102
}
102
{ACAD_REACTORS
330
1A
102
}
330
1A
100
AcDbPlotSettings
  1

  2
C:\Documents and Settings\basas\Application Data\Autodesk\AutoCAD 2005\R16.1\enu\plotters\Default Windows System Printer.pc3
  4

  6

 40
0.0
 41
0.0
 42
0.0
 43
0.0
 44
0.0
 45
0.0
 46
0.0
 47
0.0
 48
0.0
 49
0.0
140
0.0
141
0.0
142
1.0
143
1.0
 70
   688
 72
     0
 73
     0
 74
     5
  7

 75
    16
147
1.0
148
0.0
149
0.0
100
AcDbLayout
  1
Layout1
 70
     1
 71
     1
 10
0.0
 20
0.0
 11
12.0
 21
9.0
 12
0.0
 22
0.0
 32
0.0
 14
0.0
 24
0.0
 34
0.0
 15
0.0
 25
0.0
 35
0.0
146
0.0
 13
0.0
 23
0.0
 33
0.0
 16
1.0
 26
0.0
 36
0.0
 17
0.0
 27
1.0
 37
0.0
 76
     0
330
D2
  0
LAYOUT
  5
D7
102
{ACAD_XDICTIONARY
360
21BC
102
}
102
{ACAD_REACTORS
330
1A
102
}
330
1A
100
AcDbPlotSettings
  1

  2
C:\Documents and Settings\basas\Application Data\Autodesk\AutoCAD 2005\R16.1\enu\plotters\Default Windows System Printer.pc3
  4

  6

 40
0.0
 41
0.0
 42
0.0
 43
0.0
 44
0.0
 45
0.0
 46
0.0
 47
0.0
 48
0.0
 49
0.0
140
0.0
141
0.0
142
1.0
143
1.0
 70
   688
 72
     0
 73
     0
 74
     5
  7

 75
    16
147
1.0
148
0.0
149
0.0
100
AcDbLayout
  1
Layout2
 70
     1
 71
     2
 10
0.0
 20
0.0
 11
12.0
 21
9.0
 12
0.0
 22
0.0
 32
0.0
 14
0.0
 24
0.0
 34
0.0
 15
0.0
 25
0.0
 35
0.0
146
0.0
 13
0.0
 23
0.0
 33
0.0
 16
1.0
 26
0.0
 36
0.0
 17
0.0
 27
1.0
 37
0.0
 76
     0
330
D6
  0
LAYOUT
  5
22
102
{ACAD_XDICTIONARY
360
21B6
102
}
102
{ACAD_REACTORS
330
1A
102
}
330
1A
100
AcDbPlotSettings
  1

  2
none_device
  4
ISO_A4_(210.00_x_297.00_MM)
  6

 40
7.5
 41
20.0
 42
7.5
 43
20.0
 44
210.0
 45
297.0
 46
11.54999923706054
 47
-13.65000009536743
 48
0.0
 49
0.0
140
0.0
141
0.0
142
1.0
143
8.704084754739808
 70
 11952
 72
     1
 73
     0
 74
     0
  7

 75
     0
147
0.1148885871608098
148
0.0
149
0.0
100
AcDbLayout
  1
Model
 70
     1
 71
     0
 10
0.0
 20
0.0
 11
12.0
 21
9.0
 12
0.0
 22
0.0
 32
0.0
 14
0.0
 24
0.0
 34
0.0
 15
0.0
 25
0.0
 35
0.0
146
0.0
 13
0.0
 23
0.0
 33
0.0
 16
1.0
 26
0.0
 36
0.0
 17
0.0
 27
1.0
 37
0.0
 76
     0
330
1F
331
EA
1001
ACAD_PSEXT
1000
None
1000
None
1000
Not applicable
1000
The layout will not be plotted unless a new plotter configuration name is selected.
1070
     0
  0
MATERIAL
  5
ED
102
{ACAD_XDICTIONARY
360
335
102
}
102
{ACAD_REACTORS
330
6A
102
}
330
6A
100
AcDbMaterial
  1
ByBlock
  0
MATERIAL
  5
EC
102
{ACAD_XDICTIONARY
360
333
102
}
102
{ACAD_REACTORS
330
6A
102
}
330
6A
100
AcDbMaterial
  1
ByLayer
  0
MATERIAL
  5
EE
102
{ACAD_XDICTIONARY
360
337
102
}
102
{ACAD_REACTORS
330
6A
102
}
330
6A
100
AcDbMaterial
  1
Global
  0
MLINESTYLE
  5
18
102
{ACAD_REACTORS
330
17
102
}
330
17
100
AcDbMlineStyle
  2
STANDARD
 70
     0
  3

 62
   256
 51
90.0
 52
90.0
 71
     2
 49
0.5
 62
   256
  6
BYLAYER
 49
-0.5
 62
   256
  6
BYLAYER
  0
ACDBPLACEHOLDER
  5
F
102
{ACAD_REACTORS
330
E
102
}
330
E
  0
TABLESTYLE
  5
7F
102
{ACAD_XDICTIONARY
360
21B8
102
}
102
{ACAD_REACTORS
330
7E
102
}
330
7E
100
AcDbTableStyle
  3
Standard
 70
     0
 71
     0
 40
1.5
 41
1.5
280
     0
281
     0
  7
Standard
140
4.5
170
     2
 62
     0
 63
     7
283
     0
274
    -2
284
     1
 64
     0
275
    -2
285
     1
 65
     0
276
    -2
286
     1
 66
     0
277
    -2
287
     1
 67
     0
278
    -2
288
     1
 68
     0
279
    -2
289
     1
 69
     0
  7
Standard
140
6.0
170
     5
 62
     0
 63
     7
283
     0
274
    -2
284
     1
 64
     0
275
    -2
285
     1
 65
     0
276
    -2
286
     1
 66
     0
277
    -2
287
     1
 67
     0
278
    -2
288
     1
 68
     0
279
    -2
289
     1
 69
     0
  7
Standard
140
4.5
170
     5
 62
     0
 63
     7
283
     0
274
    -2
284
     1
 64
     0
275
    -2
285
     1
 65
     0
276
    -2
286
     1
 66
     0
277
    -2
287
     1
 67
     0
278
    -2
288
     1
 68
     0
279
    -2
289
     1
 69
     0
  0
VISUALSTYLE
  5
F5
102
{ACAD_REACTORS
330
EF
102
}
330
EF
100
AcDbVisualStyle
  2
2dWireframe
 70
     4
 71
     0
 72
     2
 73
     1
 90
        0
 40
-0.6
 41
-30.0
 62
     5
 63
     7
 74
     1
 91
        4
 64
     7
 65
   257
 75
     1
175
     1
 42
1.0
 92
        0
 66
   257
 43
1.0
 76
     1
 77
     6
 78
     2
 67
     7
 79
     5
170
     0
171
     0
290
     0
174
     0
 93
        1
 44
0.0
173
     0
291
     0
 45
0.0
1001
ACAD
1000
AcDbSavedByObjectVersion
1070
     0
1000
AcDbSavedByObjectVersion
1070
     0
1000
AcDbSavedByObjectVersion
1070
     0
1000
AcDbSavedByObjectVersion
1070
     0
1000
AcDbSavedByObjectVersion
1070
     0
1000
AcDbSavedByObjectVersion
1070
     0
1000
AcDbSavedByObjectVersion
1070
     0
1000
AcDbSavedByObjectVersion
1070
     0
1000
AcDbSavedByObjectVersion
1070
     0
  0
VISUALSTYLE
  5
F7
102
{ACAD_REACTORS
330
EF
102
}
330
EF
100
AcDbVisualStyle
  2
3D Hidden
 70
     6
 71
     1
 72
     2
 73
     2
 90
        0
 40
-0.6
 41
-30.0
 62
     5
 63
     7
 74
     2
 91
        2
 64
     7
 65
   257
 75
     2
175
     1
 42
40.0
 92
        0
 66
   257
 43
1.0
 76
     1
 77
     6
 78
     2
 67
     7
 79
     3
170
     0
171
     0
290
     0
174
     0
 93
        1
 44
0.0
173
     0
291
     0
 45
0.0
1001
ACAD
1000
AcDbSavedByObjectVersion
1070
     0
1000
AcDbSavedByObjectVersion
1070
     0
1000
AcDbSavedByObjectVersion
1070
     0
1000
AcDbSavedByObjectVersion
1070
     0
1000
AcDbSavedByObjectVersion
1070
     0
1000
AcDbSavedByObjectVersion
1070
     0
1000
AcDbSavedByObjectVersion
1070
     0
1000
AcDbSavedByObjectVersion
1070
     0
1000
AcDbSavedByObjectVersion
1070
     0
  0
VISUALSTYLE
  5
F6
102
{ACAD_REACTORS
330
EF
102
}
330
EF
100
AcDbVisualStyle
  2
3dWireframe
 70
     5
 71
     0
 72
     2
 73
     1
 90
        0
 40
-0.6
 41
-30.0
 62
     5
 63
     7
 74
     1
 91
        4
 64
     7
 65
   257
 75
     1
175
     1
 42
1.0
 92
        0
 66
   257
 43
1.0
 76
     1
 77
     6
 78
     2
 67
     7
 79
     5
170
     0
171
     0
290
     0
174
     0
 93
        1
 44
0.0
173
     0
291
     0
 45
0.0
1001
ACAD
1000
AcDbSavedByObjectVersion
1070
     0
1000
AcDbSavedByObjectVersion
1070
     0
1000
AcDbSavedByObjectVersion
1070
     0
1000
AcDbSavedByObjectVersion
1070
     0
1000
AcDbSavedByObjectVersion
1070
     0
1000
AcDbSavedByObjectVersion
1070
     0
1000
AcDbSavedByObjectVersion
1070
     0
1000
AcDbSavedByObjectVersion
1070
     0
1000
AcDbSavedByObjectVersion
1070
     0
  0
VISUALSTYLE
  5
F4
102
{ACAD_REACTORS
330
EF
102
}
330
EF
100
AcDbVisualStyle
  2
Basic
 70
     7
 71
     1
 72
     0
 73
     1
 90
        0
 40
-0.6
 41
-30.0
 62
     5
 63
     7
 74
     0
 91
        4
 64
     7
 65
   257
 75
     1
175
     1
 42
1.0
 92
        8
 66
     7
 43
1.0
 76
     1
 77
     6
 78
     2
 67
     7
 79
     5
170
     0
171
     0
290
     0
174
     0
 93
        1
 44
0.0
173
     0
291
     1
 45
0.0
1001
ACAD
1000
AcDbSavedByObjectVersion
1070
     0
1000
AcDbSavedByObjectVersion
1070
     0
1000
AcDbSavedByObjectVersion
1070
     0
1000
AcDbSavedByObjectVersion
1070
     0
1000
AcDbSavedByObjectVersion
1070
     0
1000
AcDbSavedByObjectVersion
1070
     0
1000
AcDbSavedByObjectVersion
1070
     0
1000
AcDbSavedByObjectVersion
1070
     0
1000
AcDbSavedByObjectVersion
1070
     0
  0
VISUALSTYLE
  5
FB
102
{ACAD_REACTORS
330
EF
102
}
330
EF
100
AcDbVisualStyle
  2
Brighten
 70
    12
 71
     2
 72
     2
 73
     1
 90
        0
 40
-0.6
 41
-30.0
 62
     5
 63
     7
 74
     1
 91
        4
 64
     7
 65
   257
 75
     1
175
     1
 42
1.0
 92
        8
 66
     7
 43
1.0
 76
     1
 77
     6
 78
     2
 67
     7
 79
     5
170
     0
171
     0
290
     0
174
     0
 93
        1
 44
50.0
173
     0
291
     1
 45
0.0
1001
ACAD
1000
AcDbSavedByObjectVersion
1070
     0
1000
AcDbSavedByObjectVersion
1070
     0
1000
AcDbSavedByObjectVersion
1070
     0
1000
AcDbSavedByObjectVersion
1070
     0
1000
AcDbSavedByObjectVersion
1070
     0
1000
AcDbSavedByObjectVersion
1070
     0
1000
AcDbSavedByObjectVersion
1070
     0
1000
AcDbSavedByObjectVersion
1070
     0
1000
AcDbSavedByObjectVersion
1070
     0
  0
VISUALSTYLE
  5
FF
102
{ACAD_REACTORS
330
EF
102
}
330
EF
100
AcDbVisualStyle
  2
ColorChange
 70
    16
 71
     2
 72
     2
 73
     3
 90
        0
 40
-0.6
 41
-30.0
 62
     5
 63
     8
 74
     1
 91
        4
 64
     7
 65
   257
 75
     1
175
     1
 42
1.0
 92
        8
 66
     8
 43
1.0
 76
     1
 77
     6
 78
     2
 67
     7
 79
     5
170
     0
171
     0
290
     0
174
     0
 93
        1
 44
0.0
173
     0
291
     1
 45
0.0
1001
ACAD
1000
AcDbSavedByObjectVersion
1070
     0
1000
AcDbSavedByObjectVersion
1070
     0
1000
AcDbSavedByObjectVersion
1070
     0
1000
AcDbSavedByObjectVersion
1070
     0
1000
AcDbSavedByObjectVersion
1070
     0
1000
AcDbSavedByObjectVersion
1070
     0
1000
AcDbSavedByObjectVersion
1070
     0
1000
AcDbSavedByObjectVersion
1070
     0
1000
AcDbSavedByObjectVersion
1070
     0
  0
VISUALSTYLE
  5
F8
102
{ACAD_REACTORS
330
EF
102
}
330
EF
100
AcDbVisualStyle
  2
Conceptual
 70
     9
 71
     3
 72
     2
 73
     1
 90
        0
 40
-0.6
 41
-30.0
 62
     5
 63
     7
 74
     2
 91
        2
 64
     7
 65
   257
 75
     1
175
     1
 42
40.0
 92
        8
 66
     7
 43
1.0
 76
     1
 77
     6
 78
     2
 67
     7
 79
     3
170
     0
171
     0
290
     0
174
     0
 93
        1
 44
0.0
173
     0
291
     0
 45
0.0
1001
ACAD
1000
AcDbSavedByObjectVersion
1070
     0
1000
AcDbSavedByObjectVersion
1070
     0
1000
AcDbSavedByObjectVersion
1070
     0
1000
AcDbSavedByObjectVersion
1070
     0
1000
AcDbSavedByObjectVersion
1070
     0
1000
AcDbSavedByObjectVersion
1070
     0
1000
AcDbSavedByObjectVersion
1070
     0
1000
AcDbSavedByObjectVersion
1070
     0
1000
AcDbSavedByObjectVersion
1070
     0
  0
VISUALSTYLE
  5
FA
102
{ACAD_REACTORS
330
EF
102
}
330
EF
100
AcDbVisualStyle
  2
Dim
 70
    11
 71
     2
 72
     2
 73
     1
 90
        0
 40
-0.6
 41
-30.0
 62
     5
 63
     7
 74
     1
 91
        4
 64
     7
 65
   257
 75
     1
175
     1
 42
1.0
 92
        8
 66
     7
 43
1.0
 76
     1
 77
     6
 78
     2
 67
     7
 79
     5
170
     0
171
     0
290
     0
174
     0
 93
        1
 44
-50.0
173
     0
291
     1
 45
0.0
1001
ACAD
1000
AcDbSavedByObjectVersion
1070
     0
1000
AcDbSavedByObjectVersion
1070
     0
1000
AcDbSavedByObjectVersion
1070
     0
1000
AcDbSavedByObjectVersion
1070
     0
1000
AcDbSavedByObjectVersion
1070
     0
1000
AcDbSavedByObjectVersion
1070
     0
1000
AcDbSavedByObjectVersion
1070
     0
1000
AcDbSavedByObjectVersion
1070
     0
1000
AcDbSavedByObjectVersion
1070
     0
  0
VISUALSTYLE
  5
FE
102
{ACAD_REACTORS
330
EF
102
}
330
EF
100
AcDbVisualStyle
  2
Facepattern
 70
    15
 71
     2
 72
     2
 73
     1
 90
        0
 40
-0.6
 41
-30.0
 62
     5
 63
     7
 74
     1
 91
        4
 64
     7
 65
   257
 75
     1
175
     1
 42
1.0
 92
        8
 66
     7
 43
1.0
 76
     1
 77
     6
 78
     2
 67
     7
 79
     5
170
     0
171
     0
290
     0
174
     0
 93
        1
 44
0.0
173
     0
291
     1
 45
0.0
1001
ACAD
1000
AcDbSavedByObjectVersion
1070
     0
1000
AcDbSavedByObjectVersion
1070
     0
1000
AcDbSavedByObjectVersion
1070
     0
1000
AcDbSavedByObjectVersion
1070
     0
1000
AcDbSavedByObjectVersion
1070
     0
1000
AcDbSavedByObjectVersion
1070
     0
1000
AcDbSavedByObjectVersion
1070
     0
1000
AcDbSavedByObjectVersion
1070
     0
1000
AcDbSavedByObjectVersion
1070
     0
  0
VISUALSTYLE
  5
F0
102
{ACAD_REACTORS
330
EF
102
}
330
EF
100
AcDbVisualStyle
  2
Flat
 70
     0
 71
     2
 72
     1
 73
     1
 90
        2
 40
-0.6
 41
30.0
 62
     5
 63
     7
 74
     0
 91
        4
 64
     7
 65
   257
 75
     1
175
     1
 42
1.0
 92
        8
 66
     7
 43
1.0
 76
     1
 77
     6
 78
     2
 67
     7
 79
     5
170
     0
171
     0
290
     0
174
     0
 93
       13
 44
0.0
173
     0
291
     1
 45
0.0
1001
ACAD
1000
AcDbSavedByObjectVersion
1070
     0
1000
AcDbSavedByObjectVersion
1070
     0
1000
AcDbSavedByObjectVersion
1070
     0
1000
AcDbSavedByObjectVersion
1070
     0
1000
AcDbSavedByObjectVersion
1070
     0
1000
AcDbSavedByObjectVersion
1070
     0
1000
AcDbSavedByObjectVersion
1070
     0
1000
AcDbSavedByObjectVersion
1070
     0
1000
AcDbSavedByObjectVersion
1070
     0
  0
VISUALSTYLE
  5
F1
102
{ACAD_REACTORS
330
EF
102
}
330
EF
100
AcDbVisualStyle
  2
FlatWithEdges
 70
     1
 71
     2
 72
     1
 73
     1
 90
        2
 40
-0.6
 41
30.0
 62
     5
 63
     7
 74
     1
 91
        4
 64
     7
 65
   257
 75
     1
175
     1
 42
1.0
 92
        0
 66
   257
 43
1.0
 76
     1
 77
     6
 78
     2
 67
     7
 79
     5
170
     0
171
     0
290
     0
174
     0
 93
       13
 44
0.0
173
     0
291
     1
 45
0.0
1001
ACAD
1000
AcDbSavedByObjectVersion
1070
     0
1000
AcDbSavedByObjectVersion
1070
     0
1000
AcDbSavedByObjectVersion
1070
     0
1000
AcDbSavedByObjectVersion
1070
     0
1000
AcDbSavedByObjectVersion
1070
     0
1000
AcDbSavedByObjectVersion
1070
     0
1000
AcDbSavedByObjectVersion
1070
     0
1000
AcDbSavedByObjectVersion
1070
     0
1000
AcDbSavedByObjectVersion
1070
     0
  0
VISUALSTYLE
  5
F2
102
{ACAD_REACTORS
330
EF
102
}
330
EF
100
AcDbVisualStyle
  2
Gouraud
 70
     2
 71
     2
 72
     2
 73
     1
 90
        2
 40
-0.6
 41
30.0
 62
     5
 63
     7
 74
     0
 91
        4
 64
     7
 65
   257
 75
     1
175
     1
 42
1.0
 92
        0
 66
     7
 43
1.0
 76
     1
 77
     6
 78
     2
 67
     7
 79
     5
170
     0
171
     0
290
     0
174
     0
 93
       13
 44
0.0
173
     0
291
     1
 45
0.0
1001
ACAD
1000
AcDbSavedByObjectVersion
1070
     0
1000
AcDbSavedByObjectVersion
1070
     0
1000
AcDbSavedByObjectVersion
1070
     0
1000
AcDbSavedByObjectVersion
1070
     0
1000
AcDbSavedByObjectVersion
1070
     0
1000
AcDbSavedByObjectVersion
1070
     0
1000
AcDbSavedByObjectVersion
1070
     0
1000
AcDbSavedByObjectVersion
1070
     0
1000
AcDbSavedByObjectVersion
1070
     0
  0
VISUALSTYLE
  5
F3
102
{ACAD_REACTORS
330
EF
102
}
330
EF
100
AcDbVisualStyle
  2
GouraudWithEdges
 70
     3
 71
     2
 72
     2
 73
     1
 90
        2
 40
-0.6
 41
30.0
 62
     5
 63
     7
 74
     1
 91
        4
 64
     7
 65
   257
 75
     1
175
     1
 42
1.0
 92
        0
 66
   257
 43
1.0
 76
     1
 77
     6
 78
     2
 67
     7
 79
     5
170
     0
171
     0
290
     0
174
     0
 93
       13
 44
0.0
173
     0
291
     1
 45
0.0
1001
ACAD
1000
AcDbSavedByObjectVersion
1070
     0
1000
AcDbSavedByObjectVersion
1070
     0
1000
AcDbSavedByObjectVersion
1070
     0
1000
AcDbSavedByObjectVersion
1070
     0
1000
AcDbSavedByObjectVersion
1070
     0
1000
AcDbSavedByObjectVersion
1070
     0
1000
AcDbSavedByObjectVersion
1070
     0
1000
AcDbSavedByObjectVersion
1070
     0
1000
AcDbSavedByObjectVersion
1070
     0
  0
VISUALSTYLE
  5
FD
102
{ACAD_REACTORS
330
EF
102
}
330
EF
100
AcDbVisualStyle
  2
Linepattern
 70
    14
 71
     2
 72
     2
 73
     1
 90
        0
 40
-0.6
 41
-30.0
 62
     5
 63
     7
 74
     1
 91
        4
 64
     7
 65
   257
 75
     7
175
     7
 42
1.0
 92
        8
 66
     7
 43
1.0
 76
     1
 77
     6
 78
     2
 67
     7
 79
     5
170
     0
171
     0
290
     0
174
     0
 93
        1
 44
0.0
173
     0
291
     1
 45
0.0
1001
ACAD
1000
AcDbSavedByObjectVersion
1070
     0
1000
AcDbSavedByObjectVersion
1070
     0
1000
AcDbSavedByObjectVersion
1070
     0
1000
AcDbSavedByObjectVersion
1070
     0
1000
AcDbSavedByObjectVersion
1070
     0
1000
AcDbSavedByObjectVersion
1070
     0
1000
AcDbSavedByObjectVersion
1070
     0
1000
AcDbSavedByObjectVersion
1070
     0
1000
AcDbSavedByObjectVersion
1070
     0
  0
VISUALSTYLE
  5
F9
102
{ACAD_REACTORS
330
EF
102
}
330
EF
100
AcDbVisualStyle
  2
Realistic
 70
     8
 71
     2
 72
     2
 73
     1
 90
        0
 40
-0.6
 41
-30.0
 62
     5
 63
     7
 74
     1
 91
        0
 64
     7
 65
   257
 75
     1
175
     1
 42
1.0
 92
        8
 66
     8
 43
1.0
 76
     1
 77
     6
 78
     2
 67
     7
 79
     5
170
     0
171
     0
290
     0
174
     0
 93
       13
 44
0.0
173
     0
291
     0
 45
0.0
1001
ACAD
1000
AcDbSavedByObjectVersion
1070
     0
1000
AcDbSavedByObjectVersion
1070
     0
1000
AcDbSavedByObjectVersion
1070
     0
1000
AcDbSavedByObjectVersion
1070
     0
1000
AcDbSavedByObjectVersion
1070
     0
1000
AcDbSavedByObjectVersion
1070
     0
1000
AcDbSavedByObjectVersion
1070
     0
1000
AcDbSavedByObjectVersion
1070
     0
1000
AcDbSavedByObjectVersion
1070
     0
  0
VISUALSTYLE
  5
FC
102
{ACAD_REACTORS
330
EF
102
}
330
EF
100
AcDbVisualStyle
  2
Thicken
 70
    13
 71
     2
 72
     2
 73
     1
 90
        0
 40
-0.6
 41
-30.0
 62
     5
 63
     7
 74
     1
 91
        4
 64
     7
 65
   257
 75
     1
175
     1
 42
1.0
 92
       12
 66
     7
 43
1.0
 76
     1
 77
     6
 78
     2
 67
     7
 79
     5
170
     0
171
     0
290
     0
174
     0
 93
        1
 44
0.0
173
     0
291
     1
 45
0.0
1001
ACAD
1000
AcDbSavedByObjectVersion
1070
     0
1000
AcDbSavedByObjectVersion
1070
     0
1000
AcDbSavedByObjectVersion
1070
     0
1000
AcDbSavedByObjectVersion
1070
     0
1000
AcDbSavedByObjectVersion
1070
     0
1000
AcDbSavedByObjectVersion
1070
     0
1000
AcDbSavedByObjectVersion
1070
     0
1000
AcDbSavedByObjectVersion
1070
     0
1000
AcDbSavedByObjectVersion
1070
     0
  0
DICTIONARYVAR
  5
84
102
{ACAD_REACTORS
330
5E
102
}
330
5E
100
DictionaryVariables
280
     0
  1
STANDARD
  0
DICTIONARYVAR
  5
5F
102
{ACAD_REACTORS
330
5E
102
}
330
5E
100
DictionaryVariables
280
     0
  1
2
  0
DICTIONARYVAR
  5
63
102
{ACAD_REACTORS
330
5E
102
}
330
5E
100
DictionaryVariables
280
     0
  1
1
  0
DICTIONARYVAR
  5
327
102
{ACAD_REACTORS
330
5E
102
}
330
5E
100
DictionaryVariables
280
     0
  1
0
  0
DICTIONARYVAR
  5
21B4
102
{ACAD_REACTORS
330
5E
102
}
330
5E
100
DictionaryVariables
280
     0
  1
80.000000
  0
DICTIONARYVAR
  5
21B3
102
{ACAD_REACTORS
330
5E
102
}
330
5E
100
DictionaryVariables
280
     0
  1
5.000000
  0
DICTIONARYVAR
  5
326
102
{ACAD_REACTORS
330
5E
102
}
330
5E
100
DictionaryVariables
280
     0
  1
127
  0
DICTIONARY
  5
21BA
330
D3
100
AcDbDictionary
280
     1
281
     1
  3
ACAD_XREC_ROUNDTRIP
360
21BB
  0
DICTIONARY
  5
21BC
330
D7
100
AcDbDictionary
280
     1
281
     1
  3
ACAD_XREC_ROUNDTRIP
360
21BD
  0
DICTIONARY
  5
21B6
330
22
100
AcDbDictionary
280
     1
281
     1
  3
ACAD_XREC_ROUNDTRIP
360
21B7
  0
DICTIONARY
  5
335
330
ED
100
AcDbDictionary
280
     1
281
     1
  3
ACAD_XREC_ROUNDTRIP
360
336
  0
DICTIONARY
  5
333
330
EC
100
AcDbDictionary
280
     1
281
     1
  3
ACAD_XREC_ROUNDTRIP
360
334
  0
DICTIONARY
  5
337
330
EE
100
AcDbDictionary
280
     1
281
     1
  3
ACAD_XREC_ROUNDTRIP
360
338
  0
DICTIONARY
  5
21B8
330
7F
100
AcDbDictionary
280
     1
281
     1
  3
ACAD_XREC_ROUNDTRIP
360
21B9
  0
XRECORD
  5
21BB
102
{ACAD_REACTORS
330
21BA
102
}
330
21BA
100
AcDbXrecord
280
     1
102
SHADEPLOT
 70
     0
102
SHADEPLOTRESLEVEL
 70
     2
102
SHADEPLOTCUSTOMDPI
 70
   300
  0
XRECORD
  5
21BD
102
{ACAD_REACTORS
330
21BC
102
}
330
21BC
100
AcDbXrecord
280
     1
102
SHADEPLOT
 70
     0
102
SHADEPLOTRESLEVEL
 70
     2
102
SHADEPLOTCUSTOMDPI
 70
   300
  0
XRECORD
  5
21B7
102
{ACAD_REACTORS
330
21B6
102
}
330
21B6
100
AcDbXrecord
280
     1
102
SHADEPLOT
 70
     0
102
SHADEPLOTRESLEVEL
 70
     2
102
SHADEPLOTCUSTOMDPI
 70
   300
  0
XRECORD
  5
336
102
{ACAD_REACTORS
330
335
102
}
330
335
100
AcDbXrecord
280
     1
102
MATERIAL
148
0.0
149
0.0
149
0.0
 93
        0
 94
       63
282
     0
 72
     1
 77
     1
171
     1
175
     1
179
     1
273
     0
  0
XRECORD
  5
334
102
{ACAD_REACTORS
330
333
102
}
330
333
100
AcDbXrecord
280
     1
102
MATERIAL
148
0.0
149
0.0
149
0.0
 93
        0
 94
       63
282
     0
 72
     1
 77
     1
171
     1
175
     1
179
     1
273
     0
  0
XRECORD
  5
338
102
{ACAD_REACTORS
330
337
102
}
330
337
100
AcDbXrecord
280
     1
102
MATERIAL
148
0.0
149
0.0
149
0.0
 93
        0
 94
       63
282
     0
 72
     1
 77
     1
171
     1
175
     1
179
     1
273
     0
  0
XRECORD
  5
21B9
102
{ACAD_REACTORS
330
21B8
102
}
330
21B8
100
AcDbXrecord
280
     1
102
ACAD_ROUNDTRIP_PRE2007_TABLESTYLE
 90
      512
 91
        0
  1

 92
      512
 93
        0
  2

 94
      512
 95
        0
  3

  0
ENDSEC
  0
EOF
