  0
SECTION
  2
HEADER
  9
$ACADVER
  1
AC1015
  9
$ACADMAINTVER
 70
    20
  9
$DWGCODEPAGE
  3
ANSI_1252
  9
$INSBASE
 10
0.0
 20
0.0
 30
0.0
  9
$EXTMIN
 10
238.3610568216141
 20
173.4303018312339
 30
0.0
  9
$EXTMAX
 10
5432.663386317576
 20
1520.13723085058
 30
0.0
  9
$LIMMIN
 10
0.0
 20
0.0
  9
$LIMMAX
 10
420.0
 20
297.0
  9
$ORTHOMODE
 70
     0
  9
$REGENMODE
 70
     1
  9
$FILLMODE
 70
     1
  9
$QTEXTMODE
 70
     0
  9
$MIRRTEXT
 70
     0
  9
$LTSCALE
 40
1.0
  9
$ATTMODE
 70
     1
  9
$TEXTSIZE
 40
2.5
  9
$TRACEWID
 40
1.0
  9
$TEXTSTYLE
  7
Standard
  9
$CLAYER
  8
0
  9
$CELTYPE
  6
ByLayer
  9
$CECOLOR
 62
   256
  9
$CELTSCALE
 40
1.0
  9
$DISPSILH
 70
     0
  9
$DIMSCALE
 40
1.0
  9
$DIMASZ
 40
2.5
  9
$DIMEXO
 40
0.625
  9
$DIMDLI
 40
3.75
  9
$DIMRND
 40
0.0
  9
$DIMDLE
 40
0.0
  9
$DIMEXE
 40
1.25
  9
$DIMTP
 40
0.0
  9
$DIMTM
 40
0.0
  9
$DIMTXT
 40
2.5
  9
$DIMCEN
 40
2.5
  9
$DIMTSZ
 40
0.0
  9
$DIMTOL
 70
     0
  9
$DIMLIM
 70
     0
  9
$DIMTIH
 70
     0
  9
$DIMTOH
 70
     0
  9
$DIMSE1
 70
     0
  9
$DIMSE2
 70
     0
  9
$DIMTAD
 70
     1
  9
$DIMZIN
 70
     8
  9
$DIMBLK
  1

  9
$DIMASO
 70
     1
  9
$DIMSHO
 70
     1
  9
$DIMPOST
  1

  9
$DIMAPOST
  1

  9
$DIMALT
 70
     0
  9
$DIMALTD
 70
     3
  9
$DIMALTF
 40
0.03937007874016
  9
$DIMLFAC
 40
1.0
  9
$DIMTOFL
 70
     1
  9
$DIMTVP
 40
0.0
  9
$DIMTIX
 70
     0
  9
$DIMSOXD
 70
     0
  9
$DIMSAH
 70
     0
  9
$DIMBLK1
  1

  9
$DIMBLK2
  1

  9
$DIMSTYLE
  2
ISO-25
  9
$DIMCLRD
 70
     0
  9
$DIMCLRE
 70
     0
  9
$DIMCLRT
 70
     0
  9
$DIMTFAC
 40
1.0
  9
$DIMGAP
 40
0.625
  9
$DIMJUST
 70
     0
  9
$DIMSD1
 70
     0
  9
$DIMSD2
 70
     0
  9
$DIMTOLJ
 70
     0
  9
$DIMTZIN
 70
     8
  9
$DIMALTZ
 70
     0
  9
$DIMALTTZ
 70
     0
  9
$DIMUPT
 70
     0
  9
$DIMDEC
 70
     2
  9
$DIMTDEC
 70
     2
  9
$DIMALTU
 70
     2
  9
$DIMALTTD
 70
     3
  9
$DIMTXSTY
  7
Standard
  9
$DIMAUNIT
 70
     0
  9
$DIMADEC
 70
     0
  9
$DIMALTRND
 40
0.0
  9
$DIMAZIN
 70
     0
  9
$DIMDSEP
 70
    44
  9
$DIMATFIT
 70
     3
  9
$DIMFRAC
 70
     0
  9
$DIMLDRBLK
  1

  9
$DIMLUNIT
 70
     2
  9
$DIMLWD
 70
    -2
  9
$DIMLWE
 70
    -2
  9
$DIMTMOVE
 70
     0
  9
$LUNITS
 70
     2
  9
$LUPREC
 70
     4
  9
$SKETCHINC
 40
1.0
  9
$FILLETRAD
 40
0.0
  9
$AUNITS
 70
     0
  9
$AUPREC
 70
     0
  9
$MENU
  1
.
  9
$ELEVATION
 40
0.0
  9
$PELEVATION
 40
0.0
  9
$THICKNESS
 40
0.0
  9
$LIMCHECK
 70
     0
  9
$CHAMFERA
 40
0.0
  9
$CHAMFERB
 40
0.0
  9
$CHAMFERC
 40
0.0
  9
$CHAMFERD
 40
0.0
  9
$SKPOLY
 70
     0
  9
$TDCREATE
 40
2454768.510881991
  9
$TDUCREATE
 40
2454768.469215324
  9
$TDUPDATE
 40
2455610.687625451
  9
$TDUUPDATE
 40
2455610.645958785
  9
$TDINDWG
 40
0.0772111227
  9
$TDUSRTIMER
 40
0.0772051157
  9
$USRTIMER
 70
     1
  9
$ANGBASE
 50
0.0
  9
$ANGDIR
 70
     0
  9
$PDMODE
 70
     0
  9
$PDSIZE
 40
0.0
  9
$PLINEWID
 40
0.0
  9
$SPLFRAME
 70
     0
  9
$SPLINETYPE
 70
     6
  9
$SPLINESEGS
 70
     8
  9
$HANDSEED
  5
251A
  9
$SURFTAB1
 70
     6
  9
$SURFTAB2
 70
     6
  9
$SURFTYPE
 70
     6
  9
$SURFU
 70
     6
  9
$SURFV
 70
     6
  9
$UCSBASE
  2

  9
$UCSNAME
  2

  9
$UCSORG
 10
0.0
 20
0.0
 30
0.0
  9
$UCSXDIR
 10
1.0
 20
0.0
 30
0.0
  9
$UCSYDIR
 10
0.0
 20
1.0
 30
0.0
  9
$UCSORTHOREF
  2

  9
$UCSORTHOVIEW
 70
     0
  9
$UCSORGTOP
 10
0.0
 20
0.0
 30
0.0
  9
$UCSORGBOTTOM
 10
0.0
 20
0.0
 30
0.0
  9
$UCSORGLEFT
 10
0.0
 20
0.0
 30
0.0
  9
$UCSORGRIGHT
 10
0.0
 20
0.0
 30
0.0
  9
$UCSORGFRONT
 10
0.0
 20
0.0
 30
0.0
  9
$UCSORGBACK
 10
0.0
 20
0.0
 30
0.0
  9
$PUCSBASE
  2

  9
$PUCSNAME
  2

  9
$PUCSORG
 10
0.0
 20
0.0
 30
0.0
  9
$PUCSXDIR
 10
1.0
 20
0.0
 30
0.0
  9
$PUCSYDIR
 10
0.0
 20
1.0
 30
0.0
  9
$PUCSORTHOREF
  2

  9
$PUCSORTHOVIEW
 70
     0
  9
$PUCSORGTOP
 10
0.0
 20
0.0
 30
0.0
  9
$PUCSORGBOTTOM
 10
0.0
 20
0.0
 30
0.0
  9
$PUCSORGLEFT
 10
0.0
 20
0.0
 30
0.0
  9
$PUCSORGRIGHT
 10
0.0
 20
0.0
 30
0.0
  9
$PUCSORGFRONT
 10
0.0
 20
0.0
 30
0.0
  9
$PUCSORGBACK
 10
0.0
 20
0.0
 30
0.0
  9
$USERI1
 70
     0
  9
$USERI2
 70
     0
  9
$USERI3
 70
     0
  9
$USERI4
 70
     0
  9
$USERI5
 70
     0
  9
$USERR1
 40
0.0
  9
$USERR2
 40
0.0
  9
$USERR3
 40
0.0
  9
$USERR4
 40
0.0
  9
$USERR5
 40
0.0
  9
$WORLDVIEW
 70
     1
  9
$SHADEDGE
 70
     3
  9
$SHADEDIF
 70
    70
  9
$TILEMODE
 70
     1
  9
$MAXACTVP
 70
    64
  9
$PINSBASE
 10
0.0
 20
0.0
 30
0.0
  9
$PLIMCHECK
 70
     0
  9
$PEXTMIN
 10
0.0
 20
0.0
 30
0.0
  9
$PEXTMAX
 10
0.0
 20
0.0
 30
0.0
  9
$PLIMMIN
 10
0.0
 20
0.0
  9
$PLIMMAX
 10
12.0
 20
9.0
  9
$UNITMODE
 70
     0
  9
$VISRETAIN
 70
     1
  9
$PLINEGEN
 70
     0
  9
$PSLTSCALE
 70
     1
  9
$TREEDEPTH
 70
  3020
  9
$CMLSTYLE
  2
Standard
  9
$CMLJUST
 70
     0
  9
$CMLSCALE
 40
20.0
  9
$PROXYGRAPHICS
 70
     1
  9
$MEASUREMENT
 70
     1
  9
$CELWEIGHT
370
    -1
  9
$ENDCAPS
280
     0
  9
$JOINSTYLE
280
     0
  9
$LWDISPLAY
290
     0
  9
$INSUNITS
 70
     4
  9
$HYPERLINKBASE
  1

  9
$STYLESHEET
  1

  9
$XEDIT
290
     1
  9
$CEPSNTYPE
380
     0
  9
$PSTYLEMODE
290
     1
  9
$FINGERPRINTGUID
  2
{A9F5D530-972F-4813-857A-78B9B08CAD27}
  9
$VERSIONGUID
  2
{94EA89E4-7FA8-40C3-80BA-1B9DEE0B13B7}
  9
$EXTNAMES
290
     1
  9
$PSVPSCALE
 40
0.0
  9
$OLESTARTUP
290
     0
  0
ENDSEC
  0
SECTION
  2
CLASSES
  0
CLASS
  1
ACDBDICTIONARYWDFLT
  2
AcDbDictionaryWithDefault
  3
ObjectDBX Classes
 90
        0
280
     0
281
     0
  0
CLASS
  1
DICTIONARYVAR
  2
AcDbDictionaryVar
  3
ObjectDBX Classes
 90
        0
280
     0
281
     0
  0
CLASS
  1
TABLESTYLE
  2
AcDbTableStyle
  3
ObjectDBX Classes
 90
     4095
280
     0
281
     0
  0
CLASS
  1
MATERIAL
  2
AcDbMaterial
  3
ObjectDBX Classes
 90
     1024
280
     0
281
     0
  0
CLASS
  1
VISUALSTYLE
  2
AcDbVisualStyle
  3
ObjectDBX Classes
 90
     4095
280
     0
281
     0
  0
CLASS
  1
SORTENTSTABLE
  2
AcDbSortentsTable
  3
ObjectDBX Classes
 90
        0
280
     0
281
     0
  0
CLASS
  1
DIMASSOC
  2
AcDbDimAssoc
  3
"AcDbDimAssoc|Product Desc:     AcDim ARX App For Dimension|Company:          Autodesk, Inc.|WEB Address:      www.autodesk.com"
 90
    32768
280
     0
281
     0
  0
CLASS
  1
ACDBPLACEHOLDER
  2
AcDbPlaceHolder
  3
ObjectDBX Classes
 90
        0
280
     0
281
     0
  0
CLASS
  1
LAYOUT
  2
AcDbLayout
  3
ObjectDBX Classes
 90
        0
280
     0
281
     0
  0
ENDSEC
  0
SECTION
  2
TABLES
  0
TABLE
  2
VPORT
  5
8
330
0
100
AcDbSymbolTable
 70
     1
  0
VPORT
  5
EA
330
8
100
AcDbSymbolTableRecord
100
AcDbViewportTableRecord
  2
*Active
 70
     0
 10
0.0
 20
0.0
 11
1.0
 21
1.0
 12
2941.396880938892
 22
389.5280776216992
 13
0.0
 23
0.0
 14
10.0
 24
10.0
 15
10.0
 25
10.0
 16
0.0
 26
0.0
 36
1.0
 17
0.0
 27
0.0
 37
0.0
 40
4059.411303608693
 41
1.858662613981763
 42
50.0
 43
0.0
 44
0.0
 50
0.0
 51
0.0
 71
     0
 72
  1000
 73
     1
 74
     3
 75
     0
 76
     0
 77
     0
 78
     0
281
     0
 65
     1
110
0.0
120
0.0
130
0.0
111
1.0
121
0.0
131
0.0
112
0.0
122
1.0
132
0.0
 79
     0
146
0.0
  0
ENDTAB
  0
TABLE
  2
LTYPE
  5
5
330
0
100
AcDbSymbolTable
 70
     4
  0
LTYPE
  5
14
330
5
100
AcDbSymbolTableRecord
100
AcDbLinetypeTableRecord
  2
ByBlock
 70
     0
  3

 72
    65
 73
     0
 40
0.0
  0
LTYPE
  5
15
330
5
100
AcDbSymbolTableRecord
100
AcDbLinetypeTableRecord
  2
ByLayer
 70
     0
  3

 72
    65
 73
     0
 40
0.0
  0
LTYPE
  5
16
330
5
100
AcDbSymbolTableRecord
100
AcDbLinetypeTableRecord
  2
Continuous
 70
     0
  3
Solid line
 72
    65
 73
     0
 40
0.0
  0
ENDTAB
  0
TABLE
  2
LAYER
  5
2
102
{ACAD_XDICTIONARY
360
141
102
}
330
0
100
AcDbSymbolTable
 70
     6
  0
LAYER
  5
10
330
2
100
AcDbSymbolTableRecord
100
AcDbLayerTableRecord
  2
0
 70
     0
 62
     7
  6
Continuous
370
    -3
390
F
  0
LAYER
  5
124
330
2
100
AcDbSymbolTableRecord
100
AcDbLayerTableRecord
  2
Defpoints
 70
     0
 62
     7
  6
Continuous
290
     0
370
    -3
390
F
  0
LAYER
  5
13E
330
2
100
AcDbSymbolTableRecord
100
AcDbLayerTableRecord
  2
Hewi
 70
     0
 62
     7
  6
Continuous
370
    -3
390
F
  0
ENDTAB
  0
TABLE
  2
STYLE
  5
3
330
0
100
AcDbSymbolTable
 70
     4
  0
STYLE
  5
11
330
3
100
AcDbSymbolTableRecord
100
AcDbTextStyleTableRecord
  2
Standard
 70
     0
 40
0.0
 41
1.0
 50
0.0
 71
     0
 42
2.5
  3
txt
  4

  0
ENDTAB
  0
TABLE
  2
VIEW
  5
6
330
0
100
AcDbSymbolTable
 70
     0
  0
ENDTAB
  0
TABLE
  2
UCS
  5
7
330
0
100
AcDbSymbolTable
 70
     0
  0
ENDTAB
  0
TABLE
  2
APPID
  5
9
330
0
100
AcDbSymbolTable
 70
     3
  0
APPID
  5
12
330
9
100
AcDbSymbolTableRecord
100
AcDbRegAppTableRecord
  2
ACAD
 70
     0
  0
APPID
  5
9E
330
9
100
AcDbSymbolTableRecord
100
AcDbRegAppTableRecord
  2
ACAD_PSEXT
 70
     0
  0
APPID
  5
212
330
9
100
AcDbSymbolTableRecord
100
AcDbRegAppTableRecord
  2
ACAD_EXEMPT_FROM_CAD_STANDARDS
 70
     0
  0
ENDTAB
  0
TABLE
  2
DIMSTYLE
  5
A
330
0
100
AcDbSymbolTable
 70
     2
100
AcDbDimStyleTable
 71
     1
340
27
  0
DIMSTYLE
105
27
330
A
100
AcDbSymbolTableRecord
100
AcDbDimStyleTableRecord
  2
ISO-25
 70
     0
 41
2.5
 42
0.625
 43
3.75
 44
1.25
 73
     0
 74
     0
 77
     1
 78
     8
140
2.5
141
2.5
143
0.03937007874016
147
0.625
171
     3
172
     1
271
     2
272
     2
274
     3
278
    44
283
     0
284
     8
340
11
  0
DIMSTYLE
105
254
330
A
100
AcDbSymbolTableRecord
100
AcDbDimStyleTableRecord
  2
Standard
 70
     0
340
11
  0
ENDTAB
  0
TABLE
  2
BLOCK_RECORD
  5
1
330
0
100
AcDbSymbolTable
 70
     5
  0
BLOCK_RECORD
  5
1F
102
{ACAD_XDICTIONARY
360
116
102
}
330
1
100
AcDbSymbolTableRecord
100
AcDbBlockTableRecord
  2
*Model_Space
340
22
  0
BLOCK_RECORD
  5
D2
330
1
100
AcDbSymbolTableRecord
100
AcDbBlockTableRecord
  2
*Paper_Space
340
D3
  0
BLOCK_RECORD
  5
D6
330
1
100
AcDbSymbolTableRecord
100
AcDbBlockTableRecord
  2
*Paper_Space0
340
D7
  0
ENDTAB
  0
ENDSEC
  0
SECTION
  2
BLOCKS
  0
BLOCK
  5
20
330
1F
100
AcDbEntity
  8
0
100
AcDbBlockBegin
  2
*Model_Space
 70
     0
 10
0.0
 20
0.0
 30
0.0
  3
*Model_Space
  1

  0
ENDBLK
  5
21
330
1F
100
AcDbEntity
  8
0
100
AcDbBlockEnd
  0
BLOCK
  5
D4
330
D2
100
AcDbEntity
 67
     1
  8
0
100
AcDbBlockBegin
  2
*Paper_Space
 70
     0
 10
0.0
 20
0.0
 30
0.0
  3
*Paper_Space
  1

  0
ENDBLK
  5
D5
330
D2
100
AcDbEntity
 67
     1
  8
0
100
AcDbBlockEnd
  0
BLOCK
  5
D8
330
D6
100
AcDbEntity
 67
     1
  8
0
100
AcDbBlockBegin
  2
*Paper_Space0
 70
     0
 10
0.0
 20
0.0
 30
0.0
  3
*Paper_Space0
  1

  0
ENDBLK
  5
D9
330
D6
100
AcDbEntity
 67
     1
  8
0
100
AcDbBlockEnd
  0
ENDSEC
  0
SECTION
  2
ENTITIES
  0
LINE
  5
244B
330
1F
100
AcDbEntity
  8
Hewi
  6
Continuous
100
AcDbLine
 10
702.9886369891723
 20
580.7782507421334
 30
0.0
 11
1142.659316574591
 21
580.7782507421334
 31
0.0
  0
LINE
  5
244C
330
1F
100
AcDbEntity
  8
Hewi
  6
Continuous
100
AcDbLine
 10
1413.115636989208
 20
614.1782507421274
 30
0.0
 11
1413.015636989238
 21
614.0782507421071
 31
0.0
  0
LINE
  5
244D
330
1F
100
AcDbEntity
  8
Hewi
  6
Continuous
100
AcDbLine
 10
1413.015636989238
 20
580.8782507421392
 30
0.0
 11
1413.115636989208
 21
580.7782507421334
 31
0.0
  0
LINE
  5
244E
330
1F
100
AcDbEntity
  8
Hewi
  6
Continuous
100
AcDbLine
 10
1420.108848616324
 20
614.1782507421274
 30
0.0
 11
1413.115636989208
 21
614.1782507421274
 31
0.0
  0
LINE
  5
244F
330
1F
100
AcDbEntity
  8
Hewi
  6
Continuous
100
AcDbLine
 10
1413.115636989208
 20
580.7782507421334
 30
0.0
 11
1420.108848616324
 21
580.7782507421334
 31
0.0
  0
LINE
  5
2450
330
1F
100
AcDbEntity
  8
Hewi
  6
Continuous
100
AcDbLine
 10
663.7156369892286
 20
580.8672226171156
 30
0.0
 11
663.7156369892286
 21
510.0138507420897
 31
0.0
  0
LINE
  5
2451
330
1F
100
AcDbEntity
  8
Hewi
  6
Continuous
100
AcDbLine
 10
678.71563698923
 20
509.9186663671398
 30
0.0
 11
678.71563698923
 21
580.7774007421076
 31
0.0
  0
LINE
  5
2452
330
1F
100
AcDbEntity
  8
Hewi
  6
Continuous
100
AcDbLine
 10
1142.659316571819
 20
580.7782507421334
 30
0.0
 11
1074.78824875993
 21
512.9071829302383
 31
0.0
  0
LINE
  5
2453
330
1F
100
AcDbEntity
  8
Hewi
  6
Continuous
100
AcDbLine
 10
1092.465918289632
 20
495.2295134005953
 30
0.0
 11
1178.01563698924
 21
580.7792321002316
 31
0.0
  0
LINE
  5
2454
330
1F
100
AcDbEntity
  8
Hewi
  6
Continuous
100
AcDbLine
 10
663.6156369892082
 20
509.9782507421305
 30
0.0
 11
601.2156369892218
 21
509.9782507421305
 31
0.0
  0
LINE
  5
2455
330
1F
100
AcDbEntity
  8
Hewi
  6
Continuous
100
AcDbLine
 10
1067.717180948068
 20
509.9782507421305
 30
0.0
 11
678.7798730112599
 21
509.9782507421305
 31
0.0
  0
LINE
  5
2456
330
1F
100
AcDbEntity
  8
Hewi
  6
Continuous
100
AcDbLine
 10
679.4656369892217
 20
484.9782507421305
 30
0.0
 11
1067.717180948068
 21
484.9782507421305
 31
0.0
  0
LINE
  5
2457
330
1F
100
AcDbEntity
  8
Hewi
  6
Continuous
100
AcDbLine
 10
601.2156369892218
 20
484.9782507421305
 30
0.0
 11
663.0597250212126
 21
484.9782507421305
 31
0.0
  0
LINE
  5
2458
330
1F
100
AcDbEntity
  8
Hewi
  6
Continuous
100
AcDbLine
 10
1413.015636989238
 20
614.1782507421274
 30
0.0
 11
702.9886369891723
 21
614.1782507421274
 31
0.0
  0
LINE
  5
2459
330
1F
100
AcDbEntity
  8
Hewi
  6
Continuous
100
AcDbLine
 10
1178.01563698924
 20
580.7792321002316
 30
0.0
 11
1413.015636989238
 21
580.7782507421334
 31
0.0
  0
LINE
  5
245A
330
1F
100
AcDbEntity
  8
Hewi
  6
Continuous
100
AcDbLine
 10
678.7159040086298
 20
580.7782507421334
 30
0.0
 11
703.2426369892882
 21
580.7782507421334
 31
0.0
  0
LINE
  5
245B
330
1F
100
AcDbEntity
  8
Hewi
  6
Continuous
100
AcDbLine
 10
656.2157911414369
 20
580.7782507421334
 30
0.0
 11
663.6140689561111
 21
580.7782507421334
 31
0.0
  0
LINE
  5
245C
330
1F
100
AcDbEntity
  8
Hewi
  6
Continuous
100
AcDbLine
 10
703.2426369892168
 20
614.1782507421274
 30
0.0
 11
656.2156786454688
 21
614.1782507421274
 31
0.0
  0
LINE
  5
245D
330
1F
100
AcDbEntity
  8
Hewi
  6
Continuous
100
AcDbLine
 10
578.0156369892397
 20
451.0282507421334
 30
0.0
 11
578.0156369892397
 21
620.9282507421274
 31
0.0
  0
LINE
  5
245E
330
1F
100
AcDbEntity
  8
Hewi
  6
Continuous
100
AcDbLine
 10
578.0156369892397
 20
626.3055408259215
 30
0.0
 11
594.3101406256355
 21
626.0211192069954
 31
0.0
  0
LINE
  5
245F
330
1F
100
AcDbEntity
  8
Hewi
  6
Continuous
100
AcDbLine
 10
578.0156369892397
 20
626.3055408259215
 30
0.0
 11
578.0156369892397
 21
620.9282507421274
 31
0.0
  0
LINE
  5
2460
330
1F
100
AcDbEntity
  8
Hewi
  6
Continuous
100
AcDbLine
 10
594.3101406256355
 20
445.9353822772508
 30
0.0
 11
578.0156369892397
 21
445.6509606583248
 31
0.0
  0
LINE
  5
2461
330
1F
100
AcDbEntity
  8
Hewi
  6
Continuous
100
AcDbLine
 10
578.0156369892397
 20
445.6509606583248
 30
0.0
 11
578.0156369892397
 21
451.0282507421334
 31
0.0
  0
LINE
  5
2462
330
1F
100
AcDbEntity
  8
Hewi
  6
Continuous
100
AcDbLine
 10
596.8156369892207
 20
623.4715075843387
 30
0.0
 11
596.8156369892207
 21
620.9282507421274
 31
0.0
  0
LINE
  5
2463
330
1F
100
AcDbEntity
  8
Hewi
  6
Continuous
100
AcDbLine
 10
596.8156369892207
 20
448.4849938999077
 30
0.0
 11
596.8156369892207
 21
451.0282507421334
 31
0.0
  0
LINE
  5
2464
330
1F
100
AcDbEntity
  8
Hewi
  6
Continuous
100
AcDbLine
 10
596.8156369892207
 20
620.9282507421274
 30
0.0
 11
596.8156369892207
 21
451.0282507421334
 31
0.0
  0
LINE
  5
2465
330
1F
100
AcDbEntity
  8
Hewi
  6
Continuous
100
AcDbLine
 10
596.8156369892207
 20
617.9273856053014
 30
0.0
 11
654.2014144224335
 21
616.9257131341993
 31
0.0
  0
LINE
  5
2466
330
1F
100
AcDbEntity
  8
Hewi
  6
Continuous
100
AcDbLine
 10
654.2014144224335
 20
578.0307883500036
 30
0.0
 11
596.8156369892207
 21
577.0291158789741
 31
0.0
  0
LINE
  5
2467
330
1F
100
AcDbEntity
  8
Hewi
  6
Continuous
100
AcDbLine
 10
656.2156369892218
 20
614.8760253591289
 30
0.0
 11
656.2156369892218
 21
580.0804761251027
 31
0.0
  0
ARC
  5
2468
330
1F
100
AcDbEntity
  8
Hewi
  6
Continuous
100
AcDbCircle
 10
1420.108848616324
 20
585.7782507421188
 30
0.0
 40
5.0
100
AcDbArc
 50
270.0
 51
332.0954496636874
  0
ARC
  5
2469
330
1F
100
AcDbEntity
  8
Hewi
  6
Continuous
100
AcDbCircle
 10
1420.108848616324
 20
609.1782507421275
 30
0.0
 40
5.0
100
AcDbArc
 50
27.90455033631265
 51
90.0
  0
ARC
  5
246A
330
1F
100
AcDbEntity
  8
Hewi
  6
Continuous
100
AcDbCircle
 10
1398.015636989239
 20
597.4782507421305
 30
0.0
 40
30.0
100
AcDbArc
 50
332.0954496636874
 51
0.0
  0
ARC
  5
246B
330
1F
100
AcDbEntity
  8
Hewi
  6
Continuous
100
AcDbCircle
 10
1398.015636989239
 20
597.4782507421305
 30
0.0
 40
30.0
100
AcDbArc
 50
0.0
 51
27.90455033631265
  0
ARC
  5
246C
330
1F
100
AcDbEntity
  8
Hewi
  6
Continuous
100
AcDbCircle
 10
601.3967738917894
 20
490.2249686071272
 30
0.0
 40
5.0
100
AcDbArc
 50
203.6204038208152
 51
267.9238696982221
  0
ARC
  5
246D
330
1F
100
AcDbEntity
  8
Hewi
  6
Continuous
100
AcDbCircle
 10
601.3967738917894
 20
504.7315328770901
 30
0.0
 40
5.0
100
AcDbArc
 50
92.07613030177794
 51
156.3795961791848
  0
ARC
  5
246E
330
1F
100
AcDbEntity
  8
Hewi
  6
Continuous
100
AcDbCircle
 10
-1067.717180948068
 20
519.9782507421303
 30
0.0
 40
9.999999999999998
210
0.0
220
0.0
230
-1.0
100
AcDbArc
 50
225.000000000585
 51
270.0
  0
ARC
  5
246F
330
1F
100
AcDbEntity
  8
Hewi
  6
Continuous
100
AcDbCircle
 10
1067.717180948068
 20
519.9782507421303
 30
0.0
 40
35.0
100
AcDbArc
 50
270.0
 51
314.999999999415
  0
ARC
  5
2470
330
1F
100
AcDbEntity
  8
Hewi
  6
Continuous
100
AcDbCircle
 10
-594.2656369892256
 20
623.4715075843387
 30
0.0
 40
2.549999999999998
210
0.0
220
0.0
230
-1.0
100
AcDbArc
 50
90.99999999987145
 51
180.0
  0
ARC
  5
2471
330
1F
100
AcDbEntity
  8
Hewi
  6
Continuous
100
AcDbCircle
 10
-594.2656369892256
 20
448.4849938999077
 30
0.0
 40
2.549999999999998
210
0.0
220
0.0
230
-1.0
100
AcDbArc
 50
180.0
 51
269.0000000001286
  0
ARC
  5
2472
330
1F
100
AcDbEntity
  8
Hewi
  6
Continuous
100
AcDbCircle
 10
-654.1656369892257
 20
580.0804761251027
 30
0.0
 40
2.049999999999998
210
0.0
220
0.0
230
-1.0
100
AcDbArc
 50
180.0
 51
269.0000000001286
  0
ARC
  5
2473
330
1F
100
AcDbEntity
  8
Hewi
  6
Continuous
100
AcDbCircle
 10
-654.1656369892257
 20
614.8760253591289
 30
0.0
 40
2.049999999999998
210
0.0
220
0.0
230
-1.0
100
AcDbArc
 50
90.99999999987145
 51
180.0
  0
SPLINE
  5
2474
330
1F
100
AcDbEntity
  8
Hewi
  6
Continuous
100
AcDbSpline
210
0.0
220
0.0
230
1.0
 70
     8
 71
     3
 72
    26
 73
    22
 74
     0
 42
0.0000000001
 43
0.0000000001
 40
0.0
 40
0.0
 40
0.0
 40
0.0
 40
0.0000710055065719
 40
0.0000710055065719
 40
0.1250621298182503
 40
0.1250621298182503
 40
0.2500532541299288
 40
0.2500532541299288
 40
0.3750443784416074
 40
0.3750443784416074
 40
0.5000355027532859
 40
0.5000355027532859
 40
0.6250266270649644
 40
0.6250266270649644
 40
0.7500177513766429
 40
0.7500177513766429
 40
0.8750088756883215
 40
0.8750088756883215
 40
0.9375044378441607
 40
0.9375044378441607
 40
1.0
 40
1.0
 40
1.0
 40
1.0
 10
1178.014653626767
 20
580.7782530585363
 30
0.0
 10
1178.014654929688
 20
580.7782515409463
 30
0.0
 10
1178.01465625378
 20
580.7782500418952
 30
0.0
 10
1178.014955793322
 20
580.7779132497062
 30
0.0
 10
1177.668896221437
 20
581.1913541735383
 30
0.0
 10
1176.254635828136
 20
582.592029804041
 30
0.0
 10
1175.17653125209
 20
583.5933841595806
 30
0.0
 10
1172.113981301661
 20
585.3875988209156
 30
0.0
 10
1170.126580097461
 20
586.0669079839834
 30
0.0
 10
1166.017098179825
 20
586.5196283631929
 30
0.0
 10
1163.900166942393
 20
586.3755904127001
 30
0.0
 10
1159.829602553418
 20
585.7963901364099
 30
0.0
 10
1157.820390571502
 20
585.3541875593337
 30
0.0
 10
1153.967130638328
 20
584.380188609616
 30
0.0
 10
1152.105281020926
 20
583.8415147198511
 30
0.0
 10
1148.533599648133
 20
582.7470342566639
 30
0.0
 10
1146.789427783519
 20
582.1775612870379
 30
0.0
 10
1144.591587849999
 20
581.4409607214447
 30
0.0
 10
1143.94327073269
 20
581.2199538603427
 30
0.0
 10
1142.965526133576
 20
580.8845166607905
 30
0.0
 10
1142.659301455514
 20
580.7782454934613
 30
0.0
 10
1142.659309564671
 20
580.7782483094897
 30
0.0
  0
SPLINE
  5
2475
330
1F
100
AcDbEntity
  8
Hewi
  6
Continuous
100
AcDbSpline
210
0.0
220
0.0
230
1.0
 70
     8
 71
     3
 72
    16
 73
    12
 74
     0
 42
0.0000000001
 43
0.0000000001
 40
0.0
 40
0.0
 40
0.0
 40
0.0
 40
0.2499991005888626
 40
0.2499991005888626
 40
0.4999982011777253
 40
0.4999982011777253
 40
0.7499973017665879
 40
0.7499973017665879
 40
0.9999964023554499
 40
0.9999964023554499
 40
1.0
 40
1.0
 40
1.0
 40
1.0
 10
663.615634378224
 20
509.9782524597513
 30
0.0
 10
663.615645140901
 20
509.9782453912894
 30
0.0
 10
664.4807629909155
 20
509.4115503262701
 30
0.0
 10
667.2140117852509
 20
508.1111297250434
 30
0.0
 10
669.1422604278455
 20
507.4056928243343
 30
0.0
 10
673.2579836544427
 20
507.3992585453352
 30
0.0
 10
675.1910219230667
 20
508.1000147256681
 30
0.0
 10
677.9479475660736
 20
509.408975382842
 30
0.0
 10
678.8086629191198
 20
509.9740105226345
 30
0.0
 10
678.8155922692054
 20
509.9782235524007
 30
0.0
 10
678.8155939783291
 20
509.9782245915239
 30
0.0
 10
678.815595687538
 20
509.9782256304142
 30
0.0
  0
SPLINE
  5
2476
330
1F
100
AcDbEntity
  8
Hewi
  6
Continuous
100
AcDbSpline
210
0.0
220
0.0
230
1.0
 70
     8
 71
     3
 72
    16
 73
    12
 74
     0
 42
0.0000000001
 43
0.0000000001
 40
0.0
 40
0.0
 40
0.0
 40
0.0
 40
0.2500029517433948
 40
0.2500029517433948
 40
0.5000059034867898
 40
0.5000059034867898
 40
0.7500088552301844
 40
0.7500088552301844
 40
0.8750103311018822
 40
0.8750103311018822
 40
1.0
 40
1.0
 40
1.0
 40
1.0
 10
679.4656395406164
 20
484.9782489371399
 30
0.0
 10
679.4656290289826
 20
484.978256373809
 30
0.0
 10
678.5158680613208
 20
485.6502067947704
 30
0.0
 10
675.5595967380177
 20
487.2079422650394
 30
0.0
 10
673.4690615508697
 20
488.0835151959009
 30
0.0
 10
668.9949665623758
 20
488.0913177566807
 30
0.0
 10
666.8994748406808
 20
487.2213199451043
 30
0.0
 10
664.659983831083
 20
486.0431706484058
 30
0.0
 10
664.0566783362487
 20
485.6745317791618
 30
0.0
 10
663.2024189487237
 20
485.1377168564913
 30
0.0
 10
662.9681366083278
 20
484.9799010912366
 30
0.0
 10
662.9656575209487
 20
484.9782642931358
 30
0.0
  0
SPLINE
  5
2477
330
1F
100
AcDbEntity
  8
Hewi
  6
Continuous
100
AcDbSpline
210
0.0
220
0.0
230
1.0
 70
     8
 71
     3
 72
    16
 73
    12
 74
     0
 42
0.0000000001
 43
0.0000000001
 40
0.0
 40
0.0
 40
0.0
 40
0.0
 40
0.0002198764020883
 40
0.0002198764020883
 40
0.2501872945186242
 40
0.2501872945186242
 40
0.5001547126351602
 40
0.5001547126351602
 40
0.7501221307516964
 40
0.7501221307516964
 40
1.0
 40
1.0
 40
1.0
 40
1.0
 10
678.7156178918635
 20
580.778259512791
 30
0.0
 10
678.7156219172143
 20
580.7782576278377
 30
0.0
 10
678.7156252922177
 20
580.7782560652968
 30
0.0
 10
678.718725279698
 20
580.7768452938733
 30
0.0
 10
677.8742188029395
 20
581.1959360830051
 30
0.0
 10
675.1058161121878
 20
582.1369055612713
 30
0.0
 10
673.1365290283465
 20
582.6058562724473
 30
0.0
 10
669.1236043277649
 20
582.6097502544407
 30
0.0
 10
667.1403598332217
 20
582.1414314645781
 30
0.0
 10
664.3564627884439
 20
581.1962710906929
 30
0.0
 10
663.5190483450683
 20
580.7798285719444
 30
0.0
 10
663.5156477328536
 20
580.7782556450665
 30
0.0
  0
LINE
  5
2478
330
1F
100
AcDbEntity
  8
Hewi
  6
Continuous
100
AcDbLine
 10
362.6383469054308
 20
424.8695570475073
 30
0.0
 11
305.8383469054279
 21
424.8695570475073
 31
0.0
  0
LINE
  5
2479
330
1F
100
AcDbEntity
  8
Hewi
  6
Continuous
100
AcDbLine
 10
300.5383469054177
 20
424.8695570475073
 30
0.0
 11
243.7383469054366
 21
424.8695570475073
 31
0.0
  0
LINE
  5
247A
330
1F
100
AcDbEntity
  8
Hewi
  6
Continuous
100
AcDbLine
 10
243.7383469054366
 20
605.5241372151185
 30
0.0
 11
362.6383469054308
 21
605.5241372151185
 31
0.0
  0
LINE
  5
247B
330
1F
100
AcDbEntity
  8
Hewi
  6
Continuous
100
AcDbLine
 10
265.1383469054308
 20
554.2974152284996
 30
0.0
 11
265.1383469054308
 21
457.4968471313304
 31
0.0
  0
LINE
  5
247C
330
1F
100
AcDbEntity
  8
Hewi
  6
Continuous
100
AcDbLine
 10
267.0883469054206
 20
556.2477122681712
 30
0.0
 11
267.0883469054206
 21
556.1936015669024
 31
0.0
  0
LINE
  5
247D
330
1F
100
AcDbEntity
  8
Hewi
  6
Continuous
100
AcDbLine
 10
265.4392120422817
 20
558.2974000432414
 30
0.0
 11
265.4392120422817
 21
595.0962942193991
 31
0.0
  0
LINE
  5
247E
330
1F
100
AcDbEntity
  8
Hewi
  6
Continuous
100
AcDbLine
 10
267.0883469054206
 20
556.1936015669024
 30
0.0
 11
276.5245881570627
 21
556.1936015669024
 31
0.0
  0
LINE
  5
247F
330
1F
100
AcDbEntity
  8
Hewi
  6
Continuous
100
AcDbLine
 10
278.5345522820608
 20
556.1342543461332
 30
0.0
 11
276.5839353778388
 21
556.1342543461332
 31
0.0
  0
LINE
  5
2480
330
1F
100
AcDbEntity
  8
Hewi
  6
Continuous
100
AcDbLine
 10
267.0883469054206
 20
556.2477122681712
 30
0.0
 11
267.4888998173297
 21
556.2477122681712
 31
0.0
  0
LINE
  5
2481
330
1F
100
AcDbEntity
  8
Hewi
  6
Continuous
100
AcDbLine
 10
267.4888998173297
 20
597.1459819944985
 30
0.0
 11
338.887793993516
 21
597.1459819944985
 31
0.0
  0
LINE
  5
2482
330
1F
100
AcDbEntity
  8
Hewi
  6
Continuous
100
AcDbLine
 10
270.4883469054366
 20
452.1468471313393
 30
0.0
 11
335.8883469054308
 21
452.1468471313393
 31
0.0
  0
LINE
  5
2483
330
1F
100
AcDbEntity
  8
Hewi
  6
Continuous
100
AcDbLine
 10
276.5245881570627
 20
556.1936015669024
 30
0.0
 11
276.5839353778388
 21
556.1342543461332
 31
0.0
  0
LINE
  5
2484
330
1F
100
AcDbEntity
  8
Hewi
  6
Continuous
100
AcDbLine
 10
277.4022714569323
 20
559.2990725142998
 30
0.0
 11
277.4022714569323
 21
594.0946217483697
 31
0.0
  0
LINE
  5
2485
330
1F
100
AcDbEntity
  8
Hewi
  6
Continuous
100
AcDbLine
 10
278.5345522820608
 20
556.1342543461332
 30
0.0
 11
277.4194218889716
 21
557.2493847392005
 31
0.0
  0
LINE
  5
2486
330
1F
100
AcDbEntity
  8
Hewi
  6
Continuous
100
AcDbLine
 10
277.4194218889716
 20
596.1443095234399
 30
0.0
 11
278.0714097094497
 21
596.7962973439252
 31
0.0
  0
LINE
  5
2487
330
1F
100
AcDbEntity
  8
Hewi
  6
Continuous
100
AcDbLine
 10
280.071105099767
 20
596.8305982079881
 30
0.0
 11
326.3055887111145
 21
596.8305982079881
 31
0.0
  0
LINE
  5
2488
330
1F
100
AcDbEntity
  8
Hewi
  6
Continuous
100
AcDbLine
 10
305.8383469054279
 20
424.9079677062373
 30
0.0
 11
300.5383469054177
 21
424.9079677062373
 31
0.0
  0
LINE
  5
2489
330
1F
100
AcDbEntity
  8
Hewi
  6
Continuous
100
AcDbLine
 10
300.5383469054177
 20
424.8695570475073
 30
0.0
 11
300.5383469054177
 21
424.9079677062373
 31
0.0
  0
LINE
  5
248A
330
1F
100
AcDbEntity
  8
Hewi
  6
Continuous
100
AcDbLine
 10
305.8383469054279
 20
424.8695570475073
 30
0.0
 11
305.8383469054279
 21
424.9079677062373
 31
0.0
  0
LINE
  5
248B
330
1F
100
AcDbEntity
  8
Hewi
  6
Continuous
100
AcDbLine
 10
326.7923014488961
 20
557.1840944260593
 30
0.0
 11
326.7923014488961
 21
559.0866347737292
 31
0.0
  0
LINE
  5
248C
330
1F
100
AcDbEntity
  8
Hewi
  6
Continuous
100
AcDbLine
 10
328.9572719219036
 20
557.2493847392005
 30
0.0
 11
327.842141528829
 21
556.1342543461332
 31
0.0
  0
LINE
  5
248D
330
1F
100
AcDbEntity
  8
Hewi
  6
Continuous
100
AcDbLine
 10
328.3052841014178
 20
596.7962973439252
 30
0.0
 11
328.9572719219036
 21
596.1443095234399
 31
0.0
  0
LINE
  5
248E
330
1F
100
AcDbEntity
  8
Hewi
  6
Continuous
100
AcDbLine
 10
329.7020828045688
 20
556.1936015669024
 30
0.0
 11
339.2883469054318
 21
556.1936015669024
 31
0.0
  0
LINE
  5
248F
330
1F
100
AcDbEntity
  8
Hewi
  6
Continuous
100
AcDbLine
 10
329.6427355838209
 20
556.1342543461332
 30
0.0
 11
327.842141528829
 21
556.1342543461332
 31
0.0
  0
LINE
  5
2490
330
1F
100
AcDbEntity
  8
Hewi
  6
Continuous
100
AcDbLine
 10
338.887793993516
 20
556.2477122681712
 30
0.0
 11
339.2883469054318
 21
556.2477122681712
 31
0.0
  0
LINE
  5
2491
330
1F
100
AcDbEntity
  8
Hewi
  6
Continuous
100
AcDbLine
 10
328.9744223539346
 20
594.0946217483697
 30
0.0
 11
328.9744223539346
 21
559.2990725142998
 31
0.0
  0
LINE
  5
2492
330
1F
100
AcDbEntity
  8
Hewi
  6
Continuous
100
AcDbLine
 10
329.7020828045688
 20
556.1936015669024
 30
0.0
 11
329.6427355838209
 21
556.1342543461332
 31
0.0
  0
LINE
  5
2493
330
1F
100
AcDbEntity
  8
Hewi
  6
Continuous
100
AcDbLine
 10
339.2883469054318
 20
556.1936015669024
 30
0.0
 11
339.2883469054318
 21
556.2477122681712
 31
0.0
  0
LINE
  5
2494
330
1F
100
AcDbEntity
  8
Hewi
  6
Continuous
100
AcDbLine
 10
340.9374817686148
 20
595.0962942193991
 30
0.0
 11
340.9374817686148
 21
558.2974000432414
 31
0.0
  0
LINE
  5
2495
330
1F
100
AcDbEntity
  8
Hewi
  6
Continuous
100
AcDbLine
 10
341.2383469054366
 20
554.2974152284996
 30
0.0
 11
341.2383469054366
 21
457.4968471313304
 31
0.0
  0
LINE
  5
2496
330
1F
100
AcDbEntity
  8
Hewi
  6
Continuous
100
AcDbLine
 10
368.0156369892252
 20
430.2468471313303
 30
0.0
 11
368.0156369892252
 21
600.1468471313391
 31
0.0
  0
LINE
  5
2497
330
1F
100
AcDbEntity
  8
Hewi
  6
Continuous
100
AcDbLine
 10
279.8717645937472
 20
557.7801886672069
 30
0.0
 11
279.8717645937472
 21
595.6135055954336
 31
0.0
  0
LINE
  5
2498
330
1F
100
AcDbEntity
  8
Hewi
  6
Continuous
100
AcDbLine
 10
326.0050053695486
 20
557.2802648196493
 30
0.0
 11
315.6883469054187
 21
557.2802648196493
 31
0.0
  0
LINE
  5
2499
330
1F
100
AcDbEntity
  8
Hewi
  6
Continuous
100
AcDbLine
 10
290.6883469054201
 20
557.2802648196493
 30
0.0
 11
280.3716884413479
 21
557.2802648196493
 31
0.0
  0
LINE
  5
249A
330
1F
100
AcDbEntity
  8
Hewi
  6
Continuous
100
AcDbLine
 10
326.0050053695486
 20
596.1134294429911
 30
0.0
 11
280.3716884413479
 21
596.1134294429911
 31
0.0
  0
LINE
  5
249B
330
1F
100
AcDbEntity
  8
Hewi
  6
Continuous
100
AcDbLine
 10
326.5049292171207
 20
595.6135055954336
 30
0.0
 11
326.5049292171207
 21
557.7801886672069
 31
0.0
  0
LINE
  5
249C
330
1F
100
AcDbEntity
  8
Hewi
  6
Continuous
100
AcDbLine
 10
279.3883469054308
 20
555.6468471313537
 30
0.0
 11
278.4383469054187
 21
555.6468471313537
 31
0.0
  0
LINE
  5
249D
330
1F
100
AcDbEntity
  8
Hewi
  6
Continuous
100
AcDbLine
 10
326.8883469054308
 20
545.9915575064051
 30
0.0
 11
315.6883469054269
 21
545.9915575064051
 31
0.0
  0
LINE
  5
249E
330
1F
100
AcDbEntity
  8
Hewi
  6
Continuous
100
AcDbLine
 10
290.6883469054201
 20
545.9915575064051
 30
0.0
 11
279.4883469054366
 21
545.9915575064051
 31
0.0
  0
LINE
  5
249F
330
1F
100
AcDbEntity
  8
Hewi
  6
Continuous
100
AcDbLine
 10
279.4883469054366
 20
554.5968471313361
 30
0.0
 11
279.4883469054366
 21
545.9915575064051
 31
0.0
  0
LINE
  5
24A0
330
1F
100
AcDbEntity
  8
Hewi
  6
Continuous
100
AcDbLine
 10
280.3383469054138
 20
556.5968471313364
 30
0.0
 11
280.3383469054138
 21
557.2993840814423
 31
0.0
  0
LINE
  5
24A1
330
1F
100
AcDbEntity
  8
Hewi
  6
Continuous
100
AcDbLine
 10
326.0383469054327
 20
556.5968471313364
 30
0.0
 11
326.0383469054327
 21
557.2993840814423
 31
0.0
  0
LINE
  5
24A2
330
1F
100
AcDbEntity
  8
Hewi
  6
Continuous
100
AcDbLine
 10
326.8883469054308
 20
554.5968471313361
 30
0.0
 11
326.8883469054308
 21
545.9915575064051
 31
0.0
  0
LINE
  5
24A3
330
1F
100
AcDbEntity
  8
Hewi
  6
Continuous
100
AcDbLine
 10
327.9383469054187
 20
555.6468471313537
 30
0.0
 11
326.9883469054366
 21
555.6468471313537
 31
0.0
  0
LINE
  5
24A4
330
1F
100
AcDbEntity
  8
Hewi
  6
Continuous
100
AcDbLine
 10
238.3610568216141
 20
430.2468471313303
 30
0.0
 11
238.3610568216141
 21
600.1468471313391
 31
0.0
  0
ARC
  5
24A5
330
1F
100
AcDbEntity
  8
Hewi
  6
Continuous
100
AcDbCircle
 10
-270.4883469054366
 20
457.4968471313304
 30
0.0
 40
5.349999999999996
210
0.0
220
0.0
230
-1.0
100
AcDbArc
 50
270.0
 51
0.0
  0
ARC
  5
24A6
330
1F
100
AcDbEntity
  8
Hewi
  6
Continuous
100
AcDbCircle
 10
-335.8883469054308
 20
457.4968471313304
 30
0.0
 40
5.349999999999996
210
0.0
220
0.0
230
-1.0
100
AcDbArc
 50
180.0
 51
270.0
  0
ARC
  5
24A7
330
1F
100
AcDbEntity
  8
Hewi
  6
Continuous
100
AcDbCircle
 10
-362.6383469054308
 20
430.2468471313303
 30
0.0
 40
5.377290083806274
210
0.0
220
0.0
230
-1.0
100
AcDbArc
 50
180.0
 51
270.0
  0
ARC
  5
24A8
330
1F
100
AcDbEntity
  8
Hewi
  6
Continuous
100
AcDbCircle
 10
-362.6383469054308
 20
600.1468471313391
 30
0.0
 40
5.377290083806274
210
0.0
220
0.0
230
-1.0
100
AcDbArc
 50
90.0
 51
180.0
  0
ARC
  5
24A9
330
1F
100
AcDbEntity
  8
Hewi
  6
Continuous
100
AcDbCircle
 10
278.4383469054187
 20
554.5968471313361
 30
0.0
 40
1.05
100
AcDbArc
 50
0.0
 51
90.0
  0
ARC
  5
24AA
330
1F
100
AcDbEntity
  8
Hewi
  6
Continuous
100
AcDbCircle
 10
327.9383469054187
 20
554.5968471313361
 30
0.0
 40
1.05
100
AcDbArc
 50
90.0
 51
180.0
  0
CIRCLE
  5
24AB
330
1F
100
AcDbEntity
  8
Hewi
  6
Continuous
100
AcDbCircle
 10
-303.1883469054201
 20
576.696847131313
 30
0.0
 40
17.2
210
0.0
220
0.0
230
-1.0
  0
CIRCLE
  5
24AC
330
1F
100
AcDbEntity
  8
Hewi
  6
Continuous
100
AcDbCircle
 10
303.1883469054201
 20
576.696847131313
 30
0.0
 40
14.04
  0
ARC
  5
24AD
330
1F
100
AcDbEntity
  8
Hewi
  6
Continuous
100
AcDbCircle
 10
-243.7383469054366
 20
430.2468471313303
 30
0.0
 40
5.377290083806274
210
0.0
220
0.0
230
-1.0
100
AcDbArc
 50
270.0
 51
0.0
  0
ARC
  5
24AE
330
1F
100
AcDbEntity
  8
Hewi
  6
Continuous
100
AcDbCircle
 10
-243.7383469054366
 20
600.1468471313391
 30
0.0
 40
5.377290083806274
210
0.0
220
0.0
230
-1.0
100
AcDbArc
 50
0.0
 51
90.0
  0
ELLIPSE
  5
24AF
330
1F
100
AcDbEntity
  8
Hewi
  6
Continuous
100
AcDbEllipse
 10
267.0883469054206
 20
554.2433045272162
 30
0.0
 11
0.0
 21
-1.950297039685619
 31
0.0
210
0.0
220
0.0
230
1.0
 40
0.9998476951563914
 41
3.141592653589792
 42
4.712388980384688
  0
ELLIPSE
  5
24B0
330
1F
100
AcDbEntity
  8
Hewi
  6
Continuous
100
AcDbEllipse
 10
267.0883469054206
 20
554.2974152284996
 30
0.0
 11
0.0
 21
-1.950297039685619
 31
0.0
210
0.0
220
0.0
230
-1.0
 40
0.9998476951563914
 41
1.570796326794896
 42
3.141592653589792
  0
ELLIPSE
  5
24B1
330
1F
100
AcDbEntity
  8
Hewi
  6
Continuous
100
AcDbEllipse
 10
267.4895243147657
 20
595.0956697219925
 30
0.0
 11
-1.450010487797641
 21
1.450010487797641
 31
0.0
210
0.0
220
0.0
230
1.0
 40
0.9996954598818872
 41
5.497939437029716
 42
7.068431177329449
  0
ELLIPSE
  5
24B2
330
1F
100
AcDbEntity
  8
Hewi
  6
Continuous
100
AcDbEllipse
 10
267.4895243147657
 20
558.2980245406623
 30
0.0
 11
1.450010487797638
 21
1.450010487797641
 31
0.0
210
0.0
220
0.0
230
1.0
 40
0.9996954598818872
 41
2.356346783439929
 42
3.926838523739654
  0
ELLIPSE
  5
24B3
330
1F
100
AcDbEntity
  8
Hewi
  6
Continuous
100
AcDbEllipse
 10
277.4197265218354
 20
559.2990725142998
 30
0.0
 11
0.0000000000000024
 21
2.049999999992424
 31
0.0
210
0.0
220
0.0
230
1.0
 40
0.0085146658186356
 41
1.570796326794896
 42
3.124139361073233
  0
ELLIPSE
  5
24B4
330
1F
100
AcDbEntity
  8
Hewi
  6
Continuous
100
AcDbEllipse
 10
277.4197265218354
 20
594.0946217483697
 30
0.0
 11
0.0000000000000024
 21
2.049999999992337
 31
0.0
210
0.0
220
0.0
230
1.0
 40
0.0085146658186351
 41
0.0174532925167423
 42
1.570796326794896
  0
ELLIPSE
  5
24B5
330
1F
100
AcDbEntity
  8
Hewi
  6
Continuous
100
AcDbEllipse
 10
278.5342324175176
 20
557.1844142905729
 30
0.0
 11
0.7426882986280599
 21
-0.7426882986280596
 31
0.0
210
0.0
220
0.0
230
-1.0
 40
0.9996954598818875
 41
5.497939437029716
 42
7.068431177329455
  0
ELLIPSE
  5
24B6
330
1F
100
AcDbEntity
  8
Hewi
  6
Continuous
100
AcDbEllipse
 10
280.071105099767
 20
596.7956880781247
 30
0.0
 11
1.999999999992733
 21
0.0
 31
0.0
210
0.0
220
0.0
230
1.0
 40
0.0174550649282032
 41
1.570796326794896
 42
3.124139361072645
  0
ELLIPSE
  5
24B7
330
1F
100
AcDbEntity
  8
Hewi
  6
Continuous
100
AcDbEllipse
 10
326.3055887111145
 20
596.7956880781247
 30
0.0
 11
1.999999999992887
 21
0.0
 31
0.0
210
0.0
220
0.0
230
1.0
 40
0.0174550649282036
 41
0.0174532925172215
 42
1.570796326794896
  0
ELLIPSE
  5
24B8
330
1F
100
AcDbEntity
  8
Hewi
  6
Continuous
100
AcDbEllipse
 10
327.8424613933498
 20
557.1844142905729
 30
0.0
 11
0.7426882986280595
 21
0.7426882986280603
 31
0.0
210
0.0
220
0.0
230
-1.0
 40
0.9996954598818875
 41
2.356346783439934
 42
3.926838523739689
  0
ELLIPSE
  5
24B9
330
1F
100
AcDbEntity
  8
Hewi
  6
Continuous
100
AcDbEllipse
 10
328.9569672889807
 20
559.2990725142998
 30
0.0
 11
0.0000000000000024
 21
2.049999999992742
 31
0.0
210
0.0
220
0.0
230
1.0
 40
0.0085146658186357
 41
3.159045946107143
 42
4.712388980384688
  0
ELLIPSE
  5
24BA
330
1F
100
AcDbEntity
  8
Hewi
  6
Continuous
100
AcDbEllipse
 10
328.9569672889807
 20
594.0946217483697
 30
0.0
 11
0.0000000000000024
 21
2.049999999993052
 31
0.0
210
0.0
220
0.0
230
1.0
 40
0.0085146658186361
 41
4.712388980384688
 42
6.265732014662362
  0
ELLIPSE
  5
24BB
330
1F
100
AcDbEntity
  8
Hewi
  6
Continuous
100
AcDbEllipse
 10
338.8871694959266
 20
595.0956697220362
 30
0.0
 11
-1.450010487797148
 21
-1.450010487798127
 31
0.0
210
0.0
220
0.0
230
1.0
 40
0.9996954598818872
 41
2.356346783439929
 42
3.926838523739663
  0
ELLIPSE
  5
24BC
330
1F
100
AcDbEntity
  8
Hewi
  6
Continuous
100
AcDbEllipse
 10
338.8871694960876
 20
558.2980245406623
 30
0.0
 11
1.450010487797641
 21
-1.450010487797638
 31
0.0
210
0.0
220
0.0
230
-1.0
 40
0.9996954598818872
 41
5.497939437029733
 42
7.068431177329449
  0
ELLIPSE
  5
24BD
330
1F
100
AcDbEntity
  8
Hewi
  6
Continuous
100
AcDbEllipse
 10
339.2883469054318
 20
554.2433045272162
 30
0.0
 11
0.0
 21
-1.950297039685619
 31
0.0
210
0.0
220
0.0
230
1.0
 40
0.9998476951563914
 41
1.570796326794896
 42
3.141592653589792
  0
ELLIPSE
  5
24BE
330
1F
100
AcDbEntity
  8
Hewi
  6
Continuous
100
AcDbEllipse
 10
339.2883469054318
 20
554.2974152284996
 30
0.0
 11
0.0
 21
-1.950297039685619
 31
0.0
210
0.0
220
0.0
230
-1.0
 40
0.9998476951563914
 41
3.141592653589792
 42
4.712388980384688
  0
ELLIPSE
  5
24BF
330
1F
100
AcDbEntity
  8
Hewi
  6
Continuous
100
AcDbEllipse
 10
280.3718407576339
 20
557.7803409836897
 30
0.0
 11
-0.3536610945846709
 21
-0.3536610945849101
 31
0.0
210
0.0
220
0.0
230
1.0
 40
0.9996954598818874
 41
5.497939437029716
 42
7.068431177329457
  0
ELLIPSE
  5
24C0
330
1F
100
AcDbEntity
  8
Hewi
  6
Continuous
100
AcDbEllipse
 10
280.3718407577731
 20
595.6133532789944
 30
0.0
 11
-0.3536610945847904
 21
0.3536610945847904
 31
0.0
210
0.0
220
0.0
230
1.0
 40
0.9996954598818874
 41
5.497939437029701
 42
7.068431177329442
  0
ELLIPSE
  5
24C1
330
1F
100
AcDbEntity
  8
Hewi
  6
Continuous
100
AcDbEllipse
 10
326.004853053088
 20
557.7803409836751
 30
0.0
 11
0.3536610945847904
 21
-0.3536610945847904
 31
0.0
210
0.0
220
0.0
230
1.0
 40
0.9996954598818874
 41
5.497939437029716
 42
7.068431177329457
  0
ELLIPSE
  5
24C2
330
1F
100
AcDbEntity
  8
Hewi
  6
Continuous
100
AcDbEllipse
 10
326.004853053088
 20
595.6133532789944
 30
0.0
 11
0.3536610945847904
 21
0.3536610945847905
 31
0.0
210
0.0
220
0.0
230
1.0
 40
0.9996954598818874
 41
5.497939437029728
 42
7.068431177329442
  0
SPLINE
  5
24C3
330
1F
100
AcDbEntity
  8
Hewi
  6
Continuous
100
AcDbSpline
210
0.0
220
0.0
230
1.0
 70
     8
 71
     3
 72
    16
 73
    12
 74
     0
 42
0.0000000001
 43
0.0000000001
 40
0.0
 40
0.0
 40
0.0
 40
0.0
 40
0.2374321488140412
 40
0.2374321488140412
 40
0.4753570973094587
 40
0.4753570973094587
 40
0.7044621804489401
 40
0.7044621804489401
 40
0.9153180847886474
 40
0.9153180847886474
 40
1.0
 40
1.0
 40
1.0
 40
1.0
 10
280.3383469054138
 20
556.5968471313364
 30
0.0
 10
280.3383469054138
 20
556.4833902856162
 30
0.0
 10
280.317542778063
 20
556.3685334599695
 30
0.0
 10
280.2369539379329
 20
556.1547752068991
 30
0.0
 10
280.1758428137573
 20
556.0527781020908
 30
0.0
 10
280.0234018071673
 20
555.8814049332113
 30
0.0
 10
279.9308314074187
 20
555.8084382363713
 30
0.0
 10
279.7338725483683
 20
555.7055177238479
 30
0.0
 10
279.6280461354363
 20
555.6712128396148
 30
0.0
 10
279.4769533948597
 20
555.6499579247728
 30
0.0
 10
279.4325871703231
 20
555.6468471313537
 30
0.0
 10
279.3883469054308
 20
555.6468471313537
 30
0.0
  0
SPLINE
  5
24C4
330
1F
100
AcDbEntity
  8
Hewi
  6
Continuous
100
AcDbSpline
210
0.0
220
0.0
230
1.0
 70
     8
 71
     3
 72
    16
 73
    12
 74
     0
 42
0.0000000001
 43
0.0000000001
 40
0.0
 40
0.0
 40
0.0
 40
0.0
 40
0.1942684013936249
 40
0.1942684013936249
 40
0.388096082899196
 40
0.388096082899196
 40
0.5885706772438784
 40
0.5885706772438784
 40
0.8045285325061183
 40
0.8045285325061183
 40
1.0
 40
1.0
 40
1.0
 40
1.0
 10
326.9883469054366
 20
555.6468471313537
 30
0.0
 10
326.8882392458217
 20
555.6468471313537
 30
0.0
 10
326.7867521551488
 20
555.663194531179
 30
0.0
 10
326.5982742564843
 20
555.7249721895758
 30
0.0
 10
326.5087280400521
 20
555.7710870294369
 30
0.0
 10
326.348972211465
 20
555.887073201794
 30
0.0
 10
326.2774268818867
 20
555.9591188271706
 30
0.0
 10
326.1578008962274
 20
556.1237475259958
 30
0.0
 10
326.1103223142896
 20
556.2195975585463
 30
0.0
 10
326.0524340601373
 20
556.4086562508427
 30
0.0
 10
326.0383469054327
 20
556.5031344362332
 30
0.0
 10
326.0383469054327
 20
556.5968471313364
 30
0.0
  0
LINE
  5
24C5
330
1F
100
AcDbEntity
  8
Hewi
  6
Continuous
100
AcDbLine
 10
290.6883469054201
 20
565.6125117325253
 30
0.0
 11
290.6883469054201
 21
483.2869445546066
 31
0.0
  0
LINE
  5
24C6
330
1F
100
AcDbEntity
  8
Hewi
  6
Continuous
100
AcDbLine
 10
315.6883469054187
 20
483.2869445546066
 30
0.0
 11
315.6883469054187
 21
565.6187540051149
 31
0.0
  0
LINE
  5
24C7
330
1F
100
AcDbEntity
  8
Hewi
  6
Continuous
100
AcDbLine
 10
315.6883469054187
 20
476.6968471313275
 30
0.0
 11
315.6883469054187
 21
483.2869445546066
 31
0.0
  0
LINE
  5
24C8
330
1F
100
AcDbEntity
  8
Hewi
  6
Continuous
100
AcDbLine
 10
290.6883469054201
 20
476.6968471313275
 30
0.0
 11
290.6883469054201
 21
483.2869445546066
 31
0.0
  0
LINE
  5
24C9
330
1F
100
AcDbEntity
  8
Hewi
  6
Continuous
100
AcDbLine
 10
326.8883469054017
 20
545.9915575063904
 30
0.0
 11
315.6878750304209
 21
545.9915575063904
 31
0.0
  0
LINE
  5
24CA
330
1F
100
AcDbEntity
  8
Hewi
  6
Continuous
100
AcDbLine
 10
290.6888187804111
 20
545.9915575063904
 30
0.0
 11
279.488346905408
 21
545.9915575063904
 31
0.0
  0
LINE
  5
24CB
330
1F
100
AcDbEntity
  8
Hewi
  6
Continuous
100
AcDbLine
 10
279.488346905408
 20
554.5968471313361
 30
0.0
 11
279.488346905408
 21
545.9915575063904
 31
0.0
  0
LINE
  5
24CC
330
1F
100
AcDbEntity
  8
Hewi
  6
Continuous
100
AcDbLine
 10
326.8883469054017
 20
554.5968471313361
 30
0.0
 11
326.8883469054017
 21
545.9915575063904
 31
0.0
  0
ARC
  5
24CD
330
1F
100
AcDbEntity
  8
Hewi
  6
Continuous
100
AcDbCircle
 10
303.1883469054201
 20
476.6968471313275
 30
0.0
 40
12.5
100
AcDbArc
 50
270.0
 51
359.9999996106325
  0
ARC
  5
24CE
330
1F
100
AcDbEntity
  8
Hewi
  6
Continuous
100
AcDbCircle
 10
303.1883469054201
 20
476.6968471313275
 30
0.0
 40
12.5
100
AcDbArc
 50
180.0000003893675
 51
270.0
  0
ELLIPSE
  5
24CF
330
1F
100
AcDbEntity
  8
Hewi
  6
Continuous
100
AcDbEllipse
 10
303.1883469054201
 20
483.2869445546066
 30
0.0
 11
-12.5
 21
0.0
 31
0.0
210
0.0
220
0.0
230
1.0
 40
0.7071067811865445
 41
1.57079628993786
 42
3.141592543415903
  0
ELLIPSE
  5
24D0
330
1F
100
AcDbEntity
  8
Hewi
  6
Continuous
100
AcDbEllipse
 10
303.1883469054201
 20
483.2869445546066
 30
0.0
 11
-12.5
 21
0.0
 31
0.0
210
0.0
220
0.0
230
1.0
 40
0.7071067811865445
 41
0.0
 42
1.570796285747225
  0
LINE
  5
24D1
330
1F
100
AcDbEntity
  8
Hewi
  6
Continuous
100
AcDbLine
 10
359.9883469054516
 20
605.5241372151185
 30
0.0
 11
303.1883469054487
 21
605.5241372151185
 31
0.0
  0
LINE
  5
24D8
330
1F
100
AcDbEntity
  8
Hewi
  6
Continuous
100
AcDbLine
 10
1413.115636989208
 20
329.3763685309941
 30
0.0
 11
1413.015636989238
 21
329.2763685310028
 31
0.0
  0
LINE
  5
24D9
330
1F
100
AcDbEntity
  8
Hewi
  6
Continuous
100
AcDbLine
 10
1413.015636989238
 20
296.0763685310057
 30
0.0
 11
1413.115636989208
 21
295.9763685309999
 31
0.0
  0
LINE
  5
24DA
330
1F
100
AcDbEntity
  8
Hewi
  6
Continuous
100
AcDbLine
 10
1420.108848616324
 20
329.3763685309941
 30
0.0
 11
1413.115636989208
 21
329.3763685309941
 31
0.0
  0
LINE
  5
24DB
330
1F
100
AcDbEntity
  8
Hewi
  6
Continuous
100
AcDbLine
 10
1413.115636989208
 20
295.9763685309999
 30
0.0
 11
1420.108848616324
 21
295.9763685309999
 31
0.0
  0
LINE
  5
24DC
330
1F
100
AcDbEntity
  8
Hewi
  6
Continuous
100
AcDbLine
 10
1413.015636989238
 20
329.3763685309941
 30
0.0
 11
702.9886369891723
 21
329.3763685309941
 31
0.0
  0
LINE
  5
24DD
330
1F
100
AcDbEntity
  8
Hewi
  6
Continuous
100
AcDbLine
 10
702.9886369891723
 20
295.9763685309999
 30
0.0
 11
1413.015636989238
 21
295.9763685309999
 31
0.0
  0
ARC
  5
24DE
330
1F
100
AcDbEntity
  8
Hewi
  6
Continuous
100
AcDbCircle
 10
1420.108848616324
 20
300.9763685309999
 30
0.0
 40
5.0
100
AcDbArc
 50
270.0
 51
332.0954496636874
  0
ARC
  5
24DF
330
1F
100
AcDbEntity
  8
Hewi
  6
Continuous
100
AcDbCircle
 10
1420.108848616324
 20
324.3763685309939
 30
0.0
 40
5.0
100
AcDbArc
 50
27.90455033631265
 51
90.0
  0
ARC
  5
24E0
330
1F
100
AcDbEntity
  8
Hewi
  6
Continuous
100
AcDbCircle
 10
1398.015636989239
 20
312.676368530997
 30
0.0
 40
30.0
100
AcDbArc
 50
0.0060611917563332
 51
27.90455033631265
  0
ARC
  5
24E1
330
1F
100
AcDbEntity
  8
Hewi
  6
Continuous
100
AcDbCircle
 10
1398.015636989239
 20
312.676368530997
 30
0.0
 40
30.0
100
AcDbArc
 50
332.0954496636874
 51
0.0060611917563332
  0
SPLINE
  5
24E2
330
1F
100
AcDbEntity
  8
Hewi
  6
Continuous
100
AcDbSpline
210
0.0
220
0.0
230
1.0
 70
    24
 71
     3
 72
     8
 73
     4
 74
     0
 42
0.0000000001
 43
0.0000000001
 40
0.0
 40
0.0
 40
0.0
 40
0.0
 40
1.0
 40
1.0
 40
1.0
 40
1.0
 10
703.1156369892096
 20
329.3763685309941
 30
0.0
 10
687.3989703225711
 20
329.3763685309941
 30
0.0
 10
671.6823036558889
 20
329.3763685309941
 30
0.0
 10
655.9656369892286
 20
329.3763685309941
 30
0.0
  0
SPLINE
  5
24E3
330
1F
100
AcDbEntity
  8
Hewi
  6
Continuous
100
AcDbSpline
210
0.0
220
0.0
230
1.0
 70
    24
 71
     3
 72
     8
 73
     4
 74
     0
 42
0.0000000001
 43
0.0000000001
 40
0.0
 40
0.0
 40
0.0
 40
0.0
 40
1.0
 40
1.0
 40
1.0
 40
1.0
 10
655.9656369892286
 20
295.9763685309999
 30
0.0
 10
671.6823036558889
 20
295.9763685309999
 30
0.0
 10
687.3989703225711
 20
295.9763685309999
 30
0.0
 10
703.1156369892096
 20
295.9763685309999
 30
0.0
  0
LINE
  5
24E4
330
1F
100
AcDbEntity
  8
Hewi
  6
Continuous
100
AcDbLine
 10
642.0156369892252
 20
288.176251343536
 30
0.0
 11
642.0156369892252
 21
288.2763294684964
 31
0.0
  0
LINE
  5
24E5
330
1F
100
AcDbEntity
  8
Hewi
  6
Continuous
100
AcDbLine
 10
642.0156369892252
 20
337.0761810310041
 30
0.0
 11
642.0156369892252
 21
337.176168531002
 31
0.0
  0
LINE
  5
24E6
330
1F
100
AcDbEntity
  8
Hewi
  6
Continuous
100
AcDbLine
 10
637.0156369892174
 20
337.0763685310058
 30
0.0
 11
635.9203549558197
 21
337.0763685310058
 31
0.0
  0
LINE
  5
24E7
330
1F
100
AcDbEntity
  8
Hewi
  6
Continuous
100
AcDbLine
 10
649.0156369892174
 20
337.0763685310058
 30
0.0
 11
637.0156369892174
 21
337.0763685310058
 31
0.0
  0
LINE
  5
24E8
330
1F
100
AcDbEntity
  8
Hewi
  6
Continuous
100
AcDbLine
 10
655.6656369892489
 20
289.3263685310058
 30
0.0
 11
653.6156369892378
 21
289.3089058496963
 31
0.0
  0
LINE
  5
24E9
330
1F
100
AcDbEntity
  8
Hewi
  6
Continuous
100
AcDbLine
 10
656.2156369892286
 20
335.4763685309999
 30
0.0
 11
656.2156369892286
 21
289.8763685309941
 31
0.0
  0
LINE
  5
24EA
330
1F
100
AcDbEntity
  8
Hewi
  6
Continuous
100
AcDbLine
 10
653.6156369892378
 20
336.0438312123414
 30
0.0
 11
655.6656369892489
 21
336.0263685310028
 31
0.0
  0
LINE
  5
24EB
330
1F
100
AcDbEntity
  8
Hewi
  6
Continuous
100
AcDbLine
 10
641.6501849775131
 20
337.176368530997
 30
0.0
 11
650.7156369892659
 21
337.176368530997
 31
0.0
  0
LINE
  5
24EC
330
1F
100
AcDbEntity
  8
Hewi
  6
Continuous
100
AcDbLine
 10
578.0156369892397
 20
253.2263685309999
 30
0.0
 11
578.0156369892397
 21
372.1263685309939
 31
0.0
  0
LINE
  5
24ED
330
1F
100
AcDbEntity
  8
Hewi
  6
Continuous
100
AcDbLine
 10
596.8156369892499
 20
372.1263685309939
 30
0.0
 11
596.8156369892499
 21
253.2263685309999
 31
0.0
  0
LINE
  5
24EE
330
1F
100
AcDbEntity
  8
Hewi
  6
Continuous
100
AcDbLine
 10
656.2156369892286
 20
286.8902930824814
 30
0.0
 11
656.2156369892286
 21
277.9785939139665
 31
0.0
  0
LINE
  5
24EF
330
1F
100
AcDbEntity
  8
Hewi
  6
Continuous
100
AcDbLine
 10
654.201414422449
 20
287.9572835944391
 30
0.0
 11
655.183962016014
 21
287.9401331624076
 31
0.0
  0
LINE
  5
24F0
330
1F
100
AcDbEntity
  8
Hewi
  6
Continuous
100
AcDbLine
 10
616.8490572031337
 20
288.6092714149245
 30
0.0
 11
654.201414422449
 21
287.9572835944391
 31
0.0
  0
LINE
  5
24F1
330
1F
100
AcDbEntity
  8
Hewi
  6
Continuous
100
AcDbLine
 10
615.9156369892707
 20
335.7936103366783
 30
0.0
 11
615.9156369892707
 21
289.5591267253303
 31
0.0
  0
LINE
  5
24F2
330
1F
100
AcDbEntity
  8
Hewi
  6
Continuous
100
AcDbLine
 10
654.201414422449
 20
337.3954534675258
 30
0.0
 11
616.8490572031337
 21
336.7434656470404
 31
0.0
  0
LINE
  5
24F3
330
1F
100
AcDbEntity
  8
Hewi
  6
Continuous
100
AcDbLine
 10
655.183962016014
 20
337.4126038996155
 30
0.0
 11
654.201414422449
 21
337.3954534675258
 31
0.0
  0
LINE
  5
24F4
330
1F
100
AcDbEntity
  8
Hewi
  6
Continuous
100
AcDbLine
 10
656.2156369892286
 20
347.3741431480275
 30
0.0
 11
656.2156369892286
 21
338.4624439794979
 31
0.0
  0
LINE
  5
24F5
330
1F
100
AcDbEntity
  8
Hewi
  6
Continuous
100
AcDbLine
 10
596.8156369892499
 20
350.4255033941271
 30
0.0
 11
654.201414422449
 21
349.4238309231122
 31
0.0
  0
LINE
  5
24F6
330
1F
100
AcDbEntity
  8
Hewi
  6
Continuous
100
AcDbLine
 10
578.0156369892397
 20
377.5036586148027
 30
0.0
 11
594.3101406256573
 21
377.2192369958474
 31
0.0
  0
LINE
  5
24F7
330
1F
100
AcDbEntity
  8
Hewi
  6
Continuous
100
AcDbLine
 10
578.0156369892397
 20
372.1263685309939
 30
0.0
 11
578.0156369892397
 21
377.5036586148027
 31
0.0
  0
LINE
  5
24F8
330
1F
100
AcDbEntity
  8
Hewi
  6
Continuous
100
AcDbLine
 10
596.8156369892499
 20
374.6696253732052
 30
0.0
 11
596.8156369892499
 21
372.1263685309939
 31
0.0
  0
LINE
  5
24F9
330
1F
100
AcDbEntity
  8
Hewi
  6
Continuous
100
AcDbLine
 10
615.9156730394715
 20
289.9669611682011
 30
0.0
 11
622.7056600667387
 21
289.8484415037792
 31
0.0
  0
LINE
  5
24FA
330
1F
100
AcDbEntity
  8
Hewi
  6
Continuous
100
AcDbLine
 10
653.6156369892378
 20
289.3089058496963
 30
0.0
 11
622.7056600667387
 21
289.8484415037792
 31
0.0
  0
LINE
  5
24FB
330
1F
100
AcDbEntity
  8
Hewi
  6
Continuous
100
AcDbLine
 10
653.6156369892378
 20
289.8588220819919
 30
0.0
 11
653.6156369892378
 21
289.3089058496963
 31
0.0
  0
LINE
  5
24FC
330
1F
100
AcDbEntity
  8
Hewi
  6
Continuous
100
AcDbLine
 10
623.4597587481808
 20
290.3851948946658
 30
0.0
 11
623.4597587481808
 21
334.9675421673282
 31
0.0
  0
LINE
  5
24FD
330
1F
100
AcDbEntity
  8
Hewi
  6
Continuous
100
AcDbLine
 10
653.6156369892378
 20
335.4939149799874
 30
0.0
 11
653.6156369892378
 21
289.8588220819919
 31
0.0
  0
LINE
  5
24FE
330
1F
100
AcDbEntity
  8
Hewi
  6
Continuous
100
AcDbLine
 10
622.7056600667387
 20
335.5042955582002
 30
0.0
 11
653.6156369892378
 21
336.0438312123414
 31
0.0
  0
LINE
  5
24FF
330
1F
100
AcDbEntity
  8
Hewi
  6
Continuous
100
AcDbLine
 10
653.6156369892378
 20
336.0438312123414
 30
0.0
 11
653.6156369892378
 21
335.4939149799874
 31
0.0
  0
LINE
  5
2500
330
1F
100
AcDbEntity
  8
Hewi
  6
Continuous
100
AcDbLine
 10
615.9156730394715
 20
335.3857758937929
 30
0.0
 11
622.7056600667387
 21
335.5042955582002
 31
0.0
  0
LINE
  5
2501
330
1F
100
AcDbEntity
  8
Hewi
  6
Continuous
100
AcDbLine
 10
578.0156369892397
 20
247.8490784471915
 30
0.0
 11
578.0156369892397
 21
253.2263685309999
 31
0.0
  0
LINE
  5
2502
330
1F
100
AcDbEntity
  8
Hewi
  6
Continuous
100
AcDbLine
 10
594.3101406256573
 20
248.1335000661319
 30
0.0
 11
578.0156369892397
 21
247.8490784471915
 31
0.0
  0
LINE
  5
2503
330
1F
100
AcDbEntity
  8
Hewi
  6
Continuous
100
AcDbLine
 10
596.8156369892499
 20
253.2263685309999
 30
0.0
 11
596.8156369892499
 21
250.6831116887743
 31
0.0
  0
LINE
  5
2504
330
1F
100
AcDbEntity
  8
Hewi
  6
Continuous
100
AcDbLine
 10
654.201414422449
 20
275.9289061388963
 30
0.0
 11
596.8156369892499
 21
274.9272336678378
 31
0.0
  0
ARC
  5
2505
330
1F
100
AcDbEntity
  8
Hewi
  6
Continuous
100
AcDbCircle
 10
-655.6656369892489
 20
289.8763685309941
 30
0.0
 40
0.55
210
0.0
220
0.0
230
-1.0
100
AcDbArc
 50
180.0
 51
270.0
  0
ARC
  5
2506
330
1F
100
AcDbEntity
  8
Hewi
  6
Continuous
100
AcDbCircle
 10
-655.6656369892489
 20
335.4763685309999
 30
0.0
 40
0.55
210
0.0
220
0.0
230
-1.0
100
AcDbArc
 50
90.0
 51
180.0
  0
ARC
  5
2507
330
1F
100
AcDbEntity
  8
Hewi
  6
Continuous
100
AcDbCircle
 10
655.1656369892693
 20
286.8902930824814
 30
0.0
 40
1.05
100
AcDbArc
 50
0.0
 51
89.00000000012854
  0
ARC
  5
2508
330
1F
100
AcDbEntity
  8
Hewi
  6
Continuous
100
AcDbCircle
 10
616.8656369892378
 20
289.5591267253303
 30
0.0
 40
0.9500000000000287
100
AcDbArc
 50
180.0
 51
269.0000000001286
  0
ARC
  5
2509
330
1F
100
AcDbEntity
  8
Hewi
  6
Continuous
100
AcDbCircle
 10
616.8656369892378
 20
335.7936103366783
 30
0.0
 40
0.9500000000000351
100
AcDbArc
 50
90.99999999987145
 51
180.0
  0
ARC
  5
250A
330
1F
100
AcDbEntity
  8
Hewi
  6
Continuous
100
AcDbCircle
 10
655.1656369892693
 20
338.4624439794979
 30
0.0
 40
1.05
100
AcDbArc
 50
270.9999999998715
 51
0.0
  0
ARC
  5
250B
330
1F
100
AcDbEntity
  8
Hewi
  6
Continuous
100
AcDbCircle
 10
654.1656369892848
 20
347.3741431480275
 30
0.0
 40
2.049999999999998
100
AcDbArc
 50
0.0
 51
89.00000000012854
  0
ARC
  5
250C
330
1F
100
AcDbEntity
  8
Hewi
  6
Continuous
100
AcDbCircle
 10
594.2656369892256
 20
374.6696253732052
 30
0.0
 40
2.549999999999998
100
AcDbArc
 50
0.0
 51
89.00000000012854
  0
ARC
  5
250D
330
1F
100
AcDbEntity
  8
Hewi
  6
Continuous
100
AcDbCircle
 10
594.2656369892256
 20
250.6831116887743
 30
0.0
 40
2.549999999999998
100
AcDbArc
 50
270.9999999998715
 51
0.0
  0
ARC
  5
250E
330
1F
100
AcDbEntity
  8
Hewi
  6
Continuous
100
AcDbCircle
 10
-654.1656369892848
 20
277.9785939139665
 30
0.0
 40
2.049999999999998
210
0.0
220
0.0
230
-1.0
100
AcDbArc
 50
180.0
 51
269.0000000001286
  0
SPLINE
  5
250F
330
1F
100
AcDbEntity
  8
Hewi
  6
Continuous
100
AcDbSpline
210
0.0
220
0.0
230
1.0
 70
     8
 71
     3
 72
    20
 73
    16
 74
     0
 42
0.0000000001
 43
0.0000000001
 40
0.0
 40
0.0
 40
0.0
 40
0.0
 40
0.0448216244176226
 40
0.0448216244176226
 40
0.4448491916774028
 40
0.4448491916774028
 40
0.5252634315391714
 40
0.5252634315391714
 40
0.7629352579103631
 40
0.7629352579103631
 40
0.8719267528456127
 40
0.8719267528456127
 40
0.9825376433141823
 40
0.9825376433141823
 40
1.0
 40
1.0
 40
1.0
 40
1.0
 10
622.7056600667387
 20
289.8484415037792
 30
0.0
 10
622.7196548338647
 20
289.8481972241834
 30
0.0
 10
622.7336675280193
 20
289.8482620028926
 30
0.0
 10
622.871493858398
 20
289.8519236498805
 30
0.0
 10
622.9981283652336
 20
289.8786734494906
 30
0.0
 10
623.1398819507776
 20
289.9448151789666
 30
0.0
 10
623.1635922259265
 20
289.957267380928
 30
0.0
 10
623.2542710475067
 20
290.0112478364435
 30
0.0
 10
623.3195386726698
 20
290.0638976800375
 30
0.0
 10
623.3945028626148
 20
290.16383279413
 30
0.0
 10
623.4154973720978
 20
290.1995454608232
 30
0.0
 10
623.4466161164704
 20
290.2773667410047
 30
0.0
 10
623.4568149413867
 20
290.3208087856446
 30
0.0
 10
623.4595681194519
 20
290.3712312681136
 30
0.0
 10
623.4597587481808
 20
290.3782150364541
 30
0.0
 10
623.4597587481808
 20
290.3851948946658
 30
0.0
  0
SPLINE
  5
2510
330
1F
100
AcDbEntity
  8
Hewi
  6
Continuous
100
AcDbSpline
210
0.0
220
0.0
230
1.0
 70
     8
 71
     3
 72
    18
 73
    14
 74
     0
 42
0.0000000001
 43
0.0000000001
 40
0.0
 40
0.0
 40
0.0
 40
0.0
 40
0.0481967151535535
 40
0.0481967151535535
 40
0.1374380954146597
 40
0.1374380954146597
 40
0.266597740243724
 40
0.266597740243724
 40
0.3727335680792507
 40
0.3727335680792507
 40
0.6631693004613061
 40
0.6631693004613061
 40
1.0
 40
1.0
 40
1.0
 40
1.0
 10
623.4597587481808
 20
334.9675421673282
 30
0.0
 10
623.4597587481808
 20
334.9866179694337
 30
0.0
 10
623.4583177783028
 20
335.0057699841245
 30
0.0
 10
623.4503056113867
 20
335.0592923276972
 30
0.0
 10
623.4402407406928
 20
335.0932747173329
 30
0.0
 10
623.4074582060534
 20
335.1695524601065
 30
0.0
 10
623.3807743563711
 20
335.2102049359646
 30
0.0
 10
623.326246734734
 20
335.2745010173066
 30
0.0
 10
623.2990195837005
 20
335.3004485650282
 30
0.0
 10
623.1934503148336
 20
335.3859016859615
 30
0.0
 10
623.1059148407616
 20
335.4289875131335
 30
0.0
 10
622.9157093071376
 20
335.4911132001261
 30
0.0
 10
622.8097106987807
 20
335.50611176877
 30
0.0
 10
622.7056600667387
 20
335.5042955582002
 30
0.0
  0
ENDSEC
  0
SECTION
  2
OBJECTS
  0
DICTIONARY
  5
C
330
0
100
AcDbDictionary
281
     1
  3
ACAD_COLOR
350
6B
  3
ACAD_GROUP
350
D
  3
ACAD_LAYOUT
350
1A
  3
ACAD_MATERIAL
350
6A
  3
ACAD_MLINESTYLE
350
17
  3
ACAD_PLOTSETTINGS
350
19
  3
ACAD_PLOTSTYLENAME
350
E
  3
ACAD_TABLESTYLE
350
7E
  3
ACAD_VISUALSTYLE
350
EF
  3
AcDbVariableDictionary
350
5E
  3
DWGPROPS
350
2511
  0
DICTIONARY
  5
141
330
2
100
AcDbDictionary
280
     1
281
     1
  3
ACAD_LAYERSTATES
360
142
  0
DICTIONARY
  5
116
330
1F
100
AcDbDictionary
280
     1
281
     1
  3
ACAD_SORTENTS
360
117
  0
DICTIONARY
  5
6B
102
{ACAD_REACTORS
330
C
102
}
330
C
100
AcDbDictionary
281
     1
  0
DICTIONARY
  5
D
102
{ACAD_REACTORS
330
C
102
}
330
C
100
AcDbDictionary
281
     1
  0
DICTIONARY
  5
1A
102
{ACAD_REACTORS
330
C
102
}
330
C
100
AcDbDictionary
281
     1
  3
Layout1
350
D3
  3
Layout2
350
D7
  3
Model
350
22
  0
DICTIONARY
  5
6A
102
{ACAD_REACTORS
330
C
102
}
330
C
100
AcDbDictionary
281
     1
  3
ByBlock
350
ED
  3
ByLayer
350
EC
  3
Global
350
EE
  0
DICTIONARY
  5
17
102
{ACAD_REACTORS
330
C
102
}
330
C
100
AcDbDictionary
281
     1
  3
Standard
350
18
  0
DICTIONARY
  5
19
102
{ACAD_REACTORS
330
C
102
}
330
C
100
AcDbDictionary
281
     1
  0
ACDBDICTIONARYWDFLT
  5
E
102
{ACAD_REACTORS
330
C
102
}
330
C
100
AcDbDictionary
281
     1
  3
Normal
350
F
100
AcDbDictionaryWithDefault
340
F
  0
DICTIONARY
  5
7E
102
{ACAD_REACTORS
330
C
102
}
330
C
100
AcDbDictionary
281
     1
  3
Standard
350
7F
  0
DICTIONARY
  5
EF
102
{ACAD_REACTORS
330
C
102
}
330
C
100
AcDbDictionary
281
     1
  3
2dWireframe
350
F5
  3
3D Hidden
350
F7
  3
3dWireframe
350
F6
  3
Basic
350
F4
  3
Brighten
350
FB
  3
ColorChange
350
FF
  3
Conceptual
350
F8
  3
Dim
350
FA
  3
Facepattern
350
FE
  3
Flat
350
F0
  3
FlatWithEdges
350
F1
  3
Gouraud
350
F2
  3
GouraudWithEdges
350
F3
  3
Linepattern
350
FD
  3
Realistic
350
F9
  3
Thicken
350
FC
  0
DICTIONARY
  5
5E
102
{ACAD_REACTORS
330
C
102
}
330
C
100
AcDbDictionary
281
     1
  3
CTABLESTYLE
350
84
  3
DIMASSOC
350
5F
  3
HIDETEXT
350
63
  3
INDEXCTL
350
327
  3
PSOLHEIGHT
350
2001
  3
PSOLWIDTH
350
2000
  3
SORTENTS
350
326
  0
XRECORD
  5
2511
102
{ACAD_REACTORS
330
C
102
}
330
C
100
AcDbXrecord
280
     1
  1
DWGPROPS COOKIE
  2

  3

  4

  6

  7

  8
kaschu
  9

300
=
301
=
302
=
303
=
304
=
305
=
306
=
307
=
308
=
309
=
 40
0.0772111226851852
 41
2454768.510881991
 42
2455610.687625451
  1

 90
        0
  0
DICTIONARY
  5
142
102
{ACAD_REACTORS
330
141
102
}
330
141
100
AcDbDictionary
281
     1
  0
SORTENTSTABLE
  5
117
102
{ACAD_REACTORS
330
116
102
}
330
116
100
AcDbSortentsTable
330
1F
  0
LAYOUT
  5
D3
102
{ACAD_XDICTIONARY
360
2516
102
}
102
{ACAD_REACTORS
330
1A
102
}
330
1A
100
AcDbPlotSettings
  1

  2
C:\Documents and Settings\basas\Application Data\Autodesk\AutoCAD 2005\R16.1\enu\plotters\Default Windows System Printer.pc3
  4

  6

 40
0.0
 41
0.0
 42
0.0
 43
0.0
 44
0.0
 45
0.0
 46
0.0
 47
0.0
 48
0.0
 49
0.0
140
0.0
141
0.0
142
1.0
143
1.0
 70
   688
 72
     0
 73
     0
 74
     5
  7

 75
    16
147
1.0
148
0.0
149
0.0
100
AcDbLayout
  1
Layout1
 70
     1
 71
     1
 10
0.0
 20
0.0
 11
12.0
 21
9.0
 12
0.0
 22
0.0
 32
0.0
 14
0.0
 24
0.0
 34
0.0
 15
0.0
 25
0.0
 35
0.0
146
0.0
 13
0.0
 23
0.0
 33
0.0
 16
1.0
 26
0.0
 36
0.0
 17
0.0
 27
1.0
 37
0.0
 76
     0
330
D2
  0
LAYOUT
  5
D7
102
{ACAD_XDICTIONARY
360
2518
102
}
102
{ACAD_REACTORS
330
1A
102
}
330
1A
100
AcDbPlotSettings
  1

  2
C:\Documents and Settings\basas\Application Data\Autodesk\AutoCAD 2005\R16.1\enu\plotters\Default Windows System Printer.pc3
  4

  6

 40
0.0
 41
0.0
 42
0.0
 43
0.0
 44
0.0
 45
0.0
 46
0.0
 47
0.0
 48
0.0
 49
0.0
140
0.0
141
0.0
142
1.0
143
1.0
 70
   688
 72
     0
 73
     0
 74
     5
  7

 75
    16
147
1.0
148
0.0
149
0.0
100
AcDbLayout
  1
Layout2
 70
     1
 71
     2
 10
0.0
 20
0.0
 11
12.0
 21
9.0
 12
0.0
 22
0.0
 32
0.0
 14
0.0
 24
0.0
 34
0.0
 15
0.0
 25
0.0
 35
0.0
146
0.0
 13
0.0
 23
0.0
 33
0.0
 16
1.0
 26
0.0
 36
0.0
 17
0.0
 27
1.0
 37
0.0
 76
     0
330
D6
  0
LAYOUT
  5
22
102
{ACAD_XDICTIONARY
360
2512
102
}
102
{ACAD_REACTORS
330
1A
102
}
330
1A
100
AcDbPlotSettings
  1

  2
none_device
  4
ISO_A4_(210.00_x_297.00_MM)
  6

 40
7.5
 41
20.0
 42
7.5
 43
20.0
 44
210.0
 45
297.0
 46
11.54999923706054
 47
-13.65000009536743
 48
0.0
 49
0.0
140
0.0
141
0.0
142
1.0
143
8.704084754739808
 70
 11952
 72
     1
 73
     0
 74
     0
  7

 75
     0
147
0.1148885871608098
148
0.0
149
0.0
100
AcDbLayout
  1
Model
 70
     1
 71
     0
 10
0.0
 20
0.0
 11
12.0
 21
9.0
 12
0.0
 22
0.0
 32
0.0
 14
0.0
 24
0.0
 34
0.0
 15
0.0
 25
0.0
 35
0.0
146
0.0
 13
0.0
 23
0.0
 33
0.0
 16
1.0
 26
0.0
 36
0.0
 17
0.0
 27
1.0
 37
0.0
 76
     0
330
1F
331
EA
1001
ACAD_PSEXT
1000
None
1000
None
1000
Not applicable
1000
The layout will not be plotted unless a new plotter configuration name is selected.
1070
     0
  0
MATERIAL
  5
ED
102
{ACAD_XDICTIONARY
360
335
102
}
102
{ACAD_REACTORS
330
6A
102
}
330
6A
100
AcDbMaterial
  1
ByBlock
  0
MATERIAL
  5
EC
102
{ACAD_XDICTIONARY
360
333
102
}
102
{ACAD_REACTORS
330
6A
102
}
330
6A
100
AcDbMaterial
  1
ByLayer
  0
MATERIAL
  5
EE
102
{ACAD_XDICTIONARY
360
337
102
}
102
{ACAD_REACTORS
330
6A
102
}
330
6A
100
AcDbMaterial
  1
Global
  0
MLINESTYLE
  5
18
102
{ACAD_REACTORS
330
17
102
}
330
17
100
AcDbMlineStyle
  2
STANDARD
 70
     0
  3

 62
   256
 51
90.0
 52
90.0
 71
     2
 49
0.5
 62
   256
  6
BYLAYER
 49
-0.5
 62
   256
  6
BYLAYER
  0
ACDBPLACEHOLDER
  5
F
102
{ACAD_REACTORS
330
E
102
}
330
E
  0
TABLESTYLE
  5
7F
102
{ACAD_XDICTIONARY
360
2514
102
}
102
{ACAD_REACTORS
330
7E
102
}
330
7E
100
AcDbTableStyle
  3
Standard
 70
     0
 71
     0
 40
1.5
 41
1.5
280
     0
281
     0
  7
Standard
140
4.5
170
     2
 62
     0
 63
     7
283
     0
274
    -2
284
     1
 64
     0
275
    -2
285
     1
 65
     0
276
    -2
286
     1
 66
     0
277
    -2
287
     1
 67
     0
278
    -2
288
     1
 68
     0
279
    -2
289
     1
 69
     0
  7
Standard
140
6.0
170
     5
 62
     0
 63
     7
283
     0
274
    -2
284
     1
 64
     0
275
    -2
285
     1
 65
     0
276
    -2
286
     1
 66
     0
277
    -2
287
     1
 67
     0
278
    -2
288
     1
 68
     0
279
    -2
289
     1
 69
     0
  7
Standard
140
4.5
170
     5
 62
     0
 63
     7
283
     0
274
    -2
284
     1
 64
     0
275
    -2
285
     1
 65
     0
276
    -2
286
     1
 66
     0
277
    -2
287
     1
 67
     0
278
    -2
288
     1
 68
     0
279
    -2
289
     1
 69
     0
  0
VISUALSTYLE
  5
F5
102
{ACAD_REACTORS
330
EF
102
}
330
EF
100
AcDbVisualStyle
  2
2dWireframe
 70
     4
 71
     0
 72
     2
 73
     1
 90
        0
 40
-0.6
 41
-30.0
 62
     5
 63
     7
 74
     1
 91
        4
 64
     7
 65
   257
 75
     1
175
     1
 42
1.0
 92
        0
 66
   257
 43
1.0
 76
     1
 77
     6
 78
     2
 67
     7
 79
     5
170
     0
171
     0
290
     0
174
     0
 93
        1
 44
0.0
173
     0
291
     0
 45
0.0
1001
ACAD
1000
AcDbSavedByObjectVersion
1070
     0
1000
AcDbSavedByObjectVersion
1070
     0
1000
AcDbSavedByObjectVersion
1070
     0
1000
AcDbSavedByObjectVersion
1070
     0
1000
AcDbSavedByObjectVersion
1070
     0
1000
AcDbSavedByObjectVersion
1070
     0
1000
AcDbSavedByObjectVersion
1070
     0
1000
AcDbSavedByObjectVersion
1070
     0
1000
AcDbSavedByObjectVersion
1070
     0
  0
VISUALSTYLE
  5
F7
102
{ACAD_REACTORS
330
EF
102
}
330
EF
100
AcDbVisualStyle
  2
3D Hidden
 70
     6
 71
     1
 72
     2
 73
     2
 90
        0
 40
-0.6
 41
-30.0
 62
     5
 63
     7
 74
     2
 91
        2
 64
     7
 65
   257
 75
     2
175
     1
 42
40.0
 92
        0
 66
   257
 43
1.0
 76
     1
 77
     6
 78
     2
 67
     7
 79
     3
170
     0
171
     0
290
     0
174
     0
 93
        1
 44
0.0
173
     0
291
     0
 45
0.0
1001
ACAD
1000
AcDbSavedByObjectVersion
1070
     0
1000
AcDbSavedByObjectVersion
1070
     0
1000
AcDbSavedByObjectVersion
1070
     0
1000
AcDbSavedByObjectVersion
1070
     0
1000
AcDbSavedByObjectVersion
1070
     0
1000
AcDbSavedByObjectVersion
1070
     0
1000
AcDbSavedByObjectVersion
1070
     0
1000
AcDbSavedByObjectVersion
1070
     0
1000
AcDbSavedByObjectVersion
1070
     0
  0
VISUALSTYLE
  5
F6
102
{ACAD_REACTORS
330
EF
102
}
330
EF
100
AcDbVisualStyle
  2
3dWireframe
 70
     5
 71
     0
 72
     2
 73
     1
 90
        0
 40
-0.6
 41
-30.0
 62
     5
 63
     7
 74
     1
 91
        4
 64
     7
 65
   257
 75
     1
175
     1
 42
1.0
 92
        0
 66
   257
 43
1.0
 76
     1
 77
     6
 78
     2
 67
     7
 79
     5
170
     0
171
     0
290
     0
174
     0
 93
        1
 44
0.0
173
     0
291
     0
 45
0.0
1001
ACAD
1000
AcDbSavedByObjectVersion
1070
     0
1000
AcDbSavedByObjectVersion
1070
     0
1000
AcDbSavedByObjectVersion
1070
     0
1000
AcDbSavedByObjectVersion
1070
     0
1000
AcDbSavedByObjectVersion
1070
     0
1000
AcDbSavedByObjectVersion
1070
     0
1000
AcDbSavedByObjectVersion
1070
     0
1000
AcDbSavedByObjectVersion
1070
     0
1000
AcDbSavedByObjectVersion
1070
     0
  0
VISUALSTYLE
  5
F4
102
{ACAD_REACTORS
330
EF
102
}
330
EF
100
AcDbVisualStyle
  2
Basic
 70
     7
 71
     1
 72
     0
 73
     1
 90
        0
 40
-0.6
 41
-30.0
 62
     5
 63
     7
 74
     0
 91
        4
 64
     7
 65
   257
 75
     1
175
     1
 42
1.0
 92
        8
 66
     7
 43
1.0
 76
     1
 77
     6
 78
     2
 67
     7
 79
     5
170
     0
171
     0
290
     0
174
     0
 93
        1
 44
0.0
173
     0
291
     1
 45
0.0
1001
ACAD
1000
AcDbSavedByObjectVersion
1070
     0
1000
AcDbSavedByObjectVersion
1070
     0
1000
AcDbSavedByObjectVersion
1070
     0
1000
AcDbSavedByObjectVersion
1070
     0
1000
AcDbSavedByObjectVersion
1070
     0
1000
AcDbSavedByObjectVersion
1070
     0
1000
AcDbSavedByObjectVersion
1070
     0
1000
AcDbSavedByObjectVersion
1070
     0
1000
AcDbSavedByObjectVersion
1070
     0
  0
VISUALSTYLE
  5
FB
102
{ACAD_REACTORS
330
EF
102
}
330
EF
100
AcDbVisualStyle
  2
Brighten
 70
    12
 71
     2
 72
     2
 73
     1
 90
        0
 40
-0.6
 41
-30.0
 62
     5
 63
     7
 74
     1
 91
        4
 64
     7
 65
   257
 75
     1
175
     1
 42
1.0
 92
        8
 66
     7
 43
1.0
 76
     1
 77
     6
 78
     2
 67
     7
 79
     5
170
     0
171
     0
290
     0
174
     0
 93
        1
 44
50.0
173
     0
291
     1
 45
0.0
1001
ACAD
1000
AcDbSavedByObjectVersion
1070
     0
1000
AcDbSavedByObjectVersion
1070
     0
1000
AcDbSavedByObjectVersion
1070
     0
1000
AcDbSavedByObjectVersion
1070
     0
1000
AcDbSavedByObjectVersion
1070
     0
1000
AcDbSavedByObjectVersion
1070
     0
1000
AcDbSavedByObjectVersion
1070
     0
1000
AcDbSavedByObjectVersion
1070
     0
1000
AcDbSavedByObjectVersion
1070
     0
  0
VISUALSTYLE
  5
FF
102
{ACAD_REACTORS
330
EF
102
}
330
EF
100
AcDbVisualStyle
  2
ColorChange
 70
    16
 71
     2
 72
     2
 73
     3
 90
        0
 40
-0.6
 41
-30.0
 62
     5
 63
     8
 74
     1
 91
        4
 64
     7
 65
   257
 75
     1
175
     1
 42
1.0
 92
        8
 66
     8
 43
1.0
 76
     1
 77
     6
 78
     2
 67
     7
 79
     5
170
     0
171
     0
290
     0
174
     0
 93
        1
 44
0.0
173
     0
291
     1
 45
0.0
1001
ACAD
1000
AcDbSavedByObjectVersion
1070
     0
1000
AcDbSavedByObjectVersion
1070
     0
1000
AcDbSavedByObjectVersion
1070
     0
1000
AcDbSavedByObjectVersion
1070
     0
1000
AcDbSavedByObjectVersion
1070
     0
1000
AcDbSavedByObjectVersion
1070
     0
1000
AcDbSavedByObjectVersion
1070
     0
1000
AcDbSavedByObjectVersion
1070
     0
1000
AcDbSavedByObjectVersion
1070
     0
  0
VISUALSTYLE
  5
F8
102
{ACAD_REACTORS
330
EF
102
}
330
EF
100
AcDbVisualStyle
  2
Conceptual
 70
     9
 71
     3
 72
     2
 73
     1
 90
        0
 40
-0.6
 41
-30.0
 62
     5
 63
     7
 74
     2
 91
        2
 64
     7
 65
   257
 75
     1
175
     1
 42
40.0
 92
        8
 66
     7
 43
1.0
 76
     1
 77
     6
 78
     2
 67
     7
 79
     3
170
     0
171
     0
290
     0
174
     0
 93
        1
 44
0.0
173
     0
291
     0
 45
0.0
1001
ACAD
1000
AcDbSavedByObjectVersion
1070
     0
1000
AcDbSavedByObjectVersion
1070
     0
1000
AcDbSavedByObjectVersion
1070
     0
1000
AcDbSavedByObjectVersion
1070
     0
1000
AcDbSavedByObjectVersion
1070
     0
1000
AcDbSavedByObjectVersion
1070
     0
1000
AcDbSavedByObjectVersion
1070
     0
1000
AcDbSavedByObjectVersion
1070
     0
1000
AcDbSavedByObjectVersion
1070
     0
  0
VISUALSTYLE
  5
FA
102
{ACAD_REACTORS
330
EF
102
}
330
EF
100
AcDbVisualStyle
  2
Dim
 70
    11
 71
     2
 72
     2
 73
     1
 90
        0
 40
-0.6
 41
-30.0
 62
     5
 63
     7
 74
     1
 91
        4
 64
     7
 65
   257
 75
     1
175
     1
 42
1.0
 92
        8
 66
     7
 43
1.0
 76
     1
 77
     6
 78
     2
 67
     7
 79
     5
170
     0
171
     0
290
     0
174
     0
 93
        1
 44
-50.0
173
     0
291
     1
 45
0.0
1001
ACAD
1000
AcDbSavedByObjectVersion
1070
     0
1000
AcDbSavedByObjectVersion
1070
     0
1000
AcDbSavedByObjectVersion
1070
     0
1000
AcDbSavedByObjectVersion
1070
     0
1000
AcDbSavedByObjectVersion
1070
     0
1000
AcDbSavedByObjectVersion
1070
     0
1000
AcDbSavedByObjectVersion
1070
     0
1000
AcDbSavedByObjectVersion
1070
     0
1000
AcDbSavedByObjectVersion
1070
     0
  0
VISUALSTYLE
  5
FE
102
{ACAD_REACTORS
330
EF
102
}
330
EF
100
AcDbVisualStyle
  2
Facepattern
 70
    15
 71
     2
 72
     2
 73
     1
 90
        0
 40
-0.6
 41
-30.0
 62
     5
 63
     7
 74
     1
 91
        4
 64
     7
 65
   257
 75
     1
175
     1
 42
1.0
 92
        8
 66
     7
 43
1.0
 76
     1
 77
     6
 78
     2
 67
     7
 79
     5
170
     0
171
     0
290
     0
174
     0
 93
        1
 44
0.0
173
     0
291
     1
 45
0.0
1001
ACAD
1000
AcDbSavedByObjectVersion
1070
     0
1000
AcDbSavedByObjectVersion
1070
     0
1000
AcDbSavedByObjectVersion
1070
     0
1000
AcDbSavedByObjectVersion
1070
     0
1000
AcDbSavedByObjectVersion
1070
     0
1000
AcDbSavedByObjectVersion
1070
     0
1000
AcDbSavedByObjectVersion
1070
     0
1000
AcDbSavedByObjectVersion
1070
     0
1000
AcDbSavedByObjectVersion
1070
     0
  0
VISUALSTYLE
  5
F0
102
{ACAD_REACTORS
330
EF
102
}
330
EF
100
AcDbVisualStyle
  2
Flat
 70
     0
 71
     2
 72
     1
 73
     1
 90
        2
 40
-0.6
 41
30.0
 62
     5
 63
     7
 74
     0
 91
        4
 64
     7
 65
   257
 75
     1
175
     1
 42
1.0
 92
        8
 66
     7
 43
1.0
 76
     1
 77
     6
 78
     2
 67
     7
 79
     5
170
     0
171
     0
290
     0
174
     0
 93
       13
 44
0.0
173
     0
291
     1
 45
0.0
1001
ACAD
1000
AcDbSavedByObjectVersion
1070
     0
1000
AcDbSavedByObjectVersion
1070
     0
1000
AcDbSavedByObjectVersion
1070
     0
1000
AcDbSavedByObjectVersion
1070
     0
1000
AcDbSavedByObjectVersion
1070
     0
1000
AcDbSavedByObjectVersion
1070
     0
1000
AcDbSavedByObjectVersion
1070
     0
1000
AcDbSavedByObjectVersion
1070
     0
1000
AcDbSavedByObjectVersion
1070
     0
  0
VISUALSTYLE
  5
F1
102
{ACAD_REACTORS
330
EF
102
}
330
EF
100
AcDbVisualStyle
  2
FlatWithEdges
 70
     1
 71
     2
 72
     1
 73
     1
 90
        2
 40
-0.6
 41
30.0
 62
     5
 63
     7
 74
     1
 91
        4
 64
     7
 65
   257
 75
     1
175
     1
 42
1.0
 92
        0
 66
   257
 43
1.0
 76
     1
 77
     6
 78
     2
 67
     7
 79
     5
170
     0
171
     0
290
     0
174
     0
 93
       13
 44
0.0
173
     0
291
     1
 45
0.0
1001
ACAD
1000
AcDbSavedByObjectVersion
1070
     0
1000
AcDbSavedByObjectVersion
1070
     0
1000
AcDbSavedByObjectVersion
1070
     0
1000
AcDbSavedByObjectVersion
1070
     0
1000
AcDbSavedByObjectVersion
1070
     0
1000
AcDbSavedByObjectVersion
1070
     0
1000
AcDbSavedByObjectVersion
1070
     0
1000
AcDbSavedByObjectVersion
1070
     0
1000
AcDbSavedByObjectVersion
1070
     0
  0
VISUALSTYLE
  5
F2
102
{ACAD_REACTORS
330
EF
102
}
330
EF
100
AcDbVisualStyle
  2
Gouraud
 70
     2
 71
     2
 72
     2
 73
     1
 90
        2
 40
-0.6
 41
30.0
 62
     5
 63
     7
 74
     0
 91
        4
 64
     7
 65
   257
 75
     1
175
     1
 42
1.0
 92
        0
 66
     7
 43
1.0
 76
     1
 77
     6
 78
     2
 67
     7
 79
     5
170
     0
171
     0
290
     0
174
     0
 93
       13
 44
0.0
173
     0
291
     1
 45
0.0
1001
ACAD
1000
AcDbSavedByObjectVersion
1070
     0
1000
AcDbSavedByObjectVersion
1070
     0
1000
AcDbSavedByObjectVersion
1070
     0
1000
AcDbSavedByObjectVersion
1070
     0
1000
AcDbSavedByObjectVersion
1070
     0
1000
AcDbSavedByObjectVersion
1070
     0
1000
AcDbSavedByObjectVersion
1070
     0
1000
AcDbSavedByObjectVersion
1070
     0
1000
AcDbSavedByObjectVersion
1070
     0
  0
VISUALSTYLE
  5
F3
102
{ACAD_REACTORS
330
EF
102
}
330
EF
100
AcDbVisualStyle
  2
GouraudWithEdges
 70
     3
 71
     2
 72
     2
 73
     1
 90
        2
 40
-0.6
 41
30.0
 62
     5
 63
     7
 74
     1
 91
        4
 64
     7
 65
   257
 75
     1
175
     1
 42
1.0
 92
        0
 66
   257
 43
1.0
 76
     1
 77
     6
 78
     2
 67
     7
 79
     5
170
     0
171
     0
290
     0
174
     0
 93
       13
 44
0.0
173
     0
291
     1
 45
0.0
1001
ACAD
1000
AcDbSavedByObjectVersion
1070
     0
1000
AcDbSavedByObjectVersion
1070
     0
1000
AcDbSavedByObjectVersion
1070
     0
1000
AcDbSavedByObjectVersion
1070
     0
1000
AcDbSavedByObjectVersion
1070
     0
1000
AcDbSavedByObjectVersion
1070
     0
1000
AcDbSavedByObjectVersion
1070
     0
1000
AcDbSavedByObjectVersion
1070
     0
1000
AcDbSavedByObjectVersion
1070
     0
  0
VISUALSTYLE
  5
FD
102
{ACAD_REACTORS
330
EF
102
}
330
EF
100
AcDbVisualStyle
  2
Linepattern
 70
    14
 71
     2
 72
     2
 73
     1
 90
        0
 40
-0.6
 41
-30.0
 62
     5
 63
     7
 74
     1
 91
        4
 64
     7
 65
   257
 75
     7
175
     7
 42
1.0
 92
        8
 66
     7
 43
1.0
 76
     1
 77
     6
 78
     2
 67
     7
 79
     5
170
     0
171
     0
290
     0
174
     0
 93
        1
 44
0.0
173
     0
291
     1
 45
0.0
1001
ACAD
1000
AcDbSavedByObjectVersion
1070
     0
1000
AcDbSavedByObjectVersion
1070
     0
1000
AcDbSavedByObjectVersion
1070
     0
1000
AcDbSavedByObjectVersion
1070
     0
1000
AcDbSavedByObjectVersion
1070
     0
1000
AcDbSavedByObjectVersion
1070
     0
1000
AcDbSavedByObjectVersion
1070
     0
1000
AcDbSavedByObjectVersion
1070
     0
1000
AcDbSavedByObjectVersion
1070
     0
  0
VISUALSTYLE
  5
F9
102
{ACAD_REACTORS
330
EF
102
}
330
EF
100
AcDbVisualStyle
  2
Realistic
 70
     8
 71
     2
 72
     2
 73
     1
 90
        0
 40
-0.6
 41
-30.0
 62
     5
 63
     7
 74
     1
 91
        0
 64
     7
 65
   257
 75
     1
175
     1
 42
1.0
 92
        8
 66
     8
 43
1.0
 76
     1
 77
     6
 78
     2
 67
     7
 79
     5
170
     0
171
     0
290
     0
174
     0
 93
       13
 44
0.0
173
     0
291
     0
 45
0.0
1001
ACAD
1000
AcDbSavedByObjectVersion
1070
     0
1000
AcDbSavedByObjectVersion
1070
     0
1000
AcDbSavedByObjectVersion
1070
     0
1000
AcDbSavedByObjectVersion
1070
     0
1000
AcDbSavedByObjectVersion
1070
     0
1000
AcDbSavedByObjectVersion
1070
     0
1000
AcDbSavedByObjectVersion
1070
     0
1000
AcDbSavedByObjectVersion
1070
     0
1000
AcDbSavedByObjectVersion
1070
     0
  0
VISUALSTYLE
  5
FC
102
{ACAD_REACTORS
330
EF
102
}
330
EF
100
AcDbVisualStyle
  2
Thicken
 70
    13
 71
     2
 72
     2
 73
     1
 90
        0
 40
-0.6
 41
-30.0
 62
     5
 63
     7
 74
     1
 91
        4
 64
     7
 65
   257
 75
     1
175
     1
 42
1.0
 92
       12
 66
     7
 43
1.0
 76
     1
 77
     6
 78
     2
 67
     7
 79
     5
170
     0
171
     0
290
     0
174
     0
 93
        1
 44
0.0
173
     0
291
     1
 45
0.0
1001
ACAD
1000
AcDbSavedByObjectVersion
1070
     0
1000
AcDbSavedByObjectVersion
1070
     0
1000
AcDbSavedByObjectVersion
1070
     0
1000
AcDbSavedByObjectVersion
1070
     0
1000
AcDbSavedByObjectVersion
1070
     0
1000
AcDbSavedByObjectVersion
1070
     0
1000
AcDbSavedByObjectVersion
1070
     0
1000
AcDbSavedByObjectVersion
1070
     0
1000
AcDbSavedByObjectVersion
1070
     0
  0
DICTIONARYVAR
  5
84
102
{ACAD_REACTORS
330
5E
102
}
330
5E
100
DictionaryVariables
280
     0
  1
STANDARD
  0
DICTIONARYVAR
  5
5F
102
{ACAD_REACTORS
330
5E
102
}
330
5E
100
DictionaryVariables
280
     0
  1
2
  0
DICTIONARYVAR
  5
63
102
{ACAD_REACTORS
330
5E
102
}
330
5E
100
DictionaryVariables
280
     0
  1
1
  0
DICTIONARYVAR
  5
327
102
{ACAD_REACTORS
330
5E
102
}
330
5E
100
DictionaryVariables
280
     0
  1
0
  0
DICTIONARYVAR
  5
2001
102
{ACAD_REACTORS
330
5E
102
}
330
5E
100
DictionaryVariables
280
     0
  1
80.000000
  0
DICTIONARYVAR
  5
2000
102
{ACAD_REACTORS
330
5E
102
}
330
5E
100
DictionaryVariables
280
     0
  1
5.000000
  0
DICTIONARYVAR
  5
326
102
{ACAD_REACTORS
330
5E
102
}
330
5E
100
DictionaryVariables
280
     0
  1
127
  0
DICTIONARY
  5
2516
330
D3
100
AcDbDictionary
280
     1
281
     1
  3
ACAD_XREC_ROUNDTRIP
360
2517
  0
DICTIONARY
  5
2518
330
D7
100
AcDbDictionary
280
     1
281
     1
  3
ACAD_XREC_ROUNDTRIP
360
2519
  0
DICTIONARY
  5
2512
330
22
100
AcDbDictionary
280
     1
281
     1
  3
ACAD_XREC_ROUNDTRIP
360
2513
  0
DICTIONARY
  5
335
330
ED
100
AcDbDictionary
280
     1
281
     1
  3
ACAD_XREC_ROUNDTRIP
360
336
  0
DICTIONARY
  5
333
330
EC
100
AcDbDictionary
280
     1
281
     1
  3
ACAD_XREC_ROUNDTRIP
360
334
  0
DICTIONARY
  5
337
330
EE
100
AcDbDictionary
280
     1
281
     1
  3
ACAD_XREC_ROUNDTRIP
360
338
  0
DICTIONARY
  5
2514
330
7F
100
AcDbDictionary
280
     1
281
     1
  3
ACAD_XREC_ROUNDTRIP
360
2515
  0
XRECORD
  5
2517
102
{ACAD_REACTORS
330
2516
102
}
330
2516
100
AcDbXrecord
280
     1
102
SHADEPLOT
 70
     0
102
SHADEPLOTRESLEVEL
 70
     2
102
SHADEPLOTCUSTOMDPI
 70
   300
  0
XRECORD
  5
2519
102
{ACAD_REACTORS
330
2518
102
}
330
2518
100
AcDbXrecord
280
     1
102
SHADEPLOT
 70
     0
102
SHADEPLOTRESLEVEL
 70
     2
102
SHADEPLOTCUSTOMDPI
 70
   300
  0
XRECORD
  5
2513
102
{ACAD_REACTORS
330
2512
102
}
330
2512
100
AcDbXrecord
280
     1
102
SHADEPLOT
 70
     0
102
SHADEPLOTRESLEVEL
 70
     2
102
SHADEPLOTCUSTOMDPI
 70
   300
  0
XRECORD
  5
336
102
{ACAD_REACTORS
330
335
102
}
330
335
100
AcDbXrecord
280
     1
102
MATERIAL
148
0.0
149
0.0
149
0.0
 93
        0
 94
       63
282
     0
 72
     1
 77
     1
171
     1
175
     1
179
     1
273
     0
  0
XRECORD
  5
334
102
{ACAD_REACTORS
330
333
102
}
330
333
100
AcDbXrecord
280
     1
102
MATERIAL
148
0.0
149
0.0
149
0.0
 93
        0
 94
       63
282
     0
 72
     1
 77
     1
171
     1
175
     1
179
     1
273
     0
  0
XRECORD
  5
338
102
{ACAD_REACTORS
330
337
102
}
330
337
100
AcDbXrecord
280
     1
102
MATERIAL
148
0.0
149
0.0
149
0.0
 93
        0
 94
       63
282
     0
 72
     1
 77
     1
171
     1
175
     1
179
     1
273
     0
  0
XRECORD
  5
2515
102
{ACAD_REACTORS
330
2514
102
}
330
2514
100
AcDbXrecord
280
     1
102
ACAD_ROUNDTRIP_PRE2007_TABLESTYLE
 90
      512
 91
        0
  1

 92
      512
 93
        0
  2

 94
      512
 95
        0
  3

  0
ENDSEC
  0
EOF
