  0
SECTION
  2
HEADER
  9
$ACADVER
  1
AC1015
  9
$ACADMAINTVER
 70
    20
  9
$DWGCODEPAGE
  3
ANSI_1252
  9
$INSBASE
 10
0.0
 20
0.0
 30
0.0
  9
$EXTMIN
 10
238.3610568216141
 20
173.4303018312339
 30
0.0
  9
$EXTMAX
 10
5432.663386317576
 20
1520.13723085058
 30
0.0
  9
$LIMMIN
 10
0.0
 20
0.0
  9
$LIMMAX
 10
420.0
 20
297.0
  9
$ORTHOMODE
 70
     0
  9
$REGENMODE
 70
     1
  9
$FILLMODE
 70
     1
  9
$QTEXTMODE
 70
     0
  9
$MIRRTEXT
 70
     0
  9
$LTSCALE
 40
1.0
  9
$ATTMODE
 70
     1
  9
$TEXTSIZE
 40
2.5
  9
$TRACEWID
 40
1.0
  9
$TEXTSTYLE
  7
Standard
  9
$CLAYER
  8
0
  9
$CELTYPE
  6
ByLayer
  9
$CECOLOR
 62
   256
  9
$CELTSCALE
 40
1.0
  9
$DISPSILH
 70
     0
  9
$DIMSCALE
 40
1.0
  9
$DIMASZ
 40
2.5
  9
$DIMEXO
 40
0.625
  9
$DIMDLI
 40
3.75
  9
$DIMRND
 40
0.0
  9
$DIMDLE
 40
0.0
  9
$DIMEXE
 40
1.25
  9
$DIMTP
 40
0.0
  9
$DIMTM
 40
0.0
  9
$DIMTXT
 40
2.5
  9
$DIMCEN
 40
2.5
  9
$DIMTSZ
 40
0.0
  9
$DIMTOL
 70
     0
  9
$DIMLIM
 70
     0
  9
$DIMTIH
 70
     0
  9
$DIMTOH
 70
     0
  9
$DIMSE1
 70
     0
  9
$DIMSE2
 70
     0
  9
$DIMTAD
 70
     1
  9
$DIMZIN
 70
     8
  9
$DIMBLK
  1

  9
$DIMASO
 70
     1
  9
$DIMSHO
 70
     1
  9
$DIMPOST
  1

  9
$DIMAPOST
  1

  9
$DIMALT
 70
     0
  9
$DIMALTD
 70
     3
  9
$DIMALTF
 40
0.03937007874016
  9
$DIMLFAC
 40
1.0
  9
$DIMTOFL
 70
     1
  9
$DIMTVP
 40
0.0
  9
$DIMTIX
 70
     0
  9
$DIMSOXD
 70
     0
  9
$DIMSAH
 70
     0
  9
$DIMBLK1
  1

  9
$DIMBLK2
  1

  9
$DIMSTYLE
  2
ISO-25
  9
$DIMCLRD
 70
     0
  9
$DIMCLRE
 70
     0
  9
$DIMCLRT
 70
     0
  9
$DIMTFAC
 40
1.0
  9
$DIMGAP
 40
0.625
  9
$DIMJUST
 70
     0
  9
$DIMSD1
 70
     0
  9
$DIMSD2
 70
     0
  9
$DIMTOLJ
 70
     0
  9
$DIMTZIN
 70
     8
  9
$DIMALTZ
 70
     0
  9
$DIMALTTZ
 70
     0
  9
$DIMUPT
 70
     0
  9
$DIMDEC
 70
     2
  9
$DIMTDEC
 70
     2
  9
$DIMALTU
 70
     2
  9
$DIMALTTD
 70
     3
  9
$DIMTXSTY
  7
Standard
  9
$DIMAUNIT
 70
     0
  9
$DIMADEC
 70
     0
  9
$DIMALTRND
 40
0.0
  9
$DIMAZIN
 70
     0
  9
$DIMDSEP
 70
    44
  9
$DIMATFIT
 70
     3
  9
$DIMFRAC
 70
     0
  9
$DIMLDRBLK
  1

  9
$DIMLUNIT
 70
     2
  9
$DIMLWD
 70
    -2
  9
$DIMLWE
 70
    -2
  9
$DIMTMOVE
 70
     0
  9
$LUNITS
 70
     2
  9
$LUPREC
 70
     4
  9
$SKETCHINC
 40
1.0
  9
$FILLETRAD
 40
0.0
  9
$AUNITS
 70
     0
  9
$AUPREC
 70
     0
  9
$MENU
  1
.
  9
$ELEVATION
 40
0.0
  9
$PELEVATION
 40
0.0
  9
$THICKNESS
 40
0.0
  9
$LIMCHECK
 70
     0
  9
$CHAMFERA
 40
0.0
  9
$CHAMFERB
 40
0.0
  9
$CHAMFERC
 40
0.0
  9
$CHAMFERD
 40
0.0
  9
$SKPOLY
 70
     0
  9
$TDCREATE
 40
2454768.510881991
  9
$TDUCREATE
 40
2454768.469215324
  9
$TDUPDATE
 40
2455610.688240683
  9
$TDUUPDATE
 40
2455610.646574016
  9
$TDINDWG
 40
0.0778263426
  9
$TDUSRTIMER
 40
0.0778203356
  9
$USRTIMER
 70
     1
  9
$ANGBASE
 50
0.0
  9
$ANGDIR
 70
     0
  9
$PDMODE
 70
     0
  9
$PDSIZE
 40
0.0
  9
$PLINEWID
 40
0.0
  9
$SPLFRAME
 70
     0
  9
$SPLINETYPE
 70
     6
  9
$SPLINESEGS
 70
     8
  9
$HANDSEED
  5
26C3
  9
$SURFTAB1
 70
     6
  9
$SURFTAB2
 70
     6
  9
$SURFTYPE
 70
     6
  9
$SURFU
 70
     6
  9
$SURFV
 70
     6
  9
$UCSBASE
  2

  9
$UCSNAME
  2

  9
$UCSORG
 10
0.0
 20
0.0
 30
0.0
  9
$UCSXDIR
 10
1.0
 20
0.0
 30
0.0
  9
$UCSYDIR
 10
0.0
 20
1.0
 30
0.0
  9
$UCSORTHOREF
  2

  9
$UCSORTHOVIEW
 70
     0
  9
$UCSORGTOP
 10
0.0
 20
0.0
 30
0.0
  9
$UCSORGBOTTOM
 10
0.0
 20
0.0
 30
0.0
  9
$UCSORGLEFT
 10
0.0
 20
0.0
 30
0.0
  9
$UCSORGRIGHT
 10
0.0
 20
0.0
 30
0.0
  9
$UCSORGFRONT
 10
0.0
 20
0.0
 30
0.0
  9
$UCSORGBACK
 10
0.0
 20
0.0
 30
0.0
  9
$PUCSBASE
  2

  9
$PUCSNAME
  2

  9
$PUCSORG
 10
0.0
 20
0.0
 30
0.0
  9
$PUCSXDIR
 10
1.0
 20
0.0
 30
0.0
  9
$PUCSYDIR
 10
0.0
 20
1.0
 30
0.0
  9
$PUCSORTHOREF
  2

  9
$PUCSORTHOVIEW
 70
     0
  9
$PUCSORGTOP
 10
0.0
 20
0.0
 30
0.0
  9
$PUCSORGBOTTOM
 10
0.0
 20
0.0
 30
0.0
  9
$PUCSORGLEFT
 10
0.0
 20
0.0
 30
0.0
  9
$PUCSORGRIGHT
 10
0.0
 20
0.0
 30
0.0
  9
$PUCSORGFRONT
 10
0.0
 20
0.0
 30
0.0
  9
$PUCSORGBACK
 10
0.0
 20
0.0
 30
0.0
  9
$USERI1
 70
     0
  9
$USERI2
 70
     0
  9
$USERI3
 70
     0
  9
$USERI4
 70
     0
  9
$USERI5
 70
     0
  9
$USERR1
 40
0.0
  9
$USERR2
 40
0.0
  9
$USERR3
 40
0.0
  9
$USERR4
 40
0.0
  9
$USERR5
 40
0.0
  9
$WORLDVIEW
 70
     1
  9
$SHADEDGE
 70
     3
  9
$SHADEDIF
 70
    70
  9
$TILEMODE
 70
     1
  9
$MAXACTVP
 70
    64
  9
$PINSBASE
 10
0.0
 20
0.0
 30
0.0
  9
$PLIMCHECK
 70
     0
  9
$PEXTMIN
 10
0.0
 20
0.0
 30
0.0
  9
$PEXTMAX
 10
0.0
 20
0.0
 30
0.0
  9
$PLIMMIN
 10
0.0
 20
0.0
  9
$PLIMMAX
 10
12.0
 20
9.0
  9
$UNITMODE
 70
     0
  9
$VISRETAIN
 70
     1
  9
$PLINEGEN
 70
     0
  9
$PSLTSCALE
 70
     1
  9
$TREEDEPTH
 70
  3020
  9
$CMLSTYLE
  2
Standard
  9
$CMLJUST
 70
     0
  9
$CMLSCALE
 40
20.0
  9
$PROXYGRAPHICS
 70
     1
  9
$MEASUREMENT
 70
     1
  9
$CELWEIGHT
370
    -1
  9
$ENDCAPS
280
     0
  9
$JOINSTYLE
280
     0
  9
$LWDISPLAY
290
     0
  9
$INSUNITS
 70
     4
  9
$HYPERLINKBASE
  1

  9
$STYLESHEET
  1

  9
$XEDIT
290
     1
  9
$CEPSNTYPE
380
     0
  9
$PSTYLEMODE
290
     1
  9
$FINGERPRINTGUID
  2
{A9F5D530-972F-4813-857A-78B9B08CAD27}
  9
$VERSIONGUID
  2
{C1548C69-D686-4D1A-98D8-7485CF57CDD7}
  9
$EXTNAMES
290
     1
  9
$PSVPSCALE
 40
0.0
  9
$OLESTARTUP
290
     0
  0
ENDSEC
  0
SECTION
  2
CLASSES
  0
CLASS
  1
ACDBDICTIONARYWDFLT
  2
AcDbDictionaryWithDefault
  3
ObjectDBX Classes
 90
        0
280
     0
281
     0
  0
CLASS
  1
DICTIONARYVAR
  2
AcDbDictionaryVar
  3
ObjectDBX Classes
 90
        0
280
     0
281
     0
  0
CLASS
  1
TABLESTYLE
  2
AcDbTableStyle
  3
ObjectDBX Classes
 90
     4095
280
     0
281
     0
  0
CLASS
  1
MATERIAL
  2
AcDbMaterial
  3
ObjectDBX Classes
 90
     1024
280
     0
281
     0
  0
CLASS
  1
VISUALSTYLE
  2
AcDbVisualStyle
  3
ObjectDBX Classes
 90
     4095
280
     0
281
     0
  0
CLASS
  1
SORTENTSTABLE
  2
AcDbSortentsTable
  3
ObjectDBX Classes
 90
        0
280
     0
281
     0
  0
CLASS
  1
DIMASSOC
  2
AcDbDimAssoc
  3
"AcDbDimAssoc|Product Desc:     AcDim ARX App For Dimension|Company:          Autodesk, Inc.|WEB Address:      www.autodesk.com"
 90
    32768
280
     0
281
     0
  0
CLASS
  1
ACDBPLACEHOLDER
  2
AcDbPlaceHolder
  3
ObjectDBX Classes
 90
        0
280
     0
281
     0
  0
CLASS
  1
LAYOUT
  2
AcDbLayout
  3
ObjectDBX Classes
 90
        0
280
     0
281
     0
  0
ENDSEC
  0
SECTION
  2
TABLES
  0
TABLE
  2
VPORT
  5
8
330
0
100
AcDbSymbolTable
 70
     1
  0
VPORT
  5
EA
330
8
100
AcDbSymbolTableRecord
100
AcDbViewportTableRecord
  2
*Active
 70
     0
 10
0.0
 20
0.0
 11
1.0
 21
1.0
 12
2941.396880938892
 22
389.5280776216992
 13
0.0
 23
0.0
 14
10.0
 24
10.0
 15
10.0
 25
10.0
 16
0.0
 26
0.0
 36
1.0
 17
0.0
 27
0.0
 37
0.0
 40
4059.411303608693
 41
1.858662613981763
 42
50.0
 43
0.0
 44
0.0
 50
0.0
 51
0.0
 71
     0
 72
  1000
 73
     1
 74
     3
 75
     0
 76
     0
 77
     0
 78
     0
281
     0
 65
     1
110
0.0
120
0.0
130
0.0
111
1.0
121
0.0
131
0.0
112
0.0
122
1.0
132
0.0
 79
     0
146
0.0
  0
ENDTAB
  0
TABLE
  2
LTYPE
  5
5
330
0
100
AcDbSymbolTable
 70
     5
  0
LTYPE
  5
14
330
5
100
AcDbSymbolTableRecord
100
AcDbLinetypeTableRecord
  2
ByBlock
 70
     0
  3

 72
    65
 73
     0
 40
0.0
  0
LTYPE
  5
15
330
5
100
AcDbSymbolTableRecord
100
AcDbLinetypeTableRecord
  2
ByLayer
 70
     0
  3

 72
    65
 73
     0
 40
0.0
  0
LTYPE
  5
16
330
5
100
AcDbSymbolTableRecord
100
AcDbLinetypeTableRecord
  2
Continuous
 70
     0
  3
Solid line
 72
    65
 73
     0
 40
0.0
  0
ENDTAB
  0
TABLE
  2
LAYER
  5
2
102
{ACAD_XDICTIONARY
360
141
102
}
330
0
100
AcDbSymbolTable
 70
     7
  0
LAYER
  5
10
330
2
100
AcDbSymbolTableRecord
100
AcDbLayerTableRecord
  2
0
 70
     0
 62
     7
  6
Continuous
370
    -3
390
F
  0
LAYER
  5
124
330
2
100
AcDbSymbolTableRecord
100
AcDbLayerTableRecord
  2
Defpoints
 70
     0
 62
     7
  6
Continuous
290
     0
370
    -3
390
F
  0
LAYER
  5
13E
330
2
100
AcDbSymbolTableRecord
100
AcDbLayerTableRecord
  2
Hewi
 70
     0
 62
     7
  6
Continuous
370
    -3
390
F
  0
ENDTAB
  0
TABLE
  2
STYLE
  5
3
330
0
100
AcDbSymbolTable
 70
     5
  0
STYLE
  5
11
330
3
100
AcDbSymbolTableRecord
100
AcDbTextStyleTableRecord
  2
Standard
 70
     0
 40
0.0
 41
1.0
 50
0.0
 71
     0
 42
2.5
  3
txt
  4

  0
ENDTAB
  0
TABLE
  2
VIEW
  5
6
330
0
100
AcDbSymbolTable
 70
     0
  0
ENDTAB
  0
TABLE
  2
UCS
  5
7
330
0
100
AcDbSymbolTable
 70
     0
  0
ENDTAB
  0
TABLE
  2
APPID
  5
9
330
0
100
AcDbSymbolTable
 70
     3
  0
APPID
  5
12
330
9
100
AcDbSymbolTableRecord
100
AcDbRegAppTableRecord
  2
ACAD
 70
     0
  0
APPID
  5
9E
330
9
100
AcDbSymbolTableRecord
100
AcDbRegAppTableRecord
  2
ACAD_PSEXT
 70
     0
  0
APPID
  5
212
330
9
100
AcDbSymbolTableRecord
100
AcDbRegAppTableRecord
  2
ACAD_EXEMPT_FROM_CAD_STANDARDS
 70
     0
  0
ENDTAB
  0
TABLE
  2
DIMSTYLE
  5
A
330
0
100
AcDbSymbolTable
 70
     2
100
AcDbDimStyleTable
 71
     1
340
27
  0
DIMSTYLE
105
27
330
A
100
AcDbSymbolTableRecord
100
AcDbDimStyleTableRecord
  2
ISO-25
 70
     0
 41
2.5
 42
0.625
 43
3.75
 44
1.25
 73
     0
 74
     0
 77
     1
 78
     8
140
2.5
141
2.5
143
0.03937007874016
147
0.625
171
     3
172
     1
271
     2
272
     2
274
     3
278
    44
283
     0
284
     8
340
11
  0
DIMSTYLE
105
254
330
A
100
AcDbSymbolTableRecord
100
AcDbDimStyleTableRecord
  2
Standard
 70
     0
340
11
  0
ENDTAB
  0
TABLE
  2
BLOCK_RECORD
  5
1
330
0
100
AcDbSymbolTable
 70
     6
  0
BLOCK_RECORD
  5
1F
102
{ACAD_XDICTIONARY
360
116
102
}
330
1
100
AcDbSymbolTableRecord
100
AcDbBlockTableRecord
  2
*Model_Space
340
22
  0
BLOCK_RECORD
  5
D2
330
1
100
AcDbSymbolTableRecord
100
AcDbBlockTableRecord
  2
*Paper_Space
340
D3
  0
BLOCK_RECORD
  5
D6
330
1
100
AcDbSymbolTableRecord
100
AcDbBlockTableRecord
  2
*Paper_Space0
340
D7
  0
ENDTAB
  0
ENDSEC
  0
SECTION
  2
BLOCKS
  0
BLOCK
  5
20
330
1F
100
AcDbEntity
  8
0
100
AcDbBlockBegin
  2
*Model_Space
 70
     0
 10
0.0
 20
0.0
 30
0.0
  3
*Model_Space
  1

  0
ENDBLK
  5
21
330
1F
100
AcDbEntity
  8
0
100
AcDbBlockEnd
  0
BLOCK
  5
D4
330
D2
100
AcDbEntity
 67
     1
  8
0
100
AcDbBlockBegin
  2
*Paper_Space
 70
     0
 10
0.0
 20
0.0
 30
0.0
  3
*Paper_Space
  1

  0
ENDBLK
  5
D5
330
D2
100
AcDbEntity
 67
     1
  8
0
100
AcDbBlockEnd
  0
BLOCK
  5
D8
330
D6
100
AcDbEntity
 67
     1
  8
0
100
AcDbBlockBegin
  2
*Paper_Space0
 70
     0
 10
0.0
 20
0.0
 30
0.0
  3
*Paper_Space0
  1

  0
ENDBLK
  5
D9
330
D6
100
AcDbEntity
 67
     1
  8
0
100
AcDbBlockEnd
  0
ENDSEC
  0
SECTION
  2
ENTITIES
  0
LINE
  5
25F3
330
1F
100
AcDbEntity
  8
Hewi
  6
Continuous
100
AcDbLine
 10
702.9886477187756
 20
605.4180792649067
 30
0.0
 11
1191.493393230675
 21
605.4180792649067
 31
0.0
  0
LINE
  5
25F4
330
1F
100
AcDbEntity
  8
Hewi
  6
Continuous
100
AcDbLine
 10
1463.115647718819
 20
638.8180792649007
 30
0.0
 11
1463.015647718844
 21
638.7180792648804
 31
0.0
  0
LINE
  5
25F5
330
1F
100
AcDbEntity
  8
Hewi
  6
Continuous
100
AcDbLine
 10
1463.015647718844
 20
605.5180792649125
 30
0.0
 11
1463.115647718819
 21
605.4180792649067
 31
0.0
  0
LINE
  5
25F6
330
1F
100
AcDbEntity
  8
Hewi
  6
Continuous
100
AcDbLine
 10
1470.108859345943
 20
638.8180792649007
 30
0.0
 11
1463.115647718819
 21
638.8180792649007
 31
0.0
  0
LINE
  5
25F7
330
1F
100
AcDbEntity
  8
Hewi
  6
Continuous
100
AcDbLine
 10
1463.115647718819
 20
605.4180792649067
 30
0.0
 11
1470.108859345943
 21
605.4180792649067
 31
0.0
  0
LINE
  5
25F8
330
1F
100
AcDbEntity
  8
Hewi
  6
Continuous
100
AcDbLine
 10
663.7156477188463
 20
605.507051139889
 30
0.0
 11
663.7156477188463
 21
534.653679264863
 31
0.0
  0
LINE
  5
25F9
330
1F
100
AcDbEntity
  8
Hewi
  6
Continuous
100
AcDbLine
 10
678.7156477188473
 20
534.5584948899131
 30
0.0
 11
678.7156477188473
 21
605.4172292648809
 31
0.0
  0
LINE
  5
25FA
330
1F
100
AcDbEntity
  8
Hewi
  6
Continuous
100
AcDbLine
 10
1192.660232677379
 20
605.4180792649067
 30
0.0
 11
1124.789164865498
 21
537.5470114530116
 31
0.0
  0
LINE
  5
25FB
330
1F
100
AcDbEntity
  8
Hewi
  6
Continuous
100
AcDbLine
 10
1142.466834395199
 20
519.8693419233686
 30
0.0
 11
1228.016553094814
 21
605.4190606230049
 31
0.0
  0
LINE
  5
25FC
330
1F
100
AcDbEntity
  8
Hewi
  6
Continuous
100
AcDbLine
 10
663.6156477188187
 20
534.6180792649038
 30
0.0
 11
601.2156477188463
 21
534.6180792649038
 31
0.0
  0
LINE
  5
25FD
330
1F
100
AcDbEntity
  8
Hewi
  6
Continuous
100
AcDbLine
 10
1117.718097053651
 20
534.6180792649038
 30
0.0
 11
678.7798837408772
 21
534.6180792649038
 31
0.0
  0
LINE
  5
25FE
330
1F
100
AcDbEntity
  8
Hewi
  6
Continuous
100
AcDbLine
 10
679.4656477188254
 20
509.6180792649038
 30
0.0
 11
1117.718097053651
 21
509.6180792649038
 31
0.0
  0
LINE
  5
25FF
330
1F
100
AcDbEntity
  8
Hewi
  6
Continuous
100
AcDbLine
 10
601.2156477188463
 20
509.6180792649038
 30
0.0
 11
663.0597357508158
 21
509.6180792649038
 31
0.0
  0
LINE
  5
2600
330
1F
100
AcDbEntity
  8
Hewi
  6
Continuous
100
AcDbLine
 10
1463.015647718844
 20
638.7180792648804
 30
0.0
 11
702.9886477187756
 21
638.8180792649007
 31
0.0
  0
LINE
  5
2601
330
1F
100
AcDbEntity
  8
Hewi
  6
Continuous
100
AcDbLine
 10
1191.493393230675
 20
605.4180792649067
 30
0.0
 11
1192.661472590997
 21
605.418509461474
 31
0.0
  0
LINE
  5
2602
330
1F
100
AcDbEntity
  8
Hewi
  6
Continuous
100
AcDbLine
 10
1228.004181351367
 20
605.431525966801
 30
0.0
 11
1463.015647718844
 21
605.5180792649125
 31
0.0
  0
LINE
  5
2603
330
1F
100
AcDbEntity
  8
Hewi
  6
Continuous
100
AcDbLine
 10
678.7159147382472
 20
605.4180792649067
 30
0.0
 11
703.2426477188919
 21
605.4180792649067
 31
0.0
  0
LINE
  5
2604
330
1F
100
AcDbEntity
  8
Hewi
  6
Continuous
100
AcDbLine
 10
656.2158018710542
 20
605.4180792649067
 30
0.0
 11
663.6140796857216
 21
605.4180792649067
 31
0.0
  0
LINE
  5
2605
330
1F
100
AcDbEntity
  8
Hewi
  6
Continuous
100
AcDbLine
 10
703.2426477188273
 20
638.8180792649007
 30
0.0
 11
656.2156893750934
 21
638.8180792649007
 31
0.0
  0
LINE
  5
2606
330
1F
100
AcDbEntity
  8
Hewi
  6
Continuous
100
AcDbLine
 10
578.0156477188638
 20
475.6680792649067
 30
0.0
 11
578.0156477188638
 21
645.5680792649007
 31
0.0
  0
LINE
  5
2607
330
1F
100
AcDbEntity
  8
Hewi
  6
Continuous
100
AcDbLine
 10
578.0156477188638
 20
650.9453693486948
 30
0.0
 11
594.3101513552601
 21
650.6609477297687
 31
0.0
  0
LINE
  5
2608
330
1F
100
AcDbEntity
  8
Hewi
  6
Continuous
100
AcDbLine
 10
578.0156477188638
 20
650.9453693486948
 30
0.0
 11
578.0156477188638
 21
645.5680792649007
 31
0.0
  0
LINE
  5
2609
330
1F
100
AcDbEntity
  8
Hewi
  6
Continuous
100
AcDbLine
 10
594.3101513552601
 20
470.5752108000241
 30
0.0
 11
578.0156477188638
 21
470.2907891810981
 31
0.0
  0
LINE
  5
260A
330
1F
100
AcDbEntity
  8
Hewi
  6
Continuous
100
AcDbLine
 10
578.0156477188638
 20
470.2907891810981
 30
0.0
 11
578.0156477188638
 21
475.6680792649067
 31
0.0
  0
LINE
  5
260B
330
1F
100
AcDbEntity
  8
Hewi
  6
Continuous
100
AcDbLine
 10
596.815647718845
 20
648.111336107112
 30
0.0
 11
596.815647718845
 21
645.5680792649007
 31
0.0
  0
LINE
  5
260C
330
1F
100
AcDbEntity
  8
Hewi
  6
Continuous
100
AcDbLine
 10
596.815647718845
 20
473.124822422681
 30
0.0
 11
596.815647718845
 21
475.6680792649067
 31
0.0
  0
LINE
  5
260D
330
1F
100
AcDbEntity
  8
Hewi
  6
Continuous
100
AcDbLine
 10
596.815647718845
 20
645.5680792649007
 30
0.0
 11
596.815647718845
 21
475.6680792649067
 31
0.0
  0
LINE
  5
260E
330
1F
100
AcDbEntity
  8
Hewi
  6
Continuous
100
AcDbLine
 10
596.815647718845
 20
642.5672141280747
 30
0.0
 11
654.2014251520376
 21
641.5655416569726
 31
0.0
  0
LINE
  5
260F
330
1F
100
AcDbEntity
  8
Hewi
  6
Continuous
100
AcDbLine
 10
654.2014251520376
 20
602.6706168727769
 30
0.0
 11
596.815647718845
 21
601.6689444017474
 31
0.0
  0
LINE
  5
2610
330
1F
100
AcDbEntity
  8
Hewi
  6
Continuous
100
AcDbLine
 10
656.2156477188255
 20
639.5158538819022
 30
0.0
 11
656.2156477188255
 21
604.720304647876
 31
0.0
  0
ARC
  5
2611
330
1F
100
AcDbEntity
  8
Hewi
  6
Continuous
100
AcDbCircle
 10
1470.108859345943
 20
610.4180792648921
 30
0.0
 40
5.0
100
AcDbArc
 50
270.0
 51
332.0954496636757
  0
ARC
  5
2612
330
1F
100
AcDbEntity
  8
Hewi
  6
Continuous
100
AcDbCircle
 10
1470.108859345943
 20
633.8180792649008
 30
0.0
 40
5.0
100
AcDbArc
 50
27.90455033632433
 51
90.0
  0
ARC
  5
2613
330
1F
100
AcDbEntity
  8
Hewi
  6
Continuous
100
AcDbCircle
 10
1448.015647718842
 20
622.1180792649038
 30
0.0
 40
30.0
100
AcDbArc
 50
332.0954496636757
 51
0.0
  0
ARC
  5
2614
330
1F
100
AcDbEntity
  8
Hewi
  6
Continuous
100
AcDbCircle
 10
1448.015647718842
 20
622.1180792649038
 30
0.0
 40
30.0
100
AcDbArc
 50
0.0
 51
27.90455033632433
  0
ARC
  5
2615
330
1F
100
AcDbEntity
  8
Hewi
  6
Continuous
100
AcDbCircle
 10
601.3967846213927
 20
514.8647971299006
 30
0.0
 40
5.0
100
AcDbArc
 50
203.6204038208137
 51
267.9238696982221
  0
ARC
  5
2616
330
1F
100
AcDbEntity
  8
Hewi
  6
Continuous
100
AcDbCircle
 10
601.3967846213927
 20
529.3713613998634
 30
0.0
 40
5.0
100
AcDbArc
 50
92.07613030177787
 51
156.3795961791863
  0
ARC
  5
2617
330
1F
100
AcDbEntity
  8
Hewi
  6
Continuous
100
AcDbCircle
 10
-1117.718097053651
 20
544.6180792649037
 30
0.0
 40
9.999999999999998
210
0.0
220
0.0
230
-1.0
100
AcDbArc
 50
225.000000000585
 51
270.0
  0
ARC
  5
2618
330
1F
100
AcDbEntity
  8
Hewi
  6
Continuous
100
AcDbCircle
 10
1117.718097053651
 20
544.6180792649037
 30
0.0
 40
35.0
100
AcDbArc
 50
270.0
 51
314.999999999415
  0
ARC
  5
2619
330
1F
100
AcDbEntity
  8
Hewi
  6
Continuous
100
AcDbCircle
 10
-594.265647718842
 20
648.111336107112
 30
0.0
 40
2.549999999999998
210
0.0
220
0.0
230
-1.0
100
AcDbArc
 50
90.99999999987149
 51
180.0
  0
ARC
  5
261A
330
1F
100
AcDbEntity
  8
Hewi
  6
Continuous
100
AcDbCircle
 10
-594.265647718842
 20
473.124822422681
 30
0.0
 40
2.549999999999998
210
0.0
220
0.0
230
-1.0
100
AcDbArc
 50
180.0
 51
269.0000000001285
  0
ARC
  5
261B
330
1F
100
AcDbEntity
  8
Hewi
  6
Continuous
100
AcDbCircle
 10
-654.1656477188444
 20
604.720304647876
 30
0.0
 40
2.049999999999998
210
0.0
220
0.0
230
-1.0
100
AcDbArc
 50
180.0
 51
269.0000000001285
  0
ARC
  5
261C
330
1F
100
AcDbEntity
  8
Hewi
  6
Continuous
100
AcDbCircle
 10
-654.1656477188444
 20
639.5158538819022
 30
0.0
 40
2.049999999999998
210
0.0
220
0.0
230
-1.0
100
AcDbArc
 50
90.99999999987149
 51
180.0
  0
SPLINE
  5
261D
330
1F
100
AcDbEntity
  8
Hewi
  6
Continuous
100
AcDbSpline
210
0.0
220
0.0
230
1.0
 70
     8
 71
     3
 72
    26
 73
    22
 74
     0
 42
0.0000000001
 43
0.0000000001
 40
0.0
 40
0.0
 40
0.0
 40
0.0
 40
0.0000710055065719
 40
0.0000710055065719
 40
0.1250621298182503
 40
0.1250621298182503
 40
0.2500532541299288
 40
0.2500532541299288
 40
0.3750443784416074
 40
0.3750443784416074
 40
0.5000355027532859
 40
0.5000355027532859
 40
0.6250266270649644
 40
0.6250266270649644
 40
0.7500177513766429
 40
0.7500177513766429
 40
0.8750088756883215
 40
0.8750088756883215
 40
0.9375044378441607
 40
0.9375044378441607
 40
1.0
 40
1.0
 40
1.0
 40
1.0
 10
1228.015569732342
 20
605.4180815813097
 30
0.0
 10
1228.015571035285
 20
605.4180800637196
 30
0.0
 10
1228.015572359342
 20
605.4180785646686
 30
0.0
 10
1228.015871898897
 20
605.4177417724795
 30
0.0
 10
1227.669812327017
 20
605.8311826963116
 30
0.0
 10
1226.25555193371
 20
607.2318583268143
 30
0.0
 10
1225.177447357665
 20
608.2332126823539
 30
0.0
 10
1222.114897407235
 20
610.0274273436889
 30
0.0
 10
1220.127496203015
 20
610.7067365067567
 30
0.0
 10
1216.018014285386
 20
611.1594568859662
 30
0.0
 10
1213.90108304796
 20
611.0154189354735
 30
0.0
 10
1209.830518658963
 20
610.4362186591832
 30
0.0
 10
1207.82130667707
 20
609.994016082107
 30
0.0
 10
1203.968046743895
 20
609.0200171323894
 30
0.0
 10
1202.106197126501
 20
608.4813432426244
 30
0.0
 10
1198.534515753709
 20
607.3868627794372
 30
0.0
 10
1196.790343889086
 20
606.8173898098112
 30
0.0
 10
1194.592503955565
 20
606.0807892442181
 30
0.0
 10
1193.944186838256
 20
605.859782383116
 30
0.0
 10
1192.966442239129
 20
605.5243451835639
 30
0.0
 10
1192.660217561061
 20
605.4180740162346
 30
0.0
 10
1192.660225670231
 20
605.418076832263
 30
0.0
  0
SPLINE
  5
261E
330
1F
100
AcDbEntity
  8
Hewi
  6
Continuous
100
AcDbSpline
210
0.0
220
0.0
230
1.0
 70
     8
 71
     3
 72
    16
 73
    12
 74
     0
 42
0.0000000001
 43
0.0000000001
 40
0.0
 40
0.0
 40
0.0
 40
0.0
 40
0.2499991005888626
 40
0.2499991005888626
 40
0.4999982011777253
 40
0.4999982011777253
 40
0.7499973017665879
 40
0.7499973017665879
 40
0.9999964023554499
 40
0.9999964023554499
 40
1.0
 40
1.0
 40
1.0
 40
1.0
 10
663.6156451078277
 20
534.6180809825246
 30
0.0
 10
663.6156558705179
 20
534.6180739140627
 30
0.0
 10
664.4807737205264
 20
534.0513788490434
 30
0.0
 10
667.2140225148614
 20
532.7509582478167
 30
0.0
 10
669.142271157456
 20
532.0455213471076
 30
0.0
 10
673.2579943840537
 20
532.0390870681085
 30
0.0
 10
675.1910326526995
 20
532.7398432484414
 30
0.0
 10
677.9479582956828
 20
534.0488039056153
 30
0.0
 10
678.8086736487384
 20
534.6138390454078
 30
0.0
 10
678.8156029988167
 20
534.618052075174
 30
0.0
 10
678.8156047079391
 20
534.6180531142972
 30
0.0
 10
678.8156064171489
 20
534.6180541531875
 30
0.0
  0
SPLINE
  5
261F
330
1F
100
AcDbEntity
  8
Hewi
  6
Continuous
100
AcDbSpline
210
0.0
220
0.0
230
1.0
 70
     8
 71
     3
 72
    16
 73
    12
 74
     0
 42
0.0000000001
 43
0.0000000001
 40
0.0
 40
0.0
 40
0.0
 40
0.0
 40
0.2500029517433948
 40
0.2500029517433948
 40
0.5000059034867898
 40
0.5000059034867898
 40
0.7500088552301844
 40
0.7500088552301844
 40
0.8750103311018822
 40
0.8750103311018822
 40
1.0
 40
1.0
 40
1.0
 40
1.0
 10
679.4656502702427
 20
509.6180774599132
 30
0.0
 10
679.4656397586077
 20
509.6180848965823
 30
0.0
 10
678.5158787909449
 20
510.2900353175437
 30
0.0
 10
675.5596074676141
 20
511.8477707878127
 30
0.0
 10
673.4690722804734
 20
512.7233437186742
 30
0.0
 10
668.9949772919935
 20
512.731146279454
 30
0.0
 10
666.8994855702912
 20
511.8611484678776
 30
0.0
 10
664.6599945607231
 20
510.6829991711792
 30
0.0
 10
664.0566890658592
 20
510.3143603019351
 30
0.0
 10
663.2024296783274
 20
509.7775453792646
 30
0.0
 10
662.9681473379396
 20
509.61972961401
 30
0.0
 10
662.9656682505665
 20
509.6180928159091
 30
0.0
  0
SPLINE
  5
2620
330
1F
100
AcDbEntity
  8
Hewi
  6
Continuous
100
AcDbSpline
210
0.0
220
0.0
230
1.0
 70
     8
 71
     3
 72
    16
 73
    12
 74
     0
 42
0.0000000001
 43
0.0000000001
 40
0.0
 40
0.0
 40
0.0
 40
0.0
 40
0.0002198764020883
 40
0.0002198764020883
 40
0.2501872945186242
 40
0.2501872945186242
 40
0.5001547126351602
 40
0.5001547126351602
 40
0.7501221307516964
 40
0.7501221307516964
 40
1.0
 40
1.0
 40
1.0
 40
1.0
 10
678.7156286214813
 20
605.4180880355643
 30
0.0
 10
678.7156326468466
 20
605.4180861506111
 30
0.0
 10
678.7156360218432
 20
605.4180845880702
 30
0.0
 10
678.7187360093157
 20
605.4166738166466
 30
0.0
 10
677.8742295325574
 20
605.8357646057784
 30
0.0
 10
675.1058268417982
 20
606.7767340840446
 30
0.0
 10
673.1365397579574
 20
607.2456847952206
 30
0.0
 10
669.1236150573813
 20
607.249578777214
 30
0.0
 10
667.1403705628318
 20
606.7812599873514
 30
0.0
 10
664.3564735180625
 20
605.8360996134662
 30
0.0
 10
663.5190590746788
 20
605.4196570947177
 30
0.0
 10
663.5156584624701
 20
605.4180841678398
 30
0.0
  0
LINE
  5
2621
330
1F
100
AcDbEntity
  8
Hewi
  6
Continuous
100
AcDbLine
 10
362.6383576350481
 20
449.5093855702806
 30
0.0
 11
305.8383576350461
 21
449.5093855702806
 31
0.0
  0
LINE
  5
2622
330
1F
100
AcDbEntity
  8
Hewi
  6
Continuous
100
AcDbLine
 10
300.5383576350287
 20
449.5093855702806
 30
0.0
 11
243.7383576350476
 21
449.5093855702806
 31
0.0
  0
LINE
  5
2623
330
1F
100
AcDbEntity
  8
Hewi
  6
Continuous
100
AcDbLine
 10
243.7383576350476
 20
630.1639657378918
 30
0.0
 11
362.6383576350481
 21
630.1639657378918
 31
0.0
  0
LINE
  5
2624
330
1F
100
AcDbEntity
  8
Hewi
  6
Continuous
100
AcDbLine
 10
265.1383576350481
 20
578.9372437512729
 30
0.0
 11
265.1383576350481
 21
482.1366756541037
 31
0.0
  0
LINE
  5
2625
330
1F
100
AcDbEntity
  8
Hewi
  6
Continuous
100
AcDbLine
 10
267.0883576350452
 20
580.8875407909445
 30
0.0
 11
267.0883576350452
 21
580.8334300896757
 31
0.0
  0
LINE
  5
2626
330
1F
100
AcDbEntity
  8
Hewi
  6
Continuous
100
AcDbLine
 10
265.4392227719218
 20
582.9372285660147
 30
0.0
 11
265.4392227719218
 21
619.7361227421724
 31
0.0
  0
LINE
  5
2627
330
1F
100
AcDbEntity
  8
Hewi
  6
Continuous
100
AcDbLine
 10
267.0883576350452
 20
580.8334300896757
 30
0.0
 11
276.5245988866663
 21
580.8334300896757
 31
0.0
  0
LINE
  5
2628
330
1F
100
AcDbEntity
  8
Hewi
  6
Continuous
100
AcDbLine
 10
278.5345630116863
 20
580.7740828689065
 30
0.0
 11
276.5839461074511
 21
580.7740828689065
 31
0.0
  0
LINE
  5
2629
330
1F
100
AcDbEntity
  8
Hewi
  6
Continuous
100
AcDbLine
 10
267.0883576350452
 20
580.8875407909445
 30
0.0
 11
267.4889105469401
 21
580.8875407909445
 31
0.0
  0
LINE
  5
262A
330
1F
100
AcDbEntity
  8
Hewi
  6
Continuous
100
AcDbLine
 10
267.4889105469401
 20
621.7858105172718
 30
0.0
 11
338.8878047231338
 21
621.7858105172718
 31
0.0
  0
LINE
  5
262B
330
1F
100
AcDbEntity
  8
Hewi
  6
Continuous
100
AcDbLine
 10
270.4883576350467
 20
476.7866756541126
 30
0.0
 11
335.8883576350481
 21
476.7866756541126
 31
0.0
  0
LINE
  5
262C
330
1F
100
AcDbEntity
  8
Hewi
  6
Continuous
100
AcDbLine
 10
276.5245988866663
 20
580.8334300896757
 30
0.0
 11
276.5839461074511
 21
580.7740828689065
 31
0.0
  0
LINE
  5
262D
330
1F
100
AcDbEntity
  8
Hewi
  6
Continuous
100
AcDbLine
 10
277.4022821865519
 20
583.9389010370731
 30
0.0
 11
277.4022821865519
 21
618.734450271143
 31
0.0
  0
LINE
  5
262E
330
1F
100
AcDbEntity
  8
Hewi
  6
Continuous
100
AcDbLine
 10
278.5345630116863
 20
580.7740828689065
 30
0.0
 11
277.4194326185825
 21
581.8892132619738
 31
0.0
  0
LINE
  5
262F
330
1F
100
AcDbEntity
  8
Hewi
  6
Continuous
100
AcDbLine
 10
277.4194326185825
 20
620.7841380462132
 30
0.0
 11
278.0714204390597
 21
621.4361258666985
 31
0.0
  0
LINE
  5
2630
330
1F
100
AcDbEntity
  8
Hewi
  6
Continuous
100
AcDbLine
 10
280.0711158294134
 20
621.4704267307614
 30
0.0
 11
326.3055994407186
 21
621.4704267307614
 31
0.0
  0
LINE
  5
2631
330
1F
100
AcDbEntity
  8
Hewi
  6
Continuous
100
AcDbLine
 10
305.8383576350461
 20
449.5477962290106
 30
0.0
 11
300.5383576350287
 21
449.5477962290106
 31
0.0
  0
LINE
  5
2632
330
1F
100
AcDbEntity
  8
Hewi
  6
Continuous
100
AcDbLine
 10
300.5383576350287
 20
449.5093855702806
 30
0.0
 11
300.5383576350287
 21
449.5477962290106
 31
0.0
  0
LINE
  5
2633
330
1F
100
AcDbEntity
  8
Hewi
  6
Continuous
100
AcDbLine
 10
305.8383576350461
 20
449.5093855702806
 30
0.0
 11
305.8383576350461
 21
449.5477962290106
 31
0.0
  0
LINE
  5
2634
330
1F
100
AcDbEntity
  8
Hewi
  6
Continuous
100
AcDbLine
 10
326.7923121785134
 20
581.8239229488326
 30
0.0
 11
326.7923121785134
 21
583.7264632965025
 31
0.0
  0
LINE
  5
2635
330
1F
100
AcDbEntity
  8
Hewi
  6
Continuous
100
AcDbLine
 10
328.9572826515287
 20
581.8892132619738
 30
0.0
 11
327.8421522584449
 21
580.7740828689065
 31
0.0
  0
LINE
  5
2636
330
1F
100
AcDbEntity
  8
Hewi
  6
Continuous
100
AcDbLine
 10
328.3052948310651
 20
621.4361258666985
 30
0.0
 11
328.9572826515287
 21
620.7841380462132
 31
0.0
  0
LINE
  5
2637
330
1F
100
AcDbEntity
  8
Hewi
  6
Continuous
100
AcDbLine
 10
329.7020935341862
 20
580.8334300896757
 30
0.0
 11
339.2883576350423
 21
580.8334300896757
 31
0.0
  0
LINE
  5
2638
330
1F
100
AcDbEntity
  8
Hewi
  6
Continuous
100
AcDbLine
 10
329.6427463134232
 20
580.7740828689065
 30
0.0
 11
327.8421522584449
 21
580.7740828689065
 31
0.0
  0
LINE
  5
2639
330
1F
100
AcDbEntity
  8
Hewi
  6
Continuous
100
AcDbLine
 10
338.8878047231338
 20
580.8875407909445
 30
0.0
 11
339.2883576350423
 21
580.8875407909445
 31
0.0
  0
LINE
  5
263A
330
1F
100
AcDbEntity
  8
Hewi
  6
Continuous
100
AcDbLine
 10
328.9744330835538
 20
618.734450271143
 30
0.0
 11
328.9744330835538
 21
583.9389010370731
 31
0.0
  0
LINE
  5
263B
330
1F
100
AcDbEntity
  8
Hewi
  6
Continuous
100
AcDbLine
 10
329.7020935341862
 20
580.8334300896757
 30
0.0
 11
329.6427463134232
 21
580.7740828689065
 31
0.0
  0
LINE
  5
263C
330
1F
100
AcDbEntity
  8
Hewi
  6
Continuous
100
AcDbLine
 10
339.2883576350423
 20
580.8334300896757
 30
0.0
 11
339.2883576350423
 21
580.8875407909445
 31
0.0
  0
LINE
  5
263D
330
1F
100
AcDbEntity
  8
Hewi
  6
Continuous
100
AcDbLine
 10
340.9374924982185
 20
619.7361227421724
 30
0.0
 11
340.9374924982185
 21
582.9372285660147
 31
0.0
  0
LINE
  5
263E
330
1F
100
AcDbEntity
  8
Hewi
  6
Continuous
100
AcDbLine
 10
341.2383576350476
 20
578.9372437512729
 30
0.0
 11
341.2383576350476
 21
482.1366756541037
 31
0.0
  0
LINE
  5
263F
330
1F
100
AcDbEntity
  8
Hewi
  6
Continuous
100
AcDbLine
 10
368.0156477188439
 20
454.8866756541037
 30
0.0
 11
368.0156477188439
 21
624.7866756541124
 31
0.0
  0
LINE
  5
2640
330
1F
100
AcDbEntity
  8
Hewi
  6
Continuous
100
AcDbLine
 10
279.8717753233586
 20
582.4200171899802
 30
0.0
 11
279.8717753233586
 21
620.2533341182069
 31
0.0
  0
LINE
  5
2641
330
1F
100
AcDbEntity
  8
Hewi
  6
Continuous
100
AcDbLine
 10
326.0050160991668
 20
581.9200933424226
 30
0.0
 11
315.6883576350447
 21
581.9200933424226
 31
0.0
  0
LINE
  5
2642
330
1F
100
AcDbEntity
  8
Hewi
  6
Continuous
100
AcDbLine
 10
290.6883576350292
 20
581.9200933424226
 30
0.0
 11
280.3716991709653
 21
581.9200933424226
 31
0.0
  0
LINE
  5
2643
330
1F
100
AcDbEntity
  8
Hewi
  6
Continuous
100
AcDbLine
 10
326.0050160991668
 20
620.7532579657644
 30
0.0
 11
280.3716991709653
 21
620.7532579657644
 31
0.0
  0
LINE
  5
2644
330
1F
100
AcDbEntity
  8
Hewi
  6
Continuous
100
AcDbLine
 10
326.5049399467453
 20
620.2533341182069
 30
0.0
 11
326.5049399467453
 21
582.4200171899802
 31
0.0
  0
LINE
  5
2645
330
1F
100
AcDbEntity
  8
Hewi
  6
Continuous
100
AcDbLine
 10
279.3883576350499
 20
580.286675654127
 30
0.0
 11
278.438357635031
 21
580.286675654127
 31
0.0
  0
LINE
  5
2646
330
1F
100
AcDbEntity
  8
Hewi
  6
Continuous
100
AcDbLine
 10
326.8883576350563
 20
570.6313860291784
 30
0.0
 11
315.6883576350447
 21
570.6313860291784
 31
0.0
  0
LINE
  5
2647
330
1F
100
AcDbEntity
  8
Hewi
  6
Continuous
100
AcDbLine
 10
290.6883576350292
 20
570.6313860291784
 30
0.0
 11
279.4883576350476
 21
570.6313860291784
 31
0.0
  0
LINE
  5
2648
330
1F
100
AcDbEntity
  8
Hewi
  6
Continuous
100
AcDbLine
 10
279.4883576350476
 20
579.2366756541095
 30
0.0
 11
279.4883576350476
 21
570.6313860291784
 31
0.0
  0
LINE
  5
2649
330
1F
100
AcDbEntity
  8
Hewi
  6
Continuous
100
AcDbLine
 10
280.338357635017
 20
581.2366756541097
 30
0.0
 11
280.338357635017
 21
581.9392126042156
 31
0.0
  0
LINE
  5
264A
330
1F
100
AcDbEntity
  8
Hewi
  6
Continuous
100
AcDbLine
 10
326.0383576350432
 20
581.2366756541097
 30
0.0
 11
326.0383576350432
 21
581.9392126042156
 31
0.0
  0
LINE
  5
264B
330
1F
100
AcDbEntity
  8
Hewi
  6
Continuous
100
AcDbLine
 10
326.8883576350563
 20
579.2366756541095
 30
0.0
 11
326.8883576350563
 21
570.6313860291784
 31
0.0
  0
LINE
  5
264C
330
1F
100
AcDbEntity
  8
Hewi
  6
Continuous
100
AcDbLine
 10
327.938357635031
 20
580.286675654127
 30
0.0
 11
326.9883576350476
 21
580.286675654127
 31
0.0
  0
LINE
  5
264D
330
1F
100
AcDbEntity
  8
Hewi
  6
Continuous
100
AcDbLine
 10
238.3610675512391
 20
454.8866756541037
 30
0.0
 11
238.3610675512391
 21
624.7866756541124
 31
0.0
  0
ARC
  5
264E
330
1F
100
AcDbEntity
  8
Hewi
  6
Continuous
100
AcDbCircle
 10
-270.4883576350467
 20
482.1366756541037
 30
0.0
 40
5.349999999999996
210
0.0
220
0.0
230
-1.0
100
AcDbArc
 50
270.0
 51
0.0
  0
ARC
  5
264F
330
1F
100
AcDbEntity
  8
Hewi
  6
Continuous
100
AcDbCircle
 10
-335.8883576350481
 20
482.1366756541037
 30
0.0
 40
5.349999999999996
210
0.0
220
0.0
230
-1.0
100
AcDbArc
 50
180.0
 51
270.0
  0
ARC
  5
2650
330
1F
100
AcDbEntity
  8
Hewi
  6
Continuous
100
AcDbCircle
 10
-362.6383576350481
 20
454.8866756541037
 30
0.0
 40
5.377290083806274
210
0.0
220
0.0
230
-1.0
100
AcDbArc
 50
180.0
 51
270.0
  0
ARC
  5
2651
330
1F
100
AcDbEntity
  8
Hewi
  6
Continuous
100
AcDbCircle
 10
-362.6383576350481
 20
624.7866756541124
 30
0.0
 40
5.377290083806274
210
0.0
220
0.0
230
-1.0
100
AcDbArc
 50
90.0
 51
180.0
  0
ARC
  5
2652
330
1F
100
AcDbEntity
  8
Hewi
  6
Continuous
100
AcDbCircle
 10
278.438357635031
 20
579.2366756541095
 30
0.0
 40
1.05
100
AcDbArc
 50
0.0
 51
90.0
  0
ARC
  5
2653
330
1F
100
AcDbEntity
  8
Hewi
  6
Continuous
100
AcDbCircle
 10
327.938357635031
 20
579.2366756541095
 30
0.0
 40
1.05
100
AcDbArc
 50
90.0
 51
180.0
  0
CIRCLE
  5
2654
330
1F
100
AcDbEntity
  8
Hewi
  6
Continuous
100
AcDbCircle
 10
-303.188357635031
 20
601.3366756540863
 30
0.0
 40
17.2
210
0.0
220
0.0
230
-1.0
  0
CIRCLE
  5
2655
330
1F
100
AcDbEntity
  8
Hewi
  6
Continuous
100
AcDbCircle
 10
303.188357635031
 20
601.3366756540863
 30
0.0
 40
14.04
  0
ARC
  5
2656
330
1F
100
AcDbEntity
  8
Hewi
  6
Continuous
100
AcDbCircle
 10
-243.7383576350476
 20
454.8866756541037
 30
0.0
 40
5.377290083806274
210
0.0
220
0.0
230
-1.0
100
AcDbArc
 50
270.0
 51
0.0
  0
ARC
  5
2657
330
1F
100
AcDbEntity
  8
Hewi
  6
Continuous
100
AcDbCircle
 10
-243.7383576350476
 20
624.7866756541124
 30
0.0
 40
5.377290083806274
210
0.0
220
0.0
230
-1.0
100
AcDbArc
 50
0.0
 51
90.0
  0
ELLIPSE
  5
2658
330
1F
100
AcDbEntity
  8
Hewi
  6
Continuous
100
AcDbEllipse
 10
267.0883576350452
 20
578.8831330499895
 30
0.0
 11
0.0
 21
-1.950297039685619
 31
0.0
210
0.0
220
0.0
230
1.0
 40
0.9998476951563914
 41
3.141592653589792
 42
4.712388980384688
  0
ELLIPSE
  5
2659
330
1F
100
AcDbEntity
  8
Hewi
  6
Continuous
100
AcDbEllipse
 10
267.0883576350452
 20
578.9372437512729
 30
0.0
 11
0.0
 21
-1.950297039685619
 31
0.0
210
0.0
220
0.0
230
-1.0
 40
0.9998476951563914
 41
1.570796326794896
 42
3.141592653589792
  0
ELLIPSE
  5
265A
330
1F
100
AcDbEntity
  8
Hewi
  6
Continuous
100
AcDbEllipse
 10
267.4895350443839
 20
619.7354982447658
 30
0.0
 11
-1.450010487797641
 21
1.450010487797641
 31
0.0
210
0.0
220
0.0
230
1.0
 40
0.9996954598818872
 41
5.497939437029716
 42
7.068431177329449
  0
ELLIPSE
  5
265B
330
1F
100
AcDbEntity
  8
Hewi
  6
Continuous
100
AcDbEllipse
 10
267.4895350443839
 20
582.9378530634357
 30
0.0
 11
1.450010487797638
 21
1.450010487797641
 31
0.0
210
0.0
220
0.0
230
1.0
 40
0.9996954598818872
 41
2.356346783439929
 42
3.926838523739654
  0
ELLIPSE
  5
265C
330
1F
100
AcDbEntity
  8
Hewi
  6
Continuous
100
AcDbEllipse
 10
277.4197372514536
 20
583.9389010370731
 30
0.0
 11
0.0000000000000024
 21
2.049999999992424
 31
0.0
210
0.0
220
0.0
230
1.0
 40
0.0085146658186356
 41
1.570796326794896
 42
3.124139361073233
  0
ELLIPSE
  5
265D
330
1F
100
AcDbEntity
  8
Hewi
  6
Continuous
100
AcDbEllipse
 10
277.4197372514536
 20
618.734450271143
 30
0.0
 11
0.0000000000000024
 21
2.049999999992337
 31
0.0
210
0.0
220
0.0
230
1.0
 40
0.0085146658186351
 41
0.0174532925167423
 42
1.570796326794896
  0
ELLIPSE
  5
265E
330
1F
100
AcDbEntity
  8
Hewi
  6
Continuous
100
AcDbEllipse
 10
278.5342431471299
 20
581.8242428133462
 30
0.0
 11
0.7426882986280599
 21
-0.7426882986280596
 31
0.0
210
0.0
220
0.0
230
-1.0
 40
0.9996954598818875
 41
5.497939437029716
 42
7.068431177329455
  0
ELLIPSE
  5
265F
330
1F
100
AcDbEntity
  8
Hewi
  6
Continuous
100
AcDbEllipse
 10
280.0711158294134
 20
621.435516600898
 30
0.0
 11
1.999999999992733
 21
0.0
 31
0.0
210
0.0
220
0.0
230
1.0
 40
0.0174550649282032
 41
1.570796326794896
 42
3.124139361072645
  0
ELLIPSE
  5
2660
330
1F
100
AcDbEntity
  8
Hewi
  6
Continuous
100
AcDbEllipse
 10
326.3055994407186
 20
621.435516600898
 30
0.0
 11
1.999999999992887
 21
0.0
 31
0.0
210
0.0
220
0.0
230
1.0
 40
0.0174550649282036
 41
0.0174532925172215
 42
1.570796326794896
  0
ELLIPSE
  5
2661
330
1F
100
AcDbEntity
  8
Hewi
  6
Continuous
100
AcDbEllipse
 10
327.8424721229603
 20
581.8242428133462
 30
0.0
 11
0.7426882986280599
 21
0.7426882986280603
 31
0.0
210
0.0
220
0.0
230
-1.0
 40
0.9996954598818875
 41
2.356346783439934
 42
3.926838523739689
  0
ELLIPSE
  5
2662
330
1F
100
AcDbEntity
  8
Hewi
  6
Continuous
100
AcDbEllipse
 10
328.9569780185984
 20
583.9389010370731
 30
0.0
 11
0.0000000000000024
 21
2.049999999992742
 31
0.0
210
0.0
220
0.0
230
1.0
 40
0.0085146658186357
 41
3.159045946107143
 42
4.712388980384688
  0
ELLIPSE
  5
2663
330
1F
100
AcDbEntity
  8
Hewi
  6
Continuous
100
AcDbEllipse
 10
328.9569780185984
 20
618.734450271143
 30
0.0
 11
0.0000000000000024
 21
2.049999999993052
 31
0.0
210
0.0
220
0.0
230
1.0
 40
0.0085146658186361
 41
4.712388980384688
 42
6.265732014662362
  0
ELLIPSE
  5
2664
330
1F
100
AcDbEntity
  8
Hewi
  6
Continuous
100
AcDbEllipse
 10
338.8871802255453
 20
619.7354982448095
 30
0.0
 11
-1.450010487797148
 21
-1.450010487798127
 31
0.0
210
0.0
220
0.0
230
1.0
 40
0.9996954598818872
 41
2.356346783439929
 42
3.926838523739663
  0
ELLIPSE
  5
2665
330
1F
100
AcDbEntity
  8
Hewi
  6
Continuous
100
AcDbEllipse
 10
338.8871802256981
 20
582.9378530634357
 30
0.0
 11
1.450010487797641
 21
-1.450010487797638
 31
0.0
210
0.0
220
0.0
230
-1.0
 40
0.9996954598818872
 41
5.497939437029733
 42
7.068431177329449
  0
ELLIPSE
  5
2666
330
1F
100
AcDbEntity
  8
Hewi
  6
Continuous
100
AcDbEllipse
 10
339.2883576350423
 20
578.8831330499895
 30
0.0
 11
0.0
 21
-1.950297039685619
 31
0.0
210
0.0
220
0.0
230
1.0
 40
0.9998476951563914
 41
1.570796326794896
 42
3.141592653589792
  0
ELLIPSE
  5
2667
330
1F
100
AcDbEntity
  8
Hewi
  6
Continuous
100
AcDbEllipse
 10
339.2883576350423
 20
578.9372437512729
 30
0.0
 11
0.0
 21
-1.950297039685619
 31
0.0
210
0.0
220
0.0
230
-1.0
 40
0.9998476951563914
 41
3.141592653589792
 42
4.712388980384688
  0
ELLIPSE
  5
2668
330
1F
100
AcDbEntity
  8
Hewi
  6
Continuous
100
AcDbEllipse
 10
280.3718514872453
 20
582.420169506463
 30
0.0
 11
-0.3536610945846709
 21
-0.3536610945849101
 31
0.0
210
0.0
220
0.0
230
1.0
 40
0.9996954598818874
 41
5.497939437029716
 42
7.068431177329457
  0
ELLIPSE
  5
2669
330
1F
100
AcDbEntity
  8
Hewi
  6
Continuous
100
AcDbEllipse
 10
280.3718514873835
 20
620.2531818017677
 30
0.0
 11
-0.3536610945847904
 21
0.3536610945847904
 31
0.0
210
0.0
220
0.0
230
1.0
 40
0.9996954598818874
 41
5.497939437029701
 42
7.068431177329442
  0
ELLIPSE
  5
266A
330
1F
100
AcDbEntity
  8
Hewi
  6
Continuous
100
AcDbEllipse
 10
326.0048637827122
 20
582.4201695064484
 30
0.0
 11
0.3536610945847904
 21
-0.3536610945847904
 31
0.0
210
0.0
220
0.0
230
1.0
 40
0.9996954598818874
 41
5.497939437029716
 42
7.068431177329457
  0
ELLIPSE
  5
266B
330
1F
100
AcDbEntity
  8
Hewi
  6
Continuous
100
AcDbEllipse
 10
326.0048637827122
 20
620.2531818017677
 30
0.0
 11
0.3536610945847904
 21
0.3536610945847905
 31
0.0
210
0.0
220
0.0
230
1.0
 40
0.9996954598818874
 41
5.497939437029728
 42
7.068431177329442
  0
SPLINE
  5
266C
330
1F
100
AcDbEntity
  8
Hewi
  6
Continuous
100
AcDbSpline
210
0.0
220
0.0
230
1.0
 70
     8
 71
     3
 72
    16
 73
    12
 74
     0
 42
0.0000000001
 43
0.0000000001
 40
0.0
 40
0.0
 40
0.0
 40
0.0
 40
0.2374321488140412
 40
0.2374321488140412
 40
0.4753570973094587
 40
0.4753570973094587
 40
0.7044621804489401
 40
0.7044621804489401
 40
0.9153180847886474
 40
0.9153180847886474
 40
1.0
 40
1.0
 40
1.0
 40
1.0
 10
280.338357635017
 20
581.2366756541097
 30
0.0
 10
280.338357635017
 20
581.1232188083895
 30
0.0
 10
280.3175535076798
 20
581.0083619827428
 30
0.0
 10
280.2369646675434
 20
580.7946037296724
 30
0.0
 10
280.1758535433683
 20
580.6926066248641
 30
0.0
 10
280.0234125367779
 20
580.5212334559846
 30
0.0
 10
279.9308421370297
 20
580.4482667591446
 30
0.0
 10
279.7338832779788
 20
580.3453462466213
 30
0.0
 10
279.6280568650473
 20
580.3110413623882
 30
0.0
 10
279.4769641244784
 20
580.2897864475461
 30
0.0
 10
279.4325978999323
 20
580.286675654127
 30
0.0
 10
279.3883576350499
 20
580.286675654127
 30
0.0
  0
SPLINE
  5
266D
330
1F
100
AcDbEntity
  8
Hewi
  6
Continuous
100
AcDbSpline
210
0.0
220
0.0
230
1.0
 70
     8
 71
     3
 72
    16
 73
    12
 74
     0
 42
0.0000000001
 43
0.0000000001
 40
0.0
 40
0.0
 40
0.0
 40
0.0
 40
0.1942684013936249
 40
0.1942684013936249
 40
0.388096082899196
 40
0.388096082899196
 40
0.5885706772438784
 40
0.5885706772438784
 40
0.8045285325061183
 40
0.8045285325061183
 40
1.0
 40
1.0
 40
1.0
 40
1.0
 10
326.9883576350476
 20
580.286675654127
 30
0.0
 10
326.8882499754182
 20
580.286675654127
 30
0.0
 10
326.7867628847662
 20
580.3030230539524
 30
0.0
 10
326.5982849860884
 20
580.3648007123491
 30
0.0
 10
326.5087387696549
 20
580.4109155522102
 30
0.0
 10
326.3489829410901
 20
580.5269017245673
 30
0.0
 10
326.2774376115194
 20
580.5989473499439
 30
0.0
 10
326.1578116258379
 20
580.7635760487691
 30
0.0
 10
326.1103330439146
 20
580.8594260813197
 30
0.0
 10
326.0524447897406
 20
581.0484847736161
 30
0.0
 10
326.0383576350432
 20
581.1429629590065
 30
0.0
 10
326.0383576350432
 20
581.2366756541097
 30
0.0
  0
LINE
  5
266E
330
1F
100
AcDbEntity
  8
Hewi
  6
Continuous
100
AcDbLine
 10
290.6883576350292
 20
590.2523402552986
 30
0.0
 11
290.6883576350292
 21
507.9267730773799
 31
0.0
  0
LINE
  5
266F
330
1F
100
AcDbEntity
  8
Hewi
  6
Continuous
100
AcDbLine
 10
315.6883576350447
 20
507.9267730773799
 30
0.0
 11
315.6883576350447
 21
590.2585825278882
 31
0.0
  0
LINE
  5
2670
330
1F
100
AcDbEntity
  8
Hewi
  6
Continuous
100
AcDbLine
 10
315.6883576350447
 20
501.3366756541008
 30
0.0
 11
315.6883576350447
 21
507.9267730773799
 31
0.0
  0
LINE
  5
2671
330
1F
100
AcDbEntity
  8
Hewi
  6
Continuous
100
AcDbLine
 10
290.6883576350292
 20
501.3366756541008
 30
0.0
 11
290.6883576350292
 21
507.9267730773799
 31
0.0
  0
LINE
  5
2672
330
1F
100
AcDbEntity
  8
Hewi
  6
Continuous
100
AcDbLine
 10
326.8883576350054
 20
570.6313860291637
 30
0.0
 11
315.6878857600232
 21
570.6313860291637
 31
0.0
  0
LINE
  5
2673
330
1F
100
AcDbEntity
  8
Hewi
  6
Continuous
100
AcDbLine
 10
290.6888295100143
 20
570.6313860291637
 30
0.0
 11
279.4883576350185
 21
570.6313860291637
 31
0.0
  0
LINE
  5
2674
330
1F
100
AcDbEntity
  8
Hewi
  6
Continuous
100
AcDbLine
 10
279.4883576350185
 20
579.2366756541095
 30
0.0
 11
279.4883576350185
 21
570.6313860291637
 31
0.0
  0
LINE
  5
2675
330
1F
100
AcDbEntity
  8
Hewi
  6
Continuous
100
AcDbLine
 10
326.8883576350054
 20
579.2366756541095
 30
0.0
 11
326.8883576350054
 21
570.6313860291637
 31
0.0
  0
ARC
  5
2676
330
1F
100
AcDbEntity
  8
Hewi
  6
Continuous
100
AcDbCircle
 10
303.188357635031
 20
501.3366756541008
 30
0.0
 40
12.5
100
AcDbArc
 50
270.0
 51
359.9999996106325
  0
ARC
  5
2677
330
1F
100
AcDbEntity
  8
Hewi
  6
Continuous
100
AcDbCircle
 10
303.188357635031
 20
501.3366756541008
 30
0.0
 40
12.5
100
AcDbArc
 50
180.0000003893675
 51
270.0
  0
ELLIPSE
  5
2678
330
1F
100
AcDbEntity
  8
Hewi
  6
Continuous
100
AcDbEllipse
 10
303.188357635031
 20
507.9267730773799
 30
0.0
 11
-12.5
 21
0.0
 31
0.0
210
0.0
220
0.0
230
1.0
 40
0.7071067811865445
 41
1.57079628993786
 42
3.141592543415903
  0
ELLIPSE
  5
2679
330
1F
100
AcDbEntity
  8
Hewi
  6
Continuous
100
AcDbEllipse
 10
303.188357635031
 20
507.9267730773799
 30
0.0
 11
-12.5
 21
0.0
 31
0.0
210
0.0
220
0.0
230
1.0
 40
0.7071067811865445
 41
0.0
 42
1.570796285747225
  0
LINE
  5
267A
330
1F
100
AcDbEntity
  8
Hewi
  6
Continuous
100
AcDbLine
 10
359.9883576350549
 20
630.1639657378918
 30
0.0
 11
303.1883576350665
 21
630.1639657378918
 31
0.0
  0
LINE
  5
2681
330
1F
100
AcDbEntity
  8
Hewi
  6
Continuous
100
AcDbLine
 10
1463.115647718819
 20
354.0161970537675
 30
0.0
 11
1463.015647718844
 21
353.9161970537761
 31
0.0
  0
LINE
  5
2682
330
1F
100
AcDbEntity
  8
Hewi
  6
Continuous
100
AcDbLine
 10
1463.015647718844
 20
320.7161970537791
 30
0.0
 11
1463.115647718819
 21
320.6161970537732
 31
0.0
  0
LINE
  5
2683
330
1F
100
AcDbEntity
  8
Hewi
  6
Continuous
100
AcDbLine
 10
1470.108859345943
 20
354.0161970537675
 30
0.0
 11
1463.115647718819
 21
354.0161970537675
 31
0.0
  0
LINE
  5
2684
330
1F
100
AcDbEntity
  8
Hewi
  6
Continuous
100
AcDbLine
 10
1463.115647718819
 20
320.6161970537732
 30
0.0
 11
1470.108859345943
 21
320.6161970537732
 31
0.0
  0
LINE
  5
2685
330
1F
100
AcDbEntity
  8
Hewi
  6
Continuous
100
AcDbLine
 10
1463.115647718805
 20
354.0161970537675
 30
0.0
 11
702.9886477187756
 21
354.0161970537675
 31
0.0
  0
LINE
  5
2686
330
1F
100
AcDbEntity
  8
Hewi
  6
Continuous
100
AcDbLine
 10
702.9886477187756
 20
320.6161970537732
 30
0.0
 11
1463.115647718819
 21
320.6161970537732
 31
0.0
  0
ARC
  5
2687
330
1F
100
AcDbEntity
  8
Hewi
  6
Continuous
100
AcDbCircle
 10
1470.108859345943
 20
325.6161970537732
 30
0.0
 40
5.0
100
AcDbArc
 50
270.0
 51
332.0954496636757
  0
ARC
  5
2688
330
1F
100
AcDbEntity
  8
Hewi
  6
Continuous
100
AcDbCircle
 10
1470.108859345943
 20
349.0161970537672
 30
0.0
 40
5.0
100
AcDbArc
 50
27.90455033632433
 51
90.0
  0
ARC
  5
2689
330
1F
100
AcDbEntity
  8
Hewi
  6
Continuous
100
AcDbCircle
 10
1448.015647718842
 20
337.3161970537704
 30
0.0
 40
30.0
100
AcDbArc
 50
0.0060611917563332
 51
27.90455033632433
  0
ARC
  5
268A
330
1F
100
AcDbEntity
  8
Hewi
  6
Continuous
100
AcDbCircle
 10
1448.015647718842
 20
337.3161970537704
 30
0.0
 40
30.0
100
AcDbArc
 50
332.0954496636757
 51
0.0060611917563332
  0
SPLINE
  5
268B
330
1F
100
AcDbEntity
  8
Hewi
  6
Continuous
100
AcDbSpline
210
0.0
220
0.0
230
1.0
 70
    24
 71
     3
 72
     8
 73
     4
 74
     0
 42
0.0000000001
 43
0.0000000001
 40
0.0
 40
0.0
 40
0.0
 40
0.0
 40
1.0
 40
1.0
 40
1.0
 40
1.0
 10
703.115647718826
 20
354.0161970537675
 30
0.0
 10
687.3989810521671
 20
354.0161970537675
 30
0.0
 10
671.6823143855144
 20
354.0161970537675
 30
0.0
 10
655.9656477188473
 20
354.0161970537675
 30
0.0
  0
SPLINE
  5
268C
330
1F
100
AcDbEntity
  8
Hewi
  6
Continuous
100
AcDbSpline
210
0.0
220
0.0
230
1.0
 70
    24
 71
     3
 72
     8
 73
     4
 74
     0
 42
0.0000000001
 43
0.0000000001
 40
0.0
 40
0.0
 40
0.0
 40
0.0
 40
1.0
 40
1.0
 40
1.0
 40
1.0
 10
655.9656477188473
 20
320.6161970537732
 30
0.0
 10
671.6823143855144
 20
320.6161970537732
 30
0.0
 10
687.3989810521671
 20
320.6161970537732
 30
0.0
 10
703.115647718826
 20
320.6161970537732
 30
0.0
  0
LINE
  5
268D
330
1F
100
AcDbEntity
  8
Hewi
  6
Continuous
100
AcDbLine
 10
642.0156477188438
 20
312.8160798663093
 30
0.0
 11
642.0156477188438
 21
312.9161579912697
 31
0.0
  0
LINE
  5
268E
330
1F
100
AcDbEntity
  8
Hewi
  6
Continuous
100
AcDbLine
 10
642.0156477188438
 20
361.7160095537774
 30
0.0
 11
642.0156477188438
 21
361.8159970537753
 31
0.0
  0
LINE
  5
268F
330
1F
100
AcDbEntity
  8
Hewi
  6
Continuous
100
AcDbLine
 10
637.015647718842
 20
361.7161970537791
 30
0.0
 11
635.9203656854288
 21
361.7161970537791
 31
0.0
  0
LINE
  5
2690
330
1F
100
AcDbEntity
  8
Hewi
  6
Continuous
100
AcDbLine
 10
649.0156477188421
 20
361.7161970537791
 30
0.0
 11
637.015647718842
 21
361.7161970537791
 31
0.0
  0
LINE
  5
2691
330
1F
100
AcDbEntity
  8
Hewi
  6
Continuous
100
AcDbLine
 10
655.6656477188662
 20
313.9661970537791
 30
0.0
 11
653.6156477188496
 21
313.9487343724696
 31
0.0
  0
LINE
  5
2692
330
1F
100
AcDbEntity
  8
Hewi
  6
Continuous
100
AcDbLine
 10
656.2156477188464
 20
360.1161970537732
 30
0.0
 11
656.2156477188464
 21
314.5161970537674
 31
0.0
  0
LINE
  5
2693
330
1F
100
AcDbEntity
  8
Hewi
  6
Continuous
100
AcDbLine
 10
653.6156477188496
 20
360.6836597351148
 30
0.0
 11
655.6656477188662
 21
360.6661970537761
 31
0.0
  0
LINE
  5
2694
330
1F
100
AcDbEntity
  8
Hewi
  6
Continuous
100
AcDbLine
 10
641.6501957071232
 20
361.8161970537703
 30
0.0
 11
650.7156477188628
 21
361.8161970537703
 31
0.0
  0
LINE
  5
2695
330
1F
100
AcDbEntity
  8
Hewi
  6
Continuous
100
AcDbLine
 10
578.0156477188638
 20
277.8661970537732
 30
0.0
 11
578.0156477188638
 21
396.7661970537672
 31
0.0
  0
LINE
  5
2696
330
1F
100
AcDbEntity
  8
Hewi
  6
Continuous
100
AcDbLine
 10
596.8156477188677
 20
396.7661970537672
 30
0.0
 11
596.8156477188677
 21
277.8661970537732
 31
0.0
  0
LINE
  5
2697
330
1F
100
AcDbEntity
  8
Hewi
  6
Continuous
100
AcDbLine
 10
656.2156477188464
 20
311.5301216052547
 30
0.0
 11
656.2156477188464
 21
302.6184224367398
 31
0.0
  0
LINE
  5
2698
330
1F
100
AcDbEntity
  8
Hewi
  6
Continuous
100
AcDbLine
 10
654.2014251520595
 20
312.5971121172124
 30
0.0
 11
655.183972745609
 21
312.5799616851809
 31
0.0
  0
LINE
  5
2699
330
1F
100
AcDbEntity
  8
Hewi
  6
Continuous
100
AcDbLine
 10
616.8490679327588
 20
313.2490999376978
 30
0.0
 11
654.2014251520595
 21
312.5971121172124
 31
0.0
  0
LINE
  5
269A
330
1F
100
AcDbEntity
  8
Hewi
  6
Continuous
100
AcDbLine
 10
615.9156477188944
 20
360.4334388594516
 30
0.0
 11
615.9156477188944
 21
314.1989552481036
 31
0.0
  0
LINE
  5
269B
330
1F
100
AcDbEntity
  8
Hewi
  6
Continuous
100
AcDbLine
 10
654.2014251520595
 20
362.0352819902991
 30
0.0
 11
616.8490679327588
 21
361.3832941698137
 31
0.0
  0
LINE
  5
269C
330
1F
100
AcDbEntity
  8
Hewi
  6
Continuous
100
AcDbLine
 10
655.183972745609
 20
362.0524324223888
 30
0.0
 11
654.2014251520595
 21
362.0352819902991
 31
0.0
  0
LINE
  5
269D
330
1F
100
AcDbEntity
  8
Hewi
  6
Continuous
100
AcDbLine
 10
656.2156477188464
 20
372.0139716708008
 30
0.0
 11
656.2156477188464
 21
363.1022725022712
 31
0.0
  0
LINE
  5
269E
330
1F
100
AcDbEntity
  8
Hewi
  6
Continuous
100
AcDbLine
 10
596.8156477188677
 20
375.0653319169004
 30
0.0
 11
654.2014251520595
 21
374.0636594458856
 31
0.0
  0
LINE
  5
269F
330
1F
100
AcDbEntity
  8
Hewi
  6
Continuous
100
AcDbLine
 10
578.0156477188638
 20
402.1434871375759
 30
0.0
 11
594.3101513552674
 21
401.8590655186207
 31
0.0
  0
LINE
  5
26A0
330
1F
100
AcDbEntity
  8
Hewi
  6
Continuous
100
AcDbLine
 10
578.0156477188638
 20
396.7661970537672
 30
0.0
 11
578.0156477188638
 21
402.1434871375759
 31
0.0
  0
LINE
  5
26A1
330
1F
100
AcDbEntity
  8
Hewi
  6
Continuous
100
AcDbLine
 10
596.8156477188677
 20
399.3094538959785
 30
0.0
 11
596.8156477188677
 21
396.7661970537672
 31
0.0
  0
LINE
  5
26A2
330
1F
100
AcDbEntity
  8
Hewi
  6
Continuous
100
AcDbLine
 10
615.9156837690898
 20
314.6067896909745
 30
0.0
 11
622.705670796342
 21
314.4882700265525
 31
0.0
  0
LINE
  5
26A3
330
1F
100
AcDbEntity
  8
Hewi
  6
Continuous
100
AcDbLine
 10
653.6156477188496
 20
313.9487343724696
 30
0.0
 11
622.705670796342
 21
314.4882700265525
 31
0.0
  0
LINE
  5
26A4
330
1F
100
AcDbEntity
  8
Hewi
  6
Continuous
100
AcDbLine
 10
653.6156477188496
 20
314.4986506047652
 30
0.0
 11
653.6156477188496
 21
313.9487343724696
 31
0.0
  0
LINE
  5
26A5
330
1F
100
AcDbEntity
  8
Hewi
  6
Continuous
100
AcDbLine
 10
623.4597694777912
 20
315.0250234174391
 30
0.0
 11
623.4597694777912
 21
359.6073706901016
 31
0.0
  0
LINE
  5
26A6
330
1F
100
AcDbEntity
  8
Hewi
  6
Continuous
100
AcDbLine
 10
653.6156477188496
 20
360.1337435027607
 30
0.0
 11
653.6156477188496
 21
314.4986506047652
 31
0.0
  0
LINE
  5
26A7
330
1F
100
AcDbEntity
  8
Hewi
  6
Continuous
100
AcDbLine
 10
622.705670796342
 20
360.1441240809736
 30
0.0
 11
653.6156477188496
 21
360.6836597351148
 31
0.0
  0
LINE
  5
26A8
330
1F
100
AcDbEntity
  8
Hewi
  6
Continuous
100
AcDbLine
 10
653.6156477188496
 20
360.6836597351148
 30
0.0
 11
653.6156477188496
 21
360.1337435027607
 31
0.0
  0
LINE
  5
26A9
330
1F
100
AcDbEntity
  8
Hewi
  6
Continuous
100
AcDbLine
 10
615.9156837690898
 20
360.0256044165663
 30
0.0
 11
622.705670796342
 21
360.1441240809736
 31
0.0
  0
LINE
  5
26AA
330
1F
100
AcDbEntity
  8
Hewi
  6
Continuous
100
AcDbLine
 10
578.0156477188638
 20
272.4889069699648
 30
0.0
 11
578.0156477188638
 21
277.8661970537732
 31
0.0
  0
LINE
  5
26AB
330
1F
100
AcDbEntity
  8
Hewi
  6
Continuous
100
AcDbLine
 10
594.3101513552674
 20
272.7733285889053
 30
0.0
 11
578.0156477188638
 21
272.4889069699648
 31
0.0
  0
LINE
  5
26AC
330
1F
100
AcDbEntity
  8
Hewi
  6
Continuous
100
AcDbLine
 10
596.8156477188677
 20
277.8661970537732
 30
0.0
 11
596.8156477188677
 21
275.3229402115476
 31
0.0
  0
LINE
  5
26AD
330
1F
100
AcDbEntity
  8
Hewi
  6
Continuous
100
AcDbLine
 10
654.2014251520595
 20
300.5687346616696
 30
0.0
 11
596.8156477188677
 21
299.5670621906111
 31
0.0
  0
ARC
  5
26AE
330
1F
100
AcDbEntity
  8
Hewi
  6
Continuous
100
AcDbCircle
 10
-655.6656477188662
 20
314.5161970537674
 30
0.0
 40
0.55
210
0.0
220
0.0
230
-1.0
100
AcDbArc
 50
180.0
 51
270.0
  0
ARC
  5
26AF
330
1F
100
AcDbEntity
  8
Hewi
  6
Continuous
100
AcDbCircle
 10
-655.6656477188662
 20
360.1161970537732
 30
0.0
 40
0.55
210
0.0
220
0.0
230
-1.0
100
AcDbArc
 50
90.0
 51
180.0
  0
ARC
  5
26B0
330
1F
100
AcDbEntity
  8
Hewi
  6
Continuous
100
AcDbCircle
 10
655.1656477188653
 20
311.5301216052547
 30
0.0
 40
1.05
100
AcDbArc
 50
0.0
 51
89.0000000001285
  0
ARC
  5
26B1
330
1F
100
AcDbEntity
  8
Hewi
  6
Continuous
100
AcDbCircle
 10
616.8656477188488
 20
314.1989552481036
 30
0.0
 40
0.9500000000000287
100
AcDbArc
 50
180.0
 51
269.0000000001285
  0
ARC
  5
26B2
330
1F
100
AcDbEntity
  8
Hewi
  6
Continuous
100
AcDbCircle
 10
616.8656477188488
 20
360.4334388594516
 30
0.0
 40
0.9500000000000351
100
AcDbArc
 50
90.99999999987149
 51
180.0
  0
ARC
  5
26B3
330
1F
100
AcDbEntity
  8
Hewi
  6
Continuous
100
AcDbCircle
 10
655.1656477188653
 20
363.1022725022712
 30
0.0
 40
1.05
100
AcDbArc
 50
270.9999999998715
 51
0.0
  0
ARC
  5
26B4
330
1F
100
AcDbEntity
  8
Hewi
  6
Continuous
100
AcDbCircle
 10
654.1656477188944
 20
372.0139716708008
 30
0.0
 40
2.049999999999998
100
AcDbArc
 50
0.0
 51
89.0000000001285
  0
ARC
  5
26B5
330
1F
100
AcDbEntity
  8
Hewi
  6
Continuous
100
AcDbCircle
 10
594.265647718842
 20
399.3094538959785
 30
0.0
 40
2.549999999999998
100
AcDbArc
 50
0.0
 51
89.0000000001285
  0
ARC
  5
26B6
330
1F
100
AcDbEntity
  8
Hewi
  6
Continuous
100
AcDbCircle
 10
594.265647718842
 20
275.3229402115476
 30
0.0
 40
2.549999999999998
100
AcDbArc
 50
270.9999999998715
 51
0.0
  0
ARC
  5
26B7
330
1F
100
AcDbEntity
  8
Hewi
  6
Continuous
100
AcDbCircle
 10
-654.1656477188944
 20
302.6184224367398
 30
0.0
 40
2.049999999999998
210
0.0
220
0.0
230
-1.0
100
AcDbArc
 50
180.0
 51
269.0000000001285
  0
SPLINE
  5
26B8
330
1F
100
AcDbEntity
  8
Hewi
  6
Continuous
100
AcDbSpline
210
0.0
220
0.0
230
1.0
 70
     8
 71
     3
 72
    20
 73
    16
 74
     0
 42
0.0000000001
 43
0.0000000001
 40
0.0
 40
0.0
 40
0.0
 40
0.0
 40
0.0448216244176226
 40
0.0448216244176226
 40
0.4448491916774028
 40
0.4448491916774028
 40
0.5252634315391714
 40
0.5252634315391714
 40
0.7629352579103631
 40
0.7629352579103631
 40
0.8719267528456127
 40
0.8719267528456127
 40
0.9825376433141823
 40
0.9825376433141823
 40
1.0
 40
1.0
 40
1.0
 40
1.0
 10
622.705670796342
 20
314.4882700265525
 30
0.0
 10
622.7196655634898
 20
314.4880257469568
 30
0.0
 10
622.7336782576449
 20
314.4880905256659
 30
0.0
 10
622.8715045880163
 20
314.4917521726538
 30
0.0
 10
622.9981390948806
 20
314.5185019722639
 30
0.0
 10
623.1398926803885
 20
314.5846437017399
 30
0.0
 10
623.1636029555447
 20
314.5970959037013
 30
0.0
 10
623.2542817771173
 20
314.6510763592168
 30
0.0
 10
623.3195494022802
 20
314.7037262028108
 30
0.0
 10
623.3945135922112
 20
314.8036613169034
 30
0.0
 10
623.4155081017161
 20
314.8393739835965
 30
0.0
 10
623.4466268461119
 20
314.917195263778
 30
0.0
 10
623.4568256709971
 20
314.9606373084179
 30
0.0
 10
623.4595788490478
 20
315.0110597908869
 30
0.0
 10
623.4597694777912
 20
315.0180435592274
 30
0.0
 10
623.4597694777912
 20
315.0250234174391
 30
0.0
  0
SPLINE
  5
26B9
330
1F
100
AcDbEntity
  8
Hewi
  6
Continuous
100
AcDbSpline
210
0.0
220
0.0
230
1.0
 70
     8
 71
     3
 72
    18
 73
    14
 74
     0
 42
0.0000000001
 43
0.0000000001
 40
0.0
 40
0.0
 40
0.0
 40
0.0
 40
0.0481967151535535
 40
0.0481967151535535
 40
0.1374380954146597
 40
0.1374380954146597
 40
0.266597740243724
 40
0.266597740243724
 40
0.3727335680792507
 40
0.3727335680792507
 40
0.6631693004613061
 40
0.6631693004613061
 40
1.0
 40
1.0
 40
1.0
 40
1.0
 10
623.4597694777912
 20
359.6073706901016
 30
0.0
 10
623.4597694777912
 20
359.626446492207
 30
0.0
 10
623.458328507907
 20
359.6455985068978
 30
0.0
 10
623.4503163409972
 20
359.6991208504705
 30
0.0
 10
623.4402514703033
 20
359.7331032401062
 30
0.0
 10
623.4074689356711
 20
359.8093809828798
 30
0.0
 10
623.3807850859802
 20
359.8500334587379
 30
0.0
 10
623.326257464345
 20
359.9143295400799
 30
0.0
 10
623.299030313311
 20
359.9402770878015
 30
0.0
 10
623.1934610444577
 20
360.0257302087348
 30
0.0
 10
623.1059255703794
 20
360.0688160359068
 30
0.0
 10
622.9157200367471
 20
360.1309417228994
 30
0.0
 10
622.8097214283989
 20
360.1459402915433
 30
0.0
 10
622.705670796342
 20
360.1441240809736
 30
0.0
  0
ENDSEC
  0
SECTION
  2
OBJECTS
  0
DICTIONARY
  5
C
330
0
100
AcDbDictionary
281
     1
  3
ACAD_COLOR
350
6B
  3
ACAD_GROUP
350
D
  3
ACAD_LAYOUT
350
1A
  3
ACAD_MATERIAL
350
6A
  3
ACAD_MLINESTYLE
350
17
  3
ACAD_PLOTSETTINGS
350
19
  3
ACAD_PLOTSTYLENAME
350
E
  3
ACAD_TABLESTYLE
350
7E
  3
ACAD_VISUALSTYLE
350
EF
  3
AcDbVariableDictionary
350
5E
  3
DWGPROPS
350
26BA
  0
DICTIONARY
  5
141
330
2
100
AcDbDictionary
280
     1
281
     1
  3
ACAD_LAYERSTATES
360
142
  0
DICTIONARY
  5
116
330
1F
100
AcDbDictionary
280
     1
281
     1
  3
ACAD_SORTENTS
360
117
  0
DICTIONARY
  5
6B
102
{ACAD_REACTORS
330
C
102
}
330
C
100
AcDbDictionary
281
     1
  0
DICTIONARY
  5
D
102
{ACAD_REACTORS
330
C
102
}
330
C
100
AcDbDictionary
281
     1
  0
DICTIONARY
  5
1A
102
{ACAD_REACTORS
330
C
102
}
330
C
100
AcDbDictionary
281
     1
  3
Layout1
350
D3
  3
Layout2
350
D7
  3
Model
350
22
  0
DICTIONARY
  5
6A
102
{ACAD_REACTORS
330
C
102
}
330
C
100
AcDbDictionary
281
     1
  3
ByBlock
350
ED
  3
ByLayer
350
EC
  3
Global
350
EE
  0
DICTIONARY
  5
17
102
{ACAD_REACTORS
330
C
102
}
330
C
100
AcDbDictionary
281
     1
  3
Standard
350
18
  0
DICTIONARY
  5
19
102
{ACAD_REACTORS
330
C
102
}
330
C
100
AcDbDictionary
281
     1
  0
ACDBDICTIONARYWDFLT
  5
E
102
{ACAD_REACTORS
330
C
102
}
330
C
100
AcDbDictionary
281
     1
  3
Normal
350
F
100
AcDbDictionaryWithDefault
340
F
  0
DICTIONARY
  5
7E
102
{ACAD_REACTORS
330
C
102
}
330
C
100
AcDbDictionary
281
     1
  3
Standard
350
7F
  0
DICTIONARY
  5
EF
102
{ACAD_REACTORS
330
C
102
}
330
C
100
AcDbDictionary
281
     1
  3
2dWireframe
350
F5
  3
3D Hidden
350
F7
  3
3dWireframe
350
F6
  3
Basic
350
F4
  3
Brighten
350
FB
  3
ColorChange
350
FF
  3
Conceptual
350
F8
  3
Dim
350
FA
  3
Facepattern
350
FE
  3
Flat
350
F0
  3
FlatWithEdges
350
F1
  3
Gouraud
350
F2
  3
GouraudWithEdges
350
F3
  3
Linepattern
350
FD
  3
Realistic
350
F9
  3
Thicken
350
FC
  0
DICTIONARY
  5
5E
102
{ACAD_REACTORS
330
C
102
}
330
C
100
AcDbDictionary
281
     1
  3
CTABLESTYLE
350
84
  3
DIMASSOC
350
5F
  3
HIDETEXT
350
63
  3
INDEXCTL
350
327
  3
PSOLHEIGHT
350
2001
  3
PSOLWIDTH
350
2000
  3
SORTENTS
350
326
  0
XRECORD
  5
26BA
102
{ACAD_REACTORS
330
C
102
}
330
C
100
AcDbXrecord
280
     1
  1
DWGPROPS COOKIE
  2

  3

  4

  6

  7

  8
kaschu
  9

300
=
301
=
302
=
303
=
304
=
305
=
306
=
307
=
308
=
309
=
 40
0.0778261574074074
 41
2454768.510881991
 42
2455610.688240683
  1

 90
        0
  0
DICTIONARY
  5
142
102
{ACAD_REACTORS
330
141
102
}
330
141
100
AcDbDictionary
281
     1
  0
SORTENTSTABLE
  5
117
102
{ACAD_REACTORS
330
116
102
}
330
116
100
AcDbSortentsTable
330
1F
  0
LAYOUT
  5
D3
102
{ACAD_XDICTIONARY
360
26BF
102
}
102
{ACAD_REACTORS
330
1A
102
}
330
1A
100
AcDbPlotSettings
  1

  2
C:\Documents and Settings\basas\Application Data\Autodesk\AutoCAD 2005\R16.1\enu\plotters\Default Windows System Printer.pc3
  4

  6

 40
0.0
 41
0.0
 42
0.0
 43
0.0
 44
0.0
 45
0.0
 46
0.0
 47
0.0
 48
0.0
 49
0.0
140
0.0
141
0.0
142
1.0
143
1.0
 70
   688
 72
     0
 73
     0
 74
     5
  7

 75
    16
147
1.0
148
0.0
149
0.0
100
AcDbLayout
  1
Layout1
 70
     1
 71
     1
 10
0.0
 20
0.0
 11
12.0
 21
9.0
 12
0.0
 22
0.0
 32
0.0
 14
0.0
 24
0.0
 34
0.0
 15
0.0
 25
0.0
 35
0.0
146
0.0
 13
0.0
 23
0.0
 33
0.0
 16
1.0
 26
0.0
 36
0.0
 17
0.0
 27
1.0
 37
0.0
 76
     0
330
D2
  0
LAYOUT
  5
D7
102
{ACAD_XDICTIONARY
360
26C1
102
}
102
{ACAD_REACTORS
330
1A
102
}
330
1A
100
AcDbPlotSettings
  1

  2
C:\Documents and Settings\basas\Application Data\Autodesk\AutoCAD 2005\R16.1\enu\plotters\Default Windows System Printer.pc3
  4

  6

 40
0.0
 41
0.0
 42
0.0
 43
0.0
 44
0.0
 45
0.0
 46
0.0
 47
0.0
 48
0.0
 49
0.0
140
0.0
141
0.0
142
1.0
143
1.0
 70
   688
 72
     0
 73
     0
 74
     5
  7

 75
    16
147
1.0
148
0.0
149
0.0
100
AcDbLayout
  1
Layout2
 70
     1
 71
     2
 10
0.0
 20
0.0
 11
12.0
 21
9.0
 12
0.0
 22
0.0
 32
0.0
 14
0.0
 24
0.0
 34
0.0
 15
0.0
 25
0.0
 35
0.0
146
0.0
 13
0.0
 23
0.0
 33
0.0
 16
1.0
 26
0.0
 36
0.0
 17
0.0
 27
1.0
 37
0.0
 76
     0
330
D6
  0
LAYOUT
  5
22
102
{ACAD_XDICTIONARY
360
26BB
102
}
102
{ACAD_REACTORS
330
1A
102
}
330
1A
100
AcDbPlotSettings
  1

  2
none_device
  4
ISO_A4_(210.00_x_297.00_MM)
  6

 40
7.5
 41
20.0
 42
7.5
 43
20.0
 44
210.0
 45
297.0
 46
11.54999923706054
 47
-13.65000009536743
 48
0.0
 49
0.0
140
0.0
141
0.0
142
1.0
143
8.704084754739808
 70
 11952
 72
     1
 73
     0
 74
     0
  7

 75
     0
147
0.1148885871608098
148
0.0
149
0.0
100
AcDbLayout
  1
Model
 70
     1
 71
     0
 10
0.0
 20
0.0
 11
12.0
 21
9.0
 12
0.0
 22
0.0
 32
0.0
 14
0.0
 24
0.0
 34
0.0
 15
0.0
 25
0.0
 35
0.0
146
0.0
 13
0.0
 23
0.0
 33
0.0
 16
1.0
 26
0.0
 36
0.0
 17
0.0
 27
1.0
 37
0.0
 76
     0
330
1F
331
EA
1001
ACAD_PSEXT
1000
None
1000
None
1000
Not applicable
1000
The layout will not be plotted unless a new plotter configuration name is selected.
1070
     0
  0
MATERIAL
  5
ED
102
{ACAD_XDICTIONARY
360
335
102
}
102
{ACAD_REACTORS
330
6A
102
}
330
6A
100
AcDbMaterial
  1
ByBlock
  0
MATERIAL
  5
EC
102
{ACAD_XDICTIONARY
360
333
102
}
102
{ACAD_REACTORS
330
6A
102
}
330
6A
100
AcDbMaterial
  1
ByLayer
  0
MATERIAL
  5
EE
102
{ACAD_XDICTIONARY
360
337
102
}
102
{ACAD_REACTORS
330
6A
102
}
330
6A
100
AcDbMaterial
  1
Global
  0
MLINESTYLE
  5
18
102
{ACAD_REACTORS
330
17
102
}
330
17
100
AcDbMlineStyle
  2
STANDARD
 70
     0
  3

 62
   256
 51
90.0
 52
90.0
 71
     2
 49
0.5
 62
   256
  6
BYLAYER
 49
-0.5
 62
   256
  6
BYLAYER
  0
ACDBPLACEHOLDER
  5
F
102
{ACAD_REACTORS
330
E
102
}
330
E
  0
TABLESTYLE
  5
7F
102
{ACAD_XDICTIONARY
360
26BD
102
}
102
{ACAD_REACTORS
330
7E
102
}
330
7E
100
AcDbTableStyle
  3
Standard
 70
     0
 71
     0
 40
1.5
 41
1.5
280
     0
281
     0
  7
Standard
140
4.5
170
     2
 62
     0
 63
     7
283
     0
274
    -2
284
     1
 64
     0
275
    -2
285
     1
 65
     0
276
    -2
286
     1
 66
     0
277
    -2
287
     1
 67
     0
278
    -2
288
     1
 68
     0
279
    -2
289
     1
 69
     0
  7
Standard
140
6.0
170
     5
 62
     0
 63
     7
283
     0
274
    -2
284
     1
 64
     0
275
    -2
285
     1
 65
     0
276
    -2
286
     1
 66
     0
277
    -2
287
     1
 67
     0
278
    -2
288
     1
 68
     0
279
    -2
289
     1
 69
     0
  7
Standard
140
4.5
170
     5
 62
     0
 63
     7
283
     0
274
    -2
284
     1
 64
     0
275
    -2
285
     1
 65
     0
276
    -2
286
     1
 66
     0
277
    -2
287
     1
 67
     0
278
    -2
288
     1
 68
     0
279
    -2
289
     1
 69
     0
  0
VISUALSTYLE
  5
F5
102
{ACAD_REACTORS
330
EF
102
}
330
EF
100
AcDbVisualStyle
  2
2dWireframe
 70
     4
 71
     0
 72
     2
 73
     1
 90
        0
 40
-0.6
 41
-30.0
 62
     5
 63
     7
 74
     1
 91
        4
 64
     7
 65
   257
 75
     1
175
     1
 42
1.0
 92
        0
 66
   257
 43
1.0
 76
     1
 77
     6
 78
     2
 67
     7
 79
     5
170
     0
171
     0
290
     0
174
     0
 93
        1
 44
0.0
173
     0
291
     0
 45
0.0
1001
ACAD
1000
AcDbSavedByObjectVersion
1070
     0
1000
AcDbSavedByObjectVersion
1070
     0
1000
AcDbSavedByObjectVersion
1070
     0
1000
AcDbSavedByObjectVersion
1070
     0
1000
AcDbSavedByObjectVersion
1070
     0
1000
AcDbSavedByObjectVersion
1070
     0
1000
AcDbSavedByObjectVersion
1070
     0
1000
AcDbSavedByObjectVersion
1070
     0
1000
AcDbSavedByObjectVersion
1070
     0
  0
VISUALSTYLE
  5
F7
102
{ACAD_REACTORS
330
EF
102
}
330
EF
100
AcDbVisualStyle
  2
3D Hidden
 70
     6
 71
     1
 72
     2
 73
     2
 90
        0
 40
-0.6
 41
-30.0
 62
     5
 63
     7
 74
     2
 91
        2
 64
     7
 65
   257
 75
     2
175
     1
 42
40.0
 92
        0
 66
   257
 43
1.0
 76
     1
 77
     6
 78
     2
 67
     7
 79
     3
170
     0
171
     0
290
     0
174
     0
 93
        1
 44
0.0
173
     0
291
     0
 45
0.0
1001
ACAD
1000
AcDbSavedByObjectVersion
1070
     0
1000
AcDbSavedByObjectVersion
1070
     0
1000
AcDbSavedByObjectVersion
1070
     0
1000
AcDbSavedByObjectVersion
1070
     0
1000
AcDbSavedByObjectVersion
1070
     0
1000
AcDbSavedByObjectVersion
1070
     0
1000
AcDbSavedByObjectVersion
1070
     0
1000
AcDbSavedByObjectVersion
1070
     0
1000
AcDbSavedByObjectVersion
1070
     0
  0
VISUALSTYLE
  5
F6
102
{ACAD_REACTORS
330
EF
102
}
330
EF
100
AcDbVisualStyle
  2
3dWireframe
 70
     5
 71
     0
 72
     2
 73
     1
 90
        0
 40
-0.6
 41
-30.0
 62
     5
 63
     7
 74
     1
 91
        4
 64
     7
 65
   257
 75
     1
175
     1
 42
1.0
 92
        0
 66
   257
 43
1.0
 76
     1
 77
     6
 78
     2
 67
     7
 79
     5
170
     0
171
     0
290
     0
174
     0
 93
        1
 44
0.0
173
     0
291
     0
 45
0.0
1001
ACAD
1000
AcDbSavedByObjectVersion
1070
     0
1000
AcDbSavedByObjectVersion
1070
     0
1000
AcDbSavedByObjectVersion
1070
     0
1000
AcDbSavedByObjectVersion
1070
     0
1000
AcDbSavedByObjectVersion
1070
     0
1000
AcDbSavedByObjectVersion
1070
     0
1000
AcDbSavedByObjectVersion
1070
     0
1000
AcDbSavedByObjectVersion
1070
     0
1000
AcDbSavedByObjectVersion
1070
     0
  0
VISUALSTYLE
  5
F4
102
{ACAD_REACTORS
330
EF
102
}
330
EF
100
AcDbVisualStyle
  2
Basic
 70
     7
 71
     1
 72
     0
 73
     1
 90
        0
 40
-0.6
 41
-30.0
 62
     5
 63
     7
 74
     0
 91
        4
 64
     7
 65
   257
 75
     1
175
     1
 42
1.0
 92
        8
 66
     7
 43
1.0
 76
     1
 77
     6
 78
     2
 67
     7
 79
     5
170
     0
171
     0
290
     0
174
     0
 93
        1
 44
0.0
173
     0
291
     1
 45
0.0
1001
ACAD
1000
AcDbSavedByObjectVersion
1070
     0
1000
AcDbSavedByObjectVersion
1070
     0
1000
AcDbSavedByObjectVersion
1070
     0
1000
AcDbSavedByObjectVersion
1070
     0
1000
AcDbSavedByObjectVersion
1070
     0
1000
AcDbSavedByObjectVersion
1070
     0
1000
AcDbSavedByObjectVersion
1070
     0
1000
AcDbSavedByObjectVersion
1070
     0
1000
AcDbSavedByObjectVersion
1070
     0
  0
VISUALSTYLE
  5
FB
102
{ACAD_REACTORS
330
EF
102
}
330
EF
100
AcDbVisualStyle
  2
Brighten
 70
    12
 71
     2
 72
     2
 73
     1
 90
        0
 40
-0.6
 41
-30.0
 62
     5
 63
     7
 74
     1
 91
        4
 64
     7
 65
   257
 75
     1
175
     1
 42
1.0
 92
        8
 66
     7
 43
1.0
 76
     1
 77
     6
 78
     2
 67
     7
 79
     5
170
     0
171
     0
290
     0
174
     0
 93
        1
 44
50.0
173
     0
291
     1
 45
0.0
1001
ACAD
1000
AcDbSavedByObjectVersion
1070
     0
1000
AcDbSavedByObjectVersion
1070
     0
1000
AcDbSavedByObjectVersion
1070
     0
1000
AcDbSavedByObjectVersion
1070
     0
1000
AcDbSavedByObjectVersion
1070
     0
1000
AcDbSavedByObjectVersion
1070
     0
1000
AcDbSavedByObjectVersion
1070
     0
1000
AcDbSavedByObjectVersion
1070
     0
1000
AcDbSavedByObjectVersion
1070
     0
  0
VISUALSTYLE
  5
FF
102
{ACAD_REACTORS
330
EF
102
}
330
EF
100
AcDbVisualStyle
  2
ColorChange
 70
    16
 71
     2
 72
     2
 73
     3
 90
        0
 40
-0.6
 41
-30.0
 62
     5
 63
     8
 74
     1
 91
        4
 64
     7
 65
   257
 75
     1
175
     1
 42
1.0
 92
        8
 66
     8
 43
1.0
 76
     1
 77
     6
 78
     2
 67
     7
 79
     5
170
     0
171
     0
290
     0
174
     0
 93
        1
 44
0.0
173
     0
291
     1
 45
0.0
1001
ACAD
1000
AcDbSavedByObjectVersion
1070
     0
1000
AcDbSavedByObjectVersion
1070
     0
1000
AcDbSavedByObjectVersion
1070
     0
1000
AcDbSavedByObjectVersion
1070
     0
1000
AcDbSavedByObjectVersion
1070
     0
1000
AcDbSavedByObjectVersion
1070
     0
1000
AcDbSavedByObjectVersion
1070
     0
1000
AcDbSavedByObjectVersion
1070
     0
1000
AcDbSavedByObjectVersion
1070
     0
  0
VISUALSTYLE
  5
F8
102
{ACAD_REACTORS
330
EF
102
}
330
EF
100
AcDbVisualStyle
  2
Conceptual
 70
     9
 71
     3
 72
     2
 73
     1
 90
        0
 40
-0.6
 41
-30.0
 62
     5
 63
     7
 74
     2
 91
        2
 64
     7
 65
   257
 75
     1
175
     1
 42
40.0
 92
        8
 66
     7
 43
1.0
 76
     1
 77
     6
 78
     2
 67
     7
 79
     3
170
     0
171
     0
290
     0
174
     0
 93
        1
 44
0.0
173
     0
291
     0
 45
0.0
1001
ACAD
1000
AcDbSavedByObjectVersion
1070
     0
1000
AcDbSavedByObjectVersion
1070
     0
1000
AcDbSavedByObjectVersion
1070
     0
1000
AcDbSavedByObjectVersion
1070
     0
1000
AcDbSavedByObjectVersion
1070
     0
1000
AcDbSavedByObjectVersion
1070
     0
1000
AcDbSavedByObjectVersion
1070
     0
1000
AcDbSavedByObjectVersion
1070
     0
1000
AcDbSavedByObjectVersion
1070
     0
  0
VISUALSTYLE
  5
FA
102
{ACAD_REACTORS
330
EF
102
}
330
EF
100
AcDbVisualStyle
  2
Dim
 70
    11
 71
     2
 72
     2
 73
     1
 90
        0
 40
-0.6
 41
-30.0
 62
     5
 63
     7
 74
     1
 91
        4
 64
     7
 65
   257
 75
     1
175
     1
 42
1.0
 92
        8
 66
     7
 43
1.0
 76
     1
 77
     6
 78
     2
 67
     7
 79
     5
170
     0
171
     0
290
     0
174
     0
 93
        1
 44
-50.0
173
     0
291
     1
 45
0.0
1001
ACAD
1000
AcDbSavedByObjectVersion
1070
     0
1000
AcDbSavedByObjectVersion
1070
     0
1000
AcDbSavedByObjectVersion
1070
     0
1000
AcDbSavedByObjectVersion
1070
     0
1000
AcDbSavedByObjectVersion
1070
     0
1000
AcDbSavedByObjectVersion
1070
     0
1000
AcDbSavedByObjectVersion
1070
     0
1000
AcDbSavedByObjectVersion
1070
     0
1000
AcDbSavedByObjectVersion
1070
     0
  0
VISUALSTYLE
  5
FE
102
{ACAD_REACTORS
330
EF
102
}
330
EF
100
AcDbVisualStyle
  2
Facepattern
 70
    15
 71
     2
 72
     2
 73
     1
 90
        0
 40
-0.6
 41
-30.0
 62
     5
 63
     7
 74
     1
 91
        4
 64
     7
 65
   257
 75
     1
175
     1
 42
1.0
 92
        8
 66
     7
 43
1.0
 76
     1
 77
     6
 78
     2
 67
     7
 79
     5
170
     0
171
     0
290
     0
174
     0
 93
        1
 44
0.0
173
     0
291
     1
 45
0.0
1001
ACAD
1000
AcDbSavedByObjectVersion
1070
     0
1000
AcDbSavedByObjectVersion
1070
     0
1000
AcDbSavedByObjectVersion
1070
     0
1000
AcDbSavedByObjectVersion
1070
     0
1000
AcDbSavedByObjectVersion
1070
     0
1000
AcDbSavedByObjectVersion
1070
     0
1000
AcDbSavedByObjectVersion
1070
     0
1000
AcDbSavedByObjectVersion
1070
     0
1000
AcDbSavedByObjectVersion
1070
     0
  0
VISUALSTYLE
  5
F0
102
{ACAD_REACTORS
330
EF
102
}
330
EF
100
AcDbVisualStyle
  2
Flat
 70
     0
 71
     2
 72
     1
 73
     1
 90
        2
 40
-0.6
 41
30.0
 62
     5
 63
     7
 74
     0
 91
        4
 64
     7
 65
   257
 75
     1
175
     1
 42
1.0
 92
        8
 66
     7
 43
1.0
 76
     1
 77
     6
 78
     2
 67
     7
 79
     5
170
     0
171
     0
290
     0
174
     0
 93
       13
 44
0.0
173
     0
291
     1
 45
0.0
1001
ACAD
1000
AcDbSavedByObjectVersion
1070
     0
1000
AcDbSavedByObjectVersion
1070
     0
1000
AcDbSavedByObjectVersion
1070
     0
1000
AcDbSavedByObjectVersion
1070
     0
1000
AcDbSavedByObjectVersion
1070
     0
1000
AcDbSavedByObjectVersion
1070
     0
1000
AcDbSavedByObjectVersion
1070
     0
1000
AcDbSavedByObjectVersion
1070
     0
1000
AcDbSavedByObjectVersion
1070
     0
  0
VISUALSTYLE
  5
F1
102
{ACAD_REACTORS
330
EF
102
}
330
EF
100
AcDbVisualStyle
  2
FlatWithEdges
 70
     1
 71
     2
 72
     1
 73
     1
 90
        2
 40
-0.6
 41
30.0
 62
     5
 63
     7
 74
     1
 91
        4
 64
     7
 65
   257
 75
     1
175
     1
 42
1.0
 92
        0
 66
   257
 43
1.0
 76
     1
 77
     6
 78
     2
 67
     7
 79
     5
170
     0
171
     0
290
     0
174
     0
 93
       13
 44
0.0
173
     0
291
     1
 45
0.0
1001
ACAD
1000
AcDbSavedByObjectVersion
1070
     0
1000
AcDbSavedByObjectVersion
1070
     0
1000
AcDbSavedByObjectVersion
1070
     0
1000
AcDbSavedByObjectVersion
1070
     0
1000
AcDbSavedByObjectVersion
1070
     0
1000
AcDbSavedByObjectVersion
1070
     0
1000
AcDbSavedByObjectVersion
1070
     0
1000
AcDbSavedByObjectVersion
1070
     0
1000
AcDbSavedByObjectVersion
1070
     0
  0
VISUALSTYLE
  5
F2
102
{ACAD_REACTORS
330
EF
102
}
330
EF
100
AcDbVisualStyle
  2
Gouraud
 70
     2
 71
     2
 72
     2
 73
     1
 90
        2
 40
-0.6
 41
30.0
 62
     5
 63
     7
 74
     0
 91
        4
 64
     7
 65
   257
 75
     1
175
     1
 42
1.0
 92
        0
 66
     7
 43
1.0
 76
     1
 77
     6
 78
     2
 67
     7
 79
     5
170
     0
171
     0
290
     0
174
     0
 93
       13
 44
0.0
173
     0
291
     1
 45
0.0
1001
ACAD
1000
AcDbSavedByObjectVersion
1070
     0
1000
AcDbSavedByObjectVersion
1070
     0
1000
AcDbSavedByObjectVersion
1070
     0
1000
AcDbSavedByObjectVersion
1070
     0
1000
AcDbSavedByObjectVersion
1070
     0
1000
AcDbSavedByObjectVersion
1070
     0
1000
AcDbSavedByObjectVersion
1070
     0
1000
AcDbSavedByObjectVersion
1070
     0
1000
AcDbSavedByObjectVersion
1070
     0
  0
VISUALSTYLE
  5
F3
102
{ACAD_REACTORS
330
EF
102
}
330
EF
100
AcDbVisualStyle
  2
GouraudWithEdges
 70
     3
 71
     2
 72
     2
 73
     1
 90
        2
 40
-0.6
 41
30.0
 62
     5
 63
     7
 74
     1
 91
        4
 64
     7
 65
   257
 75
     1
175
     1
 42
1.0
 92
        0
 66
   257
 43
1.0
 76
     1
 77
     6
 78
     2
 67
     7
 79
     5
170
     0
171
     0
290
     0
174
     0
 93
       13
 44
0.0
173
     0
291
     1
 45
0.0
1001
ACAD
1000
AcDbSavedByObjectVersion
1070
     0
1000
AcDbSavedByObjectVersion
1070
     0
1000
AcDbSavedByObjectVersion
1070
     0
1000
AcDbSavedByObjectVersion
1070
     0
1000
AcDbSavedByObjectVersion
1070
     0
1000
AcDbSavedByObjectVersion
1070
     0
1000
AcDbSavedByObjectVersion
1070
     0
1000
AcDbSavedByObjectVersion
1070
     0
1000
AcDbSavedByObjectVersion
1070
     0
  0
VISUALSTYLE
  5
FD
102
{ACAD_REACTORS
330
EF
102
}
330
EF
100
AcDbVisualStyle
  2
Linepattern
 70
    14
 71
     2
 72
     2
 73
     1
 90
        0
 40
-0.6
 41
-30.0
 62
     5
 63
     7
 74
     1
 91
        4
 64
     7
 65
   257
 75
     7
175
     7
 42
1.0
 92
        8
 66
     7
 43
1.0
 76
     1
 77
     6
 78
     2
 67
     7
 79
     5
170
     0
171
     0
290
     0
174
     0
 93
        1
 44
0.0
173
     0
291
     1
 45
0.0
1001
ACAD
1000
AcDbSavedByObjectVersion
1070
     0
1000
AcDbSavedByObjectVersion
1070
     0
1000
AcDbSavedByObjectVersion
1070
     0
1000
AcDbSavedByObjectVersion
1070
     0
1000
AcDbSavedByObjectVersion
1070
     0
1000
AcDbSavedByObjectVersion
1070
     0
1000
AcDbSavedByObjectVersion
1070
     0
1000
AcDbSavedByObjectVersion
1070
     0
1000
AcDbSavedByObjectVersion
1070
     0
  0
VISUALSTYLE
  5
F9
102
{ACAD_REACTORS
330
EF
102
}
330
EF
100
AcDbVisualStyle
  2
Realistic
 70
     8
 71
     2
 72
     2
 73
     1
 90
        0
 40
-0.6
 41
-30.0
 62
     5
 63
     7
 74
     1
 91
        0
 64
     7
 65
   257
 75
     1
175
     1
 42
1.0
 92
        8
 66
     8
 43
1.0
 76
     1
 77
     6
 78
     2
 67
     7
 79
     5
170
     0
171
     0
290
     0
174
     0
 93
       13
 44
0.0
173
     0
291
     0
 45
0.0
1001
ACAD
1000
AcDbSavedByObjectVersion
1070
     0
1000
AcDbSavedByObjectVersion
1070
     0
1000
AcDbSavedByObjectVersion
1070
     0
1000
AcDbSavedByObjectVersion
1070
     0
1000
AcDbSavedByObjectVersion
1070
     0
1000
AcDbSavedByObjectVersion
1070
     0
1000
AcDbSavedByObjectVersion
1070
     0
1000
AcDbSavedByObjectVersion
1070
     0
1000
AcDbSavedByObjectVersion
1070
     0
  0
VISUALSTYLE
  5
FC
102
{ACAD_REACTORS
330
EF
102
}
330
EF
100
AcDbVisualStyle
  2
Thicken
 70
    13
 71
     2
 72
     2
 73
     1
 90
        0
 40
-0.6
 41
-30.0
 62
     5
 63
     7
 74
     1
 91
        4
 64
     7
 65
   257
 75
     1
175
     1
 42
1.0
 92
       12
 66
     7
 43
1.0
 76
     1
 77
     6
 78
     2
 67
     7
 79
     5
170
     0
171
     0
290
     0
174
     0
 93
        1
 44
0.0
173
     0
291
     1
 45
0.0
1001
ACAD
1000
AcDbSavedByObjectVersion
1070
     0
1000
AcDbSavedByObjectVersion
1070
     0
1000
AcDbSavedByObjectVersion
1070
     0
1000
AcDbSavedByObjectVersion
1070
     0
1000
AcDbSavedByObjectVersion
1070
     0
1000
AcDbSavedByObjectVersion
1070
     0
1000
AcDbSavedByObjectVersion
1070
     0
1000
AcDbSavedByObjectVersion
1070
     0
1000
AcDbSavedByObjectVersion
1070
     0
  0
DICTIONARYVAR
  5
84
102
{ACAD_REACTORS
330
5E
102
}
330
5E
100
DictionaryVariables
280
     0
  1
STANDARD
  0
DICTIONARYVAR
  5
5F
102
{ACAD_REACTORS
330
5E
102
}
330
5E
100
DictionaryVariables
280
     0
  1
2
  0
DICTIONARYVAR
  5
63
102
{ACAD_REACTORS
330
5E
102
}
330
5E
100
DictionaryVariables
280
     0
  1
1
  0
DICTIONARYVAR
  5
327
102
{ACAD_REACTORS
330
5E
102
}
330
5E
100
DictionaryVariables
280
     0
  1
0
  0
DICTIONARYVAR
  5
2001
102
{ACAD_REACTORS
330
5E
102
}
330
5E
100
DictionaryVariables
280
     0
  1
80.000000
  0
DICTIONARYVAR
  5
2000
102
{ACAD_REACTORS
330
5E
102
}
330
5E
100
DictionaryVariables
280
     0
  1
5.000000
  0
DICTIONARYVAR
  5
326
102
{ACAD_REACTORS
330
5E
102
}
330
5E
100
DictionaryVariables
280
     0
  1
127
  0
DICTIONARY
  5
26BF
330
D3
100
AcDbDictionary
280
     1
281
     1
  3
ACAD_XREC_ROUNDTRIP
360
26C0
  0
DICTIONARY
  5
26C1
330
D7
100
AcDbDictionary
280
     1
281
     1
  3
ACAD_XREC_ROUNDTRIP
360
26C2
  0
DICTIONARY
  5
26BB
330
22
100
AcDbDictionary
280
     1
281
     1
  3
ACAD_XREC_ROUNDTRIP
360
26BC
  0
DICTIONARY
  5
335
330
ED
100
AcDbDictionary
280
     1
281
     1
  3
ACAD_XREC_ROUNDTRIP
360
336
  0
DICTIONARY
  5
333
330
EC
100
AcDbDictionary
280
     1
281
     1
  3
ACAD_XREC_ROUNDTRIP
360
334
  0
DICTIONARY
  5
337
330
EE
100
AcDbDictionary
280
     1
281
     1
  3
ACAD_XREC_ROUNDTRIP
360
338
  0
DICTIONARY
  5
26BD
330
7F
100
AcDbDictionary
280
     1
281
     1
  3
ACAD_XREC_ROUNDTRIP
360
26BE
  0
XRECORD
  5
26C0
102
{ACAD_REACTORS
330
26BF
102
}
330
26BF
100
AcDbXrecord
280
     1
102
SHADEPLOT
 70
     0
102
SHADEPLOTRESLEVEL
 70
     2
102
SHADEPLOTCUSTOMDPI
 70
   300
  0
XRECORD
  5
26C2
102
{ACAD_REACTORS
330
26C1
102
}
330
26C1
100
AcDbXrecord
280
     1
102
SHADEPLOT
 70
     0
102
SHADEPLOTRESLEVEL
 70
     2
102
SHADEPLOTCUSTOMDPI
 70
   300
  0
XRECORD
  5
26BC
102
{ACAD_REACTORS
330
26BB
102
}
330
26BB
100
AcDbXrecord
280
     1
102
SHADEPLOT
 70
     0
102
SHADEPLOTRESLEVEL
 70
     2
102
SHADEPLOTCUSTOMDPI
 70
   300
  0
XRECORD
  5
336
102
{ACAD_REACTORS
330
335
102
}
330
335
100
AcDbXrecord
280
     1
102
MATERIAL
148
0.0
149
0.0
149
0.0
 93
        0
 94
       63
282
     0
 72
     1
 77
     1
171
     1
175
     1
179
     1
273
     0
  0
XRECORD
  5
334
102
{ACAD_REACTORS
330
333
102
}
330
333
100
AcDbXrecord
280
     1
102
MATERIAL
148
0.0
149
0.0
149
0.0
 93
        0
 94
       63
282
     0
 72
     1
 77
     1
171
     1
175
     1
179
     1
273
     0
  0
XRECORD
  5
338
102
{ACAD_REACTORS
330
337
102
}
330
337
100
AcDbXrecord
280
     1
102
MATERIAL
148
0.0
149
0.0
149
0.0
 93
        0
 94
       63
282
     0
 72
     1
 77
     1
171
     1
175
     1
179
     1
273
     0
  0
XRECORD
  5
26BE
102
{ACAD_REACTORS
330
26BD
102
}
330
26BD
100
AcDbXrecord
280
     1
102
ACAD_ROUNDTRIP_PRE2007_TABLESTYLE
 90
      512
 91
        0
  1

 92
      512
 93
        0
  2

 94
      512
 95
        0
  3

  0
ENDSEC
  0
EOF
