  0
SECTION
  2
HEADER
  9
$ACADVER
  1
AC1015
  9
$ACADMAINTVER
 70
    20
  9
$DWGCODEPAGE
  3
ANSI_1252
  9
$INSBASE
 10
0.0
 20
0.0
 30
0.0
  9
$EXTMIN
 10
223.1016644641258
 20
154.9089179845508
 30
0.0
  9
$EXTMAX
 10
4279.307475802455
 20
624.7934834385756
 30
0.0
  9
$LIMMIN
 10
0.0
 20
0.0
  9
$LIMMAX
 10
420.0
 20
297.0
  9
$ORTHOMODE
 70
     0
  9
$REGENMODE
 70
     1
  9
$FILLMODE
 70
     1
  9
$QTEXTMODE
 70
     0
  9
$MIRRTEXT
 70
     0
  9
$LTSCALE
 40
1.0
  9
$ATTMODE
 70
     1
  9
$TEXTSIZE
 40
2.5
  9
$TRACEWID
 40
1.0
  9
$TEXTSTYLE
  7
Standard
  9
$CLAYER
  8
0
  9
$CELTYPE
  6
ByLayer
  9
$CECOLOR
 62
   256
  9
$CELTSCALE
 40
1.0
  9
$DISPSILH
 70
     0
  9
$DIMSCALE
 40
1.0
  9
$DIMASZ
 40
2.5
  9
$DIMEXO
 40
0.625
  9
$DIMDLI
 40
3.75
  9
$DIMRND
 40
0.0
  9
$DIMDLE
 40
0.0
  9
$DIMEXE
 40
1.25
  9
$DIMTP
 40
0.0
  9
$DIMTM
 40
0.0
  9
$DIMTXT
 40
2.5
  9
$DIMCEN
 40
2.5
  9
$DIMTSZ
 40
0.0
  9
$DIMTOL
 70
     0
  9
$DIMLIM
 70
     0
  9
$DIMTIH
 70
     0
  9
$DIMTOH
 70
     0
  9
$DIMSE1
 70
     0
  9
$DIMSE2
 70
     0
  9
$DIMTAD
 70
     1
  9
$DIMZIN
 70
     8
  9
$DIMBLK
  1

  9
$DIMASO
 70
     1
  9
$DIMSHO
 70
     1
  9
$DIMPOST
  1

  9
$DIMAPOST
  1

  9
$DIMALT
 70
     0
  9
$DIMALTD
 70
     3
  9
$DIMALTF
 40
0.03937007874016
  9
$DIMLFAC
 40
1.0
  9
$DIMTOFL
 70
     1
  9
$DIMTVP
 40
0.0
  9
$DIMTIX
 70
     0
  9
$DIMSOXD
 70
     0
  9
$DIMSAH
 70
     0
  9
$DIMBLK1
  1

  9
$DIMBLK2
  1

  9
$DIMSTYLE
  2
ISO-25
  9
$DIMCLRD
 70
     0
  9
$DIMCLRE
 70
     0
  9
$DIMCLRT
 70
     0
  9
$DIMTFAC
 40
1.0
  9
$DIMGAP
 40
0.625
  9
$DIMJUST
 70
     0
  9
$DIMSD1
 70
     0
  9
$DIMSD2
 70
     0
  9
$DIMTOLJ
 70
     0
  9
$DIMTZIN
 70
     8
  9
$DIMALTZ
 70
     0
  9
$DIMALTTZ
 70
     0
  9
$DIMUPT
 70
     0
  9
$DIMDEC
 70
     2
  9
$DIMTDEC
 70
     2
  9
$DIMALTU
 70
     2
  9
$DIMALTTD
 70
     3
  9
$DIMTXSTY
  7
Standard
  9
$DIMAUNIT
 70
     0
  9
$DIMADEC
 70
     0
  9
$DIMALTRND
 40
0.0
  9
$DIMAZIN
 70
     0
  9
$DIMDSEP
 70
    44
  9
$DIMATFIT
 70
     3
  9
$DIMFRAC
 70
     0
  9
$DIMLDRBLK
  1

  9
$DIMLUNIT
 70
     2
  9
$DIMLWD
 70
    -2
  9
$DIMLWE
 70
    -2
  9
$DIMTMOVE
 70
     0
  9
$LUNITS
 70
     2
  9
$LUPREC
 70
     4
  9
$SKETCHINC
 40
1.0
  9
$FILLETRAD
 40
0.0
  9
$AUNITS
 70
     0
  9
$AUPREC
 70
     0
  9
$MENU
  1
.
  9
$ELEVATION
 40
0.0
  9
$PELEVATION
 40
0.0
  9
$THICKNESS
 40
0.0
  9
$LIMCHECK
 70
     0
  9
$CHAMFERA
 40
0.0
  9
$CHAMFERB
 40
0.0
  9
$CHAMFERC
 40
0.0
  9
$CHAMFERD
 40
0.0
  9
$SKPOLY
 70
     0
  9
$TDCREATE
 40
2454768.510881991
  9
$TDUCREATE
 40
2454768.469215324
  9
$TDUPDATE
 40
2455610.669395162
  9
$TDUUPDATE
 40
2455610.627728495
  9
$TDINDWG
 40
0.0723371875
  9
$TDUSRTIMER
 40
0.0723322569
  9
$USRTIMER
 70
     1
  9
$ANGBASE
 50
0.0
  9
$ANGDIR
 70
     0
  9
$PDMODE
 70
     0
  9
$PDSIZE
 40
0.0
  9
$PLINEWID
 40
0.0
  9
$SPLFRAME
 70
     0
  9
$SPLINETYPE
 70
     6
  9
$SPLINESEGS
 70
     8
  9
$HANDSEED
  5
17E4
  9
$SURFTAB1
 70
     6
  9
$SURFTAB2
 70
     6
  9
$SURFTYPE
 70
     6
  9
$SURFU
 70
     6
  9
$SURFV
 70
     6
  9
$UCSBASE
  2

  9
$UCSNAME
  2

  9
$UCSORG
 10
0.0
 20
0.0
 30
0.0
  9
$UCSXDIR
 10
1.0
 20
0.0
 30
0.0
  9
$UCSYDIR
 10
0.0
 20
1.0
 30
0.0
  9
$UCSORTHOREF
  2

  9
$UCSORTHOVIEW
 70
     0
  9
$UCSORGTOP
 10
0.0
 20
0.0
 30
0.0
  9
$UCSORGBOTTOM
 10
0.0
 20
0.0
 30
0.0
  9
$UCSORGLEFT
 10
0.0
 20
0.0
 30
0.0
  9
$UCSORGRIGHT
 10
0.0
 20
0.0
 30
0.0
  9
$UCSORGFRONT
 10
0.0
 20
0.0
 30
0.0
  9
$UCSORGBACK
 10
0.0
 20
0.0
 30
0.0
  9
$PUCSBASE
  2

  9
$PUCSNAME
  2

  9
$PUCSORG
 10
0.0
 20
0.0
 30
0.0
  9
$PUCSXDIR
 10
1.0
 20
0.0
 30
0.0
  9
$PUCSYDIR
 10
0.0
 20
1.0
 30
0.0
  9
$PUCSORTHOREF
  2

  9
$PUCSORTHOVIEW
 70
     0
  9
$PUCSORGTOP
 10
0.0
 20
0.0
 30
0.0
  9
$PUCSORGBOTTOM
 10
0.0
 20
0.0
 30
0.0
  9
$PUCSORGLEFT
 10
0.0
 20
0.0
 30
0.0
  9
$PUCSORGRIGHT
 10
0.0
 20
0.0
 30
0.0
  9
$PUCSORGFRONT
 10
0.0
 20
0.0
 30
0.0
  9
$PUCSORGBACK
 10
0.0
 20
0.0
 30
0.0
  9
$USERI1
 70
     0
  9
$USERI2
 70
     0
  9
$USERI3
 70
     0
  9
$USERI4
 70
     0
  9
$USERI5
 70
     0
  9
$USERR1
 40
0.0
  9
$USERR2
 40
0.0
  9
$USERR3
 40
0.0
  9
$USERR4
 40
0.0
  9
$USERR5
 40
0.0
  9
$WORLDVIEW
 70
     1
  9
$SHADEDGE
 70
     3
  9
$SHADEDIF
 70
    70
  9
$TILEMODE
 70
     1
  9
$MAXACTVP
 70
    64
  9
$PINSBASE
 10
0.0
 20
0.0
 30
0.0
  9
$PLIMCHECK
 70
     0
  9
$PEXTMIN
 10
0.0
 20
0.0
 30
0.0
  9
$PEXTMAX
 10
0.0
 20
0.0
 30
0.0
  9
$PLIMMIN
 10
0.0
 20
0.0
  9
$PLIMMAX
 10
12.0
 20
9.0
  9
$UNITMODE
 70
     0
  9
$VISRETAIN
 70
     1
  9
$PLINEGEN
 70
     0
  9
$PSLTSCALE
 70
     1
  9
$TREEDEPTH
 70
  3020
  9
$CMLSTYLE
  2
Standard
  9
$CMLJUST
 70
     0
  9
$CMLSCALE
 40
20.0
  9
$PROXYGRAPHICS
 70
     1
  9
$MEASUREMENT
 70
     1
  9
$CELWEIGHT
370
    -1
  9
$ENDCAPS
280
     0
  9
$JOINSTYLE
280
     0
  9
$LWDISPLAY
290
     0
  9
$INSUNITS
 70
     4
  9
$HYPERLINKBASE
  1

  9
$STYLESHEET
  1

  9
$XEDIT
290
     1
  9
$CEPSNTYPE
380
     0
  9
$PSTYLEMODE
290
     1
  9
$FINGERPRINTGUID
  2
{A9F5D530-972F-4813-857A-78B9B08CAD27}
  9
$VERSIONGUID
  2
{35A9FC42-C940-45B2-BABD-5043FE6CCAC7}
  9
$EXTNAMES
290
     1
  9
$PSVPSCALE
 40
0.0
  9
$OLESTARTUP
290
     0
  0
ENDSEC
  0
SECTION
  2
CLASSES
  0
CLASS
  1
ACDBDICTIONARYWDFLT
  2
AcDbDictionaryWithDefault
  3
ObjectDBX Classes
 90
        0
280
     0
281
     0
  0
CLASS
  1
DICTIONARYVAR
  2
AcDbDictionaryVar
  3
ObjectDBX Classes
 90
        0
280
     0
281
     0
  0
CLASS
  1
TABLESTYLE
  2
AcDbTableStyle
  3
ObjectDBX Classes
 90
     4095
280
     0
281
     0
  0
CLASS
  1
MATERIAL
  2
AcDbMaterial
  3
ObjectDBX Classes
 90
     1024
280
     0
281
     0
  0
CLASS
  1
VISUALSTYLE
  2
AcDbVisualStyle
  3
ObjectDBX Classes
 90
     4095
280
     0
281
     0
  0
CLASS
  1
SORTENTSTABLE
  2
AcDbSortentsTable
  3
ObjectDBX Classes
 90
        0
280
     0
281
     0
  0
CLASS
  1
DIMASSOC
  2
AcDbDimAssoc
  3
"AcDbDimAssoc|Product Desc:     AcDim ARX App For Dimension|Company:          Autodesk, Inc.|WEB Address:      www.autodesk.com"
 90
    32768
280
     0
281
     0
  0
CLASS
  1
ACDBPLACEHOLDER
  2
AcDbPlaceHolder
  3
ObjectDBX Classes
 90
        0
280
     0
281
     0
  0
CLASS
  1
LAYOUT
  2
AcDbLayout
  3
ObjectDBX Classes
 90
        0
280
     0
281
     0
  0
ENDSEC
  0
SECTION
  2
TABLES
  0
TABLE
  2
VPORT
  5
8
330
0
100
AcDbSymbolTable
 70
     1
  0
VPORT
  5
EA
330
8
100
AcDbSymbolTableRecord
100
AcDbViewportTableRecord
  2
*Active
 70
     0
 10
0.0
 20
0.0
 11
1.0
 21
1.0
 12
2138.491690145094
 22
111.8083611351349
 13
0.0
 23
0.0
 14
10.0
 24
10.0
 15
10.0
 25
10.0
 16
0.0
 26
0.0
 36
1.0
 17
0.0
 27
0.0
 37
0.0
 40
2537.038202231177
 41
1.858662613981763
 42
50.0
 43
0.0
 44
0.0
 50
0.0
 51
0.0
 71
     0
 72
  1000
 73
     1
 74
     3
 75
     0
 76
     0
 77
     0
 78
     0
281
     0
 65
     1
110
0.0
120
0.0
130
0.0
111
1.0
121
0.0
131
0.0
112
0.0
122
1.0
132
0.0
 79
     0
146
0.0
  0
ENDTAB
  0
TABLE
  2
LTYPE
  5
5
330
0
100
AcDbSymbolTable
 70
     2
  0
LTYPE
  5
14
330
5
100
AcDbSymbolTableRecord
100
AcDbLinetypeTableRecord
  2
ByBlock
 70
     0
  3

 72
    65
 73
     0
 40
0.0
  0
LTYPE
  5
15
330
5
100
AcDbSymbolTableRecord
100
AcDbLinetypeTableRecord
  2
ByLayer
 70
     0
  3

 72
    65
 73
     0
 40
0.0
  0
LTYPE
  5
16
330
5
100
AcDbSymbolTableRecord
100
AcDbLinetypeTableRecord
  2
Continuous
 70
     0
  3
Solid line
 72
    65
 73
     0
 40
0.0
  0
LTYPE
  5
ECF
330
5
100
AcDbSymbolTableRecord
100
AcDbLinetypeTableRecord
  2
DOT
 70
     0
  3
...............................................
 72
    65
 73
     2
 40
0.25
 49
0.0
 74
     0
 49
-0.25
 74
     0
  0
ENDTAB
  0
TABLE
  2
LAYER
  5
2
102
{ACAD_XDICTIONARY
360
141
102
}
330
0
100
AcDbSymbolTable
 70
     4
  0
LAYER
  5
10
330
2
100
AcDbSymbolTableRecord
100
AcDbLayerTableRecord
  2
0
 70
     0
 62
     7
  6
Continuous
370
    -3
390
F
  0
LAYER
  5
124
330
2
100
AcDbSymbolTableRecord
100
AcDbLayerTableRecord
  2
Defpoints
 70
     0
 62
     7
  6
Continuous
290
     0
370
    -3
390
F
  0
LAYER
  5
13E
330
2
100
AcDbSymbolTableRecord
100
AcDbLayerTableRecord
  2
Hewi
 70
     0
 62
     7
  6
Continuous
370
    -3
390
F
  0
LAYER
  5
ED0
330
2
100
AcDbSymbolTableRecord
100
AcDbLayerTableRecord
  2
Bemass_rot
 70
     0
 62
     1
  6
DOT
370
    -3
390
F
  0
ENDTAB
  0
TABLE
  2
STYLE
  5
3
330
0
100
AcDbSymbolTable
 70
     2
  0
STYLE
  5
11
330
3
100
AcDbSymbolTableRecord
100
AcDbTextStyleTableRecord
  2
Standard
 70
     0
 40
0.0
 41
1.0
 50
0.0
 71
     0
 42
2.5
  3
txt
  4

  0
STYLE
  5
ED1
330
3
100
AcDbSymbolTableRecord
100
AcDbTextStyleTableRecord
  2
ARIAL
 70
     0
 40
0.0
 41
1.0
 50
0.0
 71
     0
 42
0.0
  3
Arial
  4

  0
ENDTAB
  0
TABLE
  2
VIEW
  5
6
330
0
100
AcDbSymbolTable
 70
     0
  0
ENDTAB
  0
TABLE
  2
UCS
  5
7
330
0
100
AcDbSymbolTable
 70
     0
  0
ENDTAB
  0
TABLE
  2
APPID
  5
9
330
0
100
AcDbSymbolTable
 70
     3
  0
APPID
  5
12
330
9
100
AcDbSymbolTableRecord
100
AcDbRegAppTableRecord
  2
ACAD
 70
     0
  0
APPID
  5
9E
330
9
100
AcDbSymbolTableRecord
100
AcDbRegAppTableRecord
  2
ACAD_PSEXT
 70
     0
  0
APPID
  5
212
330
9
100
AcDbSymbolTableRecord
100
AcDbRegAppTableRecord
  2
ACAD_EXEMPT_FROM_CAD_STANDARDS
 70
     0
  0
ENDTAB
  0
TABLE
  2
DIMSTYLE
  5
A
330
0
100
AcDbSymbolTable
 70
     2
100
AcDbDimStyleTable
 71
     1
340
27
  0
DIMSTYLE
105
27
330
A
100
AcDbSymbolTableRecord
100
AcDbDimStyleTableRecord
  2
ISO-25
 70
     0
 41
2.5
 42
0.625
 43
3.75
 44
1.25
 73
     0
 74
     0
 77
     1
 78
     8
140
2.5
141
2.5
143
0.03937007874016
147
0.625
171
     3
172
     1
271
     2
272
     2
274
     3
278
    44
283
     0
284
     8
340
11
  0
DIMSTYLE
105
254
330
A
100
AcDbSymbolTableRecord
100
AcDbDimStyleTableRecord
  2
Standard
 70
     0
340
11
  0
ENDTAB
  0
TABLE
  2
BLOCK_RECORD
  5
1
330
0
100
AcDbSymbolTable
 70
     2
  0
BLOCK_RECORD
  5
1F
102
{ACAD_XDICTIONARY
360
116
102
}
330
1
100
AcDbSymbolTableRecord
100
AcDbBlockTableRecord
  2
*Model_Space
340
22
  0
BLOCK_RECORD
  5
D2
330
1
100
AcDbSymbolTableRecord
100
AcDbBlockTableRecord
  2
*Paper_Space
340
D3
  0
BLOCK_RECORD
  5
D6
330
1
100
AcDbSymbolTableRecord
100
AcDbBlockTableRecord
  2
*Paper_Space0
340
D7
  0
ENDTAB
  0
ENDSEC
  0
SECTION
  2
BLOCKS
  0
BLOCK
  5
20
330
1F
100
AcDbEntity
  8
0
100
AcDbBlockBegin
  2
*Model_Space
 70
     0
 10
0.0
 20
0.0
 30
0.0
  3
*Model_Space
  1

  0
ENDBLK
  5
21
330
1F
100
AcDbEntity
  8
0
100
AcDbBlockEnd
  0
BLOCK
  5
D4
330
D2
100
AcDbEntity
 67
     1
  8
0
100
AcDbBlockBegin
  2
*Paper_Space
 70
     0
 10
0.0
 20
0.0
 30
0.0
  3
*Paper_Space
  1

  0
ENDBLK
  5
D5
330
D2
100
AcDbEntity
 67
     1
  8
0
100
AcDbBlockEnd
  0
BLOCK
  5
D8
330
D6
100
AcDbEntity
 67
     1
  8
0
100
AcDbBlockBegin
  2
*Paper_Space0
 70
     0
 10
0.0
 20
0.0
 30
0.0
  3
*Paper_Space0
  1

  0
ENDBLK
  5
D9
330
D6
100
AcDbEntity
 67
     1
  8
0
100
AcDbBlockEnd
  0
ENDSEC
  0
SECTION
  2
ENTITIES
  0
LINE
  5
1726
330
1F
100
AcDbEntity
  8
Hewi
  6
Continuous
100
AcDbLine
 10
265.1289545479431
 20
572.7138750721027
 30
0.0
 11
275.4289545480042
 21
572.7138750721027
 31
0.0
  0
LINE
  5
1727
330
1F
100
AcDbEntity
  8
Hewi
  6
Continuous
100
AcDbLine
 10
300.4289545479751
 20
572.7138750721027
 30
0.0
 11
310.7289545479634
 21
572.7138750721027
 31
0.0
  0
LINE
  5
1728
330
1F
100
AcDbEntity
  8
Hewi
  6
Continuous
100
AcDbLine
 10
264.128954547943
 20
571.1138750720823
 30
0.0
 11
263.178954547946
 21
571.1138750720823
 31
0.0
  0
LINE
  5
1729
330
1F
100
AcDbEntity
  8
Hewi
  6
Continuous
100
AcDbLine
 10
311.6289545479503
 20
561.4585854471774
 30
0.0
 11
300.4289545479751
 21
561.4585854471774
 31
0.0
  0
LINE
  5
172A
330
1F
100
AcDbEntity
  8
Hewi
  6
Continuous
100
AcDbLine
 10
275.4289545480042
 20
561.4585854471774
 30
0.0
 11
264.2289545479853
 21
561.4585854471774
 31
0.0
  0
LINE
  5
172B
330
1F
100
AcDbEntity
  8
Hewi
  6
Continuous
100
AcDbLine
 10
264.2289545479853
 20
570.063875072094
 30
0.0
 11
264.2289545479853
 21
561.4585854471774
 31
0.0
  0
LINE
  5
172C
330
1F
100
AcDbEntity
  8
Hewi
  6
Continuous
100
AcDbLine
 10
265.078954547962
 20
572.0638750720939
 30
0.0
 11
265.078954547962
 21
572.6973902506109
 31
0.0
  0
LINE
  5
172D
330
1F
100
AcDbEntity
  8
Hewi
  6
Continuous
100
AcDbLine
 10
310.7789545479445
 20
572.0638750720939
 30
0.0
 11
310.7789545479445
 21
572.6973902506109
 31
0.0
  0
LINE
  5
172E
330
1F
100
AcDbEntity
  8
Hewi
  6
Continuous
100
AcDbLine
 10
311.6289545479503
 20
570.063875072094
 30
0.0
 11
311.6289545479503
 21
561.4585854471774
 31
0.0
  0
LINE
  5
172F
330
1F
100
AcDbEntity
  8
Hewi
  6
Continuous
100
AcDbLine
 10
312.678954547946
 20
571.1138750720823
 30
0.0
 11
311.7289545479561
 21
571.1138750720823
 31
0.0
  0
LINE
  5
1730
330
1F
100
AcDbEntity
  8
Hewi
  6
Continuous
100
AcDbLine
 10
267.703954547962
 20
580.2388750720823
 30
0.0
 11
267.703954547962
 21
604.0888750721027
 31
0.0
  0
LINE
  5
1731
330
1F
100
AcDbEntity
  8
Hewi
  6
Continuous
100
AcDbLine
 10
304.8539545479635
 20
576.9388750720939
 30
0.0
 11
271.0039545479431
 21
576.9388750720939
 31
0.0
  0
LINE
  5
1732
330
1F
100
AcDbEntity
  8
Hewi
  6
Continuous
100
AcDbLine
 10
271.0039545479431
 20
607.3888750720765
 30
0.0
 11
304.8539545479635
 21
607.3888750720765
 31
0.0
  0
LINE
  5
1733
330
1F
100
AcDbEntity
  8
Hewi
  6
Continuous
100
AcDbLine
 10
308.1539545479591
 20
604.0888750721027
 30
0.0
 11
308.1539545479591
 21
580.2388750720823
 31
0.0
  0
LINE
  5
1734
330
1F
100
AcDbEntity
  8
Hewi
  6
Continuous
100
AcDbLine
 10
347.378954547943
 20
440.3365849882505
 30
0.0
 11
290.578954547962
 21
440.3365849882505
 31
0.0
  0
LINE
  5
1735
330
1F
100
AcDbEntity
  8
Hewi
  6
Continuous
100
AcDbLine
 10
285.2789545479445
 20
440.3365849882505
 30
0.0
 11
228.4789545479634
 21
440.3365849882505
 31
0.0
  0
LINE
  5
1736
330
1F
100
AcDbEntity
  8
Hewi
  6
Continuous
100
AcDbLine
 10
228.4789545479634
 20
620.9911651559053
 30
0.0
 11
347.378954547943
 21
620.9911651559053
 31
0.0
  0
LINE
  5
1737
330
1F
100
AcDbEntity
  8
Hewi
  6
Continuous
100
AcDbLine
 10
249.8789545479431
 20
569.7644431692427
 30
0.0
 11
249.8789545479431
 21
472.9638750721027
 31
0.0
  0
LINE
  5
1738
330
1F
100
AcDbEntity
  8
Hewi
  6
Continuous
100
AcDbLine
 10
251.8289545479693
 20
571.7147402089288
 30
0.0
 11
251.8289545479693
 21
571.6606295076457
 31
0.0
  0
LINE
  5
1739
330
1F
100
AcDbEntity
  8
Hewi
  6
Continuous
100
AcDbLine
 10
250.1798196848085
 20
573.7644279840136
 30
0.0
 11
250.1798196848085
 21
610.5633221601859
 31
0.0
  0
LINE
  5
173A
330
1F
100
AcDbEntity
  8
Hewi
  6
Continuous
100
AcDbLine
 10
251.8289545479693
 20
571.6606295076457
 30
0.0
 11
261.2651957996404
 21
571.6606295076457
 31
0.0
  0
LINE
  5
173B
330
1F
100
AcDbEntity
  8
Hewi
  6
Continuous
100
AcDbLine
 10
263.2751599246021
 20
571.6012822869055
 30
0.0
 11
261.3245430203587
 21
571.6012822869055
 31
0.0
  0
LINE
  5
173C
330
1F
100
AcDbEntity
  8
Hewi
  6
Continuous
100
AcDbLine
 10
251.8289545479693
 20
571.7147402089288
 30
0.0
 11
252.2295074598787
 21
571.7147402089288
 31
0.0
  0
LINE
  5
173D
330
1F
100
AcDbEntity
  8
Hewi
  6
Continuous
100
AcDbLine
 10
252.2295074598787
 20
612.6130099352415
 30
0.0
 11
323.6284016360278
 21
612.6130099352415
 31
0.0
  0
LINE
  5
173E
330
1F
100
AcDbEntity
  8
Hewi
  6
Continuous
100
AcDbLine
 10
255.2289545479634
 20
467.6138750720968
 30
0.0
 11
320.6289545479503
 21
467.6138750720968
 31
0.0
  0
LINE
  5
173F
330
1F
100
AcDbEntity
  8
Hewi
  6
Continuous
100
AcDbLine
 10
262.1428790994378
 20
574.7661004550431
 30
0.0
 11
262.1428790994378
 21
609.5616496890837
 31
0.0
  0
LINE
  5
1740
330
1F
100
AcDbEntity
  8
Hewi
  6
Continuous
100
AcDbLine
 10
263.2751599246021
 20
571.6012822869055
 30
0.0
 11
262.1600295314911
 21
572.7164126799729
 31
0.0
  0
LINE
  5
1741
330
1F
100
AcDbEntity
  8
Hewi
  6
Continuous
100
AcDbLine
 10
262.1600295314911
 20
611.6113374642122
 30
0.0
 11
262.8120173519765
 21
612.2633252846975
 31
0.0
  0
LINE
  5
1742
330
1F
100
AcDbEntity
  8
Hewi
  6
Continuous
100
AcDbLine
 10
264.8117127423084
 20
612.297626148775
 30
0.0
 11
311.0461963536272
 21
612.297626148775
 31
0.0
  0
LINE
  5
1743
330
1F
100
AcDbEntity
  8
Hewi
  6
Continuous
100
AcDbLine
 10
285.2789545479445
 20
440.3365849882505
 30
0.0
 11
285.2789545479445
 21
440.3749956470241
 31
0.0
  0
LINE
  5
1744
330
1F
100
AcDbEntity
  8
Hewi
  6
Continuous
100
AcDbLine
 10
290.578954547962
 20
440.3749956470241
 30
0.0
 11
285.2789545479445
 21
440.3749956470241
 31
0.0
  0
LINE
  5
1745
330
1F
100
AcDbEntity
  8
Hewi
  6
Continuous
100
AcDbLine
 10
290.578954547962
 20
440.3365849882505
 30
0.0
 11
290.578954547962
 21
440.3749956470241
 31
0.0
  0
LINE
  5
1746
330
1F
100
AcDbEntity
  8
Hewi
  6
Continuous
100
AcDbLine
 10
313.69787956443
 20
572.7164126799729
 30
0.0
 11
312.582749171348
 21
571.6012822869055
 31
0.0
  0
LINE
  5
1747
330
1F
100
AcDbEntity
  8
Hewi
  6
Continuous
100
AcDbLine
 10
313.0458917439519
 20
612.2633252846975
 30
0.0
 11
313.69787956443
 21
611.6113374642122
 31
0.0
  0
LINE
  5
1748
330
1F
100
AcDbEntity
  8
Hewi
  6
Continuous
100
AcDbLine
 10
314.442690447102
 20
571.6606295076457
 30
0.0
 11
324.0289545479518
 21
571.6606295076457
 31
0.0
  0
LINE
  5
1749
330
1F
100
AcDbEntity
  8
Hewi
  6
Continuous
100
AcDbLine
 10
314.3833432263327
 20
571.6012822869055
 30
0.0
 11
312.582749171348
 21
571.6012822869055
 31
0.0
  0
LINE
  5
174A
330
1F
100
AcDbEntity
  8
Hewi
  6
Continuous
100
AcDbLine
 10
323.6284016360278
 20
571.7147402089288
 30
0.0
 11
324.0289545479518
 21
571.7147402089288
 31
0.0
  0
LINE
  5
174B
330
1F
100
AcDbEntity
  8
Hewi
  6
Continuous
100
AcDbLine
 10
313.7150299964687
 20
609.5616496890837
 30
0.0
 11
313.7150299964687
 21
574.7661004550431
 31
0.0
  0
LINE
  5
174C
330
1F
100
AcDbEntity
  8
Hewi
  6
Continuous
100
AcDbLine
 10
324.0289545479518
 20
571.6606295076457
 30
0.0
 11
324.0289545479518
 21
571.7147402089288
 31
0.0
  0
LINE
  5
174D
330
1F
100
AcDbEntity
  8
Hewi
  6
Continuous
100
AcDbLine
 10
325.6780894111271
 20
610.5633221601859
 30
0.0
 11
325.6780894111271
 21
573.7644279840136
 31
0.0
  0
LINE
  5
174E
330
1F
100
AcDbEntity
  8
Hewi
  6
Continuous
100
AcDbLine
 10
325.9789545479634
 20
569.7644431692427
 30
0.0
 11
325.9789545479634
 21
472.9638750721027
 31
0.0
  0
LINE
  5
174F
330
1F
100
AcDbEntity
  8
Hewi
  6
Continuous
100
AcDbLine
 10
352.7562446317734
 20
445.7138750721027
 30
0.0
 11
352.7562446317734
 21
615.6138750720823
 31
0.0
  0
LINE
  5
1750
330
1F
100
AcDbEntity
  8
Hewi
  6
Continuous
100
AcDbLine
 10
310.7465009969583
 20
572.6964123907495
 30
0.0
 11
300.4289545479751
 21
572.6964123907495
 31
0.0
  0
LINE
  5
1751
330
1F
100
AcDbEntity
  8
Hewi
  6
Continuous
100
AcDbLine
 10
275.4289545480042
 20
572.6964123907495
 30
0.0
 11
265.1114080989482
 21
572.6964123907495
 31
0.0
  0
LINE
  5
1752
330
1F
100
AcDbEntity
  8
Hewi
  6
Continuous
100
AcDbLine
 10
223.1016644641258
 20
445.7138750721027
 30
0.0
 11
223.1016644641258
 21
615.6138750720823
 31
0.0
  0
ARC
  5
1753
330
1F
100
AcDbEntity
  8
Hewi
  6
Continuous
100
AcDbCircle
 10
263.178954547946
 20
570.063875072094
 30
0.0
 40
1.05
100
AcDbArc
 50
0.0
 51
90.0
  0
ARC
  5
1754
330
1F
100
AcDbEntity
  8
Hewi
  6
Continuous
100
AcDbCircle
 10
312.678954547946
 20
570.063875072094
 30
0.0
 40
1.05
100
AcDbArc
 50
90.0
 51
180.0
  0
ARC
  5
1755
330
1F
100
AcDbEntity
  8
Hewi
  6
Continuous
100
AcDbCircle
 10
-271.0039545479431
 20
604.0888750721027
 30
0.0
 40
3.300000000000001
210
0.0
220
0.0
230
-1.0
100
AcDbArc
 50
0.0
 51
90.0
  0
ARC
  5
1756
330
1F
100
AcDbEntity
  8
Hewi
  6
Continuous
100
AcDbCircle
 10
-271.0039545479431
 20
580.2388750720823
 30
0.0
 40
3.299999999999998
210
0.0
220
0.0
230
-1.0
100
AcDbArc
 50
270.0
 51
0.0
  0
ARC
  5
1757
330
1F
100
AcDbEntity
  8
Hewi
  6
Continuous
100
AcDbCircle
 10
-304.8539545479635
 20
604.0888750721027
 30
0.0
 40
3.300000000000001
210
0.0
220
0.0
230
-1.0
100
AcDbArc
 50
90.0
 51
180.0
  0
ARC
  5
1758
330
1F
100
AcDbEntity
  8
Hewi
  6
Continuous
100
AcDbCircle
 10
-304.8539545479635
 20
580.2388750720823
 30
0.0
 40
3.300000000000001
210
0.0
220
0.0
230
-1.0
100
AcDbArc
 50
180.0
 51
270.0
  0
ARC
  5
1759
330
1F
100
AcDbEntity
  8
Hewi
  6
Continuous
100
AcDbCircle
 10
-255.2289545479634
 20
472.9638750721027
 30
0.0
 40
5.349999999999996
210
0.0
220
0.0
230
-1.0
100
AcDbArc
 50
270.0
 51
0.0
  0
ARC
  5
175A
330
1F
100
AcDbEntity
  8
Hewi
  6
Continuous
100
AcDbCircle
 10
-320.6289545479503
 20
472.9638750721027
 30
0.0
 40
5.349999999999996
210
0.0
220
0.0
230
-1.0
100
AcDbArc
 50
180.0
 51
270.0
  0
ARC
  5
175B
330
1F
100
AcDbEntity
  8
Hewi
  6
Continuous
100
AcDbCircle
 10
-347.378954547943
 20
615.6138750720823
 30
0.0
 40
5.377290083806274
210
0.0
220
0.0
230
-1.0
100
AcDbArc
 50
90.0
 51
180.0
  0
ARC
  5
175C
330
1F
100
AcDbEntity
  8
Hewi
  6
Continuous
100
AcDbCircle
 10
-347.378954547943
 20
445.7138750721027
 30
0.0
 40
5.377290083806274
210
0.0
220
0.0
230
-1.0
100
AcDbArc
 50
180.0
 51
270.0
  0
ARC
  5
175D
330
1F
100
AcDbEntity
  8
Hewi
  6
Continuous
100
AcDbCircle
 10
-228.4789545479634
 20
615.6138750720823
 30
0.0
 40
5.377290083806274
210
0.0
220
0.0
230
-1.0
100
AcDbArc
 50
0.0
 51
90.0
  0
ARC
  5
175E
330
1F
100
AcDbEntity
  8
Hewi
  6
Continuous
100
AcDbCircle
 10
-228.4789545479634
 20
445.7138750721027
 30
0.0
 40
5.377290083806274
210
0.0
220
0.0
230
-1.0
100
AcDbArc
 50
270.0
 51
0.0
  0
ELLIPSE
  5
175F
330
1F
100
AcDbEntity
  8
Hewi
  6
Continuous
100
AcDbEllipse
 10
251.8289545479693
 20
569.7103324679741
 30
0.0
 11
0.0
 21
-1.950297039685619
 31
0.0
210
0.0
220
0.0
230
1.0
 40
0.9998476951563914
 41
3.141592653589792
 42
4.712388980384688
  0
ELLIPSE
  5
1760
330
1F
100
AcDbEntity
  8
Hewi
  6
Continuous
100
AcDbEllipse
 10
251.8289545479693
 20
569.7644431692427
 30
0.0
 11
0.0
 21
-1.950297039685619
 31
0.0
210
0.0
220
0.0
230
-1.0
 40
0.9998476951563914
 41
1.570796326794896
 42
3.141592653589792
  0
ELLIPSE
  5
1761
330
1F
100
AcDbEntity
  8
Hewi
  6
Continuous
100
AcDbEllipse
 10
252.2301319573071
 20
573.7650524814202
 30
0.0
 11
1.450010487797638
 21
1.450010487797641
 31
0.0
210
0.0
220
0.0
230
1.0
 40
0.9996954598818872
 41
2.356346783439929
 42
3.926838523739654
  0
ELLIPSE
  5
1762
330
1F
100
AcDbEntity
  8
Hewi
  6
Continuous
100
AcDbEllipse
 10
252.2301319573071
 20
610.5626976627357
 30
0.0
 11
-1.450010487797641
 21
1.450010487797641
 31
0.0
210
0.0
220
0.0
230
1.0
 40
0.9996954598818872
 41
5.497939437029716
 42
7.068431177329449
  0
ELLIPSE
  5
1763
330
1F
100
AcDbEntity
  8
Hewi
  6
Continuous
100
AcDbEllipse
 10
262.1603341643622
 20
574.7661004550431
 30
0.0
 11
0.0000000000000024
 21
2.049999999999928
 31
0.0
210
0.0
220
0.0
230
1.0
 40
0.0085146658186418
 41
1.570796326794896
 42
3.12413936106995
  0
ELLIPSE
  5
1764
330
1F
100
AcDbEntity
  8
Hewi
  6
Continuous
100
AcDbEllipse
 10
262.1603341643622
 20
609.5616496890837
 30
0.0
 11
0.0000000000000024
 21
2.049999999999978
 31
0.0
210
0.0
220
0.0
230
1.0
 40
0.0085146658186415
 41
0.017453292520071
 42
1.570796326794896
  0
ELLIPSE
  5
1765
330
1F
100
AcDbEntity
  8
Hewi
  6
Continuous
100
AcDbEllipse
 10
264.8117127423084
 20
612.2627160188971
 30
0.0
 11
2.000000000000061
 21
0.0
 31
0.0
210
0.0
220
0.0
230
1.0
 40
0.0174550649282216
 41
1.570796326794896
 42
3.124139361069958
  0
ELLIPSE
  5
1766
330
1F
100
AcDbEntity
  8
Hewi
  6
Continuous
100
AcDbEllipse
 10
311.0461963536272
 20
612.2627160188971
 30
0.0
 11
2.000000000000043
 21
0.0
 31
0.0
210
0.0
220
0.0
230
1.0
 40
0.0174550649282217
 41
0.0174532925198328
 42
1.570796326794896
  0
ELLIPSE
  5
1767
330
1F
100
AcDbEntity
  8
Hewi
  6
Continuous
100
AcDbEllipse
 10
313.697574931537
 20
574.7661004550431
 30
0.0
 11
0.0000000000000024
 21
2.050000000014414
 31
0.0
210
0.0
220
0.0
230
1.0
 40
0.0085146658186373
 41
3.159045946114221
 42
4.712388980384688
  0
ELLIPSE
  5
1768
330
1F
100
AcDbEntity
  8
Hewi
  6
Continuous
100
AcDbEllipse
 10
313.697574931537
 20
609.5616496890837
 30
0.0
 11
0.0000000000000024
 21
2.050000000014275
 31
0.0
210
0.0
220
0.0
230
1.0
 40
0.0085146658186377
 41
4.712388980384688
 42
6.265732014655027
  0
ELLIPSE
  5
1769
330
1F
100
AcDbEntity
  8
Hewi
  6
Continuous
100
AcDbEllipse
 10
323.6277771384612
 20
610.562697662823
 30
0.0
 11
-1.450010487797148
 21
-1.450010487798127
 31
0.0
210
0.0
220
0.0
230
0.9999999999999998
 40
0.9996954598818872
 41
2.356346783439929
 42
3.926838523739663
  0
ELLIPSE
  5
176A
330
1F
100
AcDbEntity
  8
Hewi
  6
Continuous
100
AcDbEllipse
 10
323.6277771386067
 20
573.7650524814202
 30
0.0
 11
1.450010487797641
 21
-1.450010487797638
 31
0.0
210
0.0
220
0.0
230
-1.0
 40
0.9996954598818872
 41
5.497939437029733
 42
7.068431177329449
  0
ELLIPSE
  5
176B
330
1F
100
AcDbEntity
  8
Hewi
  6
Continuous
100
AcDbEllipse
 10
324.0289545479518
 20
569.7103324679741
 30
0.0
 11
0.0
 21
-1.950297039685619
 31
0.0
210
0.0
220
0.0
230
1.0
 40
0.9998476951563914
 41
1.570796326794896
 42
3.141592653589792
  0
ELLIPSE
  5
176C
330
1F
100
AcDbEntity
  8
Hewi
  6
Continuous
100
AcDbEllipse
 10
324.0289545479518
 20
569.7644431692427
 30
0.0
 11
0.0
 21
-1.950297039685619
 31
0.0
210
0.0
220
0.0
230
-1.0
 40
0.9998476951563914
 41
3.141592653589792
 42
4.712388980384688
  0
SPLINE
  5
176D
330
1F
100
AcDbEntity
  8
Hewi
  6
Continuous
100
AcDbSpline
210
0.0
220
0.0
230
1.0
 70
     8
 71
     3
 72
    16
 73
    12
 74
     0
 42
0.0000000001
 43
0.0000000001
 40
0.0
 40
0.0
 40
0.0
 40
0.0
 40
0.2374321488140412
 40
0.2374321488140412
 40
0.4753570973094587
 40
0.4753570973094587
 40
0.7044621804489401
 40
0.7044621804489401
 40
0.9153180847886474
 40
0.9153180847886474
 40
1.0
 40
1.0
 40
1.0
 40
1.0
 10
265.078954547962
 20
572.0638750720939
 30
0.0
 10
265.078954547962
 20
571.9504182263739
 30
0.0
 10
265.058150420582
 20
571.8355614007272
 30
0.0
 10
264.9775615804519
 20
571.6218031476422
 30
0.0
 10
264.916450456285
 20
571.5198060428341
 30
0.0
 10
264.764009449731
 20
571.348432873969
 30
0.0
 10
264.6714390499746
 20
571.2754661771436
 30
0.0
 10
264.4744801908946
 20
571.1725456646203
 30
0.0
 10
264.3686537779558
 20
571.1382407803434
 30
0.0
 10
264.2175610373797
 20
571.1169858655306
 30
0.0
 10
264.1731948128781
 20
571.1138750720823
 30
0.0
 10
264.128954547943
 20
571.1138750720823
 30
0.0
  0
SPLINE
  5
176E
330
1F
100
AcDbEntity
  8
Hewi
  6
Continuous
100
AcDbSpline
210
0.0
220
0.0
230
1.0
 70
     8
 71
     3
 72
    16
 73
    12
 74
     0
 42
0.0000000001
 43
0.0000000001
 40
0.0
 40
0.0
 40
0.0
 40
0.0
 40
0.1942684013936249
 40
0.1942684013936249
 40
0.388096082899196
 40
0.388096082899196
 40
0.5885706772438784
 40
0.5885706772438784
 40
0.8045285325061183
 40
0.8045285325061183
 40
1.0
 40
1.0
 40
1.0
 40
1.0
 10
311.7289545479561
 20
571.1138750720823
 30
0.0
 10
311.6288468883995
 20
571.1138750720823
 30
0.0
 10
311.5273597976684
 20
571.1302224719369
 30
0.0
 10
311.3388818989897
 20
571.1920001303191
 30
0.0
 10
311.2493356825707
 20
571.238114970209
 30
0.0
 10
311.0895798540278
 20
571.3541011425517
 30
0.0
 10
311.0180345244062
 20
571.4261467679428
 30
0.0
 10
310.898408538791
 20
571.5907754667536
 30
0.0
 10
310.8509299568232
 20
571.6866254993041
 30
0.0
 10
310.7930417026491
 20
571.8756841916295
 30
0.0
 10
310.7789545479445
 20
571.97016237702
 30
0.0
 10
310.7789545479445
 20
572.0638750720939
 30
0.0
  0
LINE
  5
176F
330
1F
100
AcDbEntity
  8
Hewi
  6
Continuous
100
AcDbLine
 10
275.4289545480042
 20
577.1130588233321
 30
0.0
 11
275.4289545480042
 21
498.7539724953789
 31
0.0
  0
LINE
  5
1770
330
1F
100
AcDbEntity
  8
Hewi
  6
Continuous
100
AcDbLine
 10
300.4289545479751
 20
498.7539724953789
 30
0.0
 11
300.4289545479751
 21
577.1130588233321
 31
0.0
  0
LINE
  5
1771
330
1F
100
AcDbEntity
  8
Hewi
  6
Continuous
100
AcDbLine
 10
300.4289545479751
 20
492.1638750720852
 30
0.0
 11
300.4289545479751
 21
498.7539724953789
 31
0.0
  0
LINE
  5
1772
330
1F
100
AcDbEntity
  8
Hewi
  6
Continuous
100
AcDbLine
 10
275.4289545480042
 20
492.1638750720852
 30
0.0
 11
275.4289545480042
 21
498.7539724953789
 31
0.0
  0
LINE
  5
1773
330
1F
100
AcDbEntity
  8
Hewi
  6
Continuous
100
AcDbLine
 10
311.6289545479503
 20
561.4585854471774
 30
0.0
 11
300.4284826729399
 21
561.4585854471774
 31
0.0
  0
LINE
  5
1774
330
1F
100
AcDbEntity
  8
Hewi
  6
Continuous
100
AcDbLine
 10
275.4294264229447
 20
561.4585854471774
 30
0.0
 11
264.2289545479853
 21
561.4585854471774
 31
0.0
  0
LINE
  5
1775
330
1F
100
AcDbEntity
  8
Hewi
  6
Continuous
100
AcDbLine
 10
264.2289545479853
 20
570.0638750720648
 30
0.0
 11
264.2289545479853
 21
561.4585854471774
 31
0.0
  0
LINE
  5
1776
330
1F
100
AcDbEntity
  8
Hewi
  6
Continuous
100
AcDbLine
 10
311.6289545479503
 20
570.0638750720648
 30
0.0
 11
311.6289545479503
 21
561.4585854471774
 31
0.0
  0
ARC
  5
1777
330
1F
100
AcDbEntity
  8
Hewi
  6
Continuous
100
AcDbCircle
 10
-287.9289545479823
 20
492.1638750720852
 30
0.0
 40
12.5
210
0.0
220
0.0
230
-1.0
100
AcDbArc
 50
180.0000011681024
 51
0.0000003893674734
  0
ELLIPSE
  5
1778
330
1F
100
AcDbEntity
  8
Hewi
  6
Continuous
100
AcDbEllipse
 10
287.9289545479823
 20
498.7539724953789
 30
0.0
 11
12.5
 21
0.0
 31
0.0
210
0.0
220
0.0
230
1.0
 40
0.7071067811865484
 41
3.141592543415911
 42
6.283185307179584
  0
LINE
  5
1779
330
1F
100
AcDbEntity
  8
Hewi
  6
Continuous
100
AcDbLine
 10
1449.283000709807
 20
577.1638750720998
 30
0.0
 11
641.6087321540599
 21
577.1638750720998
 31
0.0
  0
LINE
  5
177A
330
1F
100
AcDbEntity
  8
Hewi
  6
Continuous
100
AcDbLine
 10
641.6089218923789
 20
607.1638750720852
 30
0.0
 11
1090.107235642359
 21
607.1638750720852
 31
0.0
  0
LINE
  5
177B
330
1F
100
AcDbEntity
  8
Hewi
  6
Continuous
100
AcDbLine
 10
1448.057235642378
 20
577.1138750720823
 30
0.0
 11
1439.857235642374
 21
577.1638750720998
 31
0.0
  0
LINE
  5
177C
330
1F
100
AcDbEntity
  8
Hewi
  6
Continuous
100
AcDbLine
 10
1439.857235642359
 20
607.1638750720852
 30
0.0
 11
1448.057235642378
 21
607.2138750721173
 31
0.0
  0
LINE
  5
177D
330
1F
100
AcDbEntity
  8
Hewi
  6
Continuous
100
AcDbLine
 10
641.6072356423592
 20
609.5638750720939
 30
0.0
 11
641.6072356423592
 21
609.5611563220995
 31
0.0
  0
LINE
  5
177E
330
1F
100
AcDbEntity
  8
Hewi
  6
Continuous
100
AcDbLine
 10
641.6072356423592
 20
574.7665938221001
 30
0.0
 11
641.6072356423592
 21
574.7638750720765
 31
0.0
  0
LINE
  5
177F
330
1F
100
AcDbEntity
  8
Hewi
  6
Continuous
100
AcDbLine
 10
1040.107235642359
 20
607.1638750720852
 30
0.0
 11
1439.857235643843
 21
607.1638750720852
 31
0.0
  0
LINE
  5
1780
330
1F
100
AcDbEntity
  8
Hewi
  6
Continuous
100
AcDbLine
 10
563.4072356423766
 20
620.9911651559053
 30
0.0
 11
563.4072356423766
 21
615.6138750720823
 31
0.0
  0
LINE
  5
1781
330
1F
100
AcDbEntity
  8
Hewi
  6
Continuous
100
AcDbLine
 10
563.4072356423766
 20
620.9911651559053
 30
0.0
 11
579.7017392787948
 21
620.7067435369357
 31
0.0
  0
LINE
  5
1782
330
1F
100
AcDbEntity
  8
Hewi
  6
Continuous
100
AcDbLine
 10
563.4072356423766
 20
445.7138750721027
 30
0.0
 11
563.4072356423766
 21
615.6138750720823
 31
0.0
  0
LINE
  5
1783
330
1F
100
AcDbEntity
  8
Hewi
  6
Continuous
100
AcDbLine
 10
563.4072356423766
 20
440.3365849882505
 30
0.0
 11
563.4072356423766
 21
445.7138750721027
 31
0.0
  0
LINE
  5
1784
330
1F
100
AcDbEntity
  8
Hewi
  6
Continuous
100
AcDbLine
 10
579.7017392787948
 20
440.6210066072493
 30
0.0
 11
563.4072356423766
 21
440.3365849882505
 31
0.0
  0
LINE
  5
1785
330
1F
100
AcDbEntity
  8
Hewi
  6
Continuous
100
AcDbLine
 10
582.2072356423795
 20
615.6138750720823
 30
0.0
 11
582.2072356423795
 21
445.7138750721027
 31
0.0
  0
LINE
  5
1786
330
1F
100
AcDbEntity
  8
Hewi
  6
Continuous
100
AcDbLine
 10
582.2072356423795
 20
618.157131914308
 30
0.0
 11
582.2072356423795
 21
615.6138750720823
 31
0.0
  0
LINE
  5
1787
330
1F
100
AcDbEntity
  8
Hewi
  6
Continuous
100
AcDbLine
 10
582.2072356423795
 20
443.1706182298479
 30
0.0
 11
582.2072356423795
 21
445.7138750721027
 31
0.0
  0
LINE
  5
1788
330
1F
100
AcDbEntity
  8
Hewi
  6
Continuous
100
AcDbLine
 10
639.5930130755714
 20
572.7164126799729
 30
0.0
 11
582.2072356423795
 21
571.7147402089288
 31
0.0
  0
LINE
  5
1789
330
1F
100
AcDbEntity
  8
Hewi
  6
Continuous
100
AcDbLine
 10
582.2072356423795
 20
612.6130099352415
 30
0.0
 11
639.5930130755714
 21
611.6113374642122
 31
0.0
  0
LINE
  5
178A
330
1F
100
AcDbEntity
  8
Hewi
  6
Continuous
100
AcDbLine
 10
641.6072356423592
 20
609.5616496890837
 30
0.0
 11
641.6072356423592
 21
574.7661004550431
 31
0.0
  0
LINE
  5
178B
330
1F
100
AcDbEntity
  8
Hewi
  6
Continuous
100
AcDbLine
 10
638.7268802118324
 20
611.6264441311763
 30
0.0
 11
639.0072356423607
 21
611.6313377534064
 31
0.0
  0
LINE
  5
178C
330
1F
100
AcDbEntity
  8
Hewi
  6
Continuous
100
AcDbLine
 10
639.0072356423607
 20
572.6964123907495
 30
0.0
 11
638.7265081033456
 21
572.7013125081688
 31
0.0
  0
LINE
  5
178D
330
1F
100
AcDbEntity
  8
Hewi
  6
Continuous
100
AcDbLine
 10
1463.107235642374
 20
305.7661063879753
 30
0.0
 11
1463.107235642374
 21
339.7661063879608
 31
0.0
  0
LINE
  5
178E
330
1F
100
AcDbEntity
  8
Hewi
  6
Continuous
100
AcDbLine
 10
627.4072356423767
 20
298.2659892004562
 30
0.0
 11
627.4072356423767
 21
298.3660673255039
 31
0.0
  0
LINE
  5
178F
330
1F
100
AcDbEntity
  8
Hewi
  6
Continuous
100
AcDbLine
 10
627.4072356423767
 20
347.1659188879534
 30
0.0
 11
627.4072356423767
 21
347.2659063879513
 31
0.0
  0
LINE
  5
1790
330
1F
100
AcDbEntity
  8
Hewi
  6
Continuous
100
AcDbLine
 10
622.4072356423548
 20
347.166106387955
 30
0.0
 11
621.3119536089489
 21
347.166106387955
 31
0.0
  0
LINE
  5
1791
330
1F
100
AcDbEntity
  8
Hewi
  6
Continuous
100
AcDbLine
 10
634.4072356423549
 20
347.166106387955
 30
0.0
 11
622.4072356423548
 21
347.166106387955
 31
0.0
  0
LINE
  5
1792
330
1F
100
AcDbEntity
  8
Hewi
  6
Continuous
100
AcDbLine
 10
1439.857235642374
 20
342.7661063879753
 30
0.0
 11
1448.057235642378
 21
342.8161063879346
 31
0.0
  0
LINE
  5
1793
330
1F
100
AcDbEntity
  8
Hewi
  6
Continuous
100
AcDbLine
 10
1460.057235642378
 20
342.8161063879346
 30
0.0
 11
1448.057235642378
 21
342.8161063879346
 31
0.0
  0
LINE
  5
1794
330
1F
100
AcDbEntity
  8
Hewi
  6
Continuous
100
AcDbLine
 10
641.0572356423781
 20
299.416106387955
 30
0.0
 11
639.0072356423607
 21
299.3986437066454
 31
0.0
  0
LINE
  5
1795
330
1F
100
AcDbEntity
  8
Hewi
  6
Continuous
100
AcDbLine
 10
641.6072356423592
 20
345.5661063879346
 30
0.0
 11
641.6072356423592
 21
299.9661063879724
 31
0.0
  0
LINE
  5
1796
330
1F
100
AcDbEntity
  8
Hewi
  6
Continuous
100
AcDbLine
 10
639.0072356423607
 20
346.1335690693053
 30
0.0
 11
641.0572356423781
 21
346.1161063879812
 31
0.0
  0
LINE
  5
1797
330
1F
100
AcDbEntity
  8
Hewi
  6
Continuous
100
AcDbLine
 10
641.6102512673733
 20
342.7661063879753
 30
0.0
 11
1460.607235642286
 21
342.7661063879753
 31
0.0
  0
LINE
  5
1798
330
1F
100
AcDbEntity
  8
Hewi
  6
Continuous
100
AcDbLine
 10
1140.107235642359
 20
342.7661063879753
 30
0.0
 11
1439.857235640911
 21
342.7661063879753
 31
0.0
  0
LINE
  5
1799
330
1F
100
AcDbEntity
  8
Hewi
  6
Continuous
100
AcDbLine
 10
627.0417836306278
 20
347.2661063879608
 30
0.0
 11
636.1072356423737
 21
347.2661063879608
 31
0.0
  0
LINE
  5
179A
330
1F
100
AcDbEntity
  8
Hewi
  6
Continuous
100
AcDbLine
 10
563.4072356423766
 20
263.3161063879783
 30
0.0
 11
563.4072356423766
 21
382.2161063879724
 31
0.0
  0
LINE
  5
179B
330
1F
100
AcDbEntity
  8
Hewi
  6
Continuous
100
AcDbLine
 10
582.2072356423795
 20
382.2161063879724
 30
0.0
 11
582.2072356423795
 21
263.3161063879783
 31
0.0
  0
LINE
  5
179C
330
1F
100
AcDbEntity
  8
Hewi
  6
Continuous
100
AcDbLine
 10
641.6072356423592
 20
296.9800309394453
 30
0.0
 11
641.6072356423592
 21
288.0683317709448
 31
0.0
  0
LINE
  5
179D
330
1F
100
AcDbEntity
  8
Hewi
  6
Continuous
100
AcDbLine
 10
639.5930130755714
 20
298.0470214514174
 30
0.0
 11
640.5755606691218
 21
298.029871019386
 31
0.0
  0
LINE
  5
179E
330
1F
100
AcDbEntity
  8
Hewi
  6
Continuous
100
AcDbLine
 10
602.2406558562634
 20
298.6990092719028
 30
0.0
 11
639.5930130755714
 21
298.0470214514174
 31
0.0
  0
LINE
  5
179F
330
1F
100
AcDbEntity
  8
Hewi
  6
Continuous
100
AcDbLine
 10
601.3072356423781
 20
345.8833481936421
 30
0.0
 11
601.3072356423781
 21
299.6488645822941
 31
0.0
  0
LINE
  5
17A0
330
1F
100
AcDbEntity
  8
Hewi
  6
Continuous
100
AcDbLine
 10
639.5930130755714
 20
347.4851913245187
 30
0.0
 11
602.2406558562634
 21
346.8332035040188
 31
0.0
  0
LINE
  5
17A1
330
1F
100
AcDbEntity
  8
Hewi
  6
Continuous
100
AcDbLine
 10
640.5755606691218
 20
347.5023417565502
 30
0.0
 11
639.5930130755714
 21
347.4851913245187
 31
0.0
  0
LINE
  5
17A2
330
1F
100
AcDbEntity
  8
Hewi
  6
Continuous
100
AcDbLine
 10
641.6072356423592
 20
357.4638810049622
 30
0.0
 11
641.6072356423592
 21
348.5521818364472
 31
0.0
  0
LINE
  5
17A3
330
1F
100
AcDbEntity
  8
Hewi
  6
Continuous
100
AcDbLine
 10
582.2072356423795
 20
360.5152412511055
 30
0.0
 11
639.5930130755714
 21
359.513568780047
 31
0.0
  0
LINE
  5
17A4
330
1F
100
AcDbEntity
  8
Hewi
  6
Continuous
100
AcDbLine
 10
563.4072356423766
 20
387.5933964717664
 30
0.0
 11
579.7017392787948
 21
387.3089748528404
 31
0.0
  0
LINE
  5
17A5
330
1F
100
AcDbEntity
  8
Hewi
  6
Continuous
100
AcDbLine
 10
563.4072356423766
 20
382.2161063879724
 30
0.0
 11
563.4072356423766
 21
387.5933964717664
 31
0.0
  0
LINE
  5
17A6
330
1F
100
AcDbEntity
  8
Hewi
  6
Continuous
100
AcDbLine
 10
582.2072356423795
 20
384.7593632301981
 30
0.0
 11
582.2072356423795
 21
382.2161063879724
 31
0.0
  0
LINE
  5
17A7
330
1F
100
AcDbEntity
  8
Hewi
  6
Continuous
100
AcDbLine
 10
601.3072716926017
 20
300.0566990251794
 30
0.0
 11
608.0972587198539
 21
299.9381793607284
 31
0.0
  0
LINE
  5
17A8
330
1F
100
AcDbEntity
  8
Hewi
  6
Continuous
100
AcDbLine
 10
639.0072356423607
 20
299.3986437066454
 30
0.0
 11
608.0972587198539
 21
299.9381793607284
 31
0.0
  0
LINE
  5
17A9
330
1F
100
AcDbEntity
  8
Hewi
  6
Continuous
100
AcDbLine
 10
639.0072356423607
 20
299.9485599389704
 30
0.0
 11
639.0072356423607
 21
299.3986437066454
 31
0.0
  0
LINE
  5
17AA
330
1F
100
AcDbEntity
  8
Hewi
  6
Continuous
100
AcDbLine
 10
608.8513574013031
 20
300.474932751615
 30
0.0
 11
608.8513574013031
 21
345.0572800243066
 31
0.0
  0
LINE
  5
17AB
330
1F
100
AcDbEntity
  8
Hewi
  6
Continuous
100
AcDbLine
 10
639.0072356423607
 20
345.5836528369367
 30
0.0
 11
639.0072356423607
 21
299.9485599389704
 31
0.0
  0
LINE
  5
17AC
330
1F
100
AcDbEntity
  8
Hewi
  6
Continuous
100
AcDbLine
 10
608.0972587198539
 20
345.5940334151786
 30
0.0
 11
639.0072356423607
 21
346.1335690693053
 31
0.0
  0
LINE
  5
17AD
330
1F
100
AcDbEntity
  8
Hewi
  6
Continuous
100
AcDbLine
 10
639.0072356423607
 20
346.1335690693053
 30
0.0
 11
639.0072356423607
 21
345.5836528369367
 31
0.0
  0
LINE
  5
17AE
330
1F
100
AcDbEntity
  8
Hewi
  6
Continuous
100
AcDbLine
 10
601.3072716926017
 20
345.4755137507567
 30
0.0
 11
608.0972587198539
 21
345.5940334151786
 31
0.0
  0
LINE
  5
17AF
330
1F
100
AcDbEntity
  8
Hewi
  6
Continuous
100
AcDbLine
 10
1460.057235642378
 20
302.7161063879725
 30
0.0
 11
1448.057235642378
 21
302.7161063879725
 31
0.0
  0
LINE
  5
17B0
330
1F
100
AcDbEntity
  8
Hewi
  6
Continuous
100
AcDbLine
 10
1448.057235642378
 20
302.7161063879725
 30
0.0
 11
1439.857235642374
 21
302.7661063879754
 31
0.0
  0
LINE
  5
17B1
330
1F
100
AcDbEntity
  8
Hewi
  6
Continuous
100
AcDbLine
 10
1460.607235642308
 20
302.7661063879754
 30
0.0
 11
641.6148325173763
 21
302.7661063879754
 31
0.0
  0
LINE
  5
17B2
330
1F
100
AcDbEntity
  8
Hewi
  6
Continuous
100
AcDbLine
 10
563.4072356423766
 20
257.9388163041262
 30
0.0
 11
563.4072356423766
 21
263.3161063879783
 31
0.0
  0
LINE
  5
17B3
330
1F
100
AcDbEntity
  8
Hewi
  6
Continuous
100
AcDbLine
 10
579.7017392787948
 20
258.2232379230958
 30
0.0
 11
563.4072356423766
 21
257.9388163041262
 31
0.0
  0
LINE
  5
17B4
330
1F
100
AcDbEntity
  8
Hewi
  6
Continuous
100
AcDbLine
 10
582.2072356423795
 20
263.3161063879783
 30
0.0
 11
582.2072356423795
 21
260.772849545738
 31
0.0
  0
LINE
  5
17B5
330
1F
100
AcDbEntity
  8
Hewi
  6
Continuous
100
AcDbLine
 10
639.5930130755714
 20
286.0186439958456
 30
0.0
 11
582.2072356423795
 21
285.0169715248161
 31
0.0
  0
ARC
  5
17B6
330
1F
100
AcDbEntity
  8
Hewi
  6
Continuous
100
AcDbCircle
 10
622.4072356423548
 20
576.6138750720823
 30
0.0
 40
4.249999999999993
100
AcDbArc
 50
261.9256446681181
 51
280.0744940106763
  0
ARC
  5
17B7
330
1F
100
AcDbEntity
  8
Hewi
  6
Continuous
100
AcDbCircle
 10
-1448.057235642378
 20
592.1638750720852
 30
0.0
 40
15.05
210
0.0
220
0.0
230
-1.0
100
AcDbArc
 50
90.0
 51
270.0
  0
ARC
  5
17B8
330
1F
100
AcDbEntity
  8
Hewi
  6
Continuous
100
AcDbCircle
 10
-639.5572356423781
 20
609.5638750720939
 30
0.0
 40
2.049999999999998
210
0.0
220
0.0
230
-1.0
100
AcDbArc
 50
88.60240337212067
 51
180.0
  0
ARC
  5
17B9
330
1F
100
AcDbEntity
  8
Hewi
  6
Continuous
100
AcDbCircle
 10
-639.5572356423781
 20
574.7638750720765
 30
0.0
 40
2.049999999999998
210
0.0
220
0.0
230
-1.0
100
AcDbArc
 50
180.0
 51
271.3975966278793
  0
ARC
  5
17BA
330
1F
100
AcDbEntity
  8
Hewi
  6
Continuous
100
AcDbCircle
 10
-579.6572356423548
 20
618.157131914308
 30
0.0
 40
2.549999999999998
210
0.0
220
0.0
230
-1.0
100
AcDbArc
 50
90.99999999987147
 51
180.0
  0
ARC
  5
17BB
330
1F
100
AcDbEntity
  8
Hewi
  6
Continuous
100
AcDbCircle
 10
-579.6572356423548
 20
443.1706182298479
 30
0.0
 40
2.549999999999998
210
0.0
220
0.0
230
-1.0
100
AcDbArc
 50
180.0
 51
269.0000000001285
  0
ARC
  5
17BC
330
1F
100
AcDbEntity
  8
Hewi
  6
Continuous
100
AcDbCircle
 10
-639.5572356423781
 20
574.7661004550431
 30
0.0
 40
2.049999999999998
210
0.0
220
0.0
230
-1.0
100
AcDbArc
 50
180.0
 51
269.0000000001285
  0
ARC
  5
17BD
330
1F
100
AcDbEntity
  8
Hewi
  6
Continuous
100
AcDbCircle
 10
-639.5572356423781
 20
609.5616496890837
 30
0.0
 40
2.049999999999998
210
0.0
220
0.0
230
-1.0
100
AcDbArc
 50
90.99999999987147
 51
180.0
  0
ARC
  5
17BE
330
1F
100
AcDbEntity
  8
Hewi
  6
Continuous
100
AcDbCircle
 10
1460.057235642378
 20
305.7661063879753
 30
0.0
 40
3.049999999999998
100
AcDbArc
 50
270.0
 51
0.0
  0
ARC
  5
17BF
330
1F
100
AcDbEntity
  8
Hewi
  6
Continuous
100
AcDbCircle
 10
1460.057235642378
 20
339.7661063879608
 30
0.0
 40
3.049999999999998
100
AcDbArc
 50
0.0
 51
90.0
  0
ARC
  5
17C0
330
1F
100
AcDbEntity
  8
Hewi
  6
Continuous
100
AcDbCircle
 10
-641.0572356423781
 20
299.9661063879724
 30
0.0
 40
0.55
210
0.0
220
0.0
230
-1.0
100
AcDbArc
 50
180.0
 51
270.0
  0
ARC
  5
17C1
330
1F
100
AcDbEntity
  8
Hewi
  6
Continuous
100
AcDbCircle
 10
-641.0572356423781
 20
345.5661063879346
 30
0.0
 40
0.55
210
0.0
220
0.0
230
-1.0
100
AcDbArc
 50
90.0
 51
180.0
  0
ARC
  5
17C2
330
1F
100
AcDbEntity
  8
Hewi
  6
Continuous
100
AcDbCircle
 10
640.5572356423781
 20
296.9800309394453
 30
0.0
 40
1.05
100
AcDbArc
 50
0.0
 51
89.00000000012852
  0
ARC
  5
17C3
330
1F
100
AcDbEntity
  8
Hewi
  6
Continuous
100
AcDbCircle
 10
602.2572356423607
 20
299.6488645822941
 30
0.0
 40
0.9500000000000287
100
AcDbArc
 50
180.0
 51
269.0000000001285
  0
ARC
  5
17C4
330
1F
100
AcDbEntity
  8
Hewi
  6
Continuous
100
AcDbCircle
 10
602.2572356423607
 20
345.8833481936421
 30
0.0
 40
0.9500000000000351
100
AcDbArc
 50
90.99999999987147
 51
180.0
  0
ARC
  5
17C5
330
1F
100
AcDbEntity
  8
Hewi
  6
Continuous
100
AcDbCircle
 10
640.5572356423781
 20
348.5521818364472
 30
0.0
 40
1.05
100
AcDbArc
 50
270.9999999998715
 51
0.0
  0
ARC
  5
17C6
330
1F
100
AcDbEntity
  8
Hewi
  6
Continuous
100
AcDbCircle
 10
639.5572356423781
 20
357.4638810049622
 30
0.0
 40
2.049999999999998
100
AcDbArc
 50
0.0
 51
89.00000000012852
  0
ARC
  5
17C7
330
1F
100
AcDbEntity
  8
Hewi
  6
Continuous
100
AcDbCircle
 10
579.6572356423548
 20
384.7593632301981
 30
0.0
 40
2.549999999999998
100
AcDbArc
 50
0.0
 51
89.00000000012852
  0
ARC
  5
17C8
330
1F
100
AcDbEntity
  8
Hewi
  6
Continuous
100
AcDbCircle
 10
579.6572356423548
 20
260.772849545738
 30
0.0
 40
2.549999999999998
100
AcDbArc
 50
270.9999999998715
 51
0.0
  0
ARC
  5
17C9
330
1F
100
AcDbEntity
  8
Hewi
  6
Continuous
100
AcDbCircle
 10
-639.5572356423781
 20
288.0683317709448
 30
0.0
 40
2.049999999999998
210
0.0
220
0.0
230
-1.0
100
AcDbArc
 50
180.0
 51
269.0000000001285
  0
SPLINE
  5
17CA
330
1F
100
AcDbEntity
  8
Hewi
  6
Continuous
100
AcDbSpline
210
0.0
220
0.0
230
1.0
 70
     8
 71
     3
 72
    20
 73
    16
 74
     0
 42
0.0000000001
 43
0.0000000001
 40
0.0
 40
0.0
 40
0.0
 40
0.0
 40
0.0448216244176226
 40
0.0448216244176226
 40
0.4448491916774028
 40
0.4448491916774028
 40
0.5252634315391714
 40
0.5252634315391714
 40
0.7629352579103631
 40
0.7629352579103631
 40
0.8719267528456127
 40
0.8719267528456127
 40
0.9825376433141823
 40
0.9825376433141823
 40
1.0
 40
1.0
 40
1.0
 40
1.0
 10
608.0972587198539
 20
299.9381793607284
 30
0.0
 10
608.1112534870026
 20
299.9379350811763
 30
0.0
 10
608.1252661811577
 20
299.9379998598564
 30
0.0
 10
608.2630925115282
 20
299.9416615068443
 30
0.0
 10
608.3897270183424
 20
299.9684113064544
 30
0.0
 10
608.5314806038931
 20
300.0345530359449
 30
0.0
 10
608.5551908790566
 20
300.0470052378918
 30
0.0
 10
608.6458697006292
 20
300.1009856934073
 30
0.0
 10
608.7111373257775
 20
300.1536355370011
 30
0.0
 10
608.7861015157232
 20
300.2535706511084
 30
0.0
 10
608.807096025228
 20
300.2892833178161
 30
0.0
 10
608.8382147696229
 20
300.3671045979394
 30
0.0
 10
608.8484135945236
 20
300.4105466426084
 30
0.0
 10
608.8511667725525
 20
300.4609691251066
 30
0.0
 10
608.8513574013031
 20
300.4679528934033
 30
0.0
 10
608.8513574013031
 20
300.474932751615
 30
0.0
  0
SPLINE
  5
17CB
330
1F
100
AcDbEntity
  8
Hewi
  6
Continuous
100
AcDbSpline
210
0.0
220
0.0
230
1.0
 70
     8
 71
     3
 72
    18
 73
    14
 74
     0
 42
0.0000000001
 43
0.0000000001
 40
0.0
 40
0.0
 40
0.0
 40
0.0
 40
0.0481967151535535
 40
0.0481967151535535
 40
0.1374380954146597
 40
0.1374380954146597
 40
0.266597740243724
 40
0.266597740243724
 40
0.3727335680792507
 40
0.3727335680792507
 40
0.6631693004613061
 40
0.6631693004613061
 40
1.0
 40
1.0
 40
1.0
 40
1.0
 10
608.8513574013031
 20
345.0572800243066
 30
0.0
 10
608.8513574013031
 20
345.076355826412
 30
0.0
 10
608.849916431418
 20
345.0955078411029
 30
0.0
 10
608.8419042645091
 20
345.149030184661
 30
0.0
 10
608.8318393938152
 20
345.1830125743112
 30
0.0
 10
608.799056859183
 20
345.2592903170556
 30
0.0
 10
608.7723730094785
 20
345.2999427929429
 30
0.0
 10
608.7178453878569
 20
345.3642388742995
 30
0.0
 10
608.6906182368165
 20
345.390186422021
 30
0.0
 10
608.5850489679706
 20
345.4756395429398
 30
0.0
 10
608.4975134938922
 20
345.5187253701118
 30
0.0
 10
608.3073079602599
 20
345.580851057119
 30
0.0
 10
608.2013093519108
 20
345.5958496257339
 30
0.0
 10
608.0972587198539
 20
345.5940334151786
 30
0.0
  0
LINE
  5
17CD
330
1F
100
AcDbEntity
  8
Hewi
  6
Continuous
100
AcDbLine
 10
649.1572356423549
 20
577.1636563220639
 30
0.0
 11
649.1572356423549
 21
504.6986953845738
 31
0.0
  0
LINE
  5
17CE
330
1F
100
AcDbEntity
  8
Hewi
  6
Continuous
100
AcDbLine
 10
664.1572356423548
 20
504.6044610095817
 30
0.0
 11
664.1572356423548
 21
577.1636563220639
 31
0.0
  0
LINE
  5
17CF
330
1F
100
AcDbEntity
  8
Hewi
  6
Continuous
100
AcDbLine
 10
649.0572356423562
 20
504.6638750720561
 30
0.0
 11
586.6572356423549
 21
504.6638750720561
 31
0.0
  0
LINE
  5
17D0
330
1F
100
AcDbEntity
  8
Hewi
  6
Continuous
100
AcDbLine
 10
1101.109760959274
 20
504.6638750720561
 30
0.0
 11
664.2214716643775
 21
504.6638750720561
 31
0.0
  0
LINE
  5
17D1
330
1F
100
AcDbEntity
  8
Hewi
  6
Continuous
100
AcDbLine
 10
664.8130160503042
 20
479.6638750720997
 30
0.0
 11
1101.109760959274
 21
479.6638750720997
 31
0.0
  0
LINE
  5
17D2
330
1F
100
AcDbEntity
  8
Hewi
  6
Continuous
100
AcDbLine
 10
586.6572356423549
 20
479.6638750720997
 30
0.0
 11
648.4202470153741
 21
479.6638750720997
 31
0.0
  0
LINE
  5
17D3
330
1F
100
AcDbEntity
  8
Hewi
  6
Continuous
100
AcDbLine
 10
1177.751229592008
 20
577.163208081049
 30
0.0
 11
1108.180828771137
 21
507.5928072602076
 31
0.0
  0
LINE
  5
17D4
330
1F
100
AcDbEntity
  8
Hewi
  6
Continuous
100
AcDbLine
 10
1125.858498300824
 20
489.9151377305209
 30
0.0
 11
1213.107045762807
 21
577.1636851925108
 31
0.0
  0
ARC
  5
17D5
330
1F
100
AcDbEntity
  8
Hewi
  6
Continuous
100
AcDbCircle
 10
-1101.109760959274
 20
514.6638750720561
 30
0.0
 40
10.0
210
0.0
220
0.0
230
-1.0
100
AcDbArc
 50
225.0000000005847
 51
270.0
  0
ARC
  5
17D6
330
1F
100
AcDbEntity
  8
Hewi
  6
Continuous
100
AcDbCircle
 10
586.8383725449221
 20
484.9105929370529
 30
0.0
 40
5.0
100
AcDbArc
 50
202.1464355153612
 51
267.9238696982221
  0
ARC
  5
17D7
330
1F
100
AcDbEntity
  8
Hewi
  6
Continuous
100
AcDbCircle
 10
586.8383725449221
 20
499.4171572070594
 30
0.0
 40
5.0
100
AcDbArc
 50
92.07613030177792
 51
157.8535644846388
  0
ARC
  5
17D8
330
1F
100
AcDbEntity
  8
Hewi
  6
Continuous
100
AcDbCircle
 10
1101.109760959274
 20
514.6638750720561
 30
0.0
 40
35.0
100
AcDbArc
 50
270.0
 51
314.9999999994153
  0
SPLINE
  5
17D9
330
1F
100
AcDbEntity
  8
Hewi
  6
Continuous
100
AcDbSpline
210
0.0
220
0.0
230
1.0
 70
     8
 71
     3
 72
    16
 73
    12
 74
     0
 42
0.0000000001
 43
0.0000000001
 40
0.0
 40
0.0
 40
0.0
 40
0.0
 40
0.0000084261821199
 40
0.0000084261821199
 40
0.2500063196365899
 40
0.2500063196365899
 40
0.5000042130910602
 40
0.5000042130910602
 40
0.7500021065455301
 40
0.7500021065455301
 40
1.0
 40
1.0
 40
1.0
 40
1.0
 10
664.2571902547624
 20
504.6638474757314
 30
0.0
 10
664.2571919635575
 20
504.6638485153347
 30
0.0
 10
664.2571936726435
 20
504.6638495545452
 30
0.0
 10
664.2641232922232
 20
504.6680627481367
 30
0.0
 10
663.4060801001087
 20
504.104707897099
 30
0.0
 10
660.6636932531382
 20
502.7981728686976
 30
0.0
 10
658.714920010394
 20
502.091190543328
 30
0.0
 10
654.6295891553581
 20
502.0850079601481
 30
0.0
 10
652.6781303990264
 20
502.7866337833078
 30
0.0
 10
649.9123425932757
 20
504.1013499450313
 30
0.0
 10
649.0572222686733
 20
504.6638838581533
 30
0.0
 10
649.0572330313717
 20
504.6638767896914
 30
0.0
  0
SPLINE
  5
17DA
330
1F
100
AcDbEntity
  8
Hewi
  6
Continuous
100
AcDbSpline
210
0.0
220
0.0
230
1.0
 70
     8
 71
     3
 72
    18
 73
    14
 74
     0
 42
0.0000000001
 43
0.0000000001
 40
0.0
 40
0.0
 40
0.0
 40
0.0
 40
0.2497766394042308
 40
0.2497766394042308
 40
0.4997692297528177
 40
0.4997692297528177
 40
0.7497618201014044
 40
0.7497618201014044
 40
0.8747581152756978
 40
0.8747581152756978
 40
0.9997544104499912
 40
0.9997544104499912
 40
1.0
 40
1.0
 40
1.0
 40
1.0
 10
648.4073121671517
 20
479.6639256796737
 30
0.0
 10
648.3977347909877
 20
479.6576827506909
 30
0.0
 10
649.341753379811
 20
480.3258492796561
 30
0.0
 10
652.2896173184399
 20
481.8830211879798
 30
0.0
 10
654.3781029129659
 20
482.7633588628926
 30
0.0
 10
658.8557511109812
 20
482.7825782925032
 30
0.0
 10
660.9576423406088
 20
481.914067082875
 30
0.0
 10
663.2030156911769
 20
480.7345650334431
 30
0.0
 10
663.8087343315764
 20
480.364723226838
 30
0.0
 10
664.6668053858938
 20
479.8257529199294
 30
0.0
 10
664.9031606466069
 20
479.6665645594006
 30
0.0
 10
664.9071895694778
 20
479.663905480102
 30
0.0
 10
664.9071965458261
 20
479.6639009200119
 30
0.0
 10
664.9072025984914
 20
479.6638970136377
 30
0.0
  0
ENDSEC
  0
SECTION
  2
OBJECTS
  0
DICTIONARY
  5
C
330
0
100
AcDbDictionary
281
     1
  3
ACAD_COLOR
350
6B
  3
ACAD_GROUP
350
D
  3
ACAD_LAYOUT
350
1A
  3
ACAD_MATERIAL
350
6A
  3
ACAD_MLINESTYLE
350
17
  3
ACAD_PLOTSETTINGS
350
19
  3
ACAD_PLOTSTYLENAME
350
E
  3
ACAD_TABLESTYLE
350
7E
  3
ACAD_VISUALSTYLE
350
EF
  3
AcDbVariableDictionary
350
5E
  3
DWGPROPS
350
17DB
  0
DICTIONARY
  5
141
330
2
100
AcDbDictionary
280
     1
281
     1
  3
ACAD_LAYERSTATES
360
142
  0
DICTIONARY
  5
116
330
1F
100
AcDbDictionary
280
     1
281
     1
  3
ACAD_SORTENTS
360
117
  0
DICTIONARY
  5
6B
102
{ACAD_REACTORS
330
C
102
}
330
C
100
AcDbDictionary
281
     1
  0
DICTIONARY
  5
D
102
{ACAD_REACTORS
330
C
102
}
330
C
100
AcDbDictionary
281
     1
  0
DICTIONARY
  5
1A
102
{ACAD_REACTORS
330
C
102
}
330
C
100
AcDbDictionary
281
     1
  3
Layout1
350
D3
  3
Layout2
350
D7
  3
Model
350
22
  0
DICTIONARY
  5
6A
102
{ACAD_REACTORS
330
C
102
}
330
C
100
AcDbDictionary
281
     1
  3
ByBlock
350
ED
  3
ByLayer
350
EC
  3
Global
350
EE
  0
DICTIONARY
  5
17
102
{ACAD_REACTORS
330
C
102
}
330
C
100
AcDbDictionary
281
     1
  3
Standard
350
18
  0
DICTIONARY
  5
19
102
{ACAD_REACTORS
330
C
102
}
330
C
100
AcDbDictionary
281
     1
  0
ACDBDICTIONARYWDFLT
  5
E
102
{ACAD_REACTORS
330
C
102
}
330
C
100
AcDbDictionary
281
     1
  3
Normal
350
F
100
AcDbDictionaryWithDefault
340
F
  0
DICTIONARY
  5
7E
102
{ACAD_REACTORS
330
C
102
}
330
C
100
AcDbDictionary
281
     1
  3
Standard
350
7F
  0
DICTIONARY
  5
EF
102
{ACAD_REACTORS
330
C
102
}
330
C
100
AcDbDictionary
281
     1
  3
2dWireframe
350
F5
  3
3D Hidden
350
F7
  3
3dWireframe
350
F6
  3
Basic
350
F4
  3
Brighten
350
FB
  3
ColorChange
350
FF
  3
Conceptual
350
F8
  3
Dim
350
FA
  3
Facepattern
350
FE
  3
Flat
350
F0
  3
FlatWithEdges
350
F1
  3
Gouraud
350
F2
  3
GouraudWithEdges
350
F3
  3
Linepattern
350
FD
  3
Realistic
350
F9
  3
Thicken
350
FC
  0
DICTIONARY
  5
5E
102
{ACAD_REACTORS
330
C
102
}
330
C
100
AcDbDictionary
281
     1
  3
CTABLESTYLE
350
84
  3
DIMASSOC
350
5F
  3
HIDETEXT
350
63
  3
INDEXCTL
350
327
  3
PSOLHEIGHT
350
135F
  3
PSOLWIDTH
350
135E
  3
SORTENTS
350
326
  0
XRECORD
  5
17DB
102
{ACAD_REACTORS
330
C
102
}
330
C
100
AcDbXrecord
280
     1
  1
DWGPROPS COOKIE
  2

  3

  4

  6

  7

  8
kaschu
  9

300
=
301
=
302
=
303
=
304
=
305
=
306
=
307
=
308
=
309
=
 40
0.0723370023148148
 41
2454768.510881991
 42
2455610.669395162
  1

 90
        0
  0
DICTIONARY
  5
142
102
{ACAD_REACTORS
330
141
102
}
330
141
100
AcDbDictionary
281
     1
  0
SORTENTSTABLE
  5
117
102
{ACAD_REACTORS
330
116
102
}
330
116
100
AcDbSortentsTable
330
1F
  0
LAYOUT
  5
D3
102
{ACAD_XDICTIONARY
360
17E0
102
}
102
{ACAD_REACTORS
330
1A
102
}
330
1A
100
AcDbPlotSettings
  1

  2
C:\Documents and Settings\basas\Application Data\Autodesk\AutoCAD 2005\R16.1\enu\plotters\Default Windows System Printer.pc3
  4

  6

 40
0.0
 41
0.0
 42
0.0
 43
0.0
 44
0.0
 45
0.0
 46
0.0
 47
0.0
 48
0.0
 49
0.0
140
0.0
141
0.0
142
1.0
143
1.0
 70
   688
 72
     0
 73
     0
 74
     5
  7

 75
    16
147
1.0
148
0.0
149
0.0
100
AcDbLayout
  1
Layout1
 70
     1
 71
     1
 10
0.0
 20
0.0
 11
12.0
 21
9.0
 12
0.0
 22
0.0
 32
0.0
 14
0.0
 24
0.0
 34
0.0
 15
0.0
 25
0.0
 35
0.0
146
0.0
 13
0.0
 23
0.0
 33
0.0
 16
1.0
 26
0.0
 36
0.0
 17
0.0
 27
1.0
 37
0.0
 76
     0
330
D2
  0
LAYOUT
  5
D7
102
{ACAD_XDICTIONARY
360
17E2
102
}
102
{ACAD_REACTORS
330
1A
102
}
330
1A
100
AcDbPlotSettings
  1

  2
C:\Documents and Settings\basas\Application Data\Autodesk\AutoCAD 2005\R16.1\enu\plotters\Default Windows System Printer.pc3
  4

  6

 40
0.0
 41
0.0
 42
0.0
 43
0.0
 44
0.0
 45
0.0
 46
0.0
 47
0.0
 48
0.0
 49
0.0
140
0.0
141
0.0
142
1.0
143
1.0
 70
   688
 72
     0
 73
     0
 74
     5
  7

 75
    16
147
1.0
148
0.0
149
0.0
100
AcDbLayout
  1
Layout2
 70
     1
 71
     2
 10
0.0
 20
0.0
 11
12.0
 21
9.0
 12
0.0
 22
0.0
 32
0.0
 14
0.0
 24
0.0
 34
0.0
 15
0.0
 25
0.0
 35
0.0
146
0.0
 13
0.0
 23
0.0
 33
0.0
 16
1.0
 26
0.0
 36
0.0
 17
0.0
 27
1.0
 37
0.0
 76
     0
330
D6
  0
LAYOUT
  5
22
102
{ACAD_XDICTIONARY
360
17DC
102
}
102
{ACAD_REACTORS
330
1A
102
}
330
1A
100
AcDbPlotSettings
  1

  2
none_device
  4
ISO_A4_(210.00_x_297.00_MM)
  6

 40
7.5
 41
20.0
 42
7.5
 43
20.0
 44
210.0
 45
297.0
 46
11.54999923706054
 47
-13.65000009536743
 48
0.0
 49
0.0
140
0.0
141
0.0
142
1.0
143
8.704084754739808
 70
 11952
 72
     1
 73
     0
 74
     0
  7

 75
     0
147
0.1148885871608098
148
0.0
149
0.0
100
AcDbLayout
  1
Model
 70
     1
 71
     0
 10
0.0
 20
0.0
 11
12.0
 21
9.0
 12
0.0
 22
0.0
 32
0.0
 14
0.0
 24
0.0
 34
0.0
 15
0.0
 25
0.0
 35
0.0
146
0.0
 13
0.0
 23
0.0
 33
0.0
 16
1.0
 26
0.0
 36
0.0
 17
0.0
 27
1.0
 37
0.0
 76
     0
330
1F
331
EA
1001
ACAD_PSEXT
1000
None
1000
None
1000
Not applicable
1000
The layout will not be plotted unless a new plotter configuration name is selected.
1070
     0
  0
MATERIAL
  5
ED
102
{ACAD_XDICTIONARY
360
335
102
}
102
{ACAD_REACTORS
330
6A
102
}
330
6A
100
AcDbMaterial
  1
ByBlock
  0
MATERIAL
  5
EC
102
{ACAD_XDICTIONARY
360
333
102
}
102
{ACAD_REACTORS
330
6A
102
}
330
6A
100
AcDbMaterial
  1
ByLayer
  0
MATERIAL
  5
EE
102
{ACAD_XDICTIONARY
360
337
102
}
102
{ACAD_REACTORS
330
6A
102
}
330
6A
100
AcDbMaterial
  1
Global
  0
MLINESTYLE
  5
18
102
{ACAD_REACTORS
330
17
102
}
330
17
100
AcDbMlineStyle
  2
STANDARD
 70
     0
  3

 62
   256
 51
90.0
 52
90.0
 71
     2
 49
0.5
 62
   256
  6
BYLAYER
 49
-0.5
 62
   256
  6
BYLAYER
  0
ACDBPLACEHOLDER
  5
F
102
{ACAD_REACTORS
330
E
102
}
330
E
  0
TABLESTYLE
  5
7F
102
{ACAD_XDICTIONARY
360
17DE
102
}
102
{ACAD_REACTORS
330
7E
102
}
330
7E
100
AcDbTableStyle
  3
Standard
 70
     0
 71
     0
 40
1.5
 41
1.5
280
     0
281
     0
  7
Standard
140
4.5
170
     2
 62
     0
 63
     7
283
     0
274
    -2
284
     1
 64
     0
275
    -2
285
     1
 65
     0
276
    -2
286
     1
 66
     0
277
    -2
287
     1
 67
     0
278
    -2
288
     1
 68
     0
279
    -2
289
     1
 69
     0
  7
Standard
140
6.0
170
     5
 62
     0
 63
     7
283
     0
274
    -2
284
     1
 64
     0
275
    -2
285
     1
 65
     0
276
    -2
286
     1
 66
     0
277
    -2
287
     1
 67
     0
278
    -2
288
     1
 68
     0
279
    -2
289
     1
 69
     0
  7
Standard
140
4.5
170
     5
 62
     0
 63
     7
283
     0
274
    -2
284
     1
 64
     0
275
    -2
285
     1
 65
     0
276
    -2
286
     1
 66
     0
277
    -2
287
     1
 67
     0
278
    -2
288
     1
 68
     0
279
    -2
289
     1
 69
     0
  0
VISUALSTYLE
  5
F5
102
{ACAD_REACTORS
330
EF
102
}
330
EF
100
AcDbVisualStyle
  2
2dWireframe
 70
     4
 71
     0
 72
     2
 73
     1
 90
        0
 40
-0.6
 41
-30.0
 62
     5
 63
     7
 74
     1
 91
        4
 64
     7
 65
   257
 75
     1
175
     1
 42
1.0
 92
        0
 66
   257
 43
1.0
 76
     1
 77
     6
 78
     2
 67
     7
 79
     5
170
     0
171
     0
290
     0
174
     0
 93
        1
 44
0.0
173
     0
291
     0
 45
0.0
1001
ACAD
1000
AcDbSavedByObjectVersion
1070
     0
1000
AcDbSavedByObjectVersion
1070
     0
1000
AcDbSavedByObjectVersion
1070
     0
1000
AcDbSavedByObjectVersion
1070
     0
1000
AcDbSavedByObjectVersion
1070
     0
1000
AcDbSavedByObjectVersion
1070
     0
1000
AcDbSavedByObjectVersion
1070
     0
  0
VISUALSTYLE
  5
F7
102
{ACAD_REACTORS
330
EF
102
}
330
EF
100
AcDbVisualStyle
  2
3D Hidden
 70
     6
 71
     1
 72
     2
 73
     2
 90
        0
 40
-0.6
 41
-30.0
 62
     5
 63
     7
 74
     2
 91
        2
 64
     7
 65
   257
 75
     2
175
     1
 42
40.0
 92
        0
 66
   257
 43
1.0
 76
     1
 77
     6
 78
     2
 67
     7
 79
     3
170
     0
171
     0
290
     0
174
     0
 93
        1
 44
0.0
173
     0
291
     0
 45
0.0
1001
ACAD
1000
AcDbSavedByObjectVersion
1070
     0
1000
AcDbSavedByObjectVersion
1070
     0
1000
AcDbSavedByObjectVersion
1070
     0
1000
AcDbSavedByObjectVersion
1070
     0
1000
AcDbSavedByObjectVersion
1070
     0
1000
AcDbSavedByObjectVersion
1070
     0
1000
AcDbSavedByObjectVersion
1070
     0
  0
VISUALSTYLE
  5
F6
102
{ACAD_REACTORS
330
EF
102
}
330
EF
100
AcDbVisualStyle
  2
3dWireframe
 70
     5
 71
     0
 72
     2
 73
     1
 90
        0
 40
-0.6
 41
-30.0
 62
     5
 63
     7
 74
     1
 91
        4
 64
     7
 65
   257
 75
     1
175
     1
 42
1.0
 92
        0
 66
   257
 43
1.0
 76
     1
 77
     6
 78
     2
 67
     7
 79
     5
170
     0
171
     0
290
     0
174
     0
 93
        1
 44
0.0
173
     0
291
     0
 45
0.0
1001
ACAD
1000
AcDbSavedByObjectVersion
1070
     0
1000
AcDbSavedByObjectVersion
1070
     0
1000
AcDbSavedByObjectVersion
1070
     0
1000
AcDbSavedByObjectVersion
1070
     0
1000
AcDbSavedByObjectVersion
1070
     0
1000
AcDbSavedByObjectVersion
1070
     0
1000
AcDbSavedByObjectVersion
1070
     0
  0
VISUALSTYLE
  5
F4
102
{ACAD_REACTORS
330
EF
102
}
330
EF
100
AcDbVisualStyle
  2
Basic
 70
     7
 71
     1
 72
     0
 73
     1
 90
        0
 40
-0.6
 41
-30.0
 62
     5
 63
     7
 74
     0
 91
        4
 64
     7
 65
   257
 75
     1
175
     1
 42
1.0
 92
        8
 66
     7
 43
1.0
 76
     1
 77
     6
 78
     2
 67
     7
 79
     5
170
     0
171
     0
290
     0
174
     0
 93
        1
 44
0.0
173
     0
291
     1
 45
0.0
1001
ACAD
1000
AcDbSavedByObjectVersion
1070
     0
1000
AcDbSavedByObjectVersion
1070
     0
1000
AcDbSavedByObjectVersion
1070
     0
1000
AcDbSavedByObjectVersion
1070
     0
1000
AcDbSavedByObjectVersion
1070
     0
1000
AcDbSavedByObjectVersion
1070
     0
1000
AcDbSavedByObjectVersion
1070
     0
  0
VISUALSTYLE
  5
FB
102
{ACAD_REACTORS
330
EF
102
}
330
EF
100
AcDbVisualStyle
  2
Brighten
 70
    12
 71
     2
 72
     2
 73
     1
 90
        0
 40
-0.6
 41
-30.0
 62
     5
 63
     7
 74
     1
 91
        4
 64
     7
 65
   257
 75
     1
175
     1
 42
1.0
 92
        8
 66
     7
 43
1.0
 76
     1
 77
     6
 78
     2
 67
     7
 79
     5
170
     0
171
     0
290
     0
174
     0
 93
        1
 44
50.0
173
     0
291
     1
 45
0.0
1001
ACAD
1000
AcDbSavedByObjectVersion
1070
     0
1000
AcDbSavedByObjectVersion
1070
     0
1000
AcDbSavedByObjectVersion
1070
     0
1000
AcDbSavedByObjectVersion
1070
     0
1000
AcDbSavedByObjectVersion
1070
     0
1000
AcDbSavedByObjectVersion
1070
     0
1000
AcDbSavedByObjectVersion
1070
     0
  0
VISUALSTYLE
  5
FF
102
{ACAD_REACTORS
330
EF
102
}
330
EF
100
AcDbVisualStyle
  2
ColorChange
 70
    16
 71
     2
 72
     2
 73
     3
 90
        0
 40
-0.6
 41
-30.0
 62
     5
 63
     8
 74
     1
 91
        4
 64
     7
 65
   257
 75
     1
175
     1
 42
1.0
 92
        8
 66
     8
 43
1.0
 76
     1
 77
     6
 78
     2
 67
     7
 79
     5
170
     0
171
     0
290
     0
174
     0
 93
        1
 44
0.0
173
     0
291
     1
 45
0.0
1001
ACAD
1000
AcDbSavedByObjectVersion
1070
     0
1000
AcDbSavedByObjectVersion
1070
     0
1000
AcDbSavedByObjectVersion
1070
     0
1000
AcDbSavedByObjectVersion
1070
     0
1000
AcDbSavedByObjectVersion
1070
     0
1000
AcDbSavedByObjectVersion
1070
     0
1000
AcDbSavedByObjectVersion
1070
     0
  0
VISUALSTYLE
  5
F8
102
{ACAD_REACTORS
330
EF
102
}
330
EF
100
AcDbVisualStyle
  2
Conceptual
 70
     9
 71
     3
 72
     2
 73
     1
 90
        0
 40
-0.6
 41
-30.0
 62
     5
 63
     7
 74
     2
 91
        2
 64
     7
 65
   257
 75
     1
175
     1
 42
40.0
 92
        8
 66
     7
 43
1.0
 76
     1
 77
     6
 78
     2
 67
     7
 79
     3
170
     0
171
     0
290
     0
174
     0
 93
        1
 44
0.0
173
     0
291
     0
 45
0.0
1001
ACAD
1000
AcDbSavedByObjectVersion
1070
     0
1000
AcDbSavedByObjectVersion
1070
     0
1000
AcDbSavedByObjectVersion
1070
     0
1000
AcDbSavedByObjectVersion
1070
     0
1000
AcDbSavedByObjectVersion
1070
     0
1000
AcDbSavedByObjectVersion
1070
     0
1000
AcDbSavedByObjectVersion
1070
     0
  0
VISUALSTYLE
  5
FA
102
{ACAD_REACTORS
330
EF
102
}
330
EF
100
AcDbVisualStyle
  2
Dim
 70
    11
 71
     2
 72
     2
 73
     1
 90
        0
 40
-0.6
 41
-30.0
 62
     5
 63
     7
 74
     1
 91
        4
 64
     7
 65
   257
 75
     1
175
     1
 42
1.0
 92
        8
 66
     7
 43
1.0
 76
     1
 77
     6
 78
     2
 67
     7
 79
     5
170
     0
171
     0
290
     0
174
     0
 93
        1
 44
-50.0
173
     0
291
     1
 45
0.0
1001
ACAD
1000
AcDbSavedByObjectVersion
1070
     0
1000
AcDbSavedByObjectVersion
1070
     0
1000
AcDbSavedByObjectVersion
1070
     0
1000
AcDbSavedByObjectVersion
1070
     0
1000
AcDbSavedByObjectVersion
1070
     0
1000
AcDbSavedByObjectVersion
1070
     0
1000
AcDbSavedByObjectVersion
1070
     0
  0
VISUALSTYLE
  5
FE
102
{ACAD_REACTORS
330
EF
102
}
330
EF
100
AcDbVisualStyle
  2
Facepattern
 70
    15
 71
     2
 72
     2
 73
     1
 90
        0
 40
-0.6
 41
-30.0
 62
     5
 63
     7
 74
     1
 91
        4
 64
     7
 65
   257
 75
     1
175
     1
 42
1.0
 92
        8
 66
     7
 43
1.0
 76
     1
 77
     6
 78
     2
 67
     7
 79
     5
170
     0
171
     0
290
     0
174
     0
 93
        1
 44
0.0
173
     0
291
     1
 45
0.0
1001
ACAD
1000
AcDbSavedByObjectVersion
1070
     0
1000
AcDbSavedByObjectVersion
1070
     0
1000
AcDbSavedByObjectVersion
1070
     0
1000
AcDbSavedByObjectVersion
1070
     0
1000
AcDbSavedByObjectVersion
1070
     0
1000
AcDbSavedByObjectVersion
1070
     0
1000
AcDbSavedByObjectVersion
1070
     0
  0
VISUALSTYLE
  5
F0
102
{ACAD_REACTORS
330
EF
102
}
330
EF
100
AcDbVisualStyle
  2
Flat
 70
     0
 71
     2
 72
     1
 73
     1
 90
        2
 40
-0.6
 41
30.0
 62
     5
 63
     7
 74
     0
 91
        4
 64
     7
 65
   257
 75
     1
175
     1
 42
1.0
 92
        8
 66
     7
 43
1.0
 76
     1
 77
     6
 78
     2
 67
     7
 79
     5
170
     0
171
     0
290
     0
174
     0
 93
       13
 44
0.0
173
     0
291
     1
 45
0.0
1001
ACAD
1000
AcDbSavedByObjectVersion
1070
     0
1000
AcDbSavedByObjectVersion
1070
     0
1000
AcDbSavedByObjectVersion
1070
     0
1000
AcDbSavedByObjectVersion
1070
     0
1000
AcDbSavedByObjectVersion
1070
     0
1000
AcDbSavedByObjectVersion
1070
     0
1000
AcDbSavedByObjectVersion
1070
     0
  0
VISUALSTYLE
  5
F1
102
{ACAD_REACTORS
330
EF
102
}
330
EF
100
AcDbVisualStyle
  2
FlatWithEdges
 70
     1
 71
     2
 72
     1
 73
     1
 90
        2
 40
-0.6
 41
30.0
 62
     5
 63
     7
 74
     1
 91
        4
 64
     7
 65
   257
 75
     1
175
     1
 42
1.0
 92
        0
 66
   257
 43
1.0
 76
     1
 77
     6
 78
     2
 67
     7
 79
     5
170
     0
171
     0
290
     0
174
     0
 93
       13
 44
0.0
173
     0
291
     1
 45
0.0
1001
ACAD
1000
AcDbSavedByObjectVersion
1070
     0
1000
AcDbSavedByObjectVersion
1070
     0
1000
AcDbSavedByObjectVersion
1070
     0
1000
AcDbSavedByObjectVersion
1070
     0
1000
AcDbSavedByObjectVersion
1070
     0
1000
AcDbSavedByObjectVersion
1070
     0
1000
AcDbSavedByObjectVersion
1070
     0
  0
VISUALSTYLE
  5
F2
102
{ACAD_REACTORS
330
EF
102
}
330
EF
100
AcDbVisualStyle
  2
Gouraud
 70
     2
 71
     2
 72
     2
 73
     1
 90
        2
 40
-0.6
 41
30.0
 62
     5
 63
     7
 74
     0
 91
        4
 64
     7
 65
   257
 75
     1
175
     1
 42
1.0
 92
        0
 66
     7
 43
1.0
 76
     1
 77
     6
 78
     2
 67
     7
 79
     5
170
     0
171
     0
290
     0
174
     0
 93
       13
 44
0.0
173
     0
291
     1
 45
0.0
1001
ACAD
1000
AcDbSavedByObjectVersion
1070
     0
1000
AcDbSavedByObjectVersion
1070
     0
1000
AcDbSavedByObjectVersion
1070
     0
1000
AcDbSavedByObjectVersion
1070
     0
1000
AcDbSavedByObjectVersion
1070
     0
1000
AcDbSavedByObjectVersion
1070
     0
1000
AcDbSavedByObjectVersion
1070
     0
  0
VISUALSTYLE
  5
F3
102
{ACAD_REACTORS
330
EF
102
}
330
EF
100
AcDbVisualStyle
  2
GouraudWithEdges
 70
     3
 71
     2
 72
     2
 73
     1
 90
        2
 40
-0.6
 41
30.0
 62
     5
 63
     7
 74
     1
 91
        4
 64
     7
 65
   257
 75
     1
175
     1
 42
1.0
 92
        0
 66
   257
 43
1.0
 76
     1
 77
     6
 78
     2
 67
     7
 79
     5
170
     0
171
     0
290
     0
174
     0
 93
       13
 44
0.0
173
     0
291
     1
 45
0.0
1001
ACAD
1000
AcDbSavedByObjectVersion
1070
     0
1000
AcDbSavedByObjectVersion
1070
     0
1000
AcDbSavedByObjectVersion
1070
     0
1000
AcDbSavedByObjectVersion
1070
     0
1000
AcDbSavedByObjectVersion
1070
     0
1000
AcDbSavedByObjectVersion
1070
     0
1000
AcDbSavedByObjectVersion
1070
     0
  0
VISUALSTYLE
  5
FD
102
{ACAD_REACTORS
330
EF
102
}
330
EF
100
AcDbVisualStyle
  2
Linepattern
 70
    14
 71
     2
 72
     2
 73
     1
 90
        0
 40
-0.6
 41
-30.0
 62
     5
 63
     7
 74
     1
 91
        4
 64
     7
 65
   257
 75
     7
175
     7
 42
1.0
 92
        8
 66
     7
 43
1.0
 76
     1
 77
     6
 78
     2
 67
     7
 79
     5
170
     0
171
     0
290
     0
174
     0
 93
        1
 44
0.0
173
     0
291
     1
 45
0.0
1001
ACAD
1000
AcDbSavedByObjectVersion
1070
     0
1000
AcDbSavedByObjectVersion
1070
     0
1000
AcDbSavedByObjectVersion
1070
     0
1000
AcDbSavedByObjectVersion
1070
     0
1000
AcDbSavedByObjectVersion
1070
     0
1000
AcDbSavedByObjectVersion
1070
     0
1000
AcDbSavedByObjectVersion
1070
     0
  0
VISUALSTYLE
  5
F9
102
{ACAD_REACTORS
330
EF
102
}
330
EF
100
AcDbVisualStyle
  2
Realistic
 70
     8
 71
     2
 72
     2
 73
     1
 90
        0
 40
-0.6
 41
-30.0
 62
     5
 63
     7
 74
     1
 91
        0
 64
     7
 65
   257
 75
     1
175
     1
 42
1.0
 92
        8
 66
     8
 43
1.0
 76
     1
 77
     6
 78
     2
 67
     7
 79
     5
170
     0
171
     0
290
     0
174
     0
 93
       13
 44
0.0
173
     0
291
     0
 45
0.0
1001
ACAD
1000
AcDbSavedByObjectVersion
1070
     0
1000
AcDbSavedByObjectVersion
1070
     0
1000
AcDbSavedByObjectVersion
1070
     0
1000
AcDbSavedByObjectVersion
1070
     0
1000
AcDbSavedByObjectVersion
1070
     0
1000
AcDbSavedByObjectVersion
1070
     0
1000
AcDbSavedByObjectVersion
1070
     0
  0
VISUALSTYLE
  5
FC
102
{ACAD_REACTORS
330
EF
102
}
330
EF
100
AcDbVisualStyle
  2
Thicken
 70
    13
 71
     2
 72
     2
 73
     1
 90
        0
 40
-0.6
 41
-30.0
 62
     5
 63
     7
 74
     1
 91
        4
 64
     7
 65
   257
 75
     1
175
     1
 42
1.0
 92
       12
 66
     7
 43
1.0
 76
     1
 77
     6
 78
     2
 67
     7
 79
     5
170
     0
171
     0
290
     0
174
     0
 93
        1
 44
0.0
173
     0
291
     1
 45
0.0
1001
ACAD
1000
AcDbSavedByObjectVersion
1070
     0
1000
AcDbSavedByObjectVersion
1070
     0
1000
AcDbSavedByObjectVersion
1070
     0
1000
AcDbSavedByObjectVersion
1070
     0
1000
AcDbSavedByObjectVersion
1070
     0
1000
AcDbSavedByObjectVersion
1070
     0
1000
AcDbSavedByObjectVersion
1070
     0
  0
DICTIONARYVAR
  5
84
102
{ACAD_REACTORS
330
5E
102
}
330
5E
100
DictionaryVariables
280
     0
  1
STANDARD
  0
DICTIONARYVAR
  5
5F
102
{ACAD_REACTORS
330
5E
102
}
330
5E
100
DictionaryVariables
280
     0
  1
2
  0
DICTIONARYVAR
  5
63
102
{ACAD_REACTORS
330
5E
102
}
330
5E
100
DictionaryVariables
280
     0
  1
1
  0
DICTIONARYVAR
  5
327
102
{ACAD_REACTORS
330
5E
102
}
330
5E
100
DictionaryVariables
280
     0
  1
0
  0
DICTIONARYVAR
  5
135F
102
{ACAD_REACTORS
330
5E
102
}
330
5E
100
DictionaryVariables
280
     0
  1
80.000000
  0
DICTIONARYVAR
  5
135E
102
{ACAD_REACTORS
330
5E
102
}
330
5E
100
DictionaryVariables
280
     0
  1
5.000000
  0
DICTIONARYVAR
  5
326
102
{ACAD_REACTORS
330
5E
102
}
330
5E
100
DictionaryVariables
280
     0
  1
127
  0
DICTIONARY
  5
17E0
330
D3
100
AcDbDictionary
280
     1
281
     1
  3
ACAD_XREC_ROUNDTRIP
360
17E1
  0
DICTIONARY
  5
17E2
330
D7
100
AcDbDictionary
280
     1
281
     1
  3
ACAD_XREC_ROUNDTRIP
360
17E3
  0
DICTIONARY
  5
17DC
330
22
100
AcDbDictionary
280
     1
281
     1
  3
ACAD_XREC_ROUNDTRIP
360
17DD
  0
DICTIONARY
  5
335
330
ED
100
AcDbDictionary
280
     1
281
     1
  3
ACAD_XREC_ROUNDTRIP
360
336
  0
DICTIONARY
  5
333
330
EC
100
AcDbDictionary
280
     1
281
     1
  3
ACAD_XREC_ROUNDTRIP
360
334
  0
DICTIONARY
  5
337
330
EE
100
AcDbDictionary
280
     1
281
     1
  3
ACAD_XREC_ROUNDTRIP
360
338
  0
DICTIONARY
  5
17DE
330
7F
100
AcDbDictionary
280
     1
281
     1
  3
ACAD_XREC_ROUNDTRIP
360
17DF
  0
XRECORD
  5
17E1
102
{ACAD_REACTORS
330
17E0
102
}
330
17E0
100
AcDbXrecord
280
     1
102
SHADEPLOT
 70
     0
102
SHADEPLOTRESLEVEL
 70
     2
102
SHADEPLOTCUSTOMDPI
 70
   300
  0
XRECORD
  5
17E3
102
{ACAD_REACTORS
330
17E2
102
}
330
17E2
100
AcDbXrecord
280
     1
102
SHADEPLOT
 70
     0
102
SHADEPLOTRESLEVEL
 70
     2
102
SHADEPLOTCUSTOMDPI
 70
   300
  0
XRECORD
  5
17DD
102
{ACAD_REACTORS
330
17DC
102
}
330
17DC
100
AcDbXrecord
280
     1
102
SHADEPLOT
 70
     0
102
SHADEPLOTRESLEVEL
 70
     2
102
SHADEPLOTCUSTOMDPI
 70
   300
  0
XRECORD
  5
336
102
{ACAD_REACTORS
330
335
102
}
330
335
100
AcDbXrecord
280
     1
102
MATERIAL
148
0.0
149
0.0
149
0.0
 93
        0
 94
       63
282
     0
 72
     1
 77
     1
171
     1
175
     1
179
     1
273
     0
  0
XRECORD
  5
334
102
{ACAD_REACTORS
330
333
102
}
330
333
100
AcDbXrecord
280
     1
102
MATERIAL
148
0.0
149
0.0
149
0.0
 93
        0
 94
       63
282
     0
 72
     1
 77
     1
171
     1
175
     1
179
     1
273
     0
  0
XRECORD
  5
338
102
{ACAD_REACTORS
330
337
102
}
330
337
100
AcDbXrecord
280
     1
102
MATERIAL
148
0.0
149
0.0
149
0.0
 93
        0
 94
       63
282
     0
 72
     1
 77
     1
171
     1
175
     1
179
     1
273
     0
  0
XRECORD
  5
17DF
102
{ACAD_REACTORS
330
17DE
102
}
330
17DE
100
AcDbXrecord
280
     1
102
ACAD_ROUNDTRIP_PRE2007_TABLESTYLE
 90
      512
 91
        0
  1

 92
      512
 93
        0
  2

 94
      512
 95
        0
  3

  0
ENDSEC
  0
EOF
