  0
SECTION
  2
HEADER
  9
$ACADVER
  1
AC1024
  9
$ACADMAINTVER
 70
   205
  9
$DWGCODEPAGE
  3
ANSI_1252
  9
$LASTSAVEDBY
  1
kaschu
  9
$INSBASE
 10
0.0
 20
0.0
 30
0.0
  9
$EXTMIN
 10
79.97175737886218
 20
79.52571368378267
 30
0.0
  9
$EXTMAX
 10
462.5079045016845
 20
731.8939696865473
 30
0.0
  9
$LIMMIN
 10
0.0
 20
0.0
  9
$LIMMAX
 10
12.0
 20
9.0
  9
$ORTHOMODE
 70
     1
  9
$REGENMODE
 70
     1
  9
$FILLMODE
 70
     1
  9
$QTEXTMODE
 70
     0
  9
$MIRRTEXT
 70
     1
  9
$LTSCALE
 40
1.0
  9
$ATTMODE
 70
     1
  9
$TEXTSIZE
 40
35.0
  9
$TRACEWID
 40
0.05
  9
$TEXTSTYLE
  7
STANDARD
  9
$CLAYER
  8
0
  9
$CELTYPE
  6
BYLAYER
  9
$CECOLOR
 62
   256
  9
$CELTSCALE
 40
1.0
  9
$DISPSILH
 70
     0
  9
$DIMSCALE
 40
1.0
  9
$DIMASZ
 40
0.18
  9
$DIMEXO
 40
0.0625
  9
$DIMDLI
 40
0.38
  9
$DIMRND
 40
0.0
  9
$DIMDLE
 40
0.0
  9
$DIMEXE
 40
0.18
  9
$DIMTP
 40
0.0
  9
$DIMTM
 40
0.0
  9
$DIMTXT
 40
0.18
  9
$DIMCEN
 40
0.09
  9
$DIMTSZ
 40
0.0
  9
$DIMTOL
 70
     0
  9
$DIMLIM
 70
     0
  9
$DIMTIH
 70
     1
  9
$DIMTOH
 70
     1
  9
$DIMSE1
 70
     0
  9
$DIMSE2
 70
     0
  9
$DIMTAD
 70
     0
  9
$DIMZIN
 70
     0
  9
$DIMBLK
  1

  9
$DIMASO
 70
     1
  9
$DIMSHO
 70
     1
  9
$DIMPOST
  1

  9
$DIMAPOST
  1

  9
$DIMALT
 70
     0
  9
$DIMALTD
 70
     2
  9
$DIMALTF
 40
25.4
  9
$DIMLFAC
 40
1.0
  9
$DIMTOFL
 70
     0
  9
$DIMTVP
 40
0.0
  9
$DIMTIX
 70
     0
  9
$DIMSOXD
 70
     0
  9
$DIMSAH
 70
     0
  9
$DIMBLK1
  1

  9
$DIMBLK2
  1

  9
$DIMSTYLE
  2
STANDARD
  9
$DIMCLRD
 70
     0
  9
$DIMCLRE
 70
     0
  9
$DIMCLRT
 70
     0
  9
$DIMTFAC
 40
1.0
  9
$DIMGAP
 40
0.09
  9
$DIMJUST
 70
     0
  9
$DIMSD1
 70
     0
  9
$DIMSD2
 70
     0
  9
$DIMTOLJ
 70
     1
  9
$DIMTZIN
 70
     0
  9
$DIMALTZ
 70
     0
  9
$DIMALTTZ
 70
     0
  9
$DIMUPT
 70
     0
  9
$DIMDEC
 70
     4
  9
$DIMTDEC
 70
     4
  9
$DIMALTU
 70
     2
  9
$DIMALTTD
 70
     2
  9
$DIMTXSTY
  7
STANDARD
  9
$DIMAUNIT
 70
     0
  9
$DIMADEC
 70
     0
  9
$DIMALTRND
 40
0.0
  9
$DIMAZIN
 70
     0
  9
$DIMDSEP
 70
    46
  9
$DIMATFIT
 70
     3
  9
$DIMFRAC
 70
     0
  9
$DIMLDRBLK
  1

  9
$DIMLUNIT
 70
     2
  9
$DIMLWD
 70
    -2
  9
$DIMLWE
 70
    -2
  9
$DIMTMOVE
 70
     0
  9
$DIMFXL
 40
1.0
  9
$DIMFXLON
 70
     0
  9
$DIMJOGANG
 40
0.7853981633974483
  9
$DIMTFILL
 70
     0
  9
$DIMTFILLCLR
 70
     0
  9
$DIMARCSYM
 70
     0
  9
$DIMLTYPE
  6

  9
$DIMLTEX1
  6

  9
$DIMLTEX2
  6

  9
$DIMTXTDIRECTION
 70
     0
  9
$LUNITS
 70
     2
  9
$LUPREC
 70
     4
  9
$SKETCHINC
 40
0.1
  9
$FILLETRAD
 40
0.5
  9
$AUNITS
 70
     0
  9
$AUPREC
 70
     0
  9
$MENU
  1
.
  9
$ELEVATION
 40
0.0
  9
$PELEVATION
 40
0.0
  9
$THICKNESS
 40
0.0
  9
$LIMCHECK
 70
     0
  9
$CHAMFERA
 40
0.5
  9
$CHAMFERB
 40
0.5
  9
$CHAMFERC
 40
1.0
  9
$CHAMFERD
 40
0.0
  9
$SKPOLY
 70
     0
  9
$TDCREATE
 40
2451762.464270834
  9
$TDUCREATE
 40
2451762.380937500
  9
$TDUPDATE
 40
2458680.446867304
  9
$TDUUPDATE
 40
2458680.363533970
  9
$TDINDWG
 40
0.0263860995
  9
$TDUSRTIMER
 40
0.0263860532
  9
$USRTIMER
 70
     1
  9
$ANGBASE
 50
0.0
  9
$ANGDIR
 70
     0
  9
$PDMODE
 70
     0
  9
$PDSIZE
 40
0.0
  9
$PLINEWID
 40
0.0
  9
$SPLFRAME
 70
     0
  9
$SPLINETYPE
 70
     6
  9
$SPLINESEGS
 70
     8
  9
$HANDSEED
  5
2E56
  9
$SURFTAB1
 70
     6
  9
$SURFTAB2
 70
     6
  9
$SURFTYPE
 70
     6
  9
$SURFU
 70
     6
  9
$SURFV
 70
     6
  9
$UCSBASE
  2

  9
$UCSNAME
  2

  9
$UCSORG
 10
0.0
 20
0.0
 30
0.0
  9
$UCSXDIR
 10
1.0
 20
0.0
 30
0.0
  9
$UCSYDIR
 10
0.0
 20
1.0
 30
0.0
  9
$UCSORTHOREF
  2

  9
$UCSORTHOVIEW
 70
     0
  9
$UCSORGTOP
 10
0.0
 20
0.0
 30
0.0
  9
$UCSORGBOTTOM
 10
0.0
 20
0.0
 30
0.0
  9
$UCSORGLEFT
 10
0.0
 20
0.0
 30
0.0
  9
$UCSORGRIGHT
 10
0.0
 20
0.0
 30
0.0
  9
$UCSORGFRONT
 10
0.0
 20
0.0
 30
0.0
  9
$UCSORGBACK
 10
0.0
 20
0.0
 30
0.0
  9
$PUCSBASE
  2

  9
$PUCSNAME
  2

  9
$PUCSORG
 10
0.0
 20
0.0
 30
0.0
  9
$PUCSXDIR
 10
1.0
 20
0.0
 30
0.0
  9
$PUCSYDIR
 10
0.0
 20
1.0
 30
0.0
  9
$PUCSORTHOREF
  2

  9
$PUCSORTHOVIEW
 70
     0
  9
$PUCSORGTOP
 10
0.0
 20
0.0
 30
0.0
  9
$PUCSORGBOTTOM
 10
0.0
 20
0.0
 30
0.0
  9
$PUCSORGLEFT
 10
0.0
 20
0.0
 30
0.0
  9
$PUCSORGRIGHT
 10
0.0
 20
0.0
 30
0.0
  9
$PUCSORGFRONT
 10
0.0
 20
0.0
 30
0.0
  9
$PUCSORGBACK
 10
0.0
 20
0.0
 30
0.0
  9
$USERI1
 70
     0
  9
$USERI2
 70
     0
  9
$USERI3
 70
     0
  9
$USERI4
 70
     0
  9
$USERI5
 70
     0
  9
$USERR1
 40
0.0
  9
$USERR2
 40
0.0
  9
$USERR3
 40
0.0
  9
$USERR4
 40
0.0
  9
$USERR5
 40
0.0
  9
$WORLDVIEW
 70
     1
  9
$SHADEDGE
 70
     3
  9
$SHADEDIF
 70
    70
  9
$TILEMODE
 70
     1
  9
$MAXACTVP
 70
    64
  9
$PINSBASE
 10
0.0
 20
0.0
 30
0.0
  9
$PLIMCHECK
 70
     0
  9
$PEXTMIN
 10
1.000000000000000E+20
 20
1.000000000000000E+20
 30
1.000000000000000E+20
  9
$PEXTMAX
 10
-1.000000000000000E+20
 20
-1.000000000000000E+20
 30
-1.000000000000000E+20
  9
$PLIMMIN
 10
0.0
 20
0.0
  9
$PLIMMAX
 10
12.0
 20
9.0
  9
$UNITMODE
 70
     0
  9
$VISRETAIN
 70
     1
  9
$PLINEGEN
 70
     0
  9
$PSLTSCALE
 70
     1
  9
$TREEDEPTH
 70
  3020
  9
$CMLSTYLE
  2
STANDARD
  9
$CMLJUST
 70
     0
  9
$CMLSCALE
 40
1.0
  9
$PROXYGRAPHICS
 70
     1
  9
$MEASUREMENT
 70
     0
  9
$CELWEIGHT
370
    -1
  9
$ENDCAPS
280
     0
  9
$JOINSTYLE
280
     0
  9
$LWDISPLAY
290
     0
  9
$INSUNITS
 70
     0
  9
$HYPERLINKBASE
  1

  9
$STYLESHEET
  1

  9
$XEDIT
290
     1
  9
$CEPSNTYPE
380
     0
  9
$PSTYLEMODE
290
     1
  9
$FINGERPRINTGUID
  2
{060D33CD-CE10-4BBC-A3BC-380323F46B4F}
  9
$VERSIONGUID
  2
{02AA1D62-5948-4754-9977-B7EE03AEEF54}
  9
$EXTNAMES
290
     1
  9
$PSVPSCALE
 40
0.0
  9
$OLESTARTUP
290
     0
  9
$SORTENTS
280
   127
  9
$INDEXCTL
280
     0
  9
$HIDETEXT
280
     0
  9
$XCLIPFRAME
280
     2
  9
$HALOGAP
280
     0
  9
$OBSCOLOR
 70
   257
  9
$OBSLTYPE
280
     0
  9
$INTERSECTIONDISPLAY
280
     0
  9
$INTERSECTIONCOLOR
 70
   257
  9
$DIMASSOC
280
     1
  9
$PROJECTNAME
  1

  9
$CAMERADISPLAY
290
     0
  9
$LENSLENGTH
 40
50.0
  9
$CAMERAHEIGHT
 40
0.0
  9
$STEPSPERSEC
 40
2.0
  9
$STEPSIZE
 40
6.0
  9
$3DDWFPREC
 40
2.0
  9
$PSOLWIDTH
 40
0.25
  9
$PSOLHEIGHT
 40
4.0
  9
$LOFTANG1
 40
1.570796326794896
  9
$LOFTANG2
 40
1.570796326794896
  9
$LOFTMAG1
 40
0.0
  9
$LOFTMAG2
 40
0.0
  9
$LOFTPARAM
 70
     7
  9
$LOFTNORMALS
280
     1
  9
$LATITUDE
 40
37.795
  9
$LONGITUDE
 40
-122.394
  9
$NORTHDIRECTION
 40
0.0
  9
$TIMEZONE
 70
 -8000
  9
$LIGHTGLYPHDISPLAY
280
     1
  9
$TILEMODELIGHTSYNCH
280
     1
  9
$CMATERIAL
347
17B
  9
$SOLIDHIST
280
     0
  9
$SHOWHIST
280
     1
  9
$DWFFRAME
280
     2
  9
$DGNFRAME
280
     0
  9
$REALWORLDSCALE
290
     1
  9
$INTERFERECOLOR
 62
     1
  9
$INTERFEREOBJVS
345
19D
  9
$INTERFEREVPVS
346
19A
  9
$CSHADOW
280
     0
  9
$SHADOWPLANELOCATION
 40
0.0
  0
ENDSEC
  0
SECTION
  2
CLASSES
  0
CLASS
  1
ACDBDICTIONARYWDFLT
  2
AcDbDictionaryWithDefault
  3
ObjectDBX Classes
 90
        0
 91
        1
280
     0
281
     0
  0
CLASS
  1
MATERIAL
  2
AcDbMaterial
  3
ObjectDBX Classes
 90
     1153
 91
        3
280
     0
281
     0
  0
CLASS
  1
VISUALSTYLE
  2
AcDbVisualStyle
  3
ObjectDBX Classes
 90
     4095
 91
       24
280
     0
281
     0
  0
CLASS
  1
TABLESTYLE
  2
AcDbTableStyle
  3
ObjectDBX Classes
 90
     4095
 91
        1
280
     0
281
     0
  0
CLASS
  1
SCALE
  2
AcDbScale
  3
ObjectDBX Classes
 90
     1153
 91
       17
280
     0
281
     0
  0
CLASS
  1
MLEADERSTYLE
  2
AcDbMLeaderStyle
  3
ACDB_MLEADERSTYLE_CLASS
 90
     4095
 91
        1
280
     0
281
     0
  0
CLASS
  1
ACDBSECTIONVIEWSTYLE
  2
AcDbSectionViewStyle
  3
ObjectDBX Classes
 90
     1025
 91
        1
280
     0
281
     0
  0
CLASS
  1
ACDBDETAILVIEWSTYLE
  2
AcDbDetailViewStyle
  3
ObjectDBX Classes
 90
     1025
 91
        1
280
     0
281
     0
  0
CLASS
  1
DICTIONARYVAR
  2
AcDbDictionaryVar
  3
ObjectDBX Classes
 90
        0
 91
       10
280
     0
281
     0
  0
CLASS
  1
CELLSTYLEMAP
  2
AcDbCellStyleMap
  3
ObjectDBX Classes
 90
     1152
 91
        2
280
     0
281
     0
  0
CLASS
  1
SORTENTSTABLE
  2
AcDbSortentsTable
  3
ObjectDBX Classes
 90
        0
 91
        7
280
     0
281
     0
  0
ENDSEC
  0
SECTION
  2
TABLES
  0
TABLE
  2
VPORT
  5
8
330
0
100
AcDbSymbolTable
 70
     1
  0
VPORT
  5
155
330
8
100
AcDbSymbolTableRecord
100
AcDbViewportTableRecord
  2
*ACTIVE
 70
     0
 10
0.0
 20
0.0
 11
1.0
 21
1.0
 12
641.1353552283717
 22
296.8474417245526
 13
0.0
 23
0.0
 14
0.5
 24
0.5
 15
0.5
 25
0.5
 16
0.0
 26
0.0
 36
1.0
 17
0.0
 27
0.0
 37
0.0
 40
1390.99155739423
 41
2.170603674540682
 42
50.0
 43
0.0
 44
0.0
 50
0.0
 51
0.0
 71
     0
 72
   100
 73
     1
 74
     3
 75
     0
 76
     0
 77
     0
 78
     0
281
     0
 65
     1
110
0.0
120
0.0
130
0.0
111
1.0
121
0.0
131
0.0
112
0.0
122
1.0
132
0.0
 79
     0
146
0.0
348
199
 60
     3
 61
     5
292
     1
282
     1
141
0.0
142
0.0
 63
   250
421
  3355443
1001
ACAD_NAV_VCDISPLAY
1070
     3
  0
ENDTAB
  0
TABLE
  2
LTYPE
  5
5
330
0
100
AcDbSymbolTable
 70
     1
  0
LTYPE
  5
14
330
5
100
AcDbSymbolTableRecord
100
AcDbLinetypeTableRecord
  2
BYBLOCK
 70
     0
  3

 72
    65
 73
     0
 40
0.0
  0
LTYPE
  5
15
330
5
100
AcDbSymbolTableRecord
100
AcDbLinetypeTableRecord
  2
BYLAYER
 70
     0
  3

 72
    65
 73
     0
 40
0.0
  0
LTYPE
  5
16
330
5
100
AcDbSymbolTableRecord
100
AcDbLinetypeTableRecord
  2
CONTINUOUS
 70
     0
  3
Solid line
 72
    65
 73
     0
 40
0.0
  0
ENDTAB
  0
TABLE
  2
LAYER
  5
2
102
{ACAD_XDICTIONARY
360
612
102
}
330
0
100
AcDbSymbolTable
 70
     5
  0
LAYER
  5
10
102
{ACAD_XDICTIONARY
360
210
102
}
330
2
100
AcDbSymbolTableRecord
100
AcDbLayerTableRecord
  2
0
 70
     0
 62
     7
  6
CONTINUOUS
370
    -3
390
E0
347
18B
  0
LAYER
  5
60E
102
{ACAD_XDICTIONARY
360
60F
102
}
330
2
100
AcDbSymbolTableRecord
100
AcDbLayerTableRecord
  2
HEWI
 70
     0
 62
     7
  6
CONTINUOUS
370
    -3
390
E0
347
18B
  0
ENDTAB
  0
TABLE
  2
STYLE
  5
3
330
0
100
AcDbSymbolTable
 70
     2
  0
STYLE
  5
11
330
3
100
AcDbSymbolTableRecord
100
AcDbTextStyleTableRecord
  2
STANDARD
 70
     0
 40
0.0
 41
1.0
 50
0.0
 71
     0
 42
35.0
  3
txt
  4

  0
ENDTAB
  0
TABLE
  2
VIEW
  5
6
330
0
100
AcDbSymbolTable
 70
     0
  0
ENDTAB
  0
TABLE
  2
UCS
  5
7
330
0
100
AcDbSymbolTable
 70
     0
  0
ENDTAB
  0
TABLE
  2
APPID
  5
9
330
0
100
AcDbSymbolTable
 70
     4
  0
APPID
  5
12
330
9
100
AcDbSymbolTableRecord
100
AcDbRegAppTableRecord
  2
ACAD
 70
     0
  0
APPID
  5
1D3
330
9
100
AcDbSymbolTableRecord
100
AcDbRegAppTableRecord
  2
ACAD_NAV_VCDISPLAY
 70
     0
  0
APPID
  5
307
330
9
100
AcDbSymbolTableRecord
100
AcDbRegAppTableRecord
  2
ACAD_MLEADERVER
 70
     0
  0
APPID
  5
B1B
330
9
100
AcDbSymbolTableRecord
100
AcDbRegAppTableRecord
  2
ACAD_EXEMPT_FROM_CAD_STANDARDS
 70
     0
  0
ENDTAB
  0
TABLE
  2
DIMSTYLE
  5
A
330
0
100
AcDbSymbolTable
 70
     2
100
AcDbDimStyleTable
 71
     1
340
27
  0
DIMSTYLE
105
27
330
A
100
AcDbSymbolTableRecord
100
AcDbDimStyleTableRecord
  2
STANDARD
 70
     0
340
11
  0
ENDTAB
  0
TABLE
  2
BLOCK_RECORD
  5
1
330
0
100
AcDbSymbolTable
 70
    14
  0
BLOCK_RECORD
  5
1F
102
{ACAD_XDICTIONARY
360
D9
102
}
330
1
100
AcDbSymbolTableRecord
100
AcDbBlockTableRecord
  2
*MODEL_SPACE
340
1C7
 70
     0
280
     1
281
     0
  0
BLOCK_RECORD
  5
1B
102
{ACAD_XDICTIONARY
360
D7
102
}
330
1
100
AcDbSymbolTableRecord
100
AcDbBlockTableRecord
  2
*PAPER_SPACE
340
1C8
 70
     0
280
     1
281
     0
  0
ENDTAB
  0
ENDSEC
  0
SECTION
  2
BLOCKS
  0
BLOCK
  5
20
330
1F
100
AcDbEntity
  8
0
100
AcDbBlockBegin
  2
*MODEL_SPACE
 70
     0
 10
0.0
 20
0.0
 30
0.0
  3
*MODEL_SPACE
  1

  0
ENDBLK
  5
21
330
1F
100
AcDbEntity
  8
0
100
AcDbBlockEnd
  0
BLOCK
  5
1C
330
1B
100
AcDbEntity
 67
     1
  8
0
100
AcDbBlockBegin
  2
*PAPER_SPACE
 70
     0
 10
0.0
 20
0.0
 30
0.0
  3
*PAPER_SPACE
  1

  0
ENDBLK
  5
1D
330
1B
100
AcDbEntity
 67
     1
  8
0
100
AcDbBlockEnd
  0
ENDSEC
  0
SECTION
  2
ENTITIES
  0
LINE
  5
2C54
330
1F
100
AcDbEntity
  8
HEWI
100
AcDbLine
 10
388.3079045017312
 20
114.5257138584056
 30
0.0
 11
388.3079045017312
 21
220.5257138584057
 31
0.0
  0
LINE
  5
2C55
330
1F
100
AcDbEntity
  8
HEWI
100
AcDbLine
 10
460.1306125016945
 20
268.0257138584057
 30
0.0
 11
433.5079045016846
 21
268.0257138584057
 31
0.0
  0
LINE
  5
2C56
330
1F
100
AcDbEntity
  8
HEWI
100
AcDbLine
 10
433.5079045016846
 20
223.0257138584057
 30
0.0
 11
460.1306125016945
 21
223.0257138584057
 31
0.0
  0
LINE
  5
2C57
330
1F
100
AcDbEntity
  8
HEWI
100
AcDbLine
 10
368.3079045017312
 20
220.5257138584057
 30
0.0
 11
368.3079045017312
 21
114.5257138584056
 31
0.0
  0
LINE
  5
2C58
330
1F
100
AcDbEntity
  8
HEWI
100
AcDbLine
 10
388.3083105016794
 20
224.2757138584057
 30
0.0
 11
431.8079045017311
 21
224.2757138584057
 31
0.0
  0
LINE
  5
2C59
330
1F
100
AcDbEntity
  8
HEWI
100
AcDbLine
 10
431.8079045017311
 20
266.7757138584057
 30
0.0
 11
382.8975105017253
 21
266.7757138584057
 31
0.0
  0
LINE
  5
2C5A
330
1F
100
AcDbEntity
  8
HEWI
100
AcDbLine
 10
381.3079045017312
 20
253.6584538584357
 30
0.0
 11
381.3079045017312
 21
253.4786998582786
 31
0.0
  0
LINE
  5
2C5B
330
1F
100
AcDbEntity
  8
HEWI
100
AcDbLine
 10
375.3079045017312
 20
253.655523858477
 30
0.0
 11
375.3079045017312
 21
253.4786998582786
 31
0.0
  0
LINE
  5
2C5C
330
1F
100
AcDbEntity
  8
HEWI
100
AcDbLine
 10
368.3079045017312
 20
114.5257138584056
 30
0.0
 11
368.3079045017312
 21
89.52571385840565
 31
0.0
  0
LINE
  5
2C5D
330
1F
100
AcDbEntity
  8
HEWI
100
AcDbLine
 10
388.3079045017312
 20
89.52571385840565
 30
0.0
 11
388.3079045017312
 21
114.5257138584056
 31
0.0
  0
LINE
  5
2C5E
330
1F
100
AcDbEntity
  8
HEWI
100
AcDbLine
 10
368.3079045017312
 20
245.5257138584057
 30
0.0
 11
368.3079045017312
 21
220.5257138584057
 31
0.0
  0
LINE
  5
2C5F
330
1F
100
AcDbEntity
  8
HEWI
100
AcDbLine
 10
388.3079045017312
 20
220.5257138584057
 30
0.0
 11
388.3079045017312
 21
245.5257138584057
 31
0.0
  0
LINE
  5
2C60
330
1F
100
AcDbEntity
  8
HEWI
100
AcDbLine
 10
461.1224385017358
 20
267.1533098583823
 30
0.0
 11
461.1224385017358
 21
223.8981158584138
 31
0.0
  0
LINE
  5
2C61
330
1F
100
AcDbEntity
  8
HEWI
100
AcDbLine
 10
381.8579045016613
 20
267.375713858266
 30
0.0
 11
378.3079045017312
 21
267.375713858266
 31
0.0
  0
LINE
  5
2C62
330
1F
100
AcDbEntity
  8
HEWI
100
AcDbLine
 10
378.3079045017312
 20
267.375713858266
 30
0.0
 11
374.7579045016847
 21
267.375713858266
 31
0.0
  0
LINE
  5
2C63
330
1F
100
AcDbEntity
  8
HEWI
100
AcDbLine
 10
460.1306125016945
 20
268.0257138584057
 30
0.0
 11
460.1306125016945
 21
245.5257138584057
 31
0.0
  0
LINE
  5
2C64
330
1F
100
AcDbEntity
  8
HEWI
100
AcDbLine
 10
460.1306125016945
 20
245.5257138584057
 30
0.0
 11
460.1306125016945
 21
223.0257138584057
 31
0.0
  0
LINE
  5
2C65
330
1F
100
AcDbEntity
  8
HEWI
100
AcDbLine
 10
433.5079045016846
 20
223.0257138584057
 30
0.0
 11
433.5079045016846
 21
268.0257138584057
 31
0.0
  0
LINE
  5
2C66
330
1F
100
AcDbEntity
  8
HEWI
100
AcDbLine
 10
431.8079045017311
 20
266.7757138584057
 30
0.0
 11
431.8079045017311
 21
224.2757138584057
 31
0.0
  0
LINE
  5
2C67
330
1F
100
AcDbEntity
  8
HEWI
100
AcDbLine
 10
388.3079045017312
 20
114.5257138584056
 30
0.0
 11
368.3079045017312
 21
114.5257138584056
 31
0.0
  0
LINE
  5
2C68
330
1F
100
AcDbEntity
  8
HEWI
100
AcDbLine
 10
388.3079045017312
 20
220.5257138584057
 30
0.0
 11
368.3079045017312
 21
220.5257138584057
 31
0.0
  0
LINE
  5
2C69
330
1F
100
AcDbEntity
  8
HEWI
100
AcDbLine
 10
438.5079045016846
 20
250.5257138584056
 30
0.0
 11
438.5079045016846
 21
260.5257138584057
 31
0.0
  0
LINE
  5
2C6A
330
1F
100
AcDbEntity
  8
HEWI
100
AcDbLine
 10
441.0079045016845
 20
250.5257138584056
 30
0.0
 11
438.5079045016846
 21
250.5257138584056
 31
0.0
  0
LINE
  5
2C6B
330
1F
100
AcDbEntity
  8
HEWI
100
AcDbLine
 10
441.0079045016845
 20
260.5257138584057
 30
0.0
 11
441.0079045016845
 21
250.5257138584056
 31
0.0
  0
LINE
  5
2C6C
330
1F
100
AcDbEntity
  8
HEWI
100
AcDbLine
 10
438.5079045016846
 20
260.5257138584057
 30
0.0
 11
441.0079045016845
 21
260.5257138584057
 31
0.0
  0
LINE
  5
2C6D
330
1F
100
AcDbEntity
  8
HEWI
100
AcDbLine
 10
438.5079045016846
 20
230.5257138584057
 30
0.0
 11
438.5079045016846
 21
240.5257138584056
 31
0.0
  0
LINE
  5
2C6E
330
1F
100
AcDbEntity
  8
HEWI
100
AcDbLine
 10
441.0079045016845
 20
230.5257138584057
 30
0.0
 11
438.5079045016846
 21
230.5257138584057
 31
0.0
  0
LINE
  5
2C6F
330
1F
100
AcDbEntity
  8
HEWI
100
AcDbLine
 10
441.0079045016845
 20
240.5257138584056
 30
0.0
 11
441.0079045016845
 21
230.5257138584057
 31
0.0
  0
LINE
  5
2C70
330
1F
100
AcDbEntity
  8
HEWI
100
AcDbLine
 10
438.5079045016846
 20
240.5257138584056
 30
0.0
 11
441.0079045016845
 21
240.5257138584056
 31
0.0
  0
LINE
  5
2C71
330
1F
100
AcDbEntity
  8
HEWI
100
AcDbLine
 10
462.1975305016913
 20
235.3832138583312
 30
0.0
 11
462.2040905017001
 21
235.3832138583312
 31
0.0
  0
LINE
  5
2C72
330
1F
100
AcDbEntity
  8
HEWI
100
AcDbLine
 10
462.1271305017234
 20
234.1719738584725
 30
0.0
 11
462.1205665016841
 21
234.1719738584725
 31
0.0
  0
LINE
  5
2C73
330
1F
100
AcDbEntity
  8
HEWI
100
AcDbLine
 10
462.0856025016927
 20
233.568213858387
 30
0.0
 11
462.0789485016667
 21
233.568213858387
 31
0.0
  0
LINE
  5
2C74
330
1F
100
AcDbEntity
  8
HEWI
100
AcDbLine
 10
462.2326425016453
 20
235.9869738584166
 30
0.0
 11
462.2392905017423
 21
235.9869738584166
 31
0.0
  0
LINE
  5
2C75
330
1F
100
AcDbEntity
  8
HEWI
100
AcDbLine
 10
461.9059465016999
 20
231.2882138583591
 30
0.0
 11
461.9022305016933
 21
231.2882138583591
 31
0.0
  0
LINE
  5
2C76
330
1F
100
AcDbEntity
  8
HEWI
100
AcDbLine
 10
462.0111465016907
 20
232.5594538582736
 30
0.0
 11
462.0082925017285
 21
232.5594538582736
 31
0.0
  0
LINE
  5
2C77
330
1F
100
AcDbEntity
  8
HEWI
100
AcDbLine
 10
461.9173065017038
 20
231.3894538583481
 30
0.0
 11
461.9173945016755
 21
231.3894538583481
 31
0.0
  0
LINE
  5
2C78
330
1F
100
AcDbEntity
  8
HEWI
100
AcDbLine
 10
462.0564725016538
 20
233.1632138583591
 30
0.0
 11
462.0498165017288
 21
233.1632138583591
 31
0.0
  0
LINE
  5
2C79
330
1F
100
AcDbEntity
  8
HEWI
100
AcDbLine
 10
461.4329605016918
 20
226.5257138584057
 30
0.0
 11
461.4396405016831
 21
226.5257138584057
 31
0.0
  0
LINE
  5
2C7A
330
1F
100
AcDbEntity
  8
HEWI
100
AcDbLine
 10
461.5086965016616
 20
227.1482138584616
 30
0.0
 11
461.5020205017008
 21
227.1482138584616
 31
0.0
  0
LINE
  5
2C7B
330
1F
100
AcDbEntity
  8
HEWI
100
AcDbLine
 10
462.0082925017285
 20
232.5594538582736
 30
0.0
 11
462.0045765017221
 21
232.5594538582736
 31
0.0
  0
LINE
  5
2C7C
330
1F
100
AcDbEntity
  8
HEWI
100
AcDbLine
 10
461.6505605016664
 20
228.5094538584599
 30
0.0
 11
461.6449285017388
 21
228.5094538584599
 31
0.0
  0
LINE
  5
2C7D
330
1F
100
AcDbEntity
  8
HEWI
100
AcDbLine
 10
461.7979885016629
 20
230.0394738584073
 30
0.0
 11
461.7923105017344
 21
230.0394738584073
 31
0.0
  0
ARC
  5
2C7E
330
1F
100
AcDbEntity
  8
HEWI
100
AcDbCircle
 10
429.105698501744
 20
245.5257138584057
 30
0.0
 40
18.63061219467224
100
AcDbArc
 50
76.33229399827254
 51
81.66033799789056
  0
ARC
  5
2C7F
330
1F
100
AcDbEntity
  8
HEWI
100
AcDbCircle
 10
429.105698501744
 20
245.5257138584057
 30
0.0
 40
18.63061219467224
100
AcDbArc
 50
278.3396659997355
 51
283.6677090015306
  0
ARC
  5
2C80
330
1F
100
AcDbEntity
  8
HEWI
100
AcDbCircle
 10
460.1306125016945
 20
224.0257138584056
 30
0.0
 40
1.0
100
AcDbArc
 50
270.0
 51
352.66927799656
  0
ARC
  5
2C81
330
1F
100
AcDbEntity
  8
HEWI
100
AcDbCircle
 10
460.1306125016945
 20
267.0257138584056
 30
0.0
 40
1.0
100
AcDbArc
 50
7.33072200343998
 51
90.0
  0
ARC
  5
2C82
330
1F
100
AcDbEntity
  8
HEWI
100
AcDbCircle
 10
293.0079045016846
 20
245.5257138584057
 30
0.0
 40
169.5
100
AcDbArc
 50
356.7739329991186
 51
7.33072200343998
  0
ARC
  5
2C83
330
1F
100
AcDbEntity
  8
HEWI
100
AcDbCircle
 10
293.0079045016846
 20
245.5257138584057
 30
0.0
 40
169.5
100
AcDbArc
 50
355.8174129986838
 51
355.954668002318
  0
ARC
  5
2C84
330
1F
100
AcDbEntity
  8
HEWI
100
AcDbCircle
 10
293.0079045016846
 20
245.5257138584057
 30
0.0
 40
169.5
100
AcDbArc
 50
355.0079839982081
 51
355.2159889995709
  0
ARC
  5
2C85
330
1F
100
AcDbEntity
  8
HEWI
100
AcDbCircle
 10
293.0079045016846
 20
245.5257138584057
 30
0.0
 40
169.5
100
AcDbArc
 50
354.7143780034094
 51
354.8070860017912
  0
ARC
  5
2C86
330
1F
100
AcDbEntity
  8
HEWI
100
AcDbCircle
 10
293.0079045016846
 20
245.5257138584057
 30
0.0
 40
169.5
100
AcDbArc
 50
354.4558529998774
 51
354.5437080014886
  0
ARC
  5
2C87
330
1F
100
AcDbEntity
  8
HEWI
100
AcDbCircle
 10
293.0079045016846
 20
245.5257138584057
 30
0.0
 40
169.5
100
AcDbArc
 50
354.1867300026995
 51
354.2823300001423
  0
ARC
  5
2C88
330
1F
100
AcDbEntity
  8
HEWI
100
AcDbCircle
 10
293.0079045016846
 20
245.5257138584057
 30
0.0
 40
169.5
100
AcDbArc
 50
353.7756510019665
 51
353.9834520003618
  0
ARC
  5
2C89
330
1F
100
AcDbEntity
  8
HEWI
100
AcDbCircle
 10
293.0079045016846
 20
245.5257138584057
 30
0.0
 40
169.5
100
AcDbArc
 50
352.66927799656
 51
353.5639380014568
  0
ARC
  5
2C8A
330
1F
100
AcDbEntity
  8
HEWI
100
AcDbCircle
 10
374.7579045016847
 20
266.1757138583125
 30
0.0
 40
1.199999999999999
100
AcDbArc
 50
90.0
 51
169.3940930006214
  0
ARC
  5
2C8B
330
1F
100
AcDbEntity
  8
HEWI
100
AcDbCircle
 10
381.8579045016613
 20
266.1757138583125
 30
0.0
 40
1.199999999999999
100
AcDbArc
 50
11.02922700193504
 51
90.0
  0
ARC
  5
2C8C
330
1F
100
AcDbEntity
  8
HEWI
100
AcDbCircle
 10
-378.3079045017312
 20
245.5257138584057
 30
0.0
 40
21.4
210
0.0
220
0.0
230
-1.0
100
AcDbArc
 50
90.00000200103199
 51
242.1450040027071
  0
ARC
  5
2C8D
330
1F
100
AcDbEntity
  8
HEWI
100
AcDbCircle
 10
-378.3079045017312
 20
245.5257138584057
 30
0.0
 40
21.4
210
0.0
220
0.0
230
-1.0
100
AcDbArc
 50
297.8550009981853
 51
90.00000200103199
  0
ARC
  5
2C8E
330
1F
100
AcDbEntity
  8
HEWI
100
AcDbCircle
 10
-378.3079045017312
 20
89.52571385840565
 30
0.0
 40
10.0
210
0.0
220
0.0
230
-1.0
100
AcDbArc
 50
179.999998999484
 51
359.999995997936
  0
ARC
  5
2C8F
330
1F
100
AcDbEntity
  8
HEWI
100
AcDbCircle
 10
378.3079045017312
 20
245.5257138584057
 30
0.0
 40
10.0
100
AcDbArc
 50
359.999998999484
 51
179.9999959979359
  0
ARC
  5
2C90
330
1F
100
AcDbEntity
  8
HEWI
100
AcDbCircle
 10
378.3079045017312
 20
245.5257138584057
 30
0.0
 40
10.1
100
AcDbArc
 50
351.9337460021902
 51
90.0
  0
ARC
  5
2C91
330
1F
100
AcDbEntity
  8
HEWI
100
AcDbCircle
 10
378.3079045017312
 20
245.5257138584057
 30
0.0
 40
10.1
100
AcDbArc
 50
90.0
 51
188.0662539978098
  0
ARC
  5
2C92
330
1F
100
AcDbEntity
  8
HEWI
100
AcDbCircle
 10
378.3079045017312
 20
245.5257138584057
 30
0.0
 40
20.98457984180438
100
AcDbArc
 50
298.4625020011094
 51
241.5375029987422
  0
CIRCLE
  5
2C93
330
1F
100
AcDbEntity
  8
HEWI
100
AcDbCircle
 10
-455.0079045016846
 20
245.5257138584057
 30
0.0
 40
3.95
210
0.0
220
0.0
230
-1.0
  0
CIRCLE
  5
2C94
330
1F
100
AcDbEntity
  8
HEWI
100
AcDbCircle
 10
455.0079045016846
 20
245.5257138584057
 30
0.0
 40
3.75
  0
ARC
  5
2C95
330
1F
100
AcDbEntity
  8
HEWI
100
AcDbCircle
 10
-293.0079045016846
 20
245.5257138584057
 30
0.0
 40
169.4933627019064
210
0.0
220
0.0
230
-1.0
100
AcDbArc
 50
183.2261940006622
 51
183.4306350018596
  0
ARC
  5
2C96
330
1F
100
AcDbEntity
  8
HEWI
100
AcDbCircle
 10
-293.0079045016846
 20
245.5257138584057
 30
0.0
 40
169.4999122234284
210
0.0
220
0.0
230
-1.0
100
AcDbArc
 50
183.4305020019523
 51
183.8407619989443
  0
ARC
  5
2C97
330
1F
100
AcDbEntity
  8
HEWI
100
AcDbCircle
 10
-293.0079045016846
 20
245.5257138584057
 30
0.0
 40
169.4933627019064
210
0.0
220
0.0
230
-1.0
100
AcDbArc
 50
183.8409109966915
 51
184.0454910025306
  0
ARC
  5
2C98
330
1F
100
AcDbEntity
  8
HEWI
100
AcDbCircle
 10
-293.0079045016846
 20
245.5257138584057
 30
0.0
 40
169.4970648529051
210
0.0
220
0.0
230
-1.0
100
AcDbArc
 50
184.3873239995614
 51
184.8184369980474
  0
ARC
  5
2C99
330
1F
100
AcDbEntity
  8
HEWI
100
AcDbCircle
 10
293.0079045016846
 20
245.5257138584057
 30
0.0
 40
169.4999122234284
100
AcDbArc
 50
355.2159860013273
 51
355.6127500020239
  0
ARC
  5
2C9A
330
1F
100
AcDbEntity
  8
HEWI
100
AcDbCircle
 10
293.0079045016846
 20
245.5257138584057
 30
0.0
 40
169.4933627019064
100
AcDbArc
 50
355.1814569995441
 51
355.8172480012221
  0
ARC
  5
2C9B
330
1F
100
AcDbEntity
  8
HEWI
100
AcDbCircle
 10
293.0079045016846
 20
245.5257138584057
 30
0.0
 40
169.4933627019064
100
AcDbArc
 50
354.1361550008162
 51
354.3361920026484
  0
ARC
  5
2C9C
330
1F
100
AcDbEntity
  8
HEWI
100
AcDbCircle
 10
293.0079045016846
 20
245.5257138584057
 30
0.0
 40
169.4933627019064
100
AcDbArc
 50
354.6647600015224
 51
354.8646189991463
  0
ARC
  5
2C9D
330
1F
100
AcDbEntity
  8
HEWI
100
AcDbCircle
 10
293.0079045016846
 20
245.5257138584057
 30
0.0
 40
169.4933627019064
100
AcDbArc
 50
353.5636840033522
 51
353.7754059984278
  0
ELLIPSE
  5
2C9E
330
1F
100
AcDbEntity
  8
HEWI
100
AcDbEllipse
 10
293.0079045016846
 20
229.2263918583994
 30
0.0
 11
168.6436243187809
 21
-0.000000000000031
 31
0.0
210
0.0
220
0.0
230
1.0
 40
0.287348
 41
6.252909025330677
 42
6.262198382329811
  0
ELLIPSE
  5
2C9F
330
1F
100
AcDbEntity
  8
HEWI
100
AcDbEllipse
 10
293.0079045016846
 20
230.2732238583049
 30
0.0
 11
168.7732901007875
 21
-0.000000000000031
 31
0.0
210
0.0
220
0.0
230
1.0
 40
0.231621
 41
6.261064864933637
 42
6.270202259065149
  0
ELLIPSE
  5
2CA0
330
1F
100
AcDbEntity
  8
HEWI
100
AcDbEllipse
 10
293.0079045016846
 20
230.0029678584324
 30
0.0
 11
-168.7484868853435
 21
0.000000000000031
 31
0.0
210
0.0
220
0.0
230
1.0
 40
0.228244
 41
3.110308100903837
 42
3.119441315290725
  0
ELLIPSE
  5
2CA1
330
1F
100
AcDbEntity
  8
HEWI
100
AcDbEllipse
 10
293.0079045016846
 20
229.4156138584731
 30
0.0
 11
-168.6821574448658
 21
0.000000000000031
 31
0.0
210
0.0
220
0.0
230
1.0
 40
0.248246
 41
3.109740745693466
 42
3.119951091717549
  0
ELLIPSE
  5
2CA2
330
1F
100
AcDbEntity
  8
HEWI
100
AcDbEllipse
 10
293.0079045016846
 20
229.4094678584734
 30
0.0
 11
168.6952862611579
 21
-0.000000000000031
 31
0.0
210
0.0
220
0.0
230
1.0
 40
0.213601
 41
6.258205592004622
 42
6.268644474791622
  0
ELLIPSE
  5
2CA3
330
1F
100
AcDbEntity
  8
HEWI
100
AcDbEllipse
 10
293.0079045016846
 20
230.6448178584469
 30
0.0
 11
-168.8131892091432
 21
0.000000000000031
 31
0.0
210
0.0
220
0.0
230
0.9999999999999998
 40
0.216748
 41
3.114912182543509
 42
3.125047897567731
  0
ELLIPSE
  5
2CA4
330
1F
100
AcDbEntity
  8
HEWI
100
AcDbEllipse
 10
293.0079045016846
 20
231.0929058582769
 30
0.0
 11
168.8455842382902
 21
-0.000000000000031
 31
0.0
210
0.0
220
0.0
230
1.0
 40
0.243355
 41
6.25754491046944
 42
6.267865963922942
  0
ELLIPSE
  5
2CA5
330
1F
100
AcDbEntity
  8
HEWI
100
AcDbEllipse
 10
293.0079045016846
 20
231.8574958583122
 30
0.0
 11
-168.9042699055282
 21
0.000000000000031
 31
0.0
210
0.0
220
0.0
230
1.0
 40
0.270743
 41
3.108719128888243
 42
3.117948010809592
  0
SPLINE
  5
2CA6
330
1F
100
AcDbEntity
  8
HEWI
100
AcDbSpline
210
0.0
220
0.0
230
1.0
 70
     8
 71
     3
 72
    12
 73
     8
 74
     0
 42
0.000000001
 43
0.0000000001
 40
0.0
 40
0.0
 40
0.0
 40
0.0
 40
0.3542017127530358
 40
0.3542017127530358
 40
0.7084034255060718
 40
0.7084034255060718
 40
1.0
 40
1.0
 40
1.0
 40
1.0
 10
401.7079037133899
 20
245.5257130847094
 30
0.0
 10
401.7079037133899
 20
242.1495761503247
 30
0.0
 10
400.8005419566123
 20
238.8979978177013
 30
0.0
 10
397.9090259071036
 20
233.4591531571714
 30
0.0
 10
395.9917479390806
 20
231.2876402907786
 30
0.0
 10
392.1869267082602
 20
228.1783205349711
 30
0.0
 10
390.3353139468763
 20
227.0790763119949
 30
0.0
 10
388.440548134904
 20
226.2475572435433
 30
0.0
  0
SPLINE
  5
2CA7
330
1F
100
AcDbEntity
  8
HEWI
100
AcDbSpline
210
0.0
220
0.0
230
1.0
 70
     8
 71
     3
 72
    16
 73
    12
 74
     0
 42
0.000000001
 43
0.0000000001
 40
0.0
 40
0.0
 40
0.0
 40
0.0
 40
0.0239821493081167
 40
0.0239821493081167
 40
0.1634132708355285
 40
0.1634132708355285
 40
0.4422755138903526
 40
0.4422755138903526
 40
0.7211377569451768
 40
0.7211377569451768
 40
1.0
 40
1.0
 40
1.0
 40
1.0
 10
382.8865215712522
 20
266.4992279452054
 30
0.0
 10
383.0788577457952
 20
266.464207441757
 30
0.0
 10
383.2745391610607
 20
266.4263288057191
 30
0.0
 10
384.614613841457
 20
266.1492424323005
 30
0.0
 10
385.8125986236209
 20
265.8159754457665
 30
0.0
 10
389.3339694840197
 20
264.5306636467358
 30
0.0
 10
391.6258980713847
 20
263.3028647932006
 30
0.0
 10
395.9053012214663
 20
259.8613300232464
 30
0.0
 10
397.853219710576
 20
257.6683224614026
 30
0.0
 10
400.7717862579101
 20
252.2356075988864
 30
0.0
 10
401.7079037133899
 20
248.9018500190941
 30
0.0
 10
401.7079037133899
 20
245.5257130847094
 30
0.0
  0
LINE
  5
2CA8
330
1F
100
AcDbEntity
  8
HEWI
100
AcDbLine
 10
114.9717573788622
 20
711.8939696865473
 30
0.0
 11
220.9717573788622
 21
711.8939696865473
 31
0.0
  0
LINE
  5
2CA9
330
1F
100
AcDbEntity
  8
HEWI
100
AcDbLine
 10
220.9717573788622
 20
731.8939696865473
 30
0.0
 11
114.9717573788622
 21
731.8939696865473
 31
0.0
  0
LINE
  5
2CAA
330
1F
100
AcDbEntity
  8
HEWI
100
AcDbLine
 10
255.9717573788622
 20
551.8939696865471
 30
0.0
 11
255.9717573788622
 21
696.8939696865472
 31
0.0
  0
LINE
  5
2CAB
330
1F
100
AcDbEntity
  8
HEWI
100
AcDbLine
 10
235.9717573788622
 20
696.8939696865472
 30
0.0
 11
235.9717573788622
 21
551.8939696865471
 31
0.0
  0
LINE
  5
2CAC
330
1F
100
AcDbEntity
  8
HEWI
100
AcDbLine
 10
99.97175737886221
 20
671.8939696865472
 30
0.0
 11
99.97175737886221
 21
696.8939696865472
 31
0.0
  0
LINE
  5
2CAD
330
1F
100
AcDbEntity
  8
HEWI
100
AcDbLine
 10
79.9717573788622
 20
696.8939696865472
 30
0.0
 11
79.9717573788622
 21
671.8939696865472
 31
0.0
  0
LINE
  5
2CAE
330
1F
100
AcDbEntity
  8
HEWI
100
AcDbLine
 10
224.5717573787225
 20
550.1738756865578
 30
0.0
 11
224.5717573787225
 21
519.5427116865374
 31
0.0
  0
LINE
  5
2CAF
330
1F
100
AcDbEntity
  8
HEWI
100
AcDbLine
 10
224.5717573787225
 20
505.6453536866083
 30
0.0
 11
224.5717573787225
 21
462.0939696866171
 31
0.0
  0
LINE
  5
2CB0
330
1F
100
AcDbEntity
  8
HEWI
100
AcDbLine
 10
267.3717573787691
 20
548.0439696865706
 30
0.0
 11
267.3717573787691
 21
550.1738756865578
 31
0.0
  0
LINE
  5
2CB1
330
1F
100
AcDbEntity
  8
HEWI
100
AcDbLine
 10
267.3717573787691
 20
462.0939696866171
 30
0.0
 11
267.3717573787691
 21
505.6439556865569
 31
0.0
  0
LINE
  5
2CB2
330
1F
100
AcDbEntity
  8
HEWI
100
AcDbLine
 10
267.3717573787691
 20
519.5429376866286
 30
0.0
 11
267.3717573787691
 21
538.6065176865868
 31
0.0
  0
LINE
  5
2CB3
330
1F
100
AcDbEntity
  8
HEWI
100
AcDbLine
 10
242.0717573787225
 20
490.0939696866171
 30
0.0
 11
242.0717573787225
 21
490.0666676865276
 31
0.0
  0
LINE
  5
2CB4
330
1F
100
AcDbEntity
  8
HEWI
100
AcDbLine
 10
249.8717573787691
 20
490.0666676865276
 30
0.0
 11
249.8717573787691
 21
490.0939696866171
 31
0.0
  0
LINE
  5
2CB5
330
1F
100
AcDbEntity
  8
HEWI
100
AcDbLine
 10
237.0217573789088
 20
551.8939696865471
 30
0.0
 11
237.0217573789088
 21
551.5939696866171
 31
0.0
  0
LINE
  5
2CB6
330
1F
100
AcDbEntity
  8
HEWI
100
AcDbLine
 10
254.9217573788157
 20
551.5939696866171
 30
0.0
 11
254.9217573788157
 21
551.8939696865471
 31
0.0
  0
LINE
  5
2CB7
330
1F
100
AcDbEntity
  8
HEWI
100
AcDbLine
 10
249.9217573788156
 20
534.7531216865953
 30
0.0
 11
249.9217573788156
 21
604.8939696865472
 31
0.0
  0
LINE
  5
2CB8
330
1F
100
AcDbEntity
  8
HEWI
100
AcDbLine
 10
242.0217573789088
 20
604.8939696865472
 30
0.0
 11
242.0217573789088
 21
534.745969686619
 31
0.0
  0
LINE
  5
2CB9
330
1F
100
AcDbEntity
  8
HEWI
100
AcDbLine
 10
227.7554973787302
 20
511.0939696866171
 30
0.0
 11
228.6554973788699
 21
514.0939696866171
 31
0.0
  0
LINE
  5
2CBA
330
1F
100
AcDbEntity
  8
HEWI
100
AcDbLine
 10
248.7594773787679
 20
490.0939696866171
 30
0.0
 11
248.7594773787679
 21
490.2673436866224
 31
0.0
  0
LINE
  5
2CBB
330
1F
100
AcDbEntity
  8
HEWI
100
AcDbLine
 10
248.8217573787225
 20
490.0939696866171
 30
0.0
 11
248.8217573787225
 21
490.2752156866099
 31
0.0
  0
LINE
  5
2CBC
330
1F
100
AcDbEntity
  8
HEWI
100
AcDbLine
 10
267.8217573787225
 20
546.8439696866171
 30
0.0
 11
267.8217573787225
 21
539.743969686524
 31
0.0
  0
LINE
  5
2CBD
330
1F
100
AcDbEntity
  8
HEWI
100
AcDbLine
 10
242.2015333787677
 20
489.7717456866138
 30
0.0
 11
249.7419793787086
 21
489.7717456866138
 31
0.0
  0
LINE
  5
2CBE
330
1F
100
AcDbEntity
  8
HEWI
100
AcDbLine
 10
242.0717573787225
 20
490.0939696866171
 30
0.0
 11
249.8717573787691
 21
490.0939696866171
 31
0.0
  0
LINE
  5
2CBF
330
1F
100
AcDbEntity
  8
HEWI
100
AcDbLine
 10
242.0717573787225
 20
490.0666676865276
 30
0.0
 11
249.8717573787691
 21
490.0666676865276
 31
0.0
  0
LINE
  5
2CC0
330
1F
100
AcDbEntity
  8
HEWI
100
AcDbLine
 10
243.1217573787691
 20
490.0939696866171
 30
0.0
 11
243.1217573787691
 21
490.2752156866099
 31
0.0
  0
LINE
  5
2CC1
330
1F
100
AcDbEntity
  8
HEWI
100
AcDbLine
 10
245.6287033788068
 20
490.0966036865337
 30
0.0
 11
245.6287033788068
 21
490.0939696866171
 31
0.0
  0
LINE
  5
2CC2
330
1F
100
AcDbEntity
  8
HEWI
100
AcDbLine
 10
245.3792093787016
 20
490.0939696866171
 30
0.0
 11
245.3792093787016
 21
490.1017856865273
 31
0.0
  0
LINE
  5
2CC3
330
1F
100
AcDbEntity
  8
HEWI
100
AcDbLine
 10
249.9197873787163
 20
550.1738756865578
 30
0.0
 11
267.3717573787691
 21
550.1738756865578
 31
0.0
  0
LINE
  5
2CC4
330
1F
100
AcDbEntity
  8
HEWI
100
AcDbLine
 10
224.5717573787225
 20
550.1738756865578
 30
0.0
 11
242.0216613788763
 21
550.1738756865578
 31
0.0
  0
LINE
  5
2CC5
330
1F
100
AcDbEntity
  8
HEWI
100
AcDbLine
 10
99.97175737886221
 20
671.8939696865472
 30
0.0
 11
79.9717573788622
 21
671.8939696865472
 31
0.0
  0
LINE
  5
2CC6
330
1F
100
AcDbEntity
  8
HEWI
100
AcDbLine
 10
235.9717573788622
 20
551.8939696865471
 30
0.0
 11
242.0219133786996
 21
551.8939696865471
 31
0.0
  0
LINE
  5
2CC7
330
1F
100
AcDbEntity
  8
HEWI
100
AcDbLine
 10
249.9225033789081
 20
551.8939696865471
 30
0.0
 11
255.9717573788622
 21
551.8939696865471
 31
0.0
  0
LINE
  5
2CC8
330
1F
100
AcDbEntity
  8
HEWI
100
AcDbLine
 10
242.022533378764
 20
551.5939696866171
 30
0.0
 11
235.8717573787691
 21
551.5939696866171
 31
0.0
  0
LINE
  5
2CC9
330
1F
100
AcDbEntity
  8
HEWI
100
AcDbLine
 10
256.0717573787225
 20
551.5939696866171
 30
0.0
 11
249.9218933789199
 21
551.5939696866171
 31
0.0
  0
LINE
  5
2CCA
330
1F
100
AcDbEntity
  8
HEWI
100
AcDbLine
 10
235.8717573787691
 20
551.5939696866171
 30
0.0
 11
235.8717573787691
 21
551.5939696866171
 31
0.0
  0
LINE
  5
2CCB
330
1F
100
AcDbEntity
  8
HEWI
100
AcDbLine
 10
224.9871773786982
 20
550.6666716865346
 30
0.0
 11
242.0234513787692
 21
550.6666716865346
 31
0.0
  0
LINE
  5
2CCC
330
1F
100
AcDbEntity
  8
HEWI
100
AcDbLine
 10
249.922085378752
 20
550.6666716865346
 30
0.0
 11
266.9563373787934
 21
550.6666716865346
 31
0.0
  0
LINE
  5
2CCD
330
1F
100
AcDbEntity
  8
HEWI
100
AcDbLine
 10
267.3717573787691
 20
462.0939696866171
 30
0.0
 11
224.5717573787225
 21
462.0939696866171
 31
0.0
  0
LINE
  5
2CCE
330
1F
100
AcDbEntity
  8
HEWI
100
AcDbLine
 10
234.0142573788436
 20
511.0939696866171
 30
0.0
 11
234.6180173786962
 21
511.0939696866171
 31
0.0
  0
LINE
  5
2CCF
330
1F
100
AcDbEntity
  8
HEWI
100
AcDbLine
 10
234.6180173786962
 20
511.0939696866171
 30
0.0
 11
234.6180173786962
 21
512.2902096865782
 31
0.0
  0
LINE
  5
2CD0
330
1F
100
AcDbEntity
  8
HEWI
100
AcDbLine
 10
234.6180173786962
 20
512.2902096865782
 30
0.0
 11
235.8292573787877
 21
512.2902096865782
 31
0.0
  0
LINE
  5
2CD1
330
1F
100
AcDbEntity
  8
HEWI
100
AcDbLine
 10
235.8292573787877
 20
512.2902096865782
 30
0.0
 11
235.8292573787877
 21
511.0939696866171
 31
0.0
  0
LINE
  5
2CD2
330
1F
100
AcDbEntity
  8
HEWI
100
AcDbLine
 10
235.8292573787877
 20
511.0939696866171
 30
0.0
 11
236.4330173788732
 21
511.0939696866171
 31
0.0
  0
LINE
  5
2CD3
330
1F
100
AcDbEntity
  8
HEWI
100
AcDbLine
 10
233.0054973787302
 20
512.2902096865782
 30
0.0
 11
231.8354973788047
 21
512.2902096865782
 31
0.0
  0
LINE
  5
2CD4
330
1F
100
AcDbEntity
  8
HEWI
100
AcDbLine
 10
233.0054973787302
 20
511.618969686524
 30
0.0
 11
233.0054973787302
 21
512.2902096865782
 31
0.0
  0
LINE
  5
2CD5
330
1F
100
AcDbEntity
  8
HEWI
100
AcDbLine
 10
231.7342573788157
 20
511.618969686524
 30
0.0
 11
233.0054973787302
 21
511.618969686524
 31
0.0
  0
LINE
  5
2CD6
330
1F
100
AcDbEntity
  8
HEWI
100
AcDbLine
 10
231.7342573788157
 20
511.0939696866171
 30
0.0
 11
231.7342573788157
 21
511.618969686524
 31
0.0
  0
LINE
  5
2CD7
330
1F
100
AcDbEntity
  8
HEWI
100
AcDbLine
 10
233.6092573788156
 20
511.0939696866171
 30
0.0
 11
231.7342573788157
 21
511.0939696866171
 31
0.0
  0
LINE
  5
2CD8
330
1F
100
AcDbEntity
  8
HEWI
100
AcDbLine
 10
228.4192573788715
 20
511.0939696866171
 30
0.0
 11
227.7554973787302
 21
511.0939696866171
 31
0.0
  0
LINE
  5
2CD9
330
1F
100
AcDbEntity
  8
HEWI
100
AcDbLine
 10
230.0242573788529
 20
511.0939696866171
 30
0.0
 11
229.4130173788545
 21
511.0939696866171
 31
0.0
  0
LINE
  5
2CDA
330
1F
100
AcDbEntity
  8
HEWI
100
AcDbLine
 10
231.6442573787318
 20
511.0939696866171
 30
0.0
 11
231.0067573787784
 21
511.0939696866171
 31
0.0
  0
LINE
  5
2CDB
330
1F
100
AcDbEntity
  8
HEWI
100
AcDbLine
 10
227.5942573789181
 20
511.0939696866171
 30
0.0
 11
226.9717573788622
 21
511.0939696866171
 31
0.0
  0
LINE
  5
2CDC
330
1F
100
AcDbEntity
  8
HEWI
100
AcDbLine
 10
242.0217573789088
 20
604.8939696865472
 30
0.0
 11
249.9217573788156
 21
604.8939696865472
 31
0.0
  0
LINE
  5
2CDD
330
1F
100
AcDbEntity
  8
HEWI
100
AcDbLine
 10
249.7217573788622
 20
605.0939696866171
 30
0.0
 11
242.2217573788622
 21
605.0939696866171
 31
0.0
  0
LINE
  5
2CDE
330
1F
100
AcDbEntity
  8
HEWI
100
AcDbLine
 10
236.4330173788732
 20
514.0939696866171
 30
0.0
 11
235.8292573787877
 21
514.0939696866171
 31
0.0
  0
LINE
  5
2CDF
330
1F
100
AcDbEntity
  8
HEWI
100
AcDbLine
 10
235.8292573787877
 20
514.0939696866171
 30
0.0
 11
235.8292573787877
 21
512.766469686603
 31
0.0
  0
LINE
  5
2CE0
330
1F
100
AcDbEntity
  8
HEWI
100
AcDbLine
 10
235.8292573787877
 20
512.766469686603
 30
0.0
 11
234.6180173786962
 21
512.766469686603
 31
0.0
  0
LINE
  5
2CE1
330
1F
100
AcDbEntity
  8
HEWI
100
AcDbLine
 10
234.6180173786962
 20
512.766469686603
 30
0.0
 11
234.6180173786962
 21
514.0939696866171
 31
0.0
  0
LINE
  5
2CE2
330
1F
100
AcDbEntity
  8
HEWI
100
AcDbLine
 10
234.6180173786962
 20
514.0939696866171
 30
0.0
 11
234.0142573788436
 21
514.0939696866171
 31
0.0
  0
LINE
  5
2CE3
330
1F
100
AcDbEntity
  8
HEWI
100
AcDbLine
 10
234.0142573788436
 20
514.0939696866171
 30
0.0
 11
234.0142573788436
 21
511.0939696866171
 31
0.0
  0
LINE
  5
2CE4
330
1F
100
AcDbEntity
  8
HEWI
100
AcDbLine
 10
236.4330173788732
 20
511.0939696866171
 30
0.0
 11
236.4330173788732
 21
514.0939696866171
 31
0.0
  0
LINE
  5
2CE5
330
1F
100
AcDbEntity
  8
HEWI
100
AcDbLine
 10
231.7342573788157
 20
513.5914696865564
 30
0.0
 11
231.7342573788157
 21
514.0939696866171
 31
0.0
  0
LINE
  5
2CE6
330
1F
100
AcDbEntity
  8
HEWI
100
AcDbLine
 10
233.0054973787302
 20
513.5914696865564
 30
0.0
 11
231.7342573788157
 21
513.5914696865564
 31
0.0
  0
LINE
  5
2CE7
330
1F
100
AcDbEntity
  8
HEWI
100
AcDbLine
 10
233.0054973787302
 20
512.766469686603
 30
0.0
 11
233.0054973787302
 21
513.5914696865564
 31
0.0
  0
LINE
  5
2CE8
330
1F
100
AcDbEntity
  8
HEWI
100
AcDbLine
 10
231.8354973788047
 20
512.766469686603
 30
0.0
 11
233.0054973787302
 21
512.766469686603
 31
0.0
  0
LINE
  5
2CE9
330
1F
100
AcDbEntity
  8
HEWI
100
AcDbLine
 10
231.8354973788047
 20
512.2902096865782
 30
0.0
 11
231.8354973788047
 21
512.766469686603
 31
0.0
  0
LINE
  5
2CEA
330
1F
100
AcDbEntity
  8
HEWI
100
AcDbLine
 10
233.6092573788156
 20
514.0939696866171
 30
0.0
 11
233.6092573788156
 21
511.0939696866171
 31
0.0
  0
LINE
  5
2CEB
330
1F
100
AcDbEntity
  8
HEWI
100
AcDbLine
 10
231.7342573788157
 20
514.0939696866171
 30
0.0
 11
233.6092573788156
 21
514.0939696866171
 31
0.0
  0
LINE
  5
2CEC
330
1F
100
AcDbEntity
  8
HEWI
100
AcDbLine
 10
229.7242573788063
 20
512.0464696866311
 30
0.0
 11
230.2117573788529
 21
514.0939696866171
 31
0.0
  0
LINE
  5
2CED
330
1F
100
AcDbEntity
  8
HEWI
100
AcDbLine
 10
229.244257378825
 20
514.0939696866171
 30
0.0
 11
229.7242573788063
 21
512.0464696866311
 31
0.0
  0
LINE
  5
2CEE
330
1F
100
AcDbEntity
  8
HEWI
100
AcDbLine
 10
228.6554973788699
 20
514.0939696866171
 30
0.0
 11
229.244257378825
 21
514.0939696866171
 31
0.0
  0
LINE
  5
2CEF
330
1F
100
AcDbEntity
  8
HEWI
100
AcDbLine
 10
228.9554973789165
 20
513.1864696865286
 30
0.0
 11
228.4192573788715
 21
511.0939696866171
 31
0.0
  0
LINE
  5
2CF0
330
1F
100
AcDbEntity
  8
HEWI
100
AcDbLine
 10
229.4130173788545
 20
511.0939696866171
 30
0.0
 11
228.9554973789165
 21
513.1864696865286
 31
0.0
  0
LINE
  5
2CF1
330
1F
100
AcDbEntity
  8
HEWI
100
AcDbLine
 10
230.4855173788638
 20
513.171469686631
 30
0.0
 11
230.0242573788529
 21
511.0939696866171
 31
0.0
  0
LINE
  5
2CF2
330
1F
100
AcDbEntity
  8
HEWI
100
AcDbLine
 10
231.0067573787784
 20
511.0939696866171
 30
0.0
 11
230.4855173788638
 21
513.171469686631
 31
0.0
  0
LINE
  5
2CF3
330
1F
100
AcDbEntity
  8
HEWI
100
AcDbLine
 10
230.800517378808
 20
514.0939696866171
 30
0.0
 11
231.6442573787318
 21
511.0939696866171
 31
0.0
  0
LINE
  5
2CF4
330
1F
100
AcDbEntity
  8
HEWI
100
AcDbLine
 10
230.2117573788529
 20
514.0939696866171
 30
0.0
 11
230.800517378808
 21
514.0939696866171
 31
0.0
  0
LINE
  5
2CF5
330
1F
100
AcDbEntity
  8
HEWI
100
AcDbLine
 10
226.9717573788622
 20
511.0939696866171
 30
0.0
 11
226.9717573788622
 21
514.0939696866171
 31
0.0
  0
LINE
  5
2CF6
330
1F
100
AcDbEntity
  8
HEWI
100
AcDbLine
 10
227.5942573789181
 20
514.0939696866171
 30
0.0
 11
227.5942573789181
 21
511.0939696866171
 31
0.0
  0
LINE
  5
2CF7
330
1F
100
AcDbEntity
  8
HEWI
100
AcDbLine
 10
226.9717573788622
 20
514.0939696866171
 30
0.0
 11
227.5942573789181
 21
514.0939696866171
 31
0.0
  0
ARC
  5
2CF8
330
1F
100
AcDbEntity
  8
HEWI
100
AcDbCircle
 10
242.4717573788622
 20
490.0666676865276
 30
0.0
 40
0.4
100
AcDbArc
 50
180.0
 51
227.5025880014439
  0
ARC
  5
2CF9
330
1F
100
AcDbEntity
  8
HEWI
100
AcDbCircle
 10
249.4717573788622
 20
490.0666676865276
 30
0.0
 40
0.4
100
AcDbArc
 50
312.497411998556
 51
0.0
  0
ARC
  5
2CFA
330
1F
100
AcDbEntity
  8
HEWI
100
AcDbCircle
 10
245.3508593788976
 20
494.5642456865953
 30
0.0
 40
6.500000000000002
100
AcDbArc
 50
275.4814019995514
 51
312.497411998556
  0
ARC
  5
2CFB
330
1F
100
AcDbEntity
  8
HEWI
100
AcDbCircle
 10
246.5926533788116
 20
494.5642456865953
 30
0.0
 40
6.500000000000002
100
AcDbArc
 50
227.5025880014439
 51
264.5185980004486
  0
ARC
  5
2CFC
330
1F
100
AcDbEntity
  8
HEWI
100
AcDbCircle
 10
266.6217573787691
 20
546.8439696866171
 30
0.0
 40
1.199999999999999
100
AcDbArc
 50
0.0
 51
53.81582499994782
  0
ARC
  5
2CFD
330
1F
100
AcDbEntity
  8
HEWI
100
AcDbCircle
 10
266.6217573787691
 20
539.743969686524
 30
0.0
 40
1.199999999999999
100
AcDbArc
 50
306.3319029953252
 51
0.0
  0
ARC
  5
2CFE
330
1F
100
AcDbEntity
  8
HEWI
100
AcDbCircle
 10
249.7217573788622
 20
604.8939696865472
 30
0.0
 40
0.2
100
AcDbArc
 50
0.0
 51
90.0
  0
ARC
  5
2CFF
330
1F
100
AcDbEntity
  8
HEWI
100
AcDbCircle
 10
242.2217573788622
 20
604.8939696865472
 30
0.0
 40
0.2
100
AcDbArc
 50
90.0
 51
180.0
  0
ARC
  5
2D00
330
1F
100
AcDbEntity
  8
HEWI
100
AcDbCircle
 10
-114.9717573788622
 20
696.8939696865472
 30
0.0
 40
15.00000000000002
210
0.0
220
0.0
230
-1.0
100
AcDbArc
 50
0.0
 51
90.0
  0
ARC
  5
2D01
330
1F
100
AcDbEntity
  8
HEWI
100
AcDbCircle
 10
114.9717573788622
 20
696.8939696865472
 30
0.0
 40
35.00000000000002
100
AcDbArc
 50
90.0
 51
180.0
  0
ARC
  5
2D02
330
1F
100
AcDbEntity
  8
HEWI
100
AcDbCircle
 10
-220.9717573788622
 20
696.8939696865472
 30
0.0
 40
15.00000000000001
210
0.0
220
0.0
230
-1.0
100
AcDbArc
 50
90.0
 51
180.0
  0
ARC
  5
2D03
330
1F
100
AcDbEntity
  8
HEWI
100
AcDbCircle
 10
220.9717573788622
 20
696.8939696865472
 30
0.0
 40
35.0
100
AcDbArc
 50
0.0
 51
90.0
  0
ARC
  5
2D04
330
1F
100
AcDbEntity
  8
HEWI
100
AcDbCircle
 10
266.8717573787692
 20
550.1738756865578
 30
0.0
 40
0.5
100
AcDbArc
 50
0.0
 51
80.26103499957169
  0
ARC
  5
2D05
330
1F
100
AcDbEntity
  8
HEWI
100
AcDbCircle
 10
225.0717573787225
 20
550.1738756865578
 30
0.0
 40
0.5
100
AcDbArc
 50
99.73896500042831
 51
180.0
  0
ARC
  5
2D06
330
1F
100
AcDbEntity
  8
HEWI
100
AcDbCircle
 10
235.8717573787691
 20
487.2489696865286
 30
0.0
 40
64.34499999999998
100
AcDbArc
 50
90.0
 51
99.73896500042831
  0
ARC
  5
2D07
330
1F
100
AcDbEntity
  8
HEWI
100
AcDbCircle
 10
256.0717573787225
 20
487.2489696865286
 30
0.0
 40
64.34499999999998
100
AcDbArc
 50
80.26103499957169
 51
90.0
  0
CIRCLE
  5
2D08
330
1F
100
AcDbEntity
  8
HEWI
100
AcDbCircle
 10
245.9717573788622
 20
512.5939696866171
 30
0.0
 40
21.62759643916914
  0
CIRCLE
  5
2D09
330
1F
100
AcDbEntity
  8
HEWI
100
AcDbCircle
 10
-245.9717573788622
 20
512.5939696866171
 30
0.0
 40
22.5
210
0.0
220
0.0
230
-1.0
  0
SPLINE
  5
2D0A
330
1F
100
AcDbEntity
  8
HEWI
100
AcDbSpline
210
0.0
220
0.0
230
1.0
 70
     8
 71
     3
 72
    10
 73
     6
 74
     0
 42
0.000000001
 43
0.0000000001
 40
0.0
 40
0.0
 40
0.0
 40
0.0
 40
0.5134791294547476
 40
0.5134791294547476
 40
1.0
 40
1.0
 40
1.0
 40
1.0
 10
249.9587839590059
 20
535.4236590646523
 30
0.0
 10
251.933030985496
 20
535.0084205945803
 30
0.0
 10
253.794107756312
 20
534.3064758333694
 30
0.0
 10
256.9961500134924
 20
532.5655883502531
 30
0.0
 10
258.3853607091261
 20
531.5528380687664
 30
0.0
 10
259.6115100204153
 20
530.4312438797986
 30
0.0
  0
SPLINE
  5
2D0B
330
1F
100
AcDbEntity
  8
HEWI
100
AcDbSpline
210
0.0
220
0.0
230
1.0
 70
     8
 71
     3
 72
    10
 73
     6
 74
     0
 42
0.000000001
 43
0.0000000001
 40
0.0
 40
0.0
 40
0.0
 40
0.0
 40
0.4843782400945565
 40
0.4843782400945565
 40
1.0
 40
1.0
 40
1.0
 40
1.0
 10
259.5691479576891
 20
494.7157347208903
 30
0.0
 10
258.318042245428
 20
493.5767416549697
 30
0.0
 10
256.89620244849
 20
492.5513590374811
 30
0.0
 10
253.5716343971109
 20
490.7799433895469
 30
0.0
 10
251.6222461654944
 20
490.0808805536562
 30
0.0
 10
249.5772960171708
 20
489.6912232562518
 30
0.0
  0
SPLINE
  5
2D0C
330
1F
100
AcDbEntity
  8
HEWI
100
AcDbSpline
210
0.0
220
0.0
230
1.0
 70
     8
 71
     3
 72
    10
 73
     6
 74
     0
 42
0.000000001
 43
0.0000000001
 40
0.0
 40
0.0
 40
0.0
 40
0.0
 40
0.5553614523102868
 40
0.5553614523102868
 40
1.0
 40
1.0
 40
1.0
 40
1.0
 10
242.1452457038359
 20
489.732251635598
 30
0.0
 10
240.0704513715719
 20
490.1519476953743
 30
0.0
 10
238.1014940659189
 20
490.891385990506
 30
0.0
 10
234.9848588306596
 20
492.6160457457498
 30
0.0
 10
233.7413567958539
 20
493.5091953202698
 30
0.0
 10
232.6319530822476
 20
494.4867133436108
 30
0.0
  0
SPLINE
  5
2D0D
330
1F
100
AcDbEntity
  8
HEWI
100
AcDbSpline
210
0.0
220
0.0
230
1.0
 70
     8
 71
     3
 72
    10
 73
     6
 74
     0
 42
0.000000001
 43
0.0000000001
 40
0.0
 40
0.0
 40
0.0
 40
0.0
 40
0.4944664741382482
 40
0.4944664741382482
 40
1.0
 40
1.0
 40
1.0
 40
1.0
 10
232.2727325933193
 20
530.3782274805326
 30
0.0
 10
233.5182984084496
 20
531.5264927662991
 30
0.0
 10
234.9413944044755
 20
532.5684192274548
 30
0.0
 10
238.2121382618462
 20
534.3341635301094
 30
0.0
 10
240.0536860045651
 20
535.0263452170966
 30
0.0
 10
242.0117421783181
 20
535.4337242667878
 30
0.0
  0
SPLINE
  5
2D0E
330
1F
100
AcDbEntity
  8
HEWI
100
AcDbSpline
210
0.0
220
0.0
230
1.0
 70
     8
 71
     3
 72
    16
 73
    12
 74
     0
 42
0.000000001
 43
0.0000000001
 40
0.0
 40
0.0
 40
0.0
 40
0.0
 40
0.2499931126232169
 40
0.2499931126232169
 40
0.4999862252464337
 40
0.4999862252464337
 40
0.7499793378696504
 40
0.7499793378696504
 40
0.9999724504928671
 40
0.9999724504928671
 40
1.0
 40
1.0
 40
1.0
 40
1.0
 10
267.3717574916919
 20
548.0439718323378
 30
0.0
 10
267.3717544397478
 20
548.0439593230458
 30
0.0
 10
267.2452326381718
 20
547.5256313324988
 30
0.0
 10
266.9676522942865
 20
545.7786863196725
 30
0.0
 10
266.838110458306
 20
544.5402861700475
 30
0.0
 10
266.8377649900177
 20
542.0534488285975
 30
0.0
 10
266.9663183374471
 20
540.8176465545166
 30
0.0
 10
267.2465665246965
 20
539.0539114210604
 30
0.0
 10
267.3716424973355
 20
538.5444835396101
 30
0.0
 10
267.3717562502389
 20
538.5439710520058
 30
0.0
 10
267.3717566835368
 20
538.5439690993717
 30
0.0
 10
267.371757105193
 20
538.5439671440599
 30
0.0
  0
LINE
  5
2D9D
330
1F
100
AcDbEntity
  8
HEWI
100
AcDbLine
 10
451.108772501635
 20
535.093969686617
 30
0.0
 11
433.5079045016845
 21
535.093969686617
 31
0.0
  0
LINE
  5
2D9E
330
1F
100
AcDbEntity
  8
HEWI
100
AcDbLine
 10
460.1306145017097
 20
535.093969686617
 30
0.0
 11
458.9579045016379
 21
535.093969686617
 31
0.0
  0
LINE
  5
2D9F
330
1F
100
AcDbEntity
  8
HEWI
100
AcDbLine
 10
452.9080085016848
 20
490.093969686617
 30
0.0
 11
460.1306145017097
 21
490.093969686617
 31
0.0
  0
LINE
  5
2DA0
330
1F
100
AcDbEntity
  8
HEWI
100
AcDbLine
 10
442.6009045015616
 20
490.093969686617
 30
0.0
 11
445.1078825016101
 21
490.093969686617
 31
0.0
  0
LINE
  5
2DA1
330
1F
100
AcDbEntity
  8
HEWI
100
AcDbLine
 10
458.9579045016379
 20
535.093969686617
 30
0.0
 11
458.9579045016379
 21
604.8939696865471
 31
0.0
  0
LINE
  5
2DA2
330
1F
100
AcDbEntity
  8
HEWI
100
AcDbLine
 10
451.057904501731
 20
604.8939696865471
 30
0.0
 11
451.057904501731
 21
535.0949496866286
 31
0.0
  0
LINE
  5
2DA3
330
1F
100
AcDbEntity
  8
HEWI
100
AcDbLine
 10
388.3079045017311
 20
671.8939696865471
 30
0.0
 11
388.3079045017311
 21
696.8939696865471
 31
0.0
  0
LINE
  5
2DA4
330
1F
100
AcDbEntity
  8
HEWI
100
AcDbLine
 10
368.3079045017311
 20
696.8939696865471
 30
0.0
 11
368.3079045017311
 21
671.8939696865471
 31
0.0
  0
LINE
  5
2DA5
330
1F
100
AcDbEntity
  8
HEWI
100
AcDbLine
 10
388.3079045017311
 20
551.8939696865471
 30
0.0
 11
388.3079045017311
 21
671.8927976865869
 31
0.0
  0
LINE
  5
2DA6
330
1F
100
AcDbEntity
  8
HEWI
100
AcDbLine
 10
368.3079045017311
 20
671.8927976865869
 30
0.0
 11
368.3079045017311
 21
551.8939696865471
 31
0.0
  0
LINE
  5
2DA7
330
1F
100
AcDbEntity
  8
HEWI
100
AcDbLine
 10
356.9079045015914
 20
550.1738756865579
 30
0.0
 11
356.9079045015914
 21
462.093969686617
 31
0.0
  0
LINE
  5
2DA8
330
1F
100
AcDbEntity
  8
HEWI
100
AcDbLine
 10
399.707904501638
 20
535.8439696866171
 30
0.0
 11
399.707904501638
 21
550.1738756865579
 31
0.0
  0
LINE
  5
2DA9
330
1F
100
AcDbEntity
  8
HEWI
100
AcDbLine
 10
399.707904501638
 20
462.093969686617
 30
0.0
 11
399.707904501638
 21
489.386753686549
 31
0.0
  0
LINE
  5
2DAA
330
1F
100
AcDbEntity
  8
HEWI
100
AcDbLine
 10
401.6628825015449
 20
491.343969686617
 30
0.0
 11
431.807904501731
 21
491.343969686617
 31
0.0
  0
LINE
  5
2DAB
330
1F
100
AcDbEntity
  8
HEWI
100
AcDbLine
 10
431.807904501731
 20
533.843969686617
 30
0.0
 11
401.7079045016379
 21
533.843969686617
 31
0.0
  0
LINE
  5
2DAC
330
1F
100
AcDbEntity
  8
HEWI
100
AcDbLine
 10
445.1079045015448
 20
490.093969686617
 30
0.0
 11
445.1079045015448
 21
490.0666676865275
 31
0.0
  0
LINE
  5
2DAD
330
1F
100
AcDbEntity
  8
HEWI
100
AcDbLine
 10
452.9079045015913
 20
490.0666676865275
 30
0.0
 11
452.9079045015913
 21
490.093969686617
 31
0.0
  0
LINE
  5
2DAE
330
1F
100
AcDbEntity
  8
HEWI
100
AcDbLine
 10
369.3579045015449
 20
551.8939696865471
 30
0.0
 11
369.3579045015449
 21
551.5939696866171
 31
0.0
  0
LINE
  5
2DAF
330
1F
100
AcDbEntity
  8
HEWI
100
AcDbLine
 10
387.2579045016846
 20
551.5939696866171
 30
0.0
 11
387.2579045016846
 21
551.8939696865471
 31
0.0
  0
LINE
  5
2DB0
330
1F
100
AcDbEntity
  8
HEWI
100
AcDbLine
 10
368.3079045017311
 20
721.8939696865471
 30
0.0
 11
368.3079045017311
 21
696.8939696865471
 31
0.0
  0
LINE
  5
2DB1
330
1F
100
AcDbEntity
  8
HEWI
100
AcDbLine
 10
388.3079045017311
 20
721.8939696865471
 30
0.0
 11
388.3079045017311
 21
696.8939696865471
 31
0.0
  0
LINE
  5
2DB2
330
1F
100
AcDbEntity
  8
HEWI
100
AcDbLine
 10
461.1224405016345
 20
534.2215656865938
 30
0.0
 11
461.1224405016345
 21
490.9663716866251
 31
0.0
  0
LINE
  5
2DB3
330
1F
100
AcDbEntity
  8
HEWI
100
AcDbLine
 10
451.8579045015449
 20
490.093969686617
 30
0.0
 11
451.8579045015449
 21
490.2246536865913
 31
0.0
  0
LINE
  5
2DB4
330
1F
100
AcDbEntity
  8
HEWI
100
AcDbLine
 10
452.778126501531
 20
489.7717456866139
 30
0.0
 11
449.0079045016845
 21
489.7717456866139
 31
0.0
  0
LINE
  5
2DB5
330
1F
100
AcDbEntity
  8
HEWI
100
AcDbLine
 10
449.0079045016845
 20
489.7717456866139
 30
0.0
 11
445.2376825016052
 21
489.7717456866139
 31
0.0
  0
LINE
  5
2DB6
330
1F
100
AcDbEntity
  8
HEWI
100
AcDbLine
 10
452.9079045015913
 20
490.093969686617
 30
0.0
 11
449.0079045016845
 21
490.093969686617
 31
0.0
  0
LINE
  5
2DB7
330
1F
100
AcDbEntity
  8
HEWI
100
AcDbLine
 10
449.0079045016845
 20
490.093969686617
 30
0.0
 11
445.1079045015448
 21
490.093969686617
 31
0.0
  0
LINE
  5
2DB8
330
1F
100
AcDbEntity
  8
HEWI
100
AcDbLine
 10
452.9079045015913
 20
490.0666676865275
 30
0.0
 11
449.0079045016845
 21
490.0666676865275
 31
0.0
  0
LINE
  5
2DB9
330
1F
100
AcDbEntity
  8
HEWI
100
AcDbLine
 10
449.0079045016845
 20
490.0666676865275
 30
0.0
 11
445.1079045015448
 21
490.0666676865275
 31
0.0
  0
LINE
  5
2DBA
330
1F
100
AcDbEntity
  8
HEWI
100
AcDbLine
 10
448.4153565015239
 20
490.093969686617
 30
0.0
 11
448.4153565015239
 21
490.396601686565
 31
0.0
  0
LINE
  5
2DBB
330
1F
100
AcDbEntity
  8
HEWI
100
AcDbLine
 10
449.0079045016845
 20
490.093969686617
 30
0.0
 11
449.0079045016845
 21
490.400883686574
 31
0.0
  0
LINE
  5
2DBC
330
1F
100
AcDbEntity
  8
HEWI
100
AcDbLine
 10
448.664850501629
 20
490.4042496865931
 30
0.0
 11
448.664850501629
 21
490.093969686617
 31
0.0
  0
LINE
  5
2DBD
330
1F
100
AcDbEntity
  8
HEWI
100
AcDbLine
 10
446.1579045015914
 20
490.093969686617
 30
0.0
 11
446.1579045015914
 21
490.2238296866033
 31
0.0
  0
LINE
  5
2DBE
330
1F
100
AcDbEntity
  8
HEWI
100
AcDbLine
 10
451.7956245015902
 20
490.093969686617
 30
0.0
 11
451.7956245015902
 21
490.2315556865268
 31
0.0
  0
LINE
  5
2DBF
330
1F
100
AcDbEntity
  8
HEWI
100
AcDbLine
 10
434.4448265017072
 20
507.5847336866043
 30
0.0
 11
442.6009045015616
 21
490.093969686617
 31
0.0
  0
LINE
  5
2DC0
330
1F
100
AcDbEntity
  8
HEWI
100
AcDbLine
 10
460.1306145017097
 20
490.093969686617
 30
0.0
 11
460.1306145017097
 21
535.093969686617
 31
0.0
  0
LINE
  5
2DC1
330
1F
100
AcDbEntity
  8
HEWI
100
AcDbLine
 10
433.5079045016845
 20
511.8109156866174
 30
0.0
 11
433.5079045016845
 21
535.093969686617
 31
0.0
  0
LINE
  5
2DC2
330
1F
100
AcDbEntity
  8
HEWI
100
AcDbLine
 10
356.9079045015914
 20
550.1738756865579
 30
0.0
 11
399.707904501638
 21
550.1738756865579
 31
0.0
  0
LINE
  5
2DC3
330
1F
100
AcDbEntity
  8
HEWI
100
AcDbLine
 10
431.807904501731
 20
533.843969686617
 30
0.0
 11
431.807904501731
 21
491.343969686617
 31
0.0
  0
LINE
  5
2DC4
330
1F
100
AcDbEntity
  8
HEWI
100
AcDbLine
 10
388.3079045017311
 20
671.8939696865471
 30
0.0
 11
368.3079045017311
 21
671.8939696865471
 31
0.0
  0
LINE
  5
2DC5
330
1F
100
AcDbEntity
  8
HEWI
100
AcDbLine
 10
401.7064865015508
 20
491.3452736865346
 30
0.0
 11
401.7071785016978
 21
491.344635686566
 31
0.0
  0
LINE
  5
2DC6
330
1F
100
AcDbEntity
  8
HEWI
100
AcDbLine
 10
388.3079045017311
 20
551.8939696865471
 30
0.0
 11
378.3079045017311
 21
551.8939696865471
 31
0.0
  0
LINE
  5
2DC7
330
1F
100
AcDbEntity
  8
HEWI
100
AcDbLine
 10
378.3079045017311
 20
551.8939696865471
 30
0.0
 11
368.3079045017311
 21
551.8939696865471
 31
0.0
  0
LINE
  5
2DC8
330
1F
100
AcDbEntity
  8
HEWI
100
AcDbLine
 10
378.3079045017311
 20
551.5939696866171
 30
0.0
 11
388.4079045015914
 21
551.5939696866171
 31
0.0
  0
LINE
  5
2DC9
330
1F
100
AcDbEntity
  8
HEWI
100
AcDbLine
 10
368.207904501638
 20
551.5939696866171
 30
0.0
 11
378.3079045017311
 21
551.5939696866171
 31
0.0
  0
LINE
  5
2DCA
330
1F
100
AcDbEntity
  8
HEWI
100
AcDbLine
 10
399.2924845016623
 20
550.6666716865346
 30
0.0
 11
378.3079045017311
 21
550.6666716865346
 31
0.0
  0
LINE
  5
2DCB
330
1F
100
AcDbEntity
  8
HEWI
100
AcDbLine
 10
378.3079045017311
 20
550.6666716865346
 30
0.0
 11
357.3233245015671
 21
550.6666716865346
 31
0.0
  0
LINE
  5
2DCC
330
1F
100
AcDbEntity
  8
HEWI
100
AcDbLine
 10
399.7076265016166
 20
489.3442736866036
 30
0.0
 11
399.7071405016413
 21
489.3448096866103
 31
0.0
  0
LINE
  5
2DCD
330
1F
100
AcDbEntity
  8
HEWI
100
AcDbLine
 10
378.3079045017311
 20
462.093969686617
 30
0.0
 11
399.707904501638
 21
462.093969686617
 31
0.0
  0
LINE
  5
2DCE
330
1F
100
AcDbEntity
  8
HEWI
100
AcDbLine
 10
356.9079045015914
 20
462.093969686617
 30
0.0
 11
378.3079045017311
 21
462.093969686617
 31
0.0
  0
LINE
  5
2DCF
330
1F
100
AcDbEntity
  8
HEWI
100
AcDbLine
 10
438.5079045016845
 20
534.4288036865964
 30
0.0
 11
441.0079045016845
 21
534.4288036865964
 31
0.0
  0
LINE
  5
2DD0
330
1F
100
AcDbEntity
  8
HEWI
100
AcDbLine
 10
462.0789485015501
 20
511.093969686617
 30
0.0
 11
462.1205665015676
 21
511.093969686617
 31
0.0
  0
LINE
  5
2DD1
330
1F
100
AcDbEntity
  8
HEWI
100
AcDbLine
 10
462.1269465017193
 20
512.2902096865782
 30
0.0
 11
462.2039085017113
 21
512.2902096865782
 31
0.0
  0
LINE
  5
2DD2
330
1F
100
AcDbEntity
  8
HEWI
100
AcDbLine
 10
462.1975305015747
 20
511.093969686617
 30
0.0
 11
462.2326445016605
 21
511.093969686617
 31
0.0
  0
LINE
  5
2DD3
330
1F
100
AcDbEntity
  8
HEWI
100
AcDbLine
 10
462.0109625016865
 20
512.2902096865782
 30
0.0
 11
461.9171225016997
 21
512.2902096865782
 31
0.0
  0
LINE
  5
2DD4
330
1F
100
AcDbEntity
  8
HEWI
100
AcDbLine
 10
461.9060785016571
 20
511.6189696865238
 30
0.0
 11
462.008424501686
 21
511.6189696865238
 31
0.0
  0
LINE
  5
2DD5
330
1F
100
AcDbEntity
  8
HEWI
100
AcDbLine
 10
462.0498185016275
 20
511.093969686617
 30
0.0
 11
461.9022305016932
 21
511.093969686617
 31
0.0
  0
LINE
  5
2DD6
330
1F
100
AcDbEntity
  8
HEWI
100
AcDbLine
 10
461.5899605015819
 20
511.093969686617
 30
0.0
 11
461.5195305017349
 21
511.093969686617
 31
0.0
  0
LINE
  5
2DD7
330
1F
100
AcDbEntity
  8
HEWI
100
AcDbLine
 10
461.7493545015403
 20
511.093969686617
 30
0.0
 11
461.6904705016003
 21
511.093969686617
 31
0.0
  0
LINE
  5
2DD8
330
1F
100
AcDbEntity
  8
HEWI
100
AcDbLine
 10
461.8946205017217
 20
511.093969686617
 30
0.0
 11
461.8393265016439
 21
511.093969686617
 31
0.0
  0
LINE
  5
2DD9
330
1F
100
AcDbEntity
  8
HEWI
100
AcDbLine
 10
461.5020225015995
 20
511.093969686617
 30
0.0
 11
461.432962501707
 21
511.093969686617
 31
0.0
  0
LINE
  5
2DDA
330
1F
100
AcDbEntity
  8
HEWI
100
AcDbLine
 10
461.7265125015345
 20
512.0464696866309
 30
0.0
 11
461.6756785016568
 21
512.0464696866309
 31
0.0
  0
LINE
  5
2DDB
330
1F
100
AcDbEntity
  8
HEWI
100
AcDbLine
 10
462.1271305017235
 20
512.7664696866031
 30
0.0
 11
462.0855145017212
 21
512.7664696866031
 31
0.0
  0
LINE
  5
2DDC
330
1F
100
AcDbEntity
  8
HEWI
100
AcDbLine
 10
462.1269465017193
 20
512.2902096865782
 30
0.0
 11
462.0853285017019
 21
512.2902096865782
 31
0.0
  0
LINE
  5
2DDD
330
1F
100
AcDbEntity
  8
HEWI
100
AcDbLine
 10
458.9579045016379
 20
604.8939696865471
 30
0.0
 11
451.057904501731
 21
604.8939696865471
 31
0.0
  0
LINE
  5
2DDE
330
1F
100
AcDbEntity
  8
HEWI
100
AcDbLine
 10
458.7579045016845
 20
605.0939696866171
 30
0.0
 11
455.0079045016845
 21
605.0939696866171
 31
0.0
  0
LINE
  5
2DDF
330
1F
100
AcDbEntity
  8
HEWI
100
AcDbLine
 10
455.0079045016845
 20
605.0939696866171
 30
0.0
 11
451.2579045016845
 21
605.0939696866171
 31
0.0
  0
LINE
  5
2DE0
330
1F
100
AcDbEntity
  8
HEWI
100
AcDbLine
 10
438.5079045016845
 20
529.3644776865456
 30
0.0
 11
438.5079045016845
 21
534.5313796866303
 31
0.0
  0
LINE
  5
2DE1
330
1F
100
AcDbEntity
  8
HEWI
100
AcDbLine
 10
441.0079045016845
 20
529.3644776865456
 30
0.0
 11
438.5079045016845
 21
529.3644776865456
 31
0.0
  0
LINE
  5
2DE2
330
1F
100
AcDbEntity
  8
HEWI
100
AcDbLine
 10
441.0079045016845
 20
534.5313796866303
 30
0.0
 11
441.0079045016845
 21
529.3644776865456
 31
0.0
  0
LINE
  5
2DE3
330
1F
100
AcDbEntity
  8
HEWI
100
AcDbLine
 10
438.5079045016845
 20
534.5313796866303
 30
0.0
 11
441.0079045016845
 21
534.5313796866303
 31
0.0
  0
LINE
  5
2DE4
330
1F
100
AcDbEntity
  8
HEWI
100
AcDbLine
 10
462.2326445016605
 20
514.093969686617
 30
0.0
 11
462.1975305015747
 21
514.093969686617
 31
0.0
  0
LINE
  5
2DE5
330
1F
100
AcDbEntity
  8
HEWI
100
AcDbLine
 10
462.2040925017154
 20
512.7664696866031
 30
0.0
 11
462.1271305017235
 21
512.7664696866031
 31
0.0
  0
LINE
  5
2DE6
330
1F
100
AcDbEntity
  8
HEWI
100
AcDbLine
 10
462.1205665015676
 20
514.093969686617
 30
0.0
 11
462.0789485015501
 21
514.093969686617
 31
0.0
  0
LINE
  5
2DE7
330
1F
100
AcDbEntity
  8
HEWI
100
AcDbLine
 10
462.0082925016122
 20
513.5914696865564
 30
0.0
 11
461.9059465015833
 21
513.5914696865564
 31
0.0
  0
LINE
  5
2DE8
330
1F
100
AcDbEntity
  8
HEWI
100
AcDbLine
 10
461.917308501719
 20
512.7664696866031
 30
0.0
 11
462.0111485017059
 21
512.7664696866031
 31
0.0
  0
LINE
  5
2DE9
330
1F
100
AcDbEntity
  8
HEWI
100
AcDbLine
 10
461.9022305016932
 20
514.093969686617
 30
0.0
 11
462.0498185016275
 21
514.093969686617
 31
0.0
  0
LINE
  5
2DEA
330
1F
100
AcDbEntity
  8
HEWI
100
AcDbLine
 10
461.6143905015723
 20
514.093969686617
 30
0.0
 11
461.6738185016965
 21
514.093969686617
 31
0.0
  0
LINE
  5
2DEB
330
1F
100
AcDbEntity
  8
HEWI
100
AcDbLine
 10
461.7669705015669
 20
514.093969686617
 30
0.0
 11
461.8209185016402
 21
514.093969686617
 31
0.0
  0
LINE
  5
2DEC
330
1F
100
AcDbEntity
  8
HEWI
100
AcDbLine
 10
461.432962501707
 20
514.093969686617
 30
0.0
 11
461.5020225015995
 21
514.093969686617
 31
0.0
  0
LINE
  5
2DED
330
1F
100
AcDbEntity
  8
HEWI
100
AcDbLine
 10
461.6505625015652
 20
513.1864696865286
 30
0.0
 11
461.5918405016945
 21
513.1864696865286
 31
0.0
  0
LINE
  5
2DEE
330
1F
100
AcDbEntity
  8
HEWI
100
AcDbLine
 10
461.7979905016782
 20
513.171469686631
 30
0.0
 11
461.7519925016039
 21
513.171469686631
 31
0.0
  0
ARC
  5
2DEF
330
1F
100
AcDbEntity
  8
HEWI
100
AcDbCircle
 10
429.1056985017439
 20
512.5939696866171
 30
0.0
 40
18.63061219467224
100
AcDbArc
 50
76.33229399837249
 51
81.66033799812934
  0
ARC
  5
2DF0
330
1F
100
AcDbEntity
  8
HEWI
100
AcDbCircle
 10
429.1056985017439
 20
512.5939696866171
 30
0.0
 40
18.63061219467224
100
AcDbArc
 50
278.3396659995856
 51
303.4007670009446
  0
ARC
  5
2DF1
330
1F
100
AcDbEntity
  8
HEWI
100
AcDbCircle
 10
293.0079045016846
 20
512.5939696866171
 30
0.0
 40
169.5
100
AcDbArc
 50
352.6692779998603
 51
7.330722000139714
  0
ARC
  5
2DF2
330
1F
100
AcDbEntity
  8
HEWI
100
AcDbCircle
 10
460.1306145017097
 20
491.0939696866171
 30
0.0
 40
1.0
100
AcDbArc
 50
270.0
 51
352.6692779998603
  0
ARC
  5
2DF3
330
1F
100
AcDbEntity
  8
HEWI
100
AcDbCircle
 10
460.1306145017097
 20
534.093969686617
 30
0.0
 40
1.0
100
AcDbArc
 50
7.330722000139714
 51
90.0
  0
ARC
  5
2DF4
330
1F
100
AcDbEntity
  8
HEWI
100
AcDbCircle
 10
458.7579045016845
 20
604.8939696865471
 30
0.0
 40
0.2
100
AcDbArc
 50
0.0
 51
90.0
  0
ARC
  5
2DF5
330
1F
100
AcDbEntity
  8
HEWI
100
AcDbCircle
 10
451.2579045016845
 20
604.8939696865471
 30
0.0
 40
0.2
100
AcDbArc
 50
90.0
 51
180.0
  0
ARC
  5
2DF6
330
1F
100
AcDbEntity
  8
HEWI
100
AcDbCircle
 10
399.207904501638
 20
550.1738756865579
 30
0.0
 40
0.5
100
AcDbArc
 50
0.0
 51
80.26103499932373
  0
ARC
  5
2DF7
330
1F
100
AcDbEntity
  8
HEWI
100
AcDbCircle
 10
357.4079045015914
 20
550.1738756865579
 30
0.0
 40
0.5
100
AcDbArc
 50
99.73896500067628
 51
180.0
  0
ARC
  5
2DF8
330
1F
100
AcDbEntity
  8
HEWI
100
AcDbCircle
 10
368.207904501638
 20
487.2489696865286
 30
0.0
 40
64.34499999999998
100
AcDbArc
 50
90.0
 51
99.73896500067628
  0
ARC
  5
2DF9
330
1F
100
AcDbEntity
  8
HEWI
100
AcDbCircle
 10
388.4079045015914
 20
487.2489696865286
 30
0.0
 40
64.34499999999998
100
AcDbArc
 50
80.26103499932373
 51
90.0
  0
ARC
  5
2DFA
330
1F
100
AcDbEntity
  8
HEWI
100
AcDbCircle
 10
445.5079045016845
 20
490.0666676865275
 30
0.0
 40
0.4
100
AcDbArc
 50
180.0
 51
227.5025880012503
  0
ARC
  5
2DFB
330
1F
100
AcDbEntity
  8
HEWI
100
AcDbCircle
 10
452.5079045016845
 20
490.0666676865275
 30
0.0
 40
0.4
100
AcDbArc
 50
312.4974119987498
 51
0.0
  0
ARC
  5
2DFC
330
1F
100
AcDbEntity
  8
HEWI
100
AcDbCircle
 10
448.3870065017199
 20
494.5642456865952
 30
0.0
 40
6.500000000000002
100
AcDbArc
 50
275.4814019996502
 51
312.4974119987498
  0
ARC
  5
2DFD
330
1F
100
AcDbEntity
  8
HEWI
100
AcDbCircle
 10
449.6288025016491
 20
494.5642456865952
 30
0.0
 40
6.500000000000002
100
AcDbArc
 50
227.5025880012503
 51
264.5185980003498
  0
ARC
  5
2DFE
330
1F
100
AcDbEntity
  8
HEWI
100
AcDbCircle
 10
378.3079045017311
 20
721.8939696865471
 30
0.0
 40
10.0
100
AcDbArc
 50
359.999998999484
 51
179.999996001271
  0
ARC
  5
2DFF
330
1F
100
AcDbEntity
  8
HEWI
100
AcDbCircle
 10
293.0079045016846
 20
512.5939696866171
 30
0.0
 40
169.1193146508883
100
AcDbArc
 50
359.4918100003667
 51
359.8970890008591
  0
ARC
  5
2E00
330
1F
100
AcDbEntity
  8
HEWI
100
AcDbCircle
 10
-293.0079045016846
 20
512.5939696866171
 30
0.0
 40
169.1962756496447
210
0.0
220
0.0
230
-1.0
100
AcDbArc
 50
180.1028640014907
 51
180.5079590014306
  0
ARC
  5
2E01
330
1F
100
AcDbEntity
  8
HEWI
100
AcDbCircle
 10
293.0079045016846
 20
512.5939696866171
 30
0.0
 40
169.0033316285919
100
AcDbArc
 50
359.6694519986244
 51
359.897019001309
  0
ARC
  5
2E02
330
1F
100
AcDbEntity
  8
HEWI
100
AcDbCircle
 10
293.0079045016846
 20
512.5939696866171
 30
0.0
 40
168.9009875450645
100
AcDbArc
 50
359.4911529990178
 51
359.6692519988207
  0
ARC
  5
2E03
330
1F
100
AcDbEntity
  8
HEWI
100
AcDbCircle
 10
-293.0079045016846
 20
512.5939696866171
 30
0.0
 40
168.9483015413439
210
0.0
220
0.0
230
-1.0
100
AcDbArc
 50
179.4912950011776
 51
179.6617269997797
  0
ARC
  5
2E04
330
1F
100
AcDbEntity
  8
HEWI
100
AcDbCircle
 10
-293.0079045016846
 20
512.5939696866171
 30
0.0
 40
168.9483015413439
210
0.0
220
0.0
230
-1.0
100
AcDbArc
 50
179.9415150009715
 51
180.1030129985693
  0
ARC
  5
2E05
330
1F
100
AcDbEntity
  8
HEWI
100
AcDbCircle
 10
-293.0079045016846
 20
512.5939696866171
 30
0.0
 40
168.9483015413439
210
0.0
220
0.0
230
-1.0
100
AcDbArc
 50
180.3306420014438
 51
180.5087049988223
  0
ARC
  5
2E06
330
1F
100
AcDbEntity
  8
HEWI
100
AcDbCircle
 10
293.0079045016846
 20
512.5939696866171
 30
0.0
 40
169.1312284564155
100
AcDbArc
 50
359.8970989993683
 51
0.0584219998354616
  0
ARC
  5
2E07
330
1F
100
AcDbEntity
  8
HEWI
100
AcDbCircle
 10
-293.0079045016846
 20
512.5939696866171
 30
0.0
 40
169.1962756496447
210
0.0
220
0.0
230
-1.0
100
AcDbArc
 50
179.4920409985693
 51
179.941585000445
  0
ARC
  5
2E08
330
1F
100
AcDbEntity
  8
HEWI
100
AcDbCircle
 10
293.0079045016846
 20
512.5939696866171
 30
0.0
 40
169.1193146508883
100
AcDbArc
 50
0.0584409996440239
 51
0.5081899996332214
  0
ARC
  5
2E09
330
1F
100
AcDbEntity
  8
HEWI
100
AcDbCircle
 10
-293.0079045016846
 20
512.5939696866171
 30
0.0
 40
169.0776986882695
210
0.0
220
0.0
230
-1.0
100
AcDbArc
 50
179.491685000999
 51
180.508314999001
  0
ARC
  5
2E0A
330
1F
100
AcDbEntity
  8
HEWI
100
AcDbCircle
 10
293.0079045016846
 20
512.5939696866171
 30
0.0
 40
169.2313872754585
100
AcDbArc
 50
359.4921460001456
 51
0.5078539998544117
  0
ARC
  5
2E0B
330
1F
100
AcDbEntity
  8
HEWI
100
AcDbCircle
 10
293.0079045016846
 20
512.5939696866171
 30
0.0
 40
168.9009875450644
100
AcDbArc
 50
0.3383810011474118
 51
0.5088470009822066
  0
ARC
  5
2E0C
330
1F
100
AcDbEntity
  8
HEWI
100
AcDbCircle
 10
293.0079045016846
 20
512.5939696866171
 30
0.0
 40
169.0033316285919
100
AcDbArc
 50
0.0584810002941946
 51
0.3381759984982846
  0
ARC
  5
2E0D
330
1F
100
AcDbEntity
  8
HEWI
100
AcDbCircle
 10
293.0079045016846
 20
512.5939696866171
 30
0.0
 40
168.9094910097496
100
AcDbArc
 50
359.8969619984923
 51
0.0585140006703675
  0
ARC
  5
2E0E
330
1F
100
AcDbEntity
  8
HEWI
100
AcDbCircle
 10
-293.0079045016846
 20
512.5939696866171
 30
0.0
 40
169.048568741959
210
0.0
220
0.0
230
-1.0
100
AcDbArc
 50
179.4915969988219
 51
180.5084030011781
  0
ARC
  5
2E0F
330
1F
100
AcDbEntity
  8
HEWI
100
AcDbCircle
 10
293.0079045016846
 20
512.5939696866171
 30
0.0
 40
168.431736914395
100
AcDbArc
 50
359.4897350016498
 51
0.5102649983501704
  0
ARC
  5
2E10
330
1F
100
AcDbEntity
  8
HEWI
100
AcDbCircle
 10
-293.0079045016846
 20
512.5939696866171
 30
0.0
 40
168.5007937481366
210
0.0
220
0.0
230
-1.0
100
AcDbArc
 50
179.48994400105
 51
180.51005599895
  0
ELLIPSE
  5
2E11
330
1F
100
AcDbEntity
  8
HEWI
100
AcDbEllipse
 10
293.0079045016846
 20
517.4837656865911
 30
0.0
 11
-168.6436243187809
 21
0.0
 31
0.0
210
0.0
220
0.0
230
1.0
 40
0.957826
 41
3.102024693003935
 42
3.120605728740018
  0
ELLIPSE
  5
2E12
330
1F
100
AcDbEntity
  8
HEWI
100
AcDbEllipse
 10
293.0079045016846
 20
516.2255136866205
 30
0.0
 11
-168.7732901007875
 21
0.0
 31
0.0
210
0.0
220
0.0
230
1.0
 40
0.9728059999999999
 41
3.116136434066583
 42
3.128609605475356
  0
ELLIPSE
  5
2E13
330
1F
100
AcDbEntity
  8
HEWI
100
AcDbEllipse
 10
293.0079045016846
 20
508.9549376865233
 30
0.0
 11
-168.7484868853435
 21
0.0
 31
0.0
210
0.0
220
0.0
230
1.0
 40
0.973604
 41
3.160410813471678
 42
3.172877206275748
  0
ELLIPSE
  5
2E14
330
1F
100
AcDbEntity
  8
HEWI
100
AcDbEllipse
 10
293.0079045016846
 20
516.7224656865782
 30
0.0
 11
168.6821574448658
 21
0.0
 31
0.0
210
0.0
220
0.0
230
1.0
 40
0.9686969999999998
 41
6.248732771932176
 42
6.261543745307342
  0
ELLIPSE
  5
2E15
330
1F
100
AcDbEntity
  8
HEWI
100
AcDbEllipse
 10
293.0079045016846
 20
509.0701916865855
 30
0.0
 11
168.6952862611579
 21
0.0
 31
0.0
210
0.0
220
0.0
230
1.0
 40
0.9769209999999993
 41
0.0122803677329221
 42
0.0249797151749642
  0
ELLIPSE
  5
2E16
330
1F
100
AcDbEntity
  8
HEWI
100
AcDbEllipse
 10
293.0079045016846
 20
515.8979216866044
 30
0.0
 11
168.8131892091432
 21
0.0
 31
0.0
210
0.0
220
0.0
230
1.0
 40
0.976228
 41
6.254030992802267
 42
6.266640551157525
  0
ELLIPSE
  5
2E17
330
1F
100
AcDbEntity
  8
HEWI
100
AcDbEllipse
 10
293.0079045016846
 20
508.9728116865352
 30
0.0
 11
168.8455842382902
 21
0.0
 31
0.0
210
0.0
220
0.0
230
1.0
 40
0.969937
 41
0.0129524470202797
 42
0.025640396710147
  0
ELLIPSE
  5
2E18
330
1F
100
AcDbEntity
  8
HEWI
100
AcDbEllipse
 10
293.0079045016846
 20
508.7498276865426
 30
0.0
 11
-168.9042699055282
 21
0.0
 31
0.0
210
0.0
220
0.0
230
1.0
 40
0.9626520000000001
 41
3.156010118280168
 42
3.174466178291341
  0
SPLINE
  5
2E19
330
1F
100
AcDbEntity
  8
HEWI
100
AcDbSpline
210
0.0
220
0.0
230
1.0
 70
     8
 71
     3
 72
    15
 73
    11
 74
     0
 42
0.000000001
 43
0.0000000001
 40
0.0
 40
0.0
 40
0.0
 40
0.0
 40
0.0606550983620932
 40
0.2002592640949392
 40
0.349036363335463
 40
0.5012481651833899
 40
0.6613175399940552
 40
0.8035986433062657
 40
0.9322684066419007
 40
1.0
 40
1.0
 40
1.0
 40
1.0
 10
401.7056974040405
 20
533.8489064022049
 30
0.0
 10
401.6416659674668
 20
533.8435007691932
 30
0.0
 10
401.4319139691597
 20
533.8385313821107
 30
0.0
 10
401.0697049506069
 20
533.9234479270726
 30
0.0
 10
400.6458252221873
 20
534.1145694406785
 30
0.0
 10
400.2624777870313
 20
534.4181338195538
 30
0.0
 10
399.9676151515977
 20
534.7999372356188
 30
0.0
 10
399.7846462720135
 20
535.2167000568788
 30
0.0
 10
399.7064122341635
 20
535.567561055961
 30
0.0
 10
399.7049949646989
 20
535.7733010482824
 30
0.0
 10
399.7089611229548
 20
535.8448794292835
 30
0.0
  0
SPLINE
  5
2E1A
330
1F
100
AcDbEntity
  8
HEWI
100
AcDbSpline
210
0.0
220
0.0
230
1.0
 70
     8
 71
     3
 72
    15
 73
    11
 74
     0
 42
0.000000001
 43
0.0000000001
 40
0.0
 40
0.0
 40
0.0
 40
0.0
 40
0.039441841980533
 40
0.1804331604299371
 40
0.3322326489432706
 40
0.4879859320543819
 40
0.6542327081122893
 40
0.8017044455329417
 40
0.9348593270880751
 40
1.0
 40
1.0
 40
1.0
 40
1.0
 10
399.7065735010491
 20
489.3875631993487
 30
0.0
 10
399.7029954316621
 20
489.4280623498688
 30
0.0
 10
399.6946148479419
 20
489.6124668847386
 30
0.0
 10
399.7727962961016
 20
489.9499994691776
 30
0.0
 10
399.9519412161843
 20
490.3749315687072
 30
0.0
 10
400.2487613775829
 20
490.7656067519764
 30
0.0
 10
400.6276222265387
 20
491.0704348482739
 30
0.0
 10
401.0462765708162
 20
491.2622255524238
 30
0.0
 10
401.3946609912036
 20
491.345956733994
 30
0.0
 10
401.5973492467836
 20
491.3498013561674
 30
0.0
 10
401.6645492057376
 20
491.3470762628911
 30
0.0
  0
SPLINE
  5
2E1B
330
1F
100
AcDbEntity
  8
HEWI
100
AcDbSpline
210
0.0
220
0.0
230
1.0
 70
     8
 71
     3
 72
     8
 73
     4
 74
     0
 42
0.000000001
 43
0.0000000001
 40
0.0
 40
0.0
 40
0.0
 40
0.0
 40
1.0
 40
1.0
 40
1.0
 40
1.0
 10
433.5079045892288
 20
511.8109154224712
 30
0.0
 10
433.5079045892288
 20
510.3324698200067
 30
0.0
 10
433.8329762076555
 20
508.8968504608692
 30
0.0
 10
434.444826718938
 20
507.5847328051075
 30
0.0
  0
SPLINE
  5
2E1C
330
1F
100
AcDbEntity
  8
HEWI
100
AcDbSpline
210
0.0
220
0.0
230
1.0
 70
     8
 71
     3
 72
    26
 73
    22
 74
     0
 42
0.000000001
 43
0.0000000001
 40
0.0
 40
0.0
 40
0.0
 40
0.0
 40
0.0684669934708705
 40
0.0684669934708705
 40
0.1740860568678656
 40
0.1740860568678656
 40
0.2807454512101432
 40
0.2807454512101432
 40
0.3886734052765591
 40
0.3886734052765591
 40
0.4961191959226474
 40
0.4961191959226474
 40
0.6020370475888176
 40
0.6020370475888176
 40
0.7077850736702791
 40
0.7077850736702791
 40
0.8149599425354645
 40
0.8149599425354645
 40
0.9229564849124603
 40
0.9229564849124603
 40
1.0
 40
1.0
 40
1.0
 40
1.0
 10
451.0582502089037
 20
535.0938539111138
 30
0.0
 10
451.0581209548345
 20
535.0938476406354
 30
0.0
 10
451.0883334868649
 20
535.0885689816985
 30
0.0
 10
451.2410629564492
 20
535.0623523618178
 30
0.0
 10
451.4071942139944
 20
535.0341742048822
 30
0.0
 10
451.8608581123935
 20
534.9658400826938
 30
0.0
 10
452.1557163331253
 20
534.9248801242409
 30
0.0
 10
452.8358490397749
 20
534.8481784276282
 30
0.0
 10
453.2317155439468
 20
534.8117302151713
 30
0.0
 10
454.0642415443961
 20
534.7607496376931
 30
0.0
 10
454.512389778445
 20
534.745645837238
 30
0.0
 10
455.3922429739558
 20
534.7435594868929
 30
0.0
 10
455.83611091511
 20
534.7561538605568
 30
0.0
 10
456.6638643988935
 20
534.8025069745106
 30
0.0
 10
457.0591169824419
 20
534.8366515610449
 30
0.0
 10
457.7548337891293
 20
534.9114940873896
 30
0.0
 10
458.0636065500383
 20
534.953022632244
 30
0.0
 10
458.5503443205324
 20
535.0247069974046
 30
0.0
 10
458.7340560260289
 20
535.0555032005849
 30
0.0
 10
458.9184287905755
 20
535.0869439392899
 30
0.0
 10
458.9579262510468
 20
535.0939726509004
 30
0.0
 10
458.9578952352112
 20
535.0939671315335
 30
0.0
  0
SPLINE
  5
2E1D
330
1F
100
AcDbEntity
  8
HEWI
100
AcDbSpline
210
0.0
220
0.0
230
1.0
 70
     8
 71
     3
 72
    32
 73
    28
 74
     0
 42
0.000000001
 43
0.0000000001
 40
0.0
 40
0.0
 40
0.0
 40
0.0
 40
0.1249999181922551
 40
0.1249999181922551
 40
0.2499998363845101
 40
0.2499998363845101
 40
0.3749997545767652
 40
0.3749997545767652
 40
0.4374997136728929
 40
0.4374997136728929
 40
0.4687496932209564
 40
0.4687496932209564
 40
0.4999996727690201
 40
0.4999996727690201
 40
0.5312496523170839
 40
0.5312496523170839
 40
0.5624996318651477
 40
0.5624996318651477
 40
0.6249995909612754
 40
0.6249995909612754
 40
0.7499995091535307
 40
0.7499995091535307
 40
0.8749994273457858
 40
0.8749994273457858
 40
0.9999993455380414
 40
0.9999993455380414
 40
1.0
 40
1.0
 40
1.0
 40
1.0
 10
401.7079068900146
 20
533.8439709113061
 30
0.0
 10
401.7078974110135
 20
533.8439621965717
 30
0.0
 10
400.8005428324048
 20
533.0097776044475
 30
0.0
 10
397.9090267830124
 20
530.3458698344966
 30
0.0
 10
395.9917488149894
 20
528.5781389574602
 30
0.0
 10
391.8180796576725
 20
524.7074188066961
 30
0.0
 10
389.5340809966964
 20
522.587300116158
 30
0.0
 10
386.0555658231551
 20
519.2577937224032
 30
0.0
 10
384.8871008121004
 20
518.1298105469521
 30
0.0
 10
383.1860686706441
 20
516.3511095932535
 30
0.0
 10
382.6254525459899
 20
515.7458744807716
 30
0.0
 10
381.5952947817804
 20
514.4351874595359
 30
0.0
 10
381.0684672827428
 20
513.6966761936982
 30
0.0
 10
380.869315582613
 20
512.0190029994899
 30
0.0
 10
381.306868836802
 20
511.202505220388
 30
0.0
 10
382.2797825364923
 20
509.8368719124318
 30
0.0
 10
382.8459071950583
 20
509.2092215929495
 30
0.0
 10
384.5515194847775
 20
507.3867432647001
 30
0.0
 10
385.7318467870882
 20
506.2445858360351
 30
0.0
 10
389.2379556689938
 20
502.8765022307251
 30
0.0
 10
391.5588233131511
 20
500.7218877693721
 30
0.0
 10
395.7876002989305
 20
496.7982939221745
 30
0.0
 10
397.7461504370968
 20
494.9922615134473
 30
0.0
 10
400.710851762962
 20
492.2606638494961
 30
0.0
 10
401.6660374366273
 20
491.3824813782319
 30
0.0
 10
401.7064858140019
 20
491.3452738925898
 30
0.0
 10
401.70648728619
 20
491.3452725384466
 30
0.0
 10
401.7064887581454
 20
491.3452711843036
 30
0.0
  0
SPLINE
  5
2E1E
330
1F
100
AcDbEntity
  8
HEWI
100
AcDbSpline
210
0.0
220
0.0
230
1.0
 70
     8
 71
     3
 72
    32
 73
    28
 74
     0
 42
0.000000001
 43
0.0000000001
 40
0.0
 40
0.0
 40
0.0
 40
0.0
 40
0.0000006713423502
 40
0.0000006713423502
 40
0.1250005874245566
 40
0.1250005874245566
 40
0.2500005035067629
 40
0.2500005035067629
 40
0.3750004195889692
 40
0.3750004195889692
 40
0.4375003776300722
 40
0.4375003776300722
 40
0.4687503566506238
 40
0.4687503566506238
 40
0.5000003356711753
 40
0.5000003356711753
 40
0.5312503146917271
 40
0.5312503146917271
 40
0.5625002937122787
 40
0.5625002937122787
 40
0.6250002517533819
 40
0.6250002517533819
 40
0.7500001678355882
 40
0.7500001678355882
 40
0.8750000839177939
 40
0.8750000839177939
 40
1.0
 40
1.0
 40
1.0
 40
1.0
 10
399.7071414001347
 20
489.3448086955668
 30
0.0
 10
399.7071400548393
 20
489.344810175904
 30
0.0
 10
399.7071387097767
 20
489.3448116562411
 30
0.0
 10
399.678511573753
 20
489.3763161920559
 30
0.0
 10
398.7999875485493
 20
490.3426134830423
 30
0.0
 10
396.0664927892448
 20
493.3557775908465
 30
0.0
 10
394.2589793522438
 20
495.3498495969306
 30
0.0
 10
390.3611449369291
 20
499.6770408927313
 30
0.0
 10
388.2216893889072
 20
502.0533203658032
 30
0.0
 10
385.0046282853528
 20
505.755080623281
 30
0.0
 10
383.9225816666676
 20
507.0096873010824
 30
0.0
 10
382.3777769629905
 20
508.9982197351837
 30
0.0
 10
381.8688766300274
 20
509.6816272057675
 30
0.0
 10
381.0185322387205
 20
511.1430011323736
 30
0.0
 10
380.6680669957367
 20
511.9787340445526
 30
0.0
 10
380.8050288598115
 20
513.6774519447554
 30
0.0
 10
381.2349358613664
 20
514.4658819443629
 30
0.0
 10
382.1412008302813
 20
515.8847722246626
 30
0.0
 10
382.6470047357087
 20
516.5459932041904
 30
0.0
 10
384.1898487979142
 20
518.4920117542695
 30
0.0
 10
385.261432760215
 20
519.7318769953762
 30
0.0
 10
388.4548427041681
 20
523.3944230865071
 30
0.0
 10
390.5631546378663
 20
525.7359438474139
 30
0.0
 10
394.4147323449669
 20
530.0101350124077
 30
0.0
 10
396.1884321270572
 20
531.9666872063735
 30
0.0
 10
398.8645336786812
 20
534.9163539675847
 30
0.0
 10
399.7079153536414
 20
535.8439806358273
 30
0.0
 10
399.707906691643
 20
535.8439711085138
 30
0.0
  0
SPLINE
  5
2E1F
330
1F
100
AcDbEntity
  8
HEWI
100
AcDbSpline
210
0.0
220
0.0
230
1.0
 70
     8
 71
     3
 72
    26
 73
    22
 74
     0
 42
0.000000001
 43
0.0000000001
 40
0.0
 40
0.0
 40
0.0
 40
0.0
 40
0.1064168100289891
 40
0.1064168100289891
 40
0.2127725279508005
 40
0.2127725279508005
 40
0.3200472276952059
 40
0.3200472276952059
 40
0.4280097340624666
 40
0.4280097340624666
 40
0.5349633410158916
 40
0.5349633410158916
 40
0.640781191526004
 40
0.640781191526004
 40
0.7471082265612639
 40
0.7471082265612639
 40
0.8547855151260266
 40
0.8547855151260266
 40
0.9625675571112497
 40
0.9625675571112497
 40
1.0
 40
1.0
 40
1.0
 40
1.0
 10
452.7579144475111
 20
490.0939671124414
 30
0.0
 10
452.7578947309465
 20
490.0939704797547
 30
0.0
 10
452.6864956527077
 20
490.1061646741198
 30
0.0
 10
452.413323499315
 20
490.149232401125
 30
0.0
 10
452.2079830510137
 20
490.1805132370991
 30
0.0
 10
451.691377633304
 20
490.2484456623986
 30
0.0
 10
451.3721032764824
 20
490.2858301372815
 30
0.0
 10
450.663137520949
 20
490.349825515257
 30
0.0
 10
450.2630195823093
 20
490.376996348923
 30
0.0
 10
449.4441733698422
 20
490.4081174081274
 30
0.0
 10
449.0142876527333
 20
490.412567065059
 30
0.0
 10
448.1866303664228
 20
490.3972900192801
 30
0.0
 10
447.7773018682437
 20
490.3776909003116
 30
0.0
 10
447.0281881094505
 20
490.3236628039357
 30
0.0
 10
446.6784753774354
 20
490.2886504046235
 30
0.0
 10
446.08245395851
 20
490.2186006555184
 30
0.0
 10
445.829208506324
 20
490.1828579235206
 30
0.0
 10
445.4576277372488
 20
490.1271443691419
 30
0.0
 10
445.3343073360683
 20
490.1066304043251
 30
0.0
 10
445.2669754149918
 20
490.0954853362254
 30
0.0
 10
445.2582997154039
 20
490.0940684628056
 30
0.0
 10
445.2582280673613
 20
490.0940712458304
 30
0.0
  0
ENDSEC
  0
SECTION
  2
OBJECTS
  0
DICTIONARY
  5
C
330
0
100
AcDbDictionary
281
     1
  3
ACAD_CIP_PREVIOUS_PRODUCT_INFO
350
1CB
  3
ACAD_COLOR
350
1AC
  3
ACAD_DETAILVIEWSTYLE
350
1C5
  3
ACAD_GROUP
350
D
  3
ACAD_LAYOUT
350
1A
  3
ACAD_MATERIAL
350
17A
  3
ACAD_MLEADERSTYLE
350
1C1
  3
ACAD_MLINESTYLE
350
17
  3
ACAD_PLOTSETTINGS
350
19
  3
ACAD_PLOTSTYLENAME
350
DF
  3
ACAD_SCALELIST
350
1AF
  3
ACAD_SECTIONVIEWSTYLE
350
1C3
  3
ACAD_TABLESTYLE
350
1AD
  3
ACAD_VISUALSTYLE
350
193
  3
ACDB_RECOMPOSE_DATA
350
2E21
  3
AcDbVariableDictionary
350
1CC
  0
DICTIONARY
  5
612
330
2
100
AcDbDictionary
280
     1
281
     1
  3
ACAD_LAYERSTATES
360
613
  0
DICTIONARY
  5
210
330
10
100
AcDbDictionary
280
     1
281
     1
  3
ADSK_XREC_LAYER_RECONCILED
360
211
  0
DICTIONARY
  5
60F
330
60E
100
AcDbDictionary
280
     1
281
     1
  0
DICTIONARY
  5
D9
330
1F
100
AcDbDictionary
281
     1
  3
ACAD_LAYOUTSELFREF
350
177
  3
ACAD_SORTENTS
350
2C3
  0
DICTIONARY
  5
D7
330
1B
100
AcDbDictionary
281
     1
  3
ACAD_LAYOUTSELFREF
350
176
  0
XRECORD
  5
1CB
102
{ACAD_REACTORS
330
C
102
}
330
C
100
AcDbXrecord
280
     1
300
ACDLT
300
2016
300
ACDLT_F_S
  0
DICTIONARY
  5
1AC
102
{ACAD_REACTORS
330
C
102
}
330
C
100
AcDbDictionary
281
     1
  0
DICTIONARY
  5
1C5
102
{ACAD_REACTORS
330
C
102
}
330
C
100
AcDbDictionary
281
     1
  3
Imperial24
350
1C6
  0
DICTIONARY
  5
D
102
{ACAD_REACTORS
330
C
102
}
330
C
100
AcDbDictionary
281
     1
  0
DICTIONARY
  5
1A
102
{ACAD_REACTORS
330
C
102
}
330
C
100
AcDbDictionary
281
     1
  3
Layout1
350
1C8
  3
Model
350
1C7
  0
DICTIONARY
  5
17A
102
{ACAD_REACTORS
330
C
102
}
330
C
100
AcDbDictionary
281
     1
  3
ByBlock
350
183
  3
ByLayer
350
17B
  3
Global
350
18B
  0
DICTIONARY
  5
1C1
102
{ACAD_REACTORS
330
C
102
}
330
C
100
AcDbDictionary
281
     1
  3
Standard
350
1C2
  0
DICTIONARY
  5
17
102
{ACAD_REACTORS
330
C
102
}
330
C
100
AcDbDictionary
281
     1
  3
STANDARD
350
18
  0
DICTIONARY
  5
19
102
{ACAD_REACTORS
330
C
102
}
330
C
100
AcDbDictionary
281
     1
  0
ACDBDICTIONARYWDFLT
  5
DF
102
{ACAD_REACTORS
330
C
102
}
330
C
100
AcDbDictionary
281
     1
  3
Normal
350
E0
100
AcDbDictionaryWithDefault
340
E0
  0
DICTIONARY
  5
1AF
102
{ACAD_REACTORS
330
C
102
}
330
C
100
AcDbDictionary
281
     1
  3
A0
350
1B0
  3
A1
350
1B1
  3
A2
350
1B2
  3
A3
350
1B3
  3
A4
350
1B4
  3
A5
350
1B5
  3
A6
350
1B6
  3
A7
350
1B7
  3
A8
350
1B8
  3
A9
350
1B9
  3
B0
350
1BA
  3
B1
350
1BB
  3
B2
350
1BC
  3
B3
350
1BD
  3
B4
350
1BE
  3
B5
350
1BF
  3
B6
350
1C0
  0
DICTIONARY
  5
1C3
102
{ACAD_REACTORS
330
C
102
}
330
C
100
AcDbDictionary
281
     1
  3
Imperial24
350
1C4
  0
DICTIONARY
  5
1AD
102
{ACAD_REACTORS
330
C
102
}
330
C
100
AcDbDictionary
281
     1
  3
Standard
350
1AE
  0
DICTIONARY
  5
193
102
{ACAD_REACTORS
330
C
102
}
330
C
100
AcDbDictionary
281
     1
  3
2dWireframe
350
199
  3
Basic
350
198
  3
Brighten
350
19F
  3
ColorChange
350
1A3
  3
Conceptual
350
19C
  3
Dim
350
19E
  3
EdgeColorOff
350
1AB
  3
Facepattern
350
1A2
  3
Flat
350
194
  3
FlatWithEdges
350
195
  3
Gouraud
350
196
  3
GouraudWithEdges
350
197
  3
Hidden
350
19B
  3
JitterOff
350
1A9
  3
Linepattern
350
1A1
  3
OverhangOff
350
1AA
  3
Realistic
350
19D
  3
Shaded
350
1A8
  3
Shaded with edges
350
1A7
  3
Shades of Gray
350
1A4
  3
Sketchy
350
1A5
  3
Thicken
350
1A0
  3
Wireframe
350
19A
  3
X-Ray
350
1A6
  0
XRECORD
  5
2E21
102
{ACAD_REACTORS
330
C
102
}
330
C
100
AcDbXrecord
280
     1
 90
        1
330
1AE
  0
DICTIONARY
  5
1CC
102
{ACAD_REACTORS
330
C
102
}
330
C
100
AcDbDictionary
281
     1
  3
CANNOSCALE
350
1D1
  3
CMLEADERSTYLE
350
1CE
  3
CTABLESTYLE
350
1CD
  3
CVIEWDETAILSTYLE
350
1CF
  3
CVIEWSECTIONSTYLE
350
1D0
  3
LAYEREVAL
350
AE2
  3
LAYERNOTIFY
350
AE3
  3
LIGHTINGUNITS
350
AE1
  3
MSLTSCALE
350
AE0
  0
DICTIONARY
  5
613
102
{ACAD_REACTORS
330
612
102
}
330
612
100
AcDbDictionary
281
     1
  0
XRECORD
  5
211
102
{ACAD_REACTORS
330
210
102
}
330
210
100
AcDbXrecord
280
     1
290
     1
  0
XRECORD
  5
177
102
{ACAD_REACTORS
330
D9
102
}
330
D9
100
AcDbXrecord
280
     1
340
1F
  0
SORTENTSTABLE
  5
2C3
102
{ACAD_REACTORS
330
D9
102
}
330
D9
100
AcDbSortentsTable
330
1F
331
2CE6
  5
2DF7
331
2CD5
  5
2DE6
331
2CC4
  5
2DD5
331
2CB3
  5
2DC4
331
2CA2
  5
2DB3
331
2C98
  5
2DA9
331
2CF7
  5
2E08
331
2D08
  5
2E19
331
2DBF
  5
2C76
331
2C65
  5
2CE8
331
2E04
  5
2CBB
331
2DF2
  5
2CA9
331
2DE1
  5
2C98
331
2DD0
  5
2C87
331
2DAE
  5
2C65
331
2C87
  5
2D0A
331
2C76
  5
2CF9
331
2E15
  5
2CCC
331
2CE7
  5
2DF8
331
2CD6
  5
2DE7
331
2CC5
  5
2DD6
331
2CB4
  5
2DC5
331
2CA3
  5
2DB4
331
2C99
  5
2DAA
331
2C88
  5
2D0B
331
2CF8
  5
2E09
331
2D09
  5
2E1A
331
2DC0
  5
2C77
331
2DE2
  5
2C99
331
2DD1
  5
2C88
331
2DAF
  5
2C66
331
2C66
  5
2CE9
331
2E05
  5
2CBC
331
2DF3
  5
2CAA
331
2C77
  5
2CFA
331
2E16
  5
2CCD
331
2CB5
  5
2DC6
331
2CA4
  5
2DB5
331
2C9A
  5
2DAB
331
2C89
  5
2D0C
331
2C78
  5
2CFB
331
2CE8
  5
2DF9
331
2CD7
  5
2DE8
331
2CC6
  5
2DD7
331
2CF9
  5
2E0A
331
2D0A
  5
2E1B
331
2DC1
  5
2C78
331
2C54
  5
2CD7
331
2DE3
  5
2C9A
331
2DD2
  5
2C89
331
2DB0
  5
2C67
331
2D9D
  5
2C54
331
2C67
  5
2CEA
331
2E06
  5
2CBD
331
2E17
  5
2CCE
331
2DF4
  5
2CAB
331
2C68
  5
2CEB
331
2CB6
  5
2DC7
331
2CA5
  5
2DB6
331
2C9B
  5
2DAC
331
2C8A
  5
2D0D
331
2C79
  5
2CFC
331
2E18
  5
2CCF
331
2CD8
  5
2DE9
331
2CC7
  5
2DD8
331
2CE9
  5
2DFA
331
2CFA
  5
2E0B
331
2DB1
  5
2C68
331
2D0B
  5
2E1C
331
2C55
  5
2CD8
331
2DE4
  5
2C9B
331
2DD3
  5
2C8A
331
2DC2
  5
2C79
331
2DA0
  5
2C57
331
2D9E
  5
2C55
331
2E07
  5
2CBE
331
2DF5
  5
2CAC
331
2C58
  5
2CDB
331
2C69
  5
2CEC
331
2E08
  5
2CBF
331
2CB7
  5
2DC8
331
2CA6
  5
2DB7
331
2C9C
  5
2DAD
331
2C8B
  5
2D0E
331
2C7A
  5
2CFD
331
2CD9
  5
2DEA
331
2CC8
  5
2DD9
331
2CEA
  5
2DFB
331
2CFB
  5
2E0C
331
2DB2
  5
2C69
331
2D0C
  5
2E1D
331
2C56
  5
2CD9
331
2DE5
  5
2C9C
331
2DD4
  5
2C8B
331
2DC3
  5
2C7A
331
2DA1
  5
2C58
331
2D9F
  5
2C56
331
2E19
  5
2CD0
331
2DF6
  5
2CAD
331
2C59
  5
2CDC
331
2C6A
  5
2CED
331
2E09
  5
2CC0
331
2CDA
  5
2DEB
331
2CC9
  5
2DDA
331
2CB8
  5
2DC9
331
2CA7
  5
2DB8
331
2C9D
  5
2DAE
331
2C8C
  5
2D9D
331
2C7B
  5
2CFE
331
2CEB
  5
2DFC
331
2CFC
  5
2E0D
331
2DB3
  5
2C6A
331
2D0D
  5
2E1E
331
2C57
  5
2CDA
331
2DE6
  5
2C9D
331
2DD5
  5
2C8C
331
2DC4
  5
2C7B
331
2DA2
  5
2C59
331
2E1A
  5
2CD1
331
2DF7
  5
2CAE
331
2C5A
  5
2CDD
331
2DF8
  5
2CAF
331
2C6B
  5
2CEE
331
2CDB
  5
2DEC
331
2CCA
  5
2DDB
331
2CB9
  5
2DCA
331
2CA8
  5
2DB9
331
2C9E
  5
2DAF
331
2C8D
  5
2D9E
331
2C7C
  5
2CFF
331
2E1B
  5
2CD2
331
2CEC
  5
2DFD
331
2CFD
  5
2E0E
331
2DB4
  5
2C6B
331
2D0E
  5
2E1F
331
2DE7
  5
2C9E
331
2DD6
  5
2C8D
331
2DC5
  5
2C7C
331
2DA3
  5
2C5A
331
2E0A
  5
2CC1
331
2C5B
  5
2CDE
331
2DF9
  5
2CB0
331
2DE8
  5
2C9F
331
2C6C
  5
2CEF
331
2CDC
  5
2DED
331
2CCB
  5
2DDC
331
2CBA
  5
2DCB
331
2CA9
  5
2DBA
331
2C9F
  5
2DB0
331
2C8E
  5
2D9F
331
2C7D
  5
2D00
331
2E1C
  5
2CD3
331
2CED
  5
2DFE
331
2CFE
  5
2E0F
331
2DB5
  5
2C6C
331
2DD7
  5
2C8E
331
2DC6
  5
2C7D
331
2DA4
  5
2C5B
331
2E0B
  5
2CC2
331
2C5C
  5
2CDF
331
2DFA
  5
2CB1
331
2DE9
  5
2CA0
331
2DD8
  5
2C8F
331
2C6D
  5
2CF0
331
2CDD
  5
2DEE
331
2CCC
  5
2DDD
331
2CBB
  5
2DCC
331
2CAA
  5
2DBB
331
2C8F
  5
2DA0
331
2C7E
  5
2D01
331
2E1D
  5
2CD4
331
2CEE
  5
2DFF
331
2CFF
  5
2E10
331
2DB6
  5
2C6D
331
2DC7
  5
2C7E
331
2DA5
  5
2C5C
331
2E0C
  5
2CC3
331
2D00
  5
2E11
331
2C5D
  5
2CE0
331
2DFB
  5
2CB2
331
2DEA
  5
2CA1
331
2DD9
  5
2C90
331
2DC8
  5
2C7F
331
2C6E
  5
2CF1
331
2CDE
  5
2DEF
331
2CCD
  5
2DDE
331
2CBC
  5
2DCD
331
2CAB
  5
2DBC
331
2C90
  5
2DA1
331
2C7F
  5
2D02
331
2E1E
  5
2CD5
331
2CEF
  5
2E00
331
2DB7
  5
2C6E
331
2DA6
  5
2C5D
331
2E0D
  5
2CC4
331
2CF0
  5
2E01
331
2D01
  5
2E12
331
2DB8
  5
2C6F
331
2C5E
  5
2CE1
331
2DFC
  5
2CB3
331
2DEB
  5
2CA2
331
2DDA
  5
2C91
331
2DC9
  5
2C80
331
2C6F
  5
2CF2
331
2CDF
  5
2DF0
331
2CCE
  5
2DDF
331
2CBD
  5
2DCE
331
2CAC
  5
2DBD
331
2C91
  5
2DA2
331
2C80
  5
2D03
331
2E1F
  5
2CD6
331
2DA7
  5
2C5E
331
2E0E
  5
2CC5
331
2CE0
  5
2DF1
331
2CF1
  5
2E02
331
2DA8
  5
2C5F
331
2D02
  5
2E13
331
2C5F
  5
2CE2
331
2DFD
  5
2CB4
331
2DEC
  5
2CA3
331
2DDB
  5
2C92
331
2DCA
  5
2C81
331
2DB9
  5
2C70
331
2CCF
  5
2DE0
331
2CBE
  5
2DCF
331
2CAD
  5
2DBE
331
2C92
  5
2DA3
331
2C81
  5
2D04
331
2C70
  5
2CF3
331
2E0F
  5
2CC6
331
2CE1
  5
2DF2
331
2CD0
  5
2DE1
331
2CF2
  5
2E03
331
2D03
  5
2E14
331
2DBA
  5
2C71
331
2C60
  5
2CE3
331
2DFE
  5
2CB5
331
2DED
  5
2CA4
331
2DDC
  5
2C93
331
2DCB
  5
2C82
331
2DA9
  5
2C60
331
2CBF
  5
2DD0
331
2CAE
  5
2DBF
331
2C93
  5
2DA4
331
2C82
  5
2D05
331
2C71
  5
2CF4
331
2E10
  5
2CC7
331
2CE2
  5
2DF3
331
2CD1
  5
2DE2
331
2CC0
  5
2DD1
331
2CF3
  5
2E04
331
2D04
  5
2E15
331
2DBB
  5
2C72
331
2C61
  5
2CE4
331
2E00
  5
2CB7
331
2DFF
  5
2CB6
331
2DEE
  5
2CA5
331
2DDD
  5
2C94
331
2DCC
  5
2C83
331
2DAA
  5
2C61
331
2CAF
  5
2DC0
331
2C94
  5
2DA5
331
2C83
  5
2D06
331
2C72
  5
2CF5
331
2E11
  5
2CC8
331
2CE3
  5
2DF4
331
2CD2
  5
2DE3
331
2CC1
  5
2DD2
331
2CB0
  5
2DC1
331
2CF4
  5
2E05
331
2D05
  5
2E16
331
2DBC
  5
2C73
331
2C62
  5
2CE5
331
2E01
  5
2CB8
331
2DEF
  5
2CA6
331
2DDE
  5
2C95
331
2DCD
  5
2C84
331
2DAB
  5
2C62
331
2C95
  5
2DA6
331
2C84
  5
2D07
331
2C73
  5
2CF6
331
2E12
  5
2CC9
331
2CE4
  5
2DF5
331
2CD3
  5
2DE4
331
2CC2
  5
2DD3
331
2CB1
  5
2DC2
331
2CA0
  5
2DB1
331
2CF5
  5
2E06
331
2D06
  5
2E17
331
2DBD
  5
2C74
331
2C63
  5
2CE6
331
2E02
  5
2CB9
331
2DF0
  5
2CA7
331
2DDF
  5
2C96
331
2DCE
  5
2C85
331
2DAC
  5
2C63
331
2C96
  5
2DA7
331
2C85
  5
2D08
331
2C74
  5
2CF7
331
2E13
  5
2CCA
331
2CE5
  5
2DF6
331
2CD4
  5
2DE5
331
2CC3
  5
2DD4
331
2CB2
  5
2DC3
331
2CA1
  5
2DB2
331
2CF6
  5
2E07
331
2D07
  5
2E18
331
2DBE
  5
2C75
331
2C64
  5
2CE7
331
2E03
  5
2CBA
331
2DF1
  5
2CA8
331
2DE0
  5
2C97
331
2DCF
  5
2C86
331
2DAD
  5
2C64
331
2C97
  5
2DA8
331
2C86
  5
2D09
331
2C75
  5
2CF8
331
2E14
  5
2CCB
  0
XRECORD
  5
176
102
{ACAD_REACTORS
330
D7
102
}
330
D7
100
AcDbXrecord
280
     1
340
1B
  0
ACDBDETAILVIEWSTYLE
  5
1C6
102
{ACAD_XDICTIONARY
360
2E54
102
}
102
{ACAD_REACTORS
330
1C5
102
}
330
1C5
100
AcDbModelDocViewStyle
 70
     0
  3
Imperial24
290
     0
100
AcDbDetailViewStyle
 70
     0
 71
     0
 90
        3
 71
     1
340
11
 62
   256
 40
0.24
340
0
 62
   256
 40
0.24
300

 40
0.36
280
     3
 71
     2
340
16
 90
       25
 62
   256
 71
     3
340
11
 62
   256
 40
0.24
 90
        1
 40
0.75
 90
        1
300
%<\AcVar ViewType \f "%tc1">% %<\AcVar ViewDetailId>%\PVARIA %<\AcVar ViewScale \f "%sn">%
 71
     4
340
16
 90
       25
 62
   256
340
16
 90
       25
 62
   256
280
     0
  0
LAYOUT
  5
1C8
102
{ACAD_REACTORS
330
1A
102
}
330
1A
100
AcDbPlotSettings
  1

  2
\\srvadruck01\MFSA15
  4

  6

 40
0.0
 41
0.0
 42
0.0
 43
0.0
 44
0.0
 45
0.0
 46
0.0
 47
0.0
 48
0.0
 49
0.0
140
0.0
141
0.0
142
1.0
143
1.0
 70
   688
 72
     0
 73
     0
 74
     5
  7

 75
    16
147
1.0
 76
     0
 77
     2
 78
   300
148
0.0
149
0.0
100
AcDbLayout
  1
Layout1
 70
     1
 71
     1
 10
0.0
 20
0.0
 11
12.0
 21
9.0
 12
0.0
 22
0.0
 32
0.0
 14
1.000000000000000E+20
 24
1.000000000000000E+20
 34
1.000000000000000E+20
 15
-1.000000000000000E+20
 25
-1.000000000000000E+20
 35
-1.000000000000000E+20
146
0.0
 13
0.0
 23
0.0
 33
0.0
 16
1.0
 26
0.0
 36
0.0
 17
0.0
 27
1.0
 37
0.0
 76
     0
330
1B
  0
LAYOUT
  5
1C7
102
{ACAD_REACTORS
330
1A
102
}
330
1A
100
AcDbPlotSettings
  1

  2
\\srvadruck01\MFSA15
  4

  6

 40
0.0
 41
0.0
 42
0.0
 43
0.0
 44
0.0
 45
0.0
 46
0.0
 47
0.0
 48
0.0
 49
0.0
140
0.0
141
0.0
142
1.0
143
1.0
 70
  1712
 72
     0
 73
     0
 74
     0
  7

 75
     0
147
1.0
 76
     0
 77
     2
 78
   300
148
0.0
149
0.0
100
AcDbLayout
  1
Model
 70
     1
 71
     0
 10
0.0
 20
0.0
 11
12.0
 21
9.0
 12
0.0
 22
0.0
 32
0.0
 14
0.0
 24
0.0
 34
0.0
 15
0.0
 25
0.0
 35
0.0
146
0.0
 13
0.0
 23
0.0
 33
0.0
 16
1.0
 26
0.0
 36
0.0
 17
0.0
 27
1.0
 37
0.0
 76
     0
330
1F
331
155
  0
MATERIAL
  5
183
102
{ACAD_XDICTIONARY
360
184
102
}
102
{ACAD_REACTORS
330
17A
102
}
330
17A
100
AcDbMaterial
  1
ByBlock
 72
     0
 43
0.0208333333333333
 43
0.0
 43
0.0
 43
0.0
 43
0.0
 43
0.0208333333333333
 43
0.0
 43
0.0
 43
0.0
 43
0.0
 43
1.0
 43
0.0
 43
0.0
 43
0.0
 43
0.0
 43
1.0
 77
     0
 47
0.0208333333333333
 47
0.0
 47
0.0
 47
0.0
 47
0.0
 47
0.0208333333333333
 47
0.0
 47
0.0
 47
0.0
 47
0.0
 47
1.0
 47
0.0
 47
0.0
 47
0.0
 47
0.0
 47
1.0
171
     0
 49
0.0208333333333333
 49
0.0
 49
0.0
 49
0.0
 49
0.0
 49
0.0208333333333333
 49
0.0
 49
0.0
 49
0.0
 49
0.0
 49
1.0
 49
0.0
 49
0.0
 49
0.0
 49
0.0
 49
1.0
175
     0
142
0.0208333333333333
142
0.0
142
0.0
142
0.0
142
0.0
142
0.0208333333333333
142
0.0
142
0.0
142
0.0
142
0.0
142
1.0
142
0.0
142
0.0
142
0.0
142
0.0
142
1.0
179
     0
144
0.0208333333333333
144
0.0
144
0.0
144
0.0
144
0.0
144
0.0208333333333333
144
0.0
144
0.0
144
0.0
144
0.0
144
1.0
144
0.0
144
0.0
144
0.0
144
0.0
144
1.0
147
0.0208333333333333
147
0.0
147
0.0
147
0.0
147
0.0
147
0.0208333333333333
147
0.0
147
0.0
147
0.0
147
0.0
147
1.0
147
0.0
147
0.0
147
0.0
147
0.0
147
1.0
  0
MATERIAL
  5
17B
102
{ACAD_XDICTIONARY
360
17C
102
}
102
{ACAD_REACTORS
330
17A
102
}
330
17A
100
AcDbMaterial
  1
ByLayer
 72
     0
 43
0.0208333333333333
 43
0.0
 43
0.0
 43
0.0
 43
0.0
 43
0.0208333333333333
 43
0.0
 43
0.0
 43
0.0
 43
0.0
 43
1.0
 43
0.0
 43
0.0
 43
0.0
 43
0.0
 43
1.0
 77
     0
 47
0.0208333333333333
 47
0.0
 47
0.0
 47
0.0
 47
0.0
 47
0.0208333333333333
 47
0.0
 47
0.0
 47
0.0
 47
0.0
 47
1.0
 47
0.0
 47
0.0
 47
0.0
 47
0.0
 47
1.0
171
     0
 49
0.0208333333333333
 49
0.0
 49
0.0
 49
0.0
 49
0.0
 49
0.0208333333333333
 49
0.0
 49
0.0
 49
0.0
 49
0.0
 49
1.0
 49
0.0
 49
0.0
 49
0.0
 49
0.0
 49
1.0
175
     0
142
0.0208333333333333
142
0.0
142
0.0
142
0.0
142
0.0
142
0.0208333333333333
142
0.0
142
0.0
142
0.0
142
0.0
142
1.0
142
0.0
142
0.0
142
0.0
142
0.0
142
1.0
179
     0
144
0.0208333333333333
144
0.0
144
0.0
144
0.0
144
0.0
144
0.0208333333333333
144
0.0
144
0.0
144
0.0
144
0.0
144
1.0
144
0.0
144
0.0
144
0.0
144
0.0
144
1.0
147
0.0208333333333333
147
0.0
147
0.0
147
0.0
147
0.0
147
0.0208333333333333
147
0.0
147
0.0
147
0.0
147
0.0
147
1.0
147
0.0
147
0.0
147
0.0
147
0.0
147
1.0
  0
MATERIAL
  5
18B
102
{ACAD_XDICTIONARY
360
18C
102
}
102
{ACAD_REACTORS
330
17A
102
}
330
17A
100
AcDbMaterial
  1
Global
 72
     0
 43
0.0208333333333333
 43
0.0
 43
0.0
 43
0.0
 43
0.0
 43
0.0208333333333333
 43
0.0
 43
0.0
 43
0.0
 43
0.0
 43
1.0
 43
0.0
 43
0.0
 43
0.0
 43
0.0
 43
1.0
 77
     0
 47
0.0208333333333333
 47
0.0
 47
0.0
 47
0.0
 47
0.0
 47
0.0208333333333333
 47
0.0
 47
0.0
 47
0.0
 47
0.0
 47
1.0
 47
0.0
 47
0.0
 47
0.0
 47
0.0
 47
1.0
171
     0
 49
0.0208333333333333
 49
0.0
 49
0.0
 49
0.0
 49
0.0
 49
0.0208333333333333
 49
0.0
 49
0.0
 49
0.0
 49
0.0
 49
1.0
 49
0.0
 49
0.0
 49
0.0
 49
0.0
 49
1.0
175
     0
142
0.0208333333333333
142
0.0
142
0.0
142
0.0
142
0.0
142
0.0208333333333333
142
0.0
142
0.0
142
0.0
142
0.0
142
1.0
142
0.0
142
0.0
142
0.0
142
0.0
142
1.0
179
     0
144
0.0208333333333333
144
0.0
144
0.0
144
0.0
144
0.0
144
0.0208333333333333
144
0.0
144
0.0
144
0.0
144
0.0
144
1.0
144
0.0
144
0.0
144
0.0
144
0.0
144
1.0
147
0.0208333333333333
147
0.0
147
0.0
147
0.0
147
0.0
147
0.0208333333333333
147
0.0
147
0.0
147
0.0
147
0.0
147
1.0
147
0.0
147
0.0
147
0.0
147
0.0
147
1.0
  0
MLEADERSTYLE
  5
1C2
102
{ACAD_REACTORS
330
1C1
102
}
330
1C1
100
AcDbMLeaderStyle
179
     2
170
     2
171
     1
172
     0
 90
        2
 40
0.0
 41
0.0
173
     1
 91
-1056964608
340
14
 92
       -2
290
     1
 42
0.09
291
     1
 43
0.36
  3
Standard
 44
0.18
300

342
11
174
     1
178
     6
175
     1
176
     0
 93
-1056964608
 45
0.18
292
     0
297
     0
 46
0.18
 94
-1056964608
 47
1.0
 49
1.0
140
1.0
293
     1
141
0.0
294
     1
177
     0
142
1.0
295
     0
296
     0
143
0.125
271
     0
272
     9
273
     9
1001
ACAD_MLEADERVER
1070
     2
  0
MLINESTYLE
  5
18
102
{ACAD_REACTORS
330
17
102
}
330
17
100
AcDbMlineStyle
  2
STANDARD
 70
     0
  3

 62
   256
 51
90.0
 52
90.0
 71
     2
 49
0.5
 62
   256
  6
BYLAYER
 49
-0.5
 62
   256
  6
BYLAYER
  0
ACDBPLACEHOLDER
  5
E0
102
{ACAD_REACTORS
330
DF
102
}
330
DF
  0
SCALE
  5
1B0
102
{ACAD_REACTORS
330
1AF
102
}
330
1AF
100
AcDbScale
 70
     0
300
1:1
140
1.0
141
1.0
290
     1
  0
SCALE
  5
1B1
102
{ACAD_REACTORS
330
1AF
102
}
330
1AF
100
AcDbScale
 70
     0
300
1/128" = 1'-0"
140
0.0078125
141
12.0
290
     0
  0
SCALE
  5
1B2
102
{ACAD_REACTORS
330
1AF
102
}
330
1AF
100
AcDbScale
 70
     0
300
1/64" = 1'-0"
140
0.015625
141
12.0
290
     0
  0
SCALE
  5
1B3
102
{ACAD_REACTORS
330
1AF
102
}
330
1AF
100
AcDbScale
 70
     0
300
1/32" = 1'-0"
140
0.03125
141
12.0
290
     0
  0
SCALE
  5
1B4
102
{ACAD_REACTORS
330
1AF
102
}
330
1AF
100
AcDbScale
 70
     0
300
1/16" = 1'-0"
140
0.0625
141
12.0
290
     0
  0
SCALE
  5
1B5
102
{ACAD_REACTORS
330
1AF
102
}
330
1AF
100
AcDbScale
 70
     0
300
3/32" = 1'-0"
140
0.09375
141
12.0
290
     0
  0
SCALE
  5
1B6
102
{ACAD_REACTORS
330
1AF
102
}
330
1AF
100
AcDbScale
 70
     0
300
1/8" = 1'-0"
140
0.125
141
12.0
290
     0
  0
SCALE
  5
1B7
102
{ACAD_REACTORS
330
1AF
102
}
330
1AF
100
AcDbScale
 70
     0
300
3/16" = 1'-0"
140
0.1875
141
12.0
290
     0
  0
SCALE
  5
1B8
102
{ACAD_REACTORS
330
1AF
102
}
330
1AF
100
AcDbScale
 70
     0
300
1/4" = 1'-0"
140
0.25
141
12.0
290
     0
  0
SCALE
  5
1B9
102
{ACAD_REACTORS
330
1AF
102
}
330
1AF
100
AcDbScale
 70
     0
300
3/8" = 1'-0"
140
0.375
141
12.0
290
     0
  0
SCALE
  5
1BA
102
{ACAD_REACTORS
330
1AF
102
}
330
1AF
100
AcDbScale
 70
     0
300
1/2" = 1'-0"
140
0.5
141
12.0
290
     0
  0
SCALE
  5
1BB
102
{ACAD_REACTORS
330
1AF
102
}
330
1AF
100
AcDbScale
 70
     0
300
3/4" = 1'-0"
140
0.75
141
12.0
290
     0
  0
SCALE
  5
1BC
102
{ACAD_REACTORS
330
1AF
102
}
330
1AF
100
AcDbScale
 70
     0
300
1" = 1'-0"
140
1.0
141
12.0
290
     0
  0
SCALE
  5
1BD
102
{ACAD_REACTORS
330
1AF
102
}
330
1AF
100
AcDbScale
 70
     0
300
1-1/2" = 1'-0"
140
1.5
141
12.0
290
     0
  0
SCALE
  5
1BE
102
{ACAD_REACTORS
330
1AF
102
}
330
1AF
100
AcDbScale
 70
     0
300
3" = 1'-0"
140
3.0
141
12.0
290
     0
  0
SCALE
  5
1BF
102
{ACAD_REACTORS
330
1AF
102
}
330
1AF
100
AcDbScale
 70
     0
300
6" = 1'-0"
140
6.0
141
12.0
290
     0
  0
SCALE
  5
1C0
102
{ACAD_REACTORS
330
1AF
102
}
330
1AF
100
AcDbScale
 70
     0
300
1'-0" = 1'-0"
140
12.0
141
12.0
290
     0
  0
ACDBSECTIONVIEWSTYLE
  5
1C4
102
{ACAD_XDICTIONARY
360
2E52
102
}
102
{ACAD_REACTORS
330
1C3
102
}
330
1C3
100
AcDbModelDocViewStyle
 70
     0
  3
Imperial24
290
     0
100
AcDbSectionViewStyle
 70
     0
 71
     0
 90
       78
 71
     1
340
11
 62
   256
 40
0.24
340
0
340
0
 62
   256
 40
0.24
300
I, O, Q, S, X, Z
 40
0.48
 90
        3
 40
0.18
 90
        1
 71
     2
340
16
 90
       25
 62
   256
340
16
 90
       50
 62
   256
 40
0.24
 40
0.0
 40
0.24
 71
     3
340
11
 62
   256
 40
0.24
 90
        1
 40
0.75
 90
        1
300
%<\AcVar ViewType \f "%tc1">% %<\AcVar ViewSectionStartId>%-%<\AcVar ViewSectionEndId>%\PVARIA %<\AcVar ViewScale \f "%sn">%
 71
     4
 62
   256
 62
   257
300
ANSI31
 40
1.0
 90
        0
290
     0
290
     0
 90
        6
 40
0.0
 40
1.570796326794896
 40
0.2617993877991494
 40
1.308996938995747
 40
-0.2617993877991494
 40
1.832595714594044
  0
TABLESTYLE
  5
1AE
102
{ACAD_XDICTIONARY
360
2D0
102
}
102
{ACAD_REACTORS
330
1AD
102
}
330
1AD
100
AcDbTableStyle
280
     0
  3
Standard
 70
     0
 71
     0
 40
0.06
 41
0.06
280
     0
281
     0
  7
STANDARD
140
0.18
170
     2
 62
     0
 63
     7
283
     0
 90
      512
 91
        0
  1

274
    -2
284
     1
 64
     0
275
    -2
285
     1
 65
     0
276
    -2
286
     1
 66
     0
277
    -2
287
     1
 67
     0
278
    -2
288
     1
 68
     0
279
    -2
289
     1
 69
     0
  7
STANDARD
140
0.25
170
     5
 62
     0
 63
     7
283
     0
 90
      512
 91
        0
  1

274
    -2
284
     1
 64
     0
275
    -2
285
     1
 65
     0
276
    -2
286
     1
 66
     0
277
    -2
287
     1
 67
     0
278
    -2
288
     1
 68
     0
279
    -2
289
     1
 69
     0
  7
STANDARD
140
0.18
170
     5
 62
     0
 63
     7
283
     0
 90
      512
 91
        0
  1

274
    -2
284
     1
 64
     0
275
    -2
285
     1
 65
     0
276
    -2
286
     1
 66
     0
277
    -2
287
     1
 67
     0
278
    -2
288
     1
 68
     0
279
    -2
289
     1
 69
     0
  0
VISUALSTYLE
  5
199
102
{ACAD_XDICTIONARY
360
2E2C
102
}
102
{ACAD_REACTORS
330
193
102
}
330
193
100
AcDbVisualStyle
  2

 70
     4
177
     2
291
     0
 71
     0
176
     1
 72
     2
176
     1
 73
     0
176
     1
 90
        0
176
     1
 40
0.6
176
     1
 41
30.0
176
     1
 63
     7
421
 16777215
176
     1
 74
     1
176
     1
 91
        4
176
     1
 64
     7
176
     1
 65
   257
176
     1
 75
     1
176
     1
175
     1
176
     1
 42
1.0
176
     1
 92
        0
176
     1
 66
   257
176
     1
 43
1.0
176
     1
 76
     1
176
     1
 77
     6
176
     1
 78
     2
176
     1
 67
     7
176
     1
 79
     5
176
     1
170
     0
176
     1
171
     0
176
     1
290
     0
176
     1
 93
        1
176
     1
 44
0.0
176
     1
173
     0
176
     1
1001
ACAD
1000
AcDbSavedByObjectVersion
1070
     0
  0
VISUALSTYLE
  5
198
102
{ACAD_XDICTIONARY
360
2E2A
102
}
102
{ACAD_REACTORS
330
193
102
}
330
193
100
AcDbVisualStyle
  2

 70
     7
177
     2
291
     1
 71
     1
176
     1
 72
     0
176
     1
 73
     1
176
     1
 90
        0
176
     1
 40
0.6
176
     1
 41
30.0
176
     1
 63
     7
421
 16777215
176
     1
 74
     0
176
     1
 91
        4
176
     1
 64
     7
176
     1
 65
   257
176
     1
 75
     1
176
     1
175
     1
176
     1
 42
1.0
176
     1
 92
        8
176
     1
 66
     7
176
     1
 43
1.0
176
     1
 76
     1
176
     1
 77
     6
176
     1
 78
     2
176
     1
 67
     7
176
     1
 79
     5
176
     1
170
     0
176
     1
171
     0
176
     1
290
     0
176
     1
 93
        1
176
     1
 44
0.0
176
     1
173
     0
176
     1
1001
ACAD
1000
AcDbSavedByObjectVersion
1070
     0
  0
VISUALSTYLE
  5
19F
102
{ACAD_XDICTIONARY
360
2E38
102
}
102
{ACAD_REACTORS
330
193
102
}
330
193
100
AcDbVisualStyle
  2

 70
    12
177
     2
291
     1
 71
     2
176
     1
 72
     2
176
     1
 73
     0
176
     1
 90
        0
176
     1
 40
0.6
176
     1
 41
30.0
176
     1
 63
     7
421
 16777215
176
     1
 74
     1
176
     1
 91
        4
176
     1
 64
     7
176
     1
 65
   257
176
     1
 75
     1
176
     1
175
     1
176
     1
 42
1.0
176
     1
 92
        8
176
     1
 66
     7
176
     1
 43
1.0
176
     1
 76
     1
176
     1
 77
     6
176
     1
 78
     2
176
     1
 67
     7
176
     1
 79
     5
176
     1
170
     0
176
     1
171
     0
176
     1
290
     0
176
     1
 93
        1
176
     1
 44
50.0
176
     1
173
     0
176
     1
1001
ACAD
1000
AcDbSavedByObjectVersion
1070
     0
  0
VISUALSTYLE
  5
1A3
102
{ACAD_XDICTIONARY
360
2E40
102
}
102
{ACAD_REACTORS
330
193
102
}
330
193
100
AcDbVisualStyle
  2

 70
    16
177
     2
291
     1
 71
     2
176
     1
 72
     2
176
     1
 73
     3
176
     1
 90
        0
176
     1
 40
0.6
176
     1
 41
30.0
176
     1
 63
     8
421
  8421504
176
     1
 74
     1
176
     1
 91
        4
176
     1
 64
     7
176
     1
 65
   257
176
     1
 75
     1
176
     1
175
     1
176
     1
 42
1.0
176
     1
 92
        8
176
     1
 66
     8
424
  8421504
176
     1
 43
1.0
176
     1
 76
     1
176
     1
 77
     6
176
     1
 78
     2
176
     1
 67
     7
176
     1
 79
     5
176
     1
170
     0
176
     1
171
     0
176
     1
290
     0
176
     1
 93
        1
176
     1
 44
0.0
176
     1
173
     0
176
     1
1001
ACAD
1000
AcDbSavedByObjectVersion
1070
     0
  0
VISUALSTYLE
  5
19C
102
{ACAD_XDICTIONARY
360
2E32
102
}
102
{ACAD_REACTORS
330
193
102
}
330
193
100
AcDbVisualStyle
  2

 70
     9
177
     2
291
     0
 71
     3
176
     1
 72
     2
176
     1
 73
     0
176
     1
 90
        0
176
     1
 40
0.6
176
     1
 41
30.0
176
     1
 63
     7
421
 16777215
176
     1
 74
     2
176
     1
 91
        2
176
     1
 64
     7
176
     1
 65
   257
176
     1
 75
     1
176
     1
175
     1
176
     1
 42
179.0
176
     1
 92
        8
176
     1
 66
     7
176
     1
 43
1.0
176
     1
 76
     1
176
     1
 77
     6
176
     1
 78
     2
176
     1
 67
     7
176
     1
 79
     3
176
     1
170
     0
176
     1
171
     0
176
     1
290
     0
176
     1
 93
        1
176
     1
 44
0.0
176
     1
173
     0
176
     1
1001
ACAD
1000
AcDbSavedByObjectVersion
1070
     0
  0
VISUALSTYLE
  5
19E
102
{ACAD_XDICTIONARY
360
2E36
102
}
102
{ACAD_REACTORS
330
193
102
}
330
193
100
AcDbVisualStyle
  2

 70
    11
177
     2
291
     1
 71
     2
176
     1
 72
     2
176
     1
 73
     0
176
     1
 90
        0
176
     1
 40
0.6
176
     1
 41
30.0
176
     1
 63
     7
421
 16777215
176
     1
 74
     1
176
     1
 91
        4
176
     1
 64
     7
176
     1
 65
   257
176
     1
 75
     1
176
     1
175
     1
176
     1
 42
1.0
176
     1
 92
        8
176
     1
 66
     7
176
     1
 43
1.0
176
     1
 76
     1
176
     1
 77
     6
176
     1
 78
     2
176
     1
 67
     7
176
     1
 79
     5
176
     1
170
     0
176
     1
171
     0
176
     1
290
     0
176
     1
 93
        1
176
     1
 44
-50.0
176
     1
173
     0
176
     1
1001
ACAD
1000
AcDbSavedByObjectVersion
1070
     0
  0
VISUALSTYLE
  5
1AB
102
{ACAD_XDICTIONARY
360
2E50
102
}
102
{ACAD_REACTORS
330
193
102
}
330
193
100
AcDbVisualStyle
  2

 70
    22
177
     2
291
     1
 71
     2
176
     0
 72
     2
176
     0
 73
     0
176
     0
 90
        0
176
     0
 40
0.6
176
     0
 41
30.0
176
     0
 63
     7
421
 16777215
176
     0
 74
     1
176
     0
 91
        4
176
     0
 64
     7
176
     0
 65
   257
176
     0
 75
     1
176
     0
175
     1
176
     0
 42
1.0
176
     0
 92
        8
176
     2
 66
     7
176
     0
 43
1.0
176
     0
 76
     1
176
     0
 77
     6
176
     0
 78
     2
176
     0
 67
     7
176
     0
 79
     5
176
     0
170
     0
176
     0
171
     0
176
     0
290
     0
176
     0
 93
        1
176
     0
 44
0.0
176
     0
173
     0
176
     0
1001
ACAD
1000
AcDbSavedByObjectVersion
1070
     0
  0
VISUALSTYLE
  5
1A2
102
{ACAD_XDICTIONARY
360
2E3E
102
}
102
{ACAD_REACTORS
330
193
102
}
330
193
100
AcDbVisualStyle
  2

 70
    15
177
     2
291
     1
 71
     2
176
     1
 72
     2
176
     1
 73
     0
176
     1
 90
        0
176
     1
 40
0.6
176
     1
 41
30.0
176
     1
 63
     7
421
 16777215
176
     1
 74
     1
176
     1
 91
        4
176
     1
 64
     7
176
     1
 65
   257
176
     1
 75
     1
176
     1
175
     1
176
     1
 42
1.0
176
     1
 92
        8
176
     1
 66
     7
176
     1
 43
1.0
176
     1
 76
     1
176
     1
 77
     6
176
     1
 78
     2
176
     1
 67
     7
176
     1
 79
     5
176
     1
170
     0
176
     1
171
     0
176
     1
290
     0
176
     1
 93
        1
176
     1
 44
0.0
176
     1
173
     0
176
     1
1001
ACAD
1000
AcDbSavedByObjectVersion
1070
     0
  0
VISUALSTYLE
  5
194
102
{ACAD_XDICTIONARY
360
2E22
102
}
102
{ACAD_REACTORS
330
193
102
}
330
193
100
AcDbVisualStyle
  2

 70
     0
177
     2
291
     1
 71
     2
176
     1
 72
     1
176
     1
 73
     1
176
     1
 90
        2
176
     1
 40
0.6
176
     1
 41
30.0
176
     1
 63
     7
421
 16777215
176
     1
 74
     0
176
     1
 91
        0
176
     1
 64
     7
176
     1
 65
   257
176
     1
 75
     1
176
     1
175
     1
176
     1
 42
1.0
176
     1
 92
        8
176
     1
 66
     7
176
     1
 43
1.0
176
     1
 76
     1
176
     1
 77
     6
176
     1
 78
     2
176
     1
 67
     7
176
     1
 79
     5
176
     1
170
     0
176
     1
171
     0
176
     1
290
     0
176
     1
 93
       13
176
     1
 44
0.0
176
     1
173
     0
176
     1
1001
ACAD
1000
AcDbSavedByObjectVersion
1070
     0
  0
VISUALSTYLE
  5
195
102
{ACAD_XDICTIONARY
360
2E24
102
}
102
{ACAD_REACTORS
330
193
102
}
330
193
100
AcDbVisualStyle
  2

 70
     1
177
     2
291
     1
 71
     2
176
     1
 72
     1
176
     1
 73
     1
176
     1
 90
        2
176
     1
 40
0.6
176
     1
 41
30.0
176
     1
 63
     7
421
 16777215
176
     1
 74
     1
176
     1
 91
        0
176
     1
 64
     7
176
     1
 65
   257
176
     1
 75
     1
176
     1
175
     1
176
     1
 42
1.0
176
     1
 92
        0
176
     1
 66
   257
176
     1
 43
1.0
176
     1
 76
     1
176
     1
 77
     6
176
     1
 78
     2
176
     1
 67
     7
176
     1
 79
     5
176
     1
170
     0
176
     1
171
     0
176
     1
290
     0
176
     1
 93
       13
176
     1
 44
0.0
176
     1
173
     0
176
     1
1001
ACAD
1000
AcDbSavedByObjectVersion
1070
     0
  0
VISUALSTYLE
  5
196
102
{ACAD_XDICTIONARY
360
2E26
102
}
102
{ACAD_REACTORS
330
193
102
}
330
193
100
AcDbVisualStyle
  2

 70
     2
177
     2
291
     1
 71
     2
176
     1
 72
     2
176
     1
 73
     1
176
     1
 90
        2
176
     1
 40
0.6
176
     1
 41
30.0
176
     1
 63
     7
421
 16777215
176
     1
 74
     0
176
     1
 91
        0
176
     1
 64
     7
176
     1
 65
   257
176
     1
 75
     1
176
     1
175
     1
176
     1
 42
1.0
176
     1
 92
        0
176
     1
 66
     7
176
     1
 43
1.0
176
     1
 76
     1
176
     1
 77
     6
176
     1
 78
     2
176
     1
 67
     7
176
     1
 79
     5
176
     1
170
     0
176
     1
171
     0
176
     1
290
     0
176
     1
 93
       13
176
     1
 44
0.0
176
     1
173
     0
176
     1
1001
ACAD
1000
AcDbSavedByObjectVersion
1070
     0
  0
VISUALSTYLE
  5
197
102
{ACAD_XDICTIONARY
360
2E28
102
}
102
{ACAD_REACTORS
330
193
102
}
330
193
100
AcDbVisualStyle
  2

 70
     3
177
     2
291
     1
 71
     2
176
     1
 72
     2
176
     1
 73
     1
176
     1
 90
        2
176
     1
 40
0.6
176
     1
 41
30.0
176
     1
 63
     7
421
 16777215
176
     1
 74
     1
176
     1
 91
        0
176
     1
 64
     7
176
     1
 65
   257
176
     1
 75
     1
176
     1
175
     1
176
     1
 42
1.0
176
     1
 92
        0
176
     1
 66
   257
176
     1
 43
1.0
176
     1
 76
     1
176
     1
 77
     6
176
     1
 78
     2
176
     1
 67
     7
176
     1
 79
     5
176
     1
170
     0
176
     1
171
     0
176
     1
290
     0
176
     1
 93
       13
176
     1
 44
0.0
176
     1
173
     0
176
     1
1001
ACAD
1000
AcDbSavedByObjectVersion
1070
     0
  0
VISUALSTYLE
  5
19B
102
{ACAD_XDICTIONARY
360
2E30
102
}
102
{ACAD_REACTORS
330
193
102
}
330
193
100
AcDbVisualStyle
  2

 70
     6
177
     2
291
     0
 71
     1
176
     1
 72
     2
176
     1
 73
     2
176
     1
 90
        0
176
     1
 40
0.6
176
     1
 41
30.0
176
     1
 63
     7
421
 16777215
176
     1
 74
     2
176
     1
 91
        2
176
     1
 64
     7
176
     1
 65
   257
176
     1
 75
     2
176
     1
175
     1
176
     1
 42
40.0
176
     1
 92
        0
176
     1
 66
   257
176
     1
 43
1.0
176
     1
 76
     1
176
     1
 77
     6
176
     1
 78
     2
176
     1
 67
     7
176
     1
 79
     3
176
     1
170
     0
176
     1
171
     0
176
     1
290
     0
176
     1
 93
        1
176
     1
 44
0.0
176
     1
173
     0
176
     1
1001
ACAD
1000
AcDbSavedByObjectVersion
1070
     0
  0
VISUALSTYLE
  5
1A9
102
{ACAD_XDICTIONARY
360
2E4C
102
}
102
{ACAD_REACTORS
330
193
102
}
330
193
100
AcDbVisualStyle
  2

 70
    20
177
     2
291
     1
 71
     2
176
     0
 72
     2
176
     0
 73
     0
176
     0
 90
        0
176
     0
 40
0.6
176
     0
 41
30.0
176
     0
 63
     7
421
 16777215
176
     0
 74
     1
176
     0
 91
        4
176
     0
 64
     7
176
     0
 65
   257
176
     0
 75
     1
176
     0
175
     1
176
     0
 42
1.0
176
     0
 92
       10
176
     2
 66
     7
176
     0
 43
1.0
176
     0
 76
     1
176
     0
 77
     6
176
     0
 78
     2
176
     0
 67
     7
176
     0
 79
     5
176
     0
170
     0
176
     0
171
     0
176
     0
290
     0
176
     0
 93
        1
176
     0
 44
0.0
176
     0
173
     0
176
     0
1001
ACAD
1000
AcDbSavedByObjectVersion
1070
     0
  0
VISUALSTYLE
  5
1A1
102
{ACAD_XDICTIONARY
360
2E3C
102
}
102
{ACAD_REACTORS
330
193
102
}
330
193
100
AcDbVisualStyle
  2

 70
    14
177
     2
291
     1
 71
     2
176
     1
 72
     2
176
     1
 73
     0
176
     1
 90
        0
176
     1
 40
0.6
176
     1
 41
30.0
176
     1
 63
     7
421
 16777215
176
     1
 74
     1
176
     1
 91
        4
176
     1
 64
     7
176
     1
 65
   257
176
     1
 75
     7
176
     1
175
     7
176
     1
 42
1.0
176
     1
 92
        8
176
     1
 66
     7
176
     1
 43
1.0
176
     1
 76
     1
176
     1
 77
     6
176
     1
 78
     2
176
     1
 67
     7
176
     1
 79
     5
176
     1
170
     0
176
     1
171
     0
176
     1
290
     0
176
     1
 93
        1
176
     1
 44
0.0
176
     1
173
     0
176
     1
1001
ACAD
1000
AcDbSavedByObjectVersion
1070
     0
  0
VISUALSTYLE
  5
1AA
102
{ACAD_XDICTIONARY
360
2E4E
102
}
102
{ACAD_REACTORS
330
193
102
}
330
193
100
AcDbVisualStyle
  2

 70
    21
177
     2
291
     1
 71
     2
176
     0
 72
     2
176
     0
 73
     0
176
     0
 90
        0
176
     0
 40
0.6
176
     0
 41
30.0
176
     0
 63
     7
421
 16777215
176
     0
 74
     1
176
     0
 91
        4
176
     0
 64
     7
176
     0
 65
   257
176
     0
 75
     1
176
     0
175
     1
176
     0
 42
1.0
176
     0
 92
        9
176
     2
 66
     7
176
     0
 43
1.0
176
     0
 76
     1
176
     0
 77
     6
176
     0
 78
     2
176
     0
 67
     7
176
     0
 79
     5
176
     0
170
     0
176
     0
171
     0
176
     0
290
     0
176
     0
 93
        1
176
     0
 44
0.0
176
     0
173
     0
176
     0
1001
ACAD
1000
AcDbSavedByObjectVersion
1070
     0
  0
VISUALSTYLE
  5
19D
102
{ACAD_XDICTIONARY
360
2E34
102
}
102
{ACAD_REACTORS
330
193
102
}
330
193
100
AcDbVisualStyle
  2

 70
     8
177
     2
291
     0
 71
     2
176
     1
 72
     3
176
     1
 73
     0
176
     1
 90
        2
176
     1
 40
0.6
176
     1
 41
30.0
176
     1
 63
     7
421
 16777215
176
     1
 74
     0
176
     1
 91
        0
176
     1
 64
     7
176
     1
 65
   257
176
     1
 75
     1
176
     1
175
     1
176
     1
 42
1.0
176
     1
 92
        8
176
     1
 66
   257
176
     1
 43
1.0
176
     1
 76
     1
176
     1
 77
     6
176
     1
 78
     2
176
     1
 67
     7
176
     1
 79
     3
176
     1
170
     0
176
     1
171
     0
176
     1
290
     0
176
     1
 93
       13
176
     1
 44
0.0
176
     1
173
     0
176
     1
1001
ACAD
1000
AcDbSavedByObjectVersion
1070
     0
  0
VISUALSTYLE
  5
1A8
102
{ACAD_XDICTIONARY
360
2E4A
102
}
102
{ACAD_REACTORS
330
193
102
}
330
193
100
AcDbVisualStyle
  2

 70
    27
177
     2
291
     0
 71
     2
176
     1
 72
     2
176
     1
 73
     1
176
     1
 90
        2
176
     1
 40
0.6
176
     1
 41
30.0
176
     1
 63
     7
421
 16777215
176
     1
 74
     0
176
     1
 91
        4
176
     1
 64
     7
176
     1
 65
   257
176
     1
 75
     1
176
     1
175
     1
176
     1
 42
1.0
176
     1
 92
        8
176
     1
 66
   257
176
     1
 43
1.0
176
     1
 76
     1
176
     1
 77
     6
176
     1
 78
     2
176
     1
 67
     8
425
  7895160
176
     1
 79
     3
176
     1
170
     0
176
     1
171
     0
176
     1
290
     0
176
     1
 93
        5
176
     1
 44
0.0
176
     1
173
     0
176
     1
1001
ACAD
1000
AcDbSavedByObjectVersion
1070
     0
  0
VISUALSTYLE
  5
1A7
102
{ACAD_XDICTIONARY
360
2E48
102
}
102
{ACAD_REACTORS
330
193
102
}
330
193
100
AcDbVisualStyle
  2

 70
    26
177
     2
291
     0
 71
     2
176
     1
 72
     2
176
     1
 73
     1
176
     1
 90
        2
176
     1
 40
0.6
176
     1
 41
30.0
176
     1
 63
     7
421
 16777215
176
     1
 74
     1
176
     1
 91
        2
176
     1
 64
     7
176
     1
 65
   257
176
     1
 75
     2
176
     1
175
     1
176
     1
 42
1.0
176
     1
 92
        8
176
     1
 66
   257
176
     1
 43
1.0
176
     1
 76
     1
176
     1
 77
     6
176
     1
 78
     2
176
     1
 67
     7
176
     1
 79
     3
176
     1
170
     0
176
     1
171
     0
176
     1
290
     0
176
     1
 93
        5
176
     1
 44
0.0
176
     1
173
     0
176
     1
1001
ACAD
1000
AcDbSavedByObjectVersion
1070
     0
  0
VISUALSTYLE
  5
1A4
102
{ACAD_XDICTIONARY
360
2E42
102
}
102
{ACAD_REACTORS
330
193
102
}
330
193
100
AcDbVisualStyle
  2

 70
    23
177
     2
291
     0
 71
     2
176
     1
 72
     2
176
     1
 73
     3
176
     1
 90
        0
176
     1
 40
0.6
176
     1
 41
30.0
176
     1
 63
     7
421
 16777215
176
     1
 74
     2
176
     1
 91
        2
176
     1
 64
     7
176
     1
 65
     7
176
     1
 75
     1
176
     1
175
     1
176
     1
 42
40.0
176
     1
 92
        8
176
     1
 66
     7
176
     1
 43
1.0
176
     1
 76
     1
176
     1
 77
     6
176
     1
 78
     2
176
     1
 67
     7
176
     1
 79
     3
176
     1
170
     0
176
     1
171
     0
176
     1
290
     0
176
     1
 93
        1
176
     1
 44
0.0
176
     1
173
     0
176
     1
1001
ACAD
1000
AcDbSavedByObjectVersion
1070
     0
  0
VISUALSTYLE
  5
1A5
102
{ACAD_XDICTIONARY
360
2E44
102
}
102
{ACAD_REACTORS
330
193
102
}
330
193
100
AcDbVisualStyle
  2

 70
    24
177
     2
291
     0
 71
     1
176
     1
 72
     2
176
     1
 73
     2
176
     1
 90
        0
176
     1
 40
0.6
176
     1
 41
30.0
176
     1
 63
     7
421
 16777215
176
     1
 74
     2
176
     1
 91
        2
176
     1
 64
     7
176
     1
 65
     7
176
     1
 75
     1
176
     1
175
     1
176
     1
 42
40.0
176
     1
 92
       11
176
     1
 66
     7
176
     1
 43
1.0
176
     1
 76
     1
176
     1
 77
     6
176
     1
 78
     2
176
     1
 67
     7
176
     1
 79
     6
176
     1
170
     0
176
     1
171
     0
176
     1
290
     0
176
     1
 93
        1
176
     1
 44
0.0
176
     1
173
     0
176
     1
1001
ACAD
1000
AcDbSavedByObjectVersion
1070
     0
  0
VISUALSTYLE
  5
1A0
102
{ACAD_XDICTIONARY
360
2E3A
102
}
102
{ACAD_REACTORS
330
193
102
}
330
193
100
AcDbVisualStyle
  2

 70
    13
177
     2
291
     1
 71
     2
176
     1
 72
     2
176
     1
 73
     0
176
     1
 90
        0
176
     1
 40
0.6
176
     1
 41
30.0
176
     1
 63
     7
421
 16777215
176
     1
 74
     1
176
     1
 91
        4
176
     1
 64
     7
176
     1
 65
   257
176
     1
 75
     1
176
     1
175
     1
176
     1
 42
1.0
176
     1
 92
       12
176
     1
 66
     7
176
     1
 43
1.0
176
     1
 76
     1
176
     1
 77
     6
176
     1
 78
     2
176
     1
 67
     7
176
     1
 79
     5
176
     1
170
     0
176
     1
171
     0
176
     1
290
     0
176
     1
 93
        1
176
     1
 44
0.0
176
     1
173
     0
176
     1
1001
ACAD
1000
AcDbSavedByObjectVersion
1070
     0
  0
VISUALSTYLE
  5
19A
102
{ACAD_XDICTIONARY
360
2E2E
102
}
102
{ACAD_REACTORS
330
193
102
}
330
193
100
AcDbVisualStyle
  2

 70
     5
177
     2
291
     0
 71
     0
176
     1
 72
     2
176
     1
 73
     0
176
     1
 90
        0
176
     1
 40
0.6
176
     1
 41
30.0
176
     1
 63
     7
421
 16777215
176
     1
 74
     1
176
     1
 91
        4
176
     1
 64
     7
176
     1
 65
   257
176
     1
 75
     1
176
     1
175
     1
176
     1
 42
1.0
176
     1
 92
        0
176
     1
 66
   257
176
     1
 43
1.0
176
     1
 76
     1
176
     1
 77
     6
176
     1
 78
     2
176
     1
 67
     7
176
     1
 79
     3
176
     1
170
     0
176
     1
171
     0
176
     1
290
     0
176
     1
 93
        1
176
     1
 44
0.0
176
     1
173
     0
176
     1
1001
ACAD
1000
AcDbSavedByObjectVersion
1070
     0
  0
VISUALSTYLE
  5
1A6
102
{ACAD_XDICTIONARY
360
2E46
102
}
102
{ACAD_REACTORS
330
193
102
}
330
193
100
AcDbVisualStyle
  2

 70
    25
177
     2
291
     0
 71
     2
176
     1
 72
     2
176
     1
 73
     1
176
     1
 90
        1
176
     1
 40
0.5
176
     1
 41
30.0
176
     1
 63
     7
421
 16777215
176
     1
 74
     1
176
     1
 91
        0
176
     1
 64
     7
176
     1
 65
   257
176
     1
 75
     1
176
     1
175
     1
176
     1
 42
1.0
176
     1
 92
        8
176
     1
 66
     7
176
     1
 43
1.0
176
     1
 76
     1
176
     1
 77
     6
176
     1
 78
     2
176
     1
 67
     7
176
     1
 79
     3
176
     1
170
     0
176
     1
171
     0
176
     1
290
     0
176
     1
 93
       13
176
     1
 44
0.0
176
     1
173
     0
176
     1
1001
ACAD
1000
AcDbSavedByObjectVersion
1070
     0
  0
DICTIONARYVAR
  5
1D1
102
{ACAD_REACTORS
330
1CC
102
}
330
1CC
100
DictionaryVariables
280
     0
  1
1:1
  0
DICTIONARYVAR
  5
1CE
102
{ACAD_REACTORS
330
1CC
102
}
330
1CC
100
DictionaryVariables
280
     0
  1
STANDARD
  0
DICTIONARYVAR
  5
1CD
102
{ACAD_REACTORS
330
1CC
102
}
330
1CC
100
DictionaryVariables
280
     0
  1
STANDARD
  0
DICTIONARYVAR
  5
1CF
102
{ACAD_REACTORS
330
1CC
102
}
330
1CC
100
DictionaryVariables
280
     0
  1
Imperial24
  0
DICTIONARYVAR
  5
1D0
102
{ACAD_REACTORS
330
1CC
102
}
330
1CC
100
DictionaryVariables
280
     0
  1
Imperial24
  0
DICTIONARYVAR
  5
AE2
102
{ACAD_REACTORS
330
1CC
102
}
330
1CC
100
DictionaryVariables
280
     0
  1
1
  0
DICTIONARYVAR
  5
AE3
102
{ACAD_REACTORS
330
1CC
102
}
330
1CC
100
DictionaryVariables
280
     0
  1
15
  0
DICTIONARYVAR
  5
AE1
102
{ACAD_REACTORS
330
1CC
102
}
330
1CC
100
DictionaryVariables
280
     0
  1
0
  0
DICTIONARYVAR
  5
AE0
102
{ACAD_REACTORS
330
1CC
102
}
330
1CC
100
DictionaryVariables
280
     0
  1
0
  0
DICTIONARY
  5
2E54
330
1C6
100
AcDbDictionary
280
     1
281
     1
  3
ACAD_XREC_ROUNDTRIP
360
2E55
  0
DICTIONARY
  5
184
330
183
100
AcDbDictionary
280
     1
281
     1
  3
ACAD_XREC_ROUNDTRIP
360
2D4
  3
BUMPTILE
360
186
  3
DIFFUSETILE
360
185
  3
OPACITYTILE
360
189
  3
REFLECTIONTILE
360
188
  3
REFRACTIONTILE
360
18A
  3
SPECULARTILE
360
187
  0
DICTIONARY
  5
17C
330
17B
100
AcDbDictionary
280
     1
281
     1
  3
ACAD_XREC_ROUNDTRIP
360
2D3
  3
BUMPTILE
360
17E
  3
DIFFUSETILE
360
17D
  3
OPACITYTILE
360
181
  3
REFLECTIONTILE
360
180
  3
REFRACTIONTILE
360
182
  3
SPECULARTILE
360
17F
  0
DICTIONARY
  5
18C
330
18B
100
AcDbDictionary
280
     1
281
     1
  3
ACAD_XREC_ROUNDTRIP
360
2D5
  3
BUMPTILE
360
18E
  3
DIFFUSETILE
360
18D
  3
OPACITYTILE
360
191
  3
REFLECTIONTILE
360
190
  3
REFRACTIONTILE
360
192
  3
SPECULARTILE
360
18F
  0
DICTIONARY
  5
2E52
330
1C4
100
AcDbDictionary
280
     1
281
     1
  3
ACAD_XREC_ROUNDTRIP
360
2E53
  0
DICTIONARY
  5
2D0
330
1AE
100
AcDbDictionary
280
     1
281
     1
  3
ACAD_ROUNDTRIP_2008_TABLESTYLE_CELLSTYLEMAP
360
2E20
  0
DICTIONARY
  5
2E2C
330
199
100
AcDbDictionary
280
     1
281
     1
  3
ACAD_XREC_ROUNDTRIP
360
2E2D
  0
DICTIONARY
  5
2E2A
330
198
100
AcDbDictionary
280
     1
281
     1
  3
ACAD_XREC_ROUNDTRIP
360
2E2B
  0
DICTIONARY
  5
2E38
330
19F
100
AcDbDictionary
280
     1
281
     1
  3
ACAD_XREC_ROUNDTRIP
360
2E39
  0
DICTIONARY
  5
2E40
330
1A3
100
AcDbDictionary
280
     1
281
     1
  3
ACAD_XREC_ROUNDTRIP
360
2E41
  0
DICTIONARY
  5
2E32
330
19C
100
AcDbDictionary
280
     1
281
     1
  3
ACAD_XREC_ROUNDTRIP
360
2E33
  0
DICTIONARY
  5
2E36
330
19E
100
AcDbDictionary
280
     1
281
     1
  3
ACAD_XREC_ROUNDTRIP
360
2E37
  0
DICTIONARY
  5
2E50
330
1AB
100
AcDbDictionary
280
     1
281
     1
  3
ACAD_XREC_ROUNDTRIP
360
2E51
  0
DICTIONARY
  5
2E3E
330
1A2
100
AcDbDictionary
280
     1
281
     1
  3
ACAD_XREC_ROUNDTRIP
360
2E3F
  0
DICTIONARY
  5
2E22
330
194
100
AcDbDictionary
280
     1
281
     1
  3
ACAD_XREC_ROUNDTRIP
360
2E23
  0
DICTIONARY
  5
2E24
330
195
100
AcDbDictionary
280
     1
281
     1
  3
ACAD_XREC_ROUNDTRIP
360
2E25
  0
DICTIONARY
  5
2E26
330
196
100
AcDbDictionary
280
     1
281
     1
  3
ACAD_XREC_ROUNDTRIP
360
2E27
  0
DICTIONARY
  5
2E28
330
197
100
AcDbDictionary
280
     1
281
     1
  3
ACAD_XREC_ROUNDTRIP
360
2E29
  0
DICTIONARY
  5
2E30
330
19B
100
AcDbDictionary
280
     1
281
     1
  3
ACAD_XREC_ROUNDTRIP
360
2E31
  0
DICTIONARY
  5
2E4C
330
1A9
100
AcDbDictionary
280
     1
281
     1
  3
ACAD_XREC_ROUNDTRIP
360
2E4D
  0
DICTIONARY
  5
2E3C
330
1A1
100
AcDbDictionary
280
     1
281
     1
  3
ACAD_XREC_ROUNDTRIP
360
2E3D
  0
DICTIONARY
  5
2E4E
330
1AA
100
AcDbDictionary
280
     1
281
     1
  3
ACAD_XREC_ROUNDTRIP
360
2E4F
  0
DICTIONARY
  5
2E34
330
19D
100
AcDbDictionary
280
     1
281
     1
  3
ACAD_XREC_ROUNDTRIP
360
2E35
  0
DICTIONARY
  5
2E4A
330
1A8
100
AcDbDictionary
280
     1
281
     1
  3
ACAD_XREC_ROUNDTRIP
360
2E4B
  0
DICTIONARY
  5
2E48
330
1A7
100
AcDbDictionary
280
     1
281
     1
  3
ACAD_XREC_ROUNDTRIP
360
2E49
  0
DICTIONARY
  5
2E42
330
1A4
100
AcDbDictionary
280
     1
281
     1
  3
ACAD_XREC_ROUNDTRIP
360
2E43
  0
DICTIONARY
  5
2E44
330
1A5
100
AcDbDictionary
280
     1
281
     1
  3
ACAD_XREC_ROUNDTRIP
360
2E45
  0
DICTIONARY
  5
2E3A
330
1A0
100
AcDbDictionary
280
     1
281
     1
  3
ACAD_XREC_ROUNDTRIP
360
2E3B
  0
DICTIONARY
  5
2E2E
330
19A
100
AcDbDictionary
280
     1
281
     1
  3
ACAD_XREC_ROUNDTRIP
360
2E2F
  0
DICTIONARY
  5
2E46
330
1A6
100
AcDbDictionary
280
     1
281
     1
  3
ACAD_XREC_ROUNDTRIP
360
2E47
  0
XRECORD
  5
2E55
102
{ACAD_REACTORS
330
2E54
102
}
330
2E54
100
AcDbXrecord
280
     1
102
DISPLAYNAME
  1
Imperial24
102
FLAGS
 90
        0
  0
XRECORD
  5
2D4
102
{ACAD_REACTORS
330
184
102
}
330
184
100
AcDbXrecord
280
     1
102
MATERIAL
148
0.0
149
0.0
149
0.0
 93
        0
 94
      127
282
     0
 72
     0
 77
     0
171
     0
175
     0
179
     0
273
     0
  0
XRECORD
  5
186
102
{ACAD_REACTORS
330
184
102
}
330
184
100
AcDbXrecord
280
     1
270
     1
271
     1
  0
XRECORD
  5
185
102
{ACAD_REACTORS
330
184
102
}
330
184
100
AcDbXrecord
280
     1
270
     1
271
     1
  0
XRECORD
  5
189
102
{ACAD_REACTORS
330
184
102
}
330
184
100
AcDbXrecord
280
     1
270
     1
271
     1
  0
XRECORD
  5
188
102
{ACAD_REACTORS
330
184
102
}
330
184
100
AcDbXrecord
280
     1
270
     1
271
     1
  0
XRECORD
  5
18A
102
{ACAD_REACTORS
330
184
102
}
330
184
100
AcDbXrecord
280
     1
270
     1
271
     1
  0
XRECORD
  5
187
102
{ACAD_REACTORS
330
184
102
}
330
184
100
AcDbXrecord
280
     1
270
     1
271
     1
  0
XRECORD
  5
2D3
102
{ACAD_REACTORS
330
17C
102
}
330
17C
100
AcDbXrecord
280
     1
102
MATERIAL
148
0.0
149
0.0
149
0.0
 93
        0
 94
      127
282
     0
 72
     0
 77
     0
171
     0
175
     0
179
     0
273
     0
  0
XRECORD
  5
17E
102
{ACAD_REACTORS
330
17C
102
}
330
17C
100
AcDbXrecord
280
     1
270
     1
271
     1
  0
XRECORD
  5
17D
102
{ACAD_REACTORS
330
17C
102
}
330
17C
100
AcDbXrecord
280
     1
270
     1
271
     1
  0
XRECORD
  5
181
102
{ACAD_REACTORS
330
17C
102
}
330
17C
100
AcDbXrecord
280
     1
270
     1
271
     1
  0
XRECORD
  5
180
102
{ACAD_REACTORS
330
17C
102
}
330
17C
100
AcDbXrecord
280
     1
270
     1
271
     1
  0
XRECORD
  5
182
102
{ACAD_REACTORS
330
17C
102
}
330
17C
100
AcDbXrecord
280
     1
270
     1
271
     1
  0
XRECORD
  5
17F
102
{ACAD_REACTORS
330
17C
102
}
330
17C
100
AcDbXrecord
280
     1
270
     1
271
     1
  0
XRECORD
  5
2D5
102
{ACAD_REACTORS
330
18C
102
}
330
18C
100
AcDbXrecord
280
     1
102
MATERIAL
148
0.0
149
0.0
149
0.0
 93
        0
 94
      127
282
     0
 72
     0
 77
     0
171
     0
175
     0
179
     0
273
     0
  0
XRECORD
  5
18E
102
{ACAD_REACTORS
330
18C
102
}
330
18C
100
AcDbXrecord
280
     1
270
     1
271
     1
  0
XRECORD
  5
18D
102
{ACAD_REACTORS
330
18C
102
}
330
18C
100
AcDbXrecord
280
     1
270
     1
271
     1
  0
XRECORD
  5
191
102
{ACAD_REACTORS
330
18C
102
}
330
18C
100
AcDbXrecord
280
     1
270
     1
271
     1
  0
XRECORD
  5
190
102
{ACAD_REACTORS
330
18C
102
}
330
18C
100
AcDbXrecord
280
     1
270
     1
271
     1
  0
XRECORD
  5
192
102
{ACAD_REACTORS
330
18C
102
}
330
18C
100
AcDbXrecord
280
     1
270
     1
271
     1
  0
XRECORD
  5
18F
102
{ACAD_REACTORS
330
18C
102
}
330
18C
100
AcDbXrecord
280
     1
270
     1
271
     1
  0
XRECORD
  5
2E53
102
{ACAD_REACTORS
330
2E52
102
}
330
2E52
100
AcDbXrecord
280
     1
102
DISPLAYNAME
  1
Imperial24
102
FLAGS
 90
        0
  0
CELLSTYLEMAP
  5
2E20
102
{ACAD_REACTORS
330
2D0
102
}
330
2D0
100
AcDbCellStyleMap
 90
        3
300
CELLSTYLE
  1
TABLEFORMAT_BEGIN
 90
        5
170
     1
 91
        0
 92
    32768
 62
   257
 93
        1
300
CONTENTFORMAT
  1
CONTENTFORMAT_BEGIN
 90
        0
 91
        0
 92
      512
 93
        0
300

 40
0.0
140
1.0
 94
        5
 62
     0
340
11
144
0.25
309
CONTENTFORMAT_END
171
     1
301
MARGIN
  1
CELLMARGIN_BEGIN
 40
0.06
 40
0.06
 40
0.06
 40
0.06
 40
0.18
 40
0.18
309
CELLMARGIN_END
 94
        6
 95
        1
302
GRIDFORMAT
  1
GRIDFORMAT_BEGIN
 90
        0
 91
        1
 62
     0
 92
       -2
340
0
 93
        0
 40
0.045
309
GRIDFORMAT_END
 95
        2
302
GRIDFORMAT
  1
GRIDFORMAT_BEGIN
 90
        0
 91
        1
 62
     0
 92
       -2
340
0
 93
        0
 40
0.045
309
GRIDFORMAT_END
 95
        4
302
GRIDFORMAT
  1
GRIDFORMAT_BEGIN
 90
        0
 91
        1
 62
     0
 92
       -2
340
0
 93
        0
 40
0.045
309
GRIDFORMAT_END
 95
        8
302
GRIDFORMAT
  1
GRIDFORMAT_BEGIN
 90
        0
 91
        1
 62
     0
 92
       -2
340
0
 93
        0
 40
0.045
309
GRIDFORMAT_END
 95
       16
302
GRIDFORMAT
  1
GRIDFORMAT_BEGIN
 90
        0
 91
        1
 62
     0
 92
       -2
340
0
 93
        0
 40
0.045
309
GRIDFORMAT_END
 95
       32
302
GRIDFORMAT
  1
GRIDFORMAT_BEGIN
 90
        0
 91
        1
 62
     0
 92
       -2
340
0
 93
        0
 40
0.045
309
GRIDFORMAT_END
309
TABLEFORMAT_END
  1
CELLSTYLE_BEGIN
 90
        1
 91
        1
300
_TITLE
309
CELLSTYLE_END
300
CELLSTYLE
  1
TABLEFORMAT_BEGIN
 90
        5
170
     1
 91
        0
 92
        0
 62
   257
 93
        1
300
CONTENTFORMAT
  1
CONTENTFORMAT_BEGIN
 90
        0
 91
        0
 92
      512
 93
        0
300

 40
0.0
140
1.0
 94
        5
 62
     0
340
11
144
0.18
309
CONTENTFORMAT_END
171
     1
301
MARGIN
  1
CELLMARGIN_BEGIN
 40
0.06
 40
0.06
 40
0.06
 40
0.06
 40
0.18
 40
0.18
309
CELLMARGIN_END
 94
        6
 95
        1
302
GRIDFORMAT
  1
GRIDFORMAT_BEGIN
 90
        0
 91
        1
 62
     0
 92
       -2
340
0
 93
        0
 40
0.045
309
GRIDFORMAT_END
 95
        2
302
GRIDFORMAT
  1
GRIDFORMAT_BEGIN
 90
        0
 91
        1
 62
     0
 92
       -2
340
0
 93
        0
 40
0.045
309
GRIDFORMAT_END
 95
        4
302
GRIDFORMAT
  1
GRIDFORMAT_BEGIN
 90
        0
 91
        1
 62
     0
 92
       -2
340
0
 93
        0
 40
0.045
309
GRIDFORMAT_END
 95
        8
302
GRIDFORMAT
  1
GRIDFORMAT_BEGIN
 90
        0
 91
        1
 62
     0
 92
       -2
340
0
 93
        0
 40
0.045
309
GRIDFORMAT_END
 95
       16
302
GRIDFORMAT
  1
GRIDFORMAT_BEGIN
 90
        0
 91
        1
 62
     0
 92
       -2
340
0
 93
        0
 40
0.045
309
GRIDFORMAT_END
 95
       32
302
GRIDFORMAT
  1
GRIDFORMAT_BEGIN
 90
        0
 91
        1
 62
     0
 92
       -2
340
0
 93
        0
 40
0.045
309
GRIDFORMAT_END
309
TABLEFORMAT_END
  1
CELLSTYLE_BEGIN
 90
        2
 91
        1
300
_HEADER
309
CELLSTYLE_END
300
CELLSTYLE
  1
TABLEFORMAT_BEGIN
 90
        5
170
     1
 91
        0
 92
        0
 62
   257
 93
        1
300
CONTENTFORMAT
  1
CONTENTFORMAT_BEGIN
 90
        0
 91
        0
 92
      512
 93
        0
300

 40
0.0
140
1.0
 94
        2
 62
     0
340
11
144
0.18
309
CONTENTFORMAT_END
171
     1
301
MARGIN
  1
CELLMARGIN_BEGIN
 40
0.06
 40
0.06
 40
0.06
 40
0.06
 40
0.18
 40
0.18
309
CELLMARGIN_END
 94
        6
 95
        1
302
GRIDFORMAT
  1
GRIDFORMAT_BEGIN
 90
        0
 91
        1
 62
     0
 92
       -2
340
0
 93
        0
 40
0.045
309
GRIDFORMAT_END
 95
        2
302
GRIDFORMAT
  1
GRIDFORMAT_BEGIN
 90
        0
 91
        1
 62
     0
 92
       -2
340
0
 93
        0
 40
0.045
309
GRIDFORMAT_END
 95
        4
302
GRIDFORMAT
  1
GRIDFORMAT_BEGIN
 90
        0
 91
        1
 62
     0
 92
       -2
340
0
 93
        0
 40
0.045
309
GRIDFORMAT_END
 95
        8
302
GRIDFORMAT
  1
GRIDFORMAT_BEGIN
 90
        0
 91
        1
 62
     0
 92
       -2
340
0
 93
        0
 40
0.045
309
GRIDFORMAT_END
 95
       16
302
GRIDFORMAT
  1
GRIDFORMAT_BEGIN
 90
        0
 91
        1
 62
     0
 92
       -2
340
0
 93
        0
 40
0.045
309
GRIDFORMAT_END
 95
       32
302
GRIDFORMAT
  1
GRIDFORMAT_BEGIN
 90
        0
 91
        1
 62
     0
 92
       -2
340
0
 93
        0
 40
0.045
309
GRIDFORMAT_END
309
TABLEFORMAT_END
  1
CELLSTYLE_BEGIN
 90
        3
 91
        2
300
_DATA
309
CELLSTYLE_END
  0
XRECORD
  5
2E2D
102
{ACAD_REACTORS
330
2E2C
102
}
330
2E2C
100
AcDbXrecord
280
     1
102
RTVSPost2010Prop28
280
     1
102
RTVSPost2010PropOp28
 70
     1
102
RTVSPost2010Prop29
280
     1
102
RTVSPost2010PropOp29
 70
     1
102
RTVSPost2010Prop30
280
     0
102
RTVSPost2010PropOp30
 70
     1
102
RTVSPost2010Prop31
280
     0
102
RTVSPost2010PropOp31
 70
     1
102
RTVSPost2010Prop32
280
     0
102
RTVSPost2010PropOp32
 70
     1
102
RTVSPost2010Prop33
280
     0
102
RTVSPost2010PropOp33
 70
     1
102
RTVSPost2010Prop34
280
     0
102
RTVSPost2010PropOp34
 70
     1
102
RTVSPost2010Prop35
280
     0
102
RTVSPost2010PropOp35
 70
     1
102
RTVSPost2010Prop36
280
     0
102
RTVSPost2010PropOp36
 70
     1
102
RTVSPost2010Prop37
 90
       50
102
RTVSPost2010PropOp37
 70
     1
102
RTVSPost2010Prop38
140
0.0
102
RTVSPost2010PropOp38
 70
     1
102
RTVSPost2010Prop39
140
1.0
102
RTVSPost2010PropOp39
 70
     1
102
RTVSPost2010Prop40
 90
        0
102
RTVSPost2010PropOp40
 70
     1
102
RTVSPost2010Prop41ColorIndex
 90
       18
102
RTVSPost2010Prop41ColorRGB
 90
        0
102
RTVSPost2010PropOp41
 70
     1
102
RTVSPost2010Prop42
 90
       50
102
RTVSPost2010PropOp42
 70
     1
102
RTVSPost2010Prop43
 90
        3
102
RTVSPost2010PropOp43
 70
     1
102
RTVSPost2010Prop44ColorIndex
 90
        5
102
RTVSPost2010Prop44ColorRGB
 90
      255
102
RTVSPost2010PropOp44
 70
     1
102
RTVSPost2010Prop45
280
     0
102
RTVSPost2010PropOp45
 70
     1
102
RTVSPost2010Prop46
 90
       50
102
RTVSPost2010PropOp46
 70
     1
102
RTVSPost2010Prop47
 90
       50
102
RTVSPost2010PropOp47
 70
     1
102
RTVSPost2010Prop48
 90
       50
102
RTVSPost2010PropOp48
 70
     1
102
RTVSPost2010Prop49
280
     0
102
RTVSPost2010PropOp49
 70
     1
102
RTVSPost2010Prop50
 90
       50
102
RTVSPost2010PropOp50
 70
     1
102
RTVSPost2010Prop51ColorIndex
 90
      256
102
RTVSPost2010Prop51ColorRGB
 90
-16777216
102
RTVSPost2010PropOp51
 70
     0
102
RTVSPost2010Prop52
140
1.0
102
RTVSPost2010PropOp52
 70
     0
102
RTVSPost2010Prop53
 90
        2
102
RTVSPost2010PropOp53
 70
     1
102
RTVSPost2010Prop54
  1
strokes_ogs.tif
102
RTVSPost2010PropOp54
 70
     1
102
RTVSPost2010Prop55
280
     0
102
RTVSPost2010PropOp55
 70
     1
102
RTVSPost2010Prop56
140
1.0
102
RTVSPost2010PropOp56
 70
     1
102
RTVSPost2010Prop57
140
1.0
102
RTVSPost2010PropOp57
 70
     1
  0
XRECORD
  5
2E2B
102
{ACAD_REACTORS
330
2E2A
102
}
330
2E2A
100
AcDbXrecord
280
     1
102
RTVSPost2010Prop28
280
     0
102
RTVSPost2010PropOp28
 70
     1
102
RTVSPost2010Prop29
280
     1
102
RTVSPost2010PropOp29
 70
     1
102
RTVSPost2010Prop30
280
     1
102
RTVSPost2010PropOp30
 70
     1
102
RTVSPost2010Prop31
280
     0
102
RTVSPost2010PropOp31
 70
     1
102
RTVSPost2010Prop32
280
     0
102
RTVSPost2010PropOp32
 70
     1
102
RTVSPost2010Prop33
280
     0
102
RTVSPost2010PropOp33
 70
     1
102
RTVSPost2010Prop34
280
     0
102
RTVSPost2010PropOp34
 70
     1
102
RTVSPost2010Prop35
280
     0
102
RTVSPost2010PropOp35
 70
     1
102
RTVSPost2010Prop36
280
     0
102
RTVSPost2010PropOp36
 70
     1
102
RTVSPost2010Prop37
 90
       50
102
RTVSPost2010PropOp37
 70
     1
102
RTVSPost2010Prop38
140
0.0
102
RTVSPost2010PropOp38
 70
     1
102
RTVSPost2010Prop39
140
1.0
102
RTVSPost2010PropOp39
 70
     1
102
RTVSPost2010Prop40
 90
        0
102
RTVSPost2010PropOp40
 70
     1
102
RTVSPost2010Prop41ColorIndex
 90
       18
102
RTVSPost2010Prop41ColorRGB
 90
        0
102
RTVSPost2010PropOp41
 70
     1
102
RTVSPost2010Prop42
 90
       50
102
RTVSPost2010PropOp42
 70
     1
102
RTVSPost2010Prop43
 90
        3
102
RTVSPost2010PropOp43
 70
     1
102
RTVSPost2010Prop44ColorIndex
 90
        5
102
RTVSPost2010Prop44ColorRGB
 90
      255
102
RTVSPost2010PropOp44
 70
     1
102
RTVSPost2010Prop45
280
     0
102
RTVSPost2010PropOp45
 70
     1
102
RTVSPost2010Prop46
 90
       50
102
RTVSPost2010PropOp46
 70
     1
102
RTVSPost2010Prop47
 90
       50
102
RTVSPost2010PropOp47
 70
     1
102
RTVSPost2010Prop48
 90
       50
102
RTVSPost2010PropOp48
 70
     1
102
RTVSPost2010Prop49
280
     0
102
RTVSPost2010PropOp49
 70
     1
102
RTVSPost2010Prop50
 90
       50
102
RTVSPost2010PropOp50
 70
     1
102
RTVSPost2010Prop51ColorIndex
 90
      256
102
RTVSPost2010Prop51ColorRGB
 90
-16777216
102
RTVSPost2010PropOp51
 70
     0
102
RTVSPost2010Prop52
140
1.0
102
RTVSPost2010PropOp52
 70
     0
102
RTVSPost2010Prop53
 90
        2
102
RTVSPost2010PropOp53
 70
     1
102
RTVSPost2010Prop54
  1
strokes_ogs.tif
102
RTVSPost2010PropOp54
 70
     1
102
RTVSPost2010Prop55
280
     0
102
RTVSPost2010PropOp55
 70
     1
102
RTVSPost2010Prop56
140
1.0
102
RTVSPost2010PropOp56
 70
     1
102
RTVSPost2010Prop57
140
1.0
102
RTVSPost2010PropOp57
 70
     1
  0
XRECORD
  5
2E39
102
{ACAD_REACTORS
330
2E38
102
}
330
2E38
100
AcDbXrecord
280
     1
102
RTVSPost2010Prop28
280
     0
102
RTVSPost2010PropOp28
 70
     1
102
RTVSPost2010Prop29
280
     1
102
RTVSPost2010PropOp29
 70
     1
102
RTVSPost2010Prop30
280
     1
102
RTVSPost2010PropOp30
 70
     1
102
RTVSPost2010Prop31
280
     0
102
RTVSPost2010PropOp31
 70
     1
102
RTVSPost2010Prop32
280
     0
102
RTVSPost2010PropOp32
 70
     1
102
RTVSPost2010Prop33
280
     0
102
RTVSPost2010PropOp33
 70
     1
102
RTVSPost2010Prop34
280
     0
102
RTVSPost2010PropOp34
 70
     1
102
RTVSPost2010Prop35
280
     0
102
RTVSPost2010PropOp35
 70
     1
102
RTVSPost2010Prop36
280
     0
102
RTVSPost2010PropOp36
 70
     1
102
RTVSPost2010Prop37
 90
       50
102
RTVSPost2010PropOp37
 70
     1
102
RTVSPost2010Prop38
140
0.0
102
RTVSPost2010PropOp38
 70
     1
102
RTVSPost2010Prop39
140
1.0
102
RTVSPost2010PropOp39
 70
     1
102
RTVSPost2010Prop40
 90
        0
102
RTVSPost2010PropOp40
 70
     1
102
RTVSPost2010Prop41ColorIndex
 90
       18
102
RTVSPost2010Prop41ColorRGB
 90
        0
102
RTVSPost2010PropOp41
 70
     1
102
RTVSPost2010Prop42
 90
       50
102
RTVSPost2010PropOp42
 70
     1
102
RTVSPost2010Prop43
 90
        3
102
RTVSPost2010PropOp43
 70
     1
102
RTVSPost2010Prop44ColorIndex
 90
        5
102
RTVSPost2010Prop44ColorRGB
 90
      255
102
RTVSPost2010PropOp44
 70
     1
102
RTVSPost2010Prop45
280
     0
102
RTVSPost2010PropOp45
 70
     1
102
RTVSPost2010Prop46
 90
       50
102
RTVSPost2010PropOp46
 70
     1
102
RTVSPost2010Prop47
 90
       50
102
RTVSPost2010PropOp47
 70
     1
102
RTVSPost2010Prop48
 90
       50
102
RTVSPost2010PropOp48
 70
     1
102
RTVSPost2010Prop49
280
     0
102
RTVSPost2010PropOp49
 70
     1
102
RTVSPost2010Prop50
 90
       50
102
RTVSPost2010PropOp50
 70
     1
102
RTVSPost2010Prop51ColorIndex
 90
      256
102
RTVSPost2010Prop51ColorRGB
 90
-16777216
102
RTVSPost2010PropOp51
 70
     0
102
RTVSPost2010Prop52
140
1.0
102
RTVSPost2010PropOp52
 70
     0
102
RTVSPost2010Prop53
 90
        2
102
RTVSPost2010PropOp53
 70
     1
102
RTVSPost2010Prop54
  1
strokes_ogs.tif
102
RTVSPost2010PropOp54
 70
     1
102
RTVSPost2010Prop55
280
     0
102
RTVSPost2010PropOp55
 70
     1
102
RTVSPost2010Prop56
140
1.0
102
RTVSPost2010PropOp56
 70
     1
102
RTVSPost2010Prop57
140
1.0
102
RTVSPost2010PropOp57
 70
     1
  0
XRECORD
  5
2E41
102
{ACAD_REACTORS
330
2E40
102
}
330
2E40
100
AcDbXrecord
280
     1
102
RTVSPost2010Prop28
280
     0
102
RTVSPost2010PropOp28
 70
     1
102
RTVSPost2010Prop29
280
     1
102
RTVSPost2010PropOp29
 70
     1
102
RTVSPost2010Prop30
280
     1
102
RTVSPost2010PropOp30
 70
     1
102
RTVSPost2010Prop31
280
     0
102
RTVSPost2010PropOp31
 70
     1
102
RTVSPost2010Prop32
280
     0
102
RTVSPost2010PropOp32
 70
     1
102
RTVSPost2010Prop33
280
     0
102
RTVSPost2010PropOp33
 70
     1
102
RTVSPost2010Prop34
280
     0
102
RTVSPost2010PropOp34
 70
     1
102
RTVSPost2010Prop35
280
     0
102
RTVSPost2010PropOp35
 70
     1
102
RTVSPost2010Prop36
280
     0
102
RTVSPost2010PropOp36
 70
     1
102
RTVSPost2010Prop37
 90
       50
102
RTVSPost2010PropOp37
 70
     1
102
RTVSPost2010Prop38
140
0.0
102
RTVSPost2010PropOp38
 70
     1
102
RTVSPost2010Prop39
140
1.0
102
RTVSPost2010PropOp39
 70
     1
102
RTVSPost2010Prop40
 90
        0
102
RTVSPost2010PropOp40
 70
     1
102
RTVSPost2010Prop41ColorIndex
 90
       18
102
RTVSPost2010Prop41ColorRGB
 90
        0
102
RTVSPost2010PropOp41
 70
     1
102
RTVSPost2010Prop42
 90
       50
102
RTVSPost2010PropOp42
 70
     1
102
RTVSPost2010Prop43
 90
        3
102
RTVSPost2010PropOp43
 70
     1
102
RTVSPost2010Prop44ColorIndex
 90
        5
102
RTVSPost2010Prop44ColorRGB
 90
      255
102
RTVSPost2010PropOp44
 70
     1
102
RTVSPost2010Prop45
280
     0
102
RTVSPost2010PropOp45
 70
     1
102
RTVSPost2010Prop46
 90
       50
102
RTVSPost2010PropOp46
 70
     1
102
RTVSPost2010Prop47
 90
       50
102
RTVSPost2010PropOp47
 70
     1
102
RTVSPost2010Prop48
 90
       50
102
RTVSPost2010PropOp48
 70
     1
102
RTVSPost2010Prop49
280
     0
102
RTVSPost2010PropOp49
 70
     1
102
RTVSPost2010Prop50
 90
       50
102
RTVSPost2010PropOp50
 70
     1
102
RTVSPost2010Prop51ColorIndex
 90
      256
102
RTVSPost2010Prop51ColorRGB
 90
-16777216
102
RTVSPost2010PropOp51
 70
     0
102
RTVSPost2010Prop52
140
1.0
102
RTVSPost2010PropOp52
 70
     0
102
RTVSPost2010Prop53
 90
        2
102
RTVSPost2010PropOp53
 70
     1
102
RTVSPost2010Prop54
  1
strokes_ogs.tif
102
RTVSPost2010PropOp54
 70
     1
102
RTVSPost2010Prop55
280
     0
102
RTVSPost2010PropOp55
 70
     1
102
RTVSPost2010Prop56
140
1.0
102
RTVSPost2010PropOp56
 70
     1
102
RTVSPost2010Prop57
140
1.0
102
RTVSPost2010PropOp57
 70
     1
  0
XRECORD
  5
2E33
102
{ACAD_REACTORS
330
2E32
102
}
330
2E32
100
AcDbXrecord
280
     1
102
RTVSPost2010Prop28
280
     0
102
RTVSPost2010PropOp28
 70
     1
102
RTVSPost2010Prop29
280
     1
102
RTVSPost2010PropOp29
 70
     1
102
RTVSPost2010Prop30
280
     1
102
RTVSPost2010PropOp30
 70
     1
102
RTVSPost2010Prop31
280
     0
102
RTVSPost2010PropOp31
 70
     1
102
RTVSPost2010Prop32
280
     0
102
RTVSPost2010PropOp32
 70
     1
102
RTVSPost2010Prop33
280
     0
102
RTVSPost2010PropOp33
 70
     1
102
RTVSPost2010Prop34
280
     0
102
RTVSPost2010PropOp34
 70
     1
102
RTVSPost2010Prop35
280
     0
102
RTVSPost2010PropOp35
 70
     1
102
RTVSPost2010Prop36
280
     0
102
RTVSPost2010PropOp36
 70
     1
102
RTVSPost2010Prop37
 90
       50
102
RTVSPost2010PropOp37
 70
     1
102
RTVSPost2010Prop38
140
0.0
102
RTVSPost2010PropOp38
 70
     1
102
RTVSPost2010Prop39
140
1.0
102
RTVSPost2010PropOp39
 70
     1
102
RTVSPost2010Prop40
 90
        0
102
RTVSPost2010PropOp40
 70
     1
102
RTVSPost2010Prop41ColorIndex
 90
       18
102
RTVSPost2010Prop41ColorRGB
 90
        0
102
RTVSPost2010PropOp41
 70
     1
102
RTVSPost2010Prop42
 90
       50
102
RTVSPost2010PropOp42
 70
     1
102
RTVSPost2010Prop43
 90
        3
102
RTVSPost2010PropOp43
 70
     1
102
RTVSPost2010Prop44ColorIndex
 90
        5
102
RTVSPost2010Prop44ColorRGB
 90
      255
102
RTVSPost2010PropOp44
 70
     1
102
RTVSPost2010Prop45
280
     0
102
RTVSPost2010PropOp45
 70
     1
102
RTVSPost2010Prop46
 90
       50
102
RTVSPost2010PropOp46
 70
     1
102
RTVSPost2010Prop47
 90
       50
102
RTVSPost2010PropOp47
 70
     1
102
RTVSPost2010Prop48
 90
       50
102
RTVSPost2010PropOp48
 70
     1
102
RTVSPost2010Prop49
280
     0
102
RTVSPost2010PropOp49
 70
     1
102
RTVSPost2010Prop50
 90
       50
102
RTVSPost2010PropOp50
 70
     1
102
RTVSPost2010Prop51ColorIndex
 90
      256
102
RTVSPost2010Prop51ColorRGB
 90
-16777216
102
RTVSPost2010PropOp51
 70
     0
102
RTVSPost2010Prop52
140
1.0
102
RTVSPost2010PropOp52
 70
     0
102
RTVSPost2010Prop53
 90
        2
102
RTVSPost2010PropOp53
 70
     1
102
RTVSPost2010Prop54
  1
strokes_ogs.tif
102
RTVSPost2010PropOp54
 70
     1
102
RTVSPost2010Prop55
280
     0
102
RTVSPost2010PropOp55
 70
     1
102
RTVSPost2010Prop56
140
1.0
102
RTVSPost2010PropOp56
 70
     1
102
RTVSPost2010Prop57
140
1.0
102
RTVSPost2010PropOp57
 70
     1
  0
XRECORD
  5
2E37
102
{ACAD_REACTORS
330
2E36
102
}
330
2E36
100
AcDbXrecord
280
     1
102
RTVSPost2010Prop28
280
     0
102
RTVSPost2010PropOp28
 70
     1
102
RTVSPost2010Prop29
280
     1
102
RTVSPost2010PropOp29
 70
     1
102
RTVSPost2010Prop30
280
     1
102
RTVSPost2010PropOp30
 70
     1
102
RTVSPost2010Prop31
280
     0
102
RTVSPost2010PropOp31
 70
     1
102
RTVSPost2010Prop32
280
     0
102
RTVSPost2010PropOp32
 70
     1
102
RTVSPost2010Prop33
280
     0
102
RTVSPost2010PropOp33
 70
     1
102
RTVSPost2010Prop34
280
     0
102
RTVSPost2010PropOp34
 70
     1
102
RTVSPost2010Prop35
280
     0
102
RTVSPost2010PropOp35
 70
     1
102
RTVSPost2010Prop36
280
     0
102
RTVSPost2010PropOp36
 70
     1
102
RTVSPost2010Prop37
 90
       50
102
RTVSPost2010PropOp37
 70
     1
102
RTVSPost2010Prop38
140
0.0
102
RTVSPost2010PropOp38
 70
     1
102
RTVSPost2010Prop39
140
1.0
102
RTVSPost2010PropOp39
 70
     1
102
RTVSPost2010Prop40
 90
        0
102
RTVSPost2010PropOp40
 70
     1
102
RTVSPost2010Prop41ColorIndex
 90
       18
102
RTVSPost2010Prop41ColorRGB
 90
        0
102
RTVSPost2010PropOp41
 70
     1
102
RTVSPost2010Prop42
 90
       50
102
RTVSPost2010PropOp42
 70
     1
102
RTVSPost2010Prop43
 90
        3
102
RTVSPost2010PropOp43
 70
     1
102
RTVSPost2010Prop44ColorIndex
 90
        5
102
RTVSPost2010Prop44ColorRGB
 90
      255
102
RTVSPost2010PropOp44
 70
     1
102
RTVSPost2010Prop45
280
     0
102
RTVSPost2010PropOp45
 70
     1
102
RTVSPost2010Prop46
 90
       50
102
RTVSPost2010PropOp46
 70
     1
102
RTVSPost2010Prop47
 90
       50
102
RTVSPost2010PropOp47
 70
     1
102
RTVSPost2010Prop48
 90
       50
102
RTVSPost2010PropOp48
 70
     1
102
RTVSPost2010Prop49
280
     0
102
RTVSPost2010PropOp49
 70
     1
102
RTVSPost2010Prop50
 90
       50
102
RTVSPost2010PropOp50
 70
     1
102
RTVSPost2010Prop51ColorIndex
 90
      256
102
RTVSPost2010Prop51ColorRGB
 90
-16777216
102
RTVSPost2010PropOp51
 70
     0
102
RTVSPost2010Prop52
140
1.0
102
RTVSPost2010PropOp52
 70
     0
102
RTVSPost2010Prop53
 90
        2
102
RTVSPost2010PropOp53
 70
     1
102
RTVSPost2010Prop54
  1
strokes_ogs.tif
102
RTVSPost2010PropOp54
 70
     1
102
RTVSPost2010Prop55
280
     0
102
RTVSPost2010PropOp55
 70
     1
102
RTVSPost2010Prop56
140
1.0
102
RTVSPost2010PropOp56
 70
     1
102
RTVSPost2010Prop57
140
1.0
102
RTVSPost2010PropOp57
 70
     1
  0
XRECORD
  5
2E51
102
{ACAD_REACTORS
330
2E50
102
}
330
2E50
100
AcDbXrecord
280
     1
102
RTVSPost2010Prop28
280
     0
102
RTVSPost2010PropOp28
 70
     1
102
RTVSPost2010Prop29
280
     1
102
RTVSPost2010PropOp29
 70
     1
102
RTVSPost2010Prop30
280
     1
102
RTVSPost2010PropOp30
 70
     1
102
RTVSPost2010Prop31
280
     0
102
RTVSPost2010PropOp31
 70
     1
102
RTVSPost2010Prop32
280
     0
102
RTVSPost2010PropOp32
 70
     1
102
RTVSPost2010Prop33
280
     0
102
RTVSPost2010PropOp33
 70
     1
102
RTVSPost2010Prop34
280
     0
102
RTVSPost2010PropOp34
 70
     1
102
RTVSPost2010Prop35
280
     0
102
RTVSPost2010PropOp35
 70
     1
102
RTVSPost2010Prop36
280
     0
102
RTVSPost2010PropOp36
 70
     1
102
RTVSPost2010Prop37
 90
       50
102
RTVSPost2010PropOp37
 70
     0
102
RTVSPost2010Prop38
140
0.0
102
RTVSPost2010PropOp38
 70
     0
102
RTVSPost2010Prop39
140
1.0
102
RTVSPost2010PropOp39
 70
     0
102
RTVSPost2010Prop40
 90
        0
102
RTVSPost2010PropOp40
 70
     0
102
RTVSPost2010Prop41ColorIndex
 90
       18
102
RTVSPost2010Prop41ColorRGB
 90
        0
102
RTVSPost2010PropOp41
 70
     0
102
RTVSPost2010Prop42
 90
       50
102
RTVSPost2010PropOp42
 70
     0
102
RTVSPost2010Prop43
 90
        3
102
RTVSPost2010PropOp43
 70
     0
102
RTVSPost2010Prop44ColorIndex
 90
        5
102
RTVSPost2010Prop44ColorRGB
 90
      255
102
RTVSPost2010PropOp44
 70
     0
102
RTVSPost2010Prop45
280
     0
102
RTVSPost2010PropOp45
 70
     1
102
RTVSPost2010Prop46
 90
       50
102
RTVSPost2010PropOp46
 70
     0
102
RTVSPost2010Prop47
 90
       50
102
RTVSPost2010PropOp47
 70
     0
102
RTVSPost2010Prop48
 90
       50
102
RTVSPost2010PropOp48
 70
     0
102
RTVSPost2010Prop49
280
     0
102
RTVSPost2010PropOp49
 70
     1
102
RTVSPost2010Prop50
 90
       50
102
RTVSPost2010PropOp50
 70
     0
102
RTVSPost2010Prop51ColorIndex
 90
      256
102
RTVSPost2010Prop51ColorRGB
 90
-16777216
102
RTVSPost2010PropOp51
 70
     0
102
RTVSPost2010Prop52
140
1.0
102
RTVSPost2010PropOp52
 70
     0
102
RTVSPost2010Prop53
 90
        2
102
RTVSPost2010PropOp53
 70
     0
102
RTVSPost2010Prop54
  1
strokes_ogs.tif
102
RTVSPost2010PropOp54
 70
     0
102
RTVSPost2010Prop55
280
     0
102
RTVSPost2010PropOp55
 70
     1
102
RTVSPost2010Prop56
140
1.0
102
RTVSPost2010PropOp56
 70
     0
102
RTVSPost2010Prop57
140
1.0
102
RTVSPost2010PropOp57
 70
     0
  0
XRECORD
  5
2E3F
102
{ACAD_REACTORS
330
2E3E
102
}
330
2E3E
100
AcDbXrecord
280
     1
102
RTVSPost2010Prop28
280
     0
102
RTVSPost2010PropOp28
 70
     1
102
RTVSPost2010Prop29
280
     1
102
RTVSPost2010PropOp29
 70
     1
102
RTVSPost2010Prop30
280
     1
102
RTVSPost2010PropOp30
 70
     1
102
RTVSPost2010Prop31
280
     0
102
RTVSPost2010PropOp31
 70
     1
102
RTVSPost2010Prop32
280
     0
102
RTVSPost2010PropOp32
 70
     1
102
RTVSPost2010Prop33
280
     0
102
RTVSPost2010PropOp33
 70
     1
102
RTVSPost2010Prop34
280
     0
102
RTVSPost2010PropOp34
 70
     1
102
RTVSPost2010Prop35
280
     0
102
RTVSPost2010PropOp35
 70
     1
102
RTVSPost2010Prop36
280
     0
102
RTVSPost2010PropOp36
 70
     1
102
RTVSPost2010Prop37
 90
       50
102
RTVSPost2010PropOp37
 70
     1
102
RTVSPost2010Prop38
140
0.0
102
RTVSPost2010PropOp38
 70
     1
102
RTVSPost2010Prop39
140
1.0
102
RTVSPost2010PropOp39
 70
     1
102
RTVSPost2010Prop40
 90
        0
102
RTVSPost2010PropOp40
 70
     1
102
RTVSPost2010Prop41ColorIndex
 90
       18
102
RTVSPost2010Prop41ColorRGB
 90
        0
102
RTVSPost2010PropOp41
 70
     1
102
RTVSPost2010Prop42
 90
       50
102
RTVSPost2010PropOp42
 70
     1
102
RTVSPost2010Prop43
 90
        3
102
RTVSPost2010PropOp43
 70
     1
102
RTVSPost2010Prop44ColorIndex
 90
        5
102
RTVSPost2010Prop44ColorRGB
 90
      255
102
RTVSPost2010PropOp44
 70
     1
102
RTVSPost2010Prop45
280
     0
102
RTVSPost2010PropOp45
 70
     1
102
RTVSPost2010Prop46
 90
       50
102
RTVSPost2010PropOp46
 70
     1
102
RTVSPost2010Prop47
 90
       50
102
RTVSPost2010PropOp47
 70
     1
102
RTVSPost2010Prop48
 90
       50
102
RTVSPost2010PropOp48
 70
     1
102
RTVSPost2010Prop49
280
     0
102
RTVSPost2010PropOp49
 70
     1
102
RTVSPost2010Prop50
 90
       50
102
RTVSPost2010PropOp50
 70
     1
102
RTVSPost2010Prop51ColorIndex
 90
      256
102
RTVSPost2010Prop51ColorRGB
 90
-16777216
102
RTVSPost2010PropOp51
 70
     0
102
RTVSPost2010Prop52
140
1.0
102
RTVSPost2010PropOp52
 70
     0
102
RTVSPost2010Prop53
 90
        2
102
RTVSPost2010PropOp53
 70
     1
102
RTVSPost2010Prop54
  1
strokes_ogs.tif
102
RTVSPost2010PropOp54
 70
     1
102
RTVSPost2010Prop55
280
     0
102
RTVSPost2010PropOp55
 70
     1
102
RTVSPost2010Prop56
140
1.0
102
RTVSPost2010PropOp56
 70
     1
102
RTVSPost2010Prop57
140
1.0
102
RTVSPost2010PropOp57
 70
     1
  0
XRECORD
  5
2E23
102
{ACAD_REACTORS
330
2E22
102
}
330
2E22
100
AcDbXrecord
280
     1
102
RTVSPost2010Prop28
280
     0
102
RTVSPost2010PropOp28
 70
     1
102
RTVSPost2010Prop29
280
     1
102
RTVSPost2010PropOp29
 70
     1
102
RTVSPost2010Prop30
280
     1
102
RTVSPost2010PropOp30
 70
     1
102
RTVSPost2010Prop31
280
     0
102
RTVSPost2010PropOp31
 70
     1
102
RTVSPost2010Prop32
280
     0
102
RTVSPost2010PropOp32
 70
     1
102
RTVSPost2010Prop33
280
     0
102
RTVSPost2010PropOp33
 70
     1
102
RTVSPost2010Prop34
280
     0
102
RTVSPost2010PropOp34
 70
     1
102
RTVSPost2010Prop35
280
     0
102
RTVSPost2010PropOp35
 70
     1
102
RTVSPost2010Prop36
280
     0
102
RTVSPost2010PropOp36
 70
     1
102
RTVSPost2010Prop37
 90
       50
102
RTVSPost2010PropOp37
 70
     1
102
RTVSPost2010Prop38
140
0.0
102
RTVSPost2010PropOp38
 70
     1
102
RTVSPost2010Prop39
140
1.0
102
RTVSPost2010PropOp39
 70
     1
102
RTVSPost2010Prop40
 90
        0
102
RTVSPost2010PropOp40
 70
     1
102
RTVSPost2010Prop41ColorIndex
 90
       18
102
RTVSPost2010Prop41ColorRGB
 90
        0
102
RTVSPost2010PropOp41
 70
     1
102
RTVSPost2010Prop42
 90
       50
102
RTVSPost2010PropOp42
 70
     1
102
RTVSPost2010Prop43
 90
        3
102
RTVSPost2010PropOp43
 70
     1
102
RTVSPost2010Prop44ColorIndex
 90
        5
102
RTVSPost2010Prop44ColorRGB
 90
      255
102
RTVSPost2010PropOp44
 70
     1
102
RTVSPost2010Prop45
280
     0
102
RTVSPost2010PropOp45
 70
     1
102
RTVSPost2010Prop46
 90
       50
102
RTVSPost2010PropOp46
 70
     1
102
RTVSPost2010Prop47
 90
       50
102
RTVSPost2010PropOp47
 70
     1
102
RTVSPost2010Prop48
 90
       50
102
RTVSPost2010PropOp48
 70
     1
102
RTVSPost2010Prop49
280
     0
102
RTVSPost2010PropOp49
 70
     1
102
RTVSPost2010Prop50
 90
       50
102
RTVSPost2010PropOp50
 70
     1
102
RTVSPost2010Prop51ColorIndex
 90
      256
102
RTVSPost2010Prop51ColorRGB
 90
-16777216
102
RTVSPost2010PropOp51
 70
     0
102
RTVSPost2010Prop52
140
1.0
102
RTVSPost2010PropOp52
 70
     0
102
RTVSPost2010Prop53
 90
        2
102
RTVSPost2010PropOp53
 70
     1
102
RTVSPost2010Prop54
  1
strokes_ogs.tif
102
RTVSPost2010PropOp54
 70
     1
102
RTVSPost2010Prop55
280
     0
102
RTVSPost2010PropOp55
 70
     1
102
RTVSPost2010Prop56
140
1.0
102
RTVSPost2010PropOp56
 70
     1
102
RTVSPost2010Prop57
140
1.0
102
RTVSPost2010PropOp57
 70
     1
  0
XRECORD
  5
2E25
102
{ACAD_REACTORS
330
2E24
102
}
330
2E24
100
AcDbXrecord
280
     1
102
RTVSPost2010Prop28
280
     0
102
RTVSPost2010PropOp28
 70
     1
102
RTVSPost2010Prop29
280
     1
102
RTVSPost2010PropOp29
 70
     1
102
RTVSPost2010Prop30
280
     1
102
RTVSPost2010PropOp30
 70
     1
102
RTVSPost2010Prop31
280
     0
102
RTVSPost2010PropOp31
 70
     1
102
RTVSPost2010Prop32
280
     0
102
RTVSPost2010PropOp32
 70
     1
102
RTVSPost2010Prop33
280
     0
102
RTVSPost2010PropOp33
 70
     1
102
RTVSPost2010Prop34
280
     0
102
RTVSPost2010PropOp34
 70
     1
102
RTVSPost2010Prop35
280
     0
102
RTVSPost2010PropOp35
 70
     1
102
RTVSPost2010Prop36
280
     0
102
RTVSPost2010PropOp36
 70
     1
102
RTVSPost2010Prop37
 90
       50
102
RTVSPost2010PropOp37
 70
     1
102
RTVSPost2010Prop38
140
0.0
102
RTVSPost2010PropOp38
 70
     1
102
RTVSPost2010Prop39
140
1.0
102
RTVSPost2010PropOp39
 70
     1
102
RTVSPost2010Prop40
 90
        0
102
RTVSPost2010PropOp40
 70
     1
102
RTVSPost2010Prop41ColorIndex
 90
       18
102
RTVSPost2010Prop41ColorRGB
 90
        0
102
RTVSPost2010PropOp41
 70
     1
102
RTVSPost2010Prop42
 90
       50
102
RTVSPost2010PropOp42
 70
     1
102
RTVSPost2010Prop43
 90
        3
102
RTVSPost2010PropOp43
 70
     1
102
RTVSPost2010Prop44ColorIndex
 90
        5
102
RTVSPost2010Prop44ColorRGB
 90
      255
102
RTVSPost2010PropOp44
 70
     1
102
RTVSPost2010Prop45
280
     0
102
RTVSPost2010PropOp45
 70
     1
102
RTVSPost2010Prop46
 90
       50
102
RTVSPost2010PropOp46
 70
     1
102
RTVSPost2010Prop47
 90
       50
102
RTVSPost2010PropOp47
 70
     1
102
RTVSPost2010Prop48
 90
       50
102
RTVSPost2010PropOp48
 70
     1
102
RTVSPost2010Prop49
280
     0
102
RTVSPost2010PropOp49
 70
     1
102
RTVSPost2010Prop50
 90
       50
102
RTVSPost2010PropOp50
 70
     1
102
RTVSPost2010Prop51ColorIndex
 90
      256
102
RTVSPost2010Prop51ColorRGB
 90
-16777216
102
RTVSPost2010PropOp51
 70
     0
102
RTVSPost2010Prop52
140
1.0
102
RTVSPost2010PropOp52
 70
     0
102
RTVSPost2010Prop53
 90
        2
102
RTVSPost2010PropOp53
 70
     1
102
RTVSPost2010Prop54
  1
strokes_ogs.tif
102
RTVSPost2010PropOp54
 70
     1
102
RTVSPost2010Prop55
280
     0
102
RTVSPost2010PropOp55
 70
     1
102
RTVSPost2010Prop56
140
1.0
102
RTVSPost2010PropOp56
 70
     1
102
RTVSPost2010Prop57
140
1.0
102
RTVSPost2010PropOp57
 70
     1
  0
XRECORD
  5
2E27
102
{ACAD_REACTORS
330
2E26
102
}
330
2E26
100
AcDbXrecord
280
     1
102
RTVSPost2010Prop28
280
     0
102
RTVSPost2010PropOp28
 70
     1
102
RTVSPost2010Prop29
280
     1
102
RTVSPost2010PropOp29
 70
     1
102
RTVSPost2010Prop30
280
     1
102
RTVSPost2010PropOp30
 70
     1
102
RTVSPost2010Prop31
280
     0
102
RTVSPost2010PropOp31
 70
     1
102
RTVSPost2010Prop32
280
     0
102
RTVSPost2010PropOp32
 70
     1
102
RTVSPost2010Prop33
280
     0
102
RTVSPost2010PropOp33
 70
     1
102
RTVSPost2010Prop34
280
     0
102
RTVSPost2010PropOp34
 70
     1
102
RTVSPost2010Prop35
280
     0
102
RTVSPost2010PropOp35
 70
     1
102
RTVSPost2010Prop36
280
     0
102
RTVSPost2010PropOp36
 70
     1
102
RTVSPost2010Prop37
 90
       50
102
RTVSPost2010PropOp37
 70
     1
102
RTVSPost2010Prop38
140
0.0
102
RTVSPost2010PropOp38
 70
     1
102
RTVSPost2010Prop39
140
1.0
102
RTVSPost2010PropOp39
 70
     1
102
RTVSPost2010Prop40
 90
        0
102
RTVSPost2010PropOp40
 70
     1
102
RTVSPost2010Prop41ColorIndex
 90
       18
102
RTVSPost2010Prop41ColorRGB
 90
        0
102
RTVSPost2010PropOp41
 70
     1
102
RTVSPost2010Prop42
 90
       50
102
RTVSPost2010PropOp42
 70
     1
102
RTVSPost2010Prop43
 90
        3
102
RTVSPost2010PropOp43
 70
     1
102
RTVSPost2010Prop44ColorIndex
 90
        5
102
RTVSPost2010Prop44ColorRGB
 90
      255
102
RTVSPost2010PropOp44
 70
     1
102
RTVSPost2010Prop45
280
     0
102
RTVSPost2010PropOp45
 70
     1
102
RTVSPost2010Prop46
 90
       50
102
RTVSPost2010PropOp46
 70
     1
102
RTVSPost2010Prop47
 90
       50
102
RTVSPost2010PropOp47
 70
     1
102
RTVSPost2010Prop48
 90
       50
102
RTVSPost2010PropOp48
 70
     1
102
RTVSPost2010Prop49
280
     0
102
RTVSPost2010PropOp49
 70
     1
102
RTVSPost2010Prop50
 90
       50
102
RTVSPost2010PropOp50
 70
     1
102
RTVSPost2010Prop51ColorIndex
 90
      256
102
RTVSPost2010Prop51ColorRGB
 90
-16777216
102
RTVSPost2010PropOp51
 70
     0
102
RTVSPost2010Prop52
140
1.0
102
RTVSPost2010PropOp52
 70
     0
102
RTVSPost2010Prop53
 90
        2
102
RTVSPost2010PropOp53
 70
     1
102
RTVSPost2010Prop54
  1
strokes_ogs.tif
102
RTVSPost2010PropOp54
 70
     1
102
RTVSPost2010Prop55
280
     0
102
RTVSPost2010PropOp55
 70
     1
102
RTVSPost2010Prop56
140
1.0
102
RTVSPost2010PropOp56
 70
     1
102
RTVSPost2010Prop57
140
1.0
102
RTVSPost2010PropOp57
 70
     1
  0
XRECORD
  5
2E29
102
{ACAD_REACTORS
330
2E28
102
}
330
2E28
100
AcDbXrecord
280
     1
102
RTVSPost2010Prop28
280
     0
102
RTVSPost2010PropOp28
 70
     1
102
RTVSPost2010Prop29
280
     1
102
RTVSPost2010PropOp29
 70
     1
102
RTVSPost2010Prop30
280
     1
102
RTVSPost2010PropOp30
 70
     1
102
RTVSPost2010Prop31
280
     0
102
RTVSPost2010PropOp31
 70
     1
102
RTVSPost2010Prop32
280
     0
102
RTVSPost2010PropOp32
 70
     1
102
RTVSPost2010Prop33
280
     0
102
RTVSPost2010PropOp33
 70
     1
102
RTVSPost2010Prop34
280
     0
102
RTVSPost2010PropOp34
 70
     1
102
RTVSPost2010Prop35
280
     0
102
RTVSPost2010PropOp35
 70
     1
102
RTVSPost2010Prop36
280
     0
102
RTVSPost2010PropOp36
 70
     1
102
RTVSPost2010Prop37
 90
       50
102
RTVSPost2010PropOp37
 70
     1
102
RTVSPost2010Prop38
140
0.0
102
RTVSPost2010PropOp38
 70
     1
102
RTVSPost2010Prop39
140
1.0
102
RTVSPost2010PropOp39
 70
     1
102
RTVSPost2010Prop40
 90
        0
102
RTVSPost2010PropOp40
 70
     1
102
RTVSPost2010Prop41ColorIndex
 90
       18
102
RTVSPost2010Prop41ColorRGB
 90
        0
102
RTVSPost2010PropOp41
 70
     1
102
RTVSPost2010Prop42
 90
       50
102
RTVSPost2010PropOp42
 70
     1
102
RTVSPost2010Prop43
 90
        3
102
RTVSPost2010PropOp43
 70
     1
102
RTVSPost2010Prop44ColorIndex
 90
        5
102
RTVSPost2010Prop44ColorRGB
 90
      255
102
RTVSPost2010PropOp44
 70
     1
102
RTVSPost2010Prop45
280
     0
102
RTVSPost2010PropOp45
 70
     1
102
RTVSPost2010Prop46
 90
       50
102
RTVSPost2010PropOp46
 70
     1
102
RTVSPost2010Prop47
 90
       50
102
RTVSPost2010PropOp47
 70
     1
102
RTVSPost2010Prop48
 90
       50
102
RTVSPost2010PropOp48
 70
     1
102
RTVSPost2010Prop49
280
     0
102
RTVSPost2010PropOp49
 70
     1
102
RTVSPost2010Prop50
 90
       50
102
RTVSPost2010PropOp50
 70
     1
102
RTVSPost2010Prop51ColorIndex
 90
      256
102
RTVSPost2010Prop51ColorRGB
 90
-16777216
102
RTVSPost2010PropOp51
 70
     0
102
RTVSPost2010Prop52
140
1.0
102
RTVSPost2010PropOp52
 70
     0
102
RTVSPost2010Prop53
 90
        2
102
RTVSPost2010PropOp53
 70
     1
102
RTVSPost2010Prop54
  1
strokes_ogs.tif
102
RTVSPost2010PropOp54
 70
     1
102
RTVSPost2010Prop55
280
     0
102
RTVSPost2010PropOp55
 70
     1
102
RTVSPost2010Prop56
140
1.0
102
RTVSPost2010PropOp56
 70
     1
102
RTVSPost2010Prop57
140
1.0
102
RTVSPost2010PropOp57
 70
     1
  0
XRECORD
  5
2E31
102
{ACAD_REACTORS
330
2E30
102
}
330
2E30
100
AcDbXrecord
280
     1
102
RTVSPost2010Prop28
280
     0
102
RTVSPost2010PropOp28
 70
     1
102
RTVSPost2010Prop29
280
     1
102
RTVSPost2010PropOp29
 70
     1
102
RTVSPost2010Prop30
280
     1
102
RTVSPost2010PropOp30
 70
     1
102
RTVSPost2010Prop31
280
     0
102
RTVSPost2010PropOp31
 70
     1
102
RTVSPost2010Prop32
280
     0
102
RTVSPost2010PropOp32
 70
     1
102
RTVSPost2010Prop33
280
     0
102
RTVSPost2010PropOp33
 70
     1
102
RTVSPost2010Prop34
280
     0
102
RTVSPost2010PropOp34
 70
     1
102
RTVSPost2010Prop35
280
     0
102
RTVSPost2010PropOp35
 70
     1
102
RTVSPost2010Prop36
280
     0
102
RTVSPost2010PropOp36
 70
     1
102
RTVSPost2010Prop37
 90
       50
102
RTVSPost2010PropOp37
 70
     1
102
RTVSPost2010Prop38
140
0.0
102
RTVSPost2010PropOp38
 70
     1
102
RTVSPost2010Prop39
140
1.0
102
RTVSPost2010PropOp39
 70
     1
102
RTVSPost2010Prop40
 90
        0
102
RTVSPost2010PropOp40
 70
     1
102
RTVSPost2010Prop41ColorIndex
 90
       18
102
RTVSPost2010Prop41ColorRGB
 90
        0
102
RTVSPost2010PropOp41
 70
     1
102
RTVSPost2010Prop42
 90
       50
102
RTVSPost2010PropOp42
 70
     1
102
RTVSPost2010Prop43
 90
        3
102
RTVSPost2010PropOp43
 70
     1
102
RTVSPost2010Prop44ColorIndex
 90
        5
102
RTVSPost2010Prop44ColorRGB
 90
      255
102
RTVSPost2010PropOp44
 70
     1
102
RTVSPost2010Prop45
280
     0
102
RTVSPost2010PropOp45
 70
     1
102
RTVSPost2010Prop46
 90
       50
102
RTVSPost2010PropOp46
 70
     1
102
RTVSPost2010Prop47
 90
       50
102
RTVSPost2010PropOp47
 70
     1
102
RTVSPost2010Prop48
 90
       50
102
RTVSPost2010PropOp48
 70
     1
102
RTVSPost2010Prop49
280
     0
102
RTVSPost2010PropOp49
 70
     1
102
RTVSPost2010Prop50
 90
       50
102
RTVSPost2010PropOp50
 70
     1
102
RTVSPost2010Prop51ColorIndex
 90
      256
102
RTVSPost2010Prop51ColorRGB
 90
-16777216
102
RTVSPost2010PropOp51
 70
     0
102
RTVSPost2010Prop52
140
1.0
102
RTVSPost2010PropOp52
 70
     0
102
RTVSPost2010Prop53
 90
        2
102
RTVSPost2010PropOp53
 70
     1
102
RTVSPost2010Prop54
  1
strokes_ogs.tif
102
RTVSPost2010PropOp54
 70
     1
102
RTVSPost2010Prop55
280
     0
102
RTVSPost2010PropOp55
 70
     1
102
RTVSPost2010Prop56
140
1.0
102
RTVSPost2010PropOp56
 70
     1
102
RTVSPost2010Prop57
140
1.0
102
RTVSPost2010PropOp57
 70
     1
  0
XRECORD
  5
2E4D
102
{ACAD_REACTORS
330
2E4C
102
}
330
2E4C
100
AcDbXrecord
280
     1
102
RTVSPost2010Prop28
280
     0
102
RTVSPost2010PropOp28
 70
     1
102
RTVSPost2010Prop29
280
     1
102
RTVSPost2010PropOp29
 70
     1
102
RTVSPost2010Prop30
280
     1
102
RTVSPost2010PropOp30
 70
     1
102
RTVSPost2010Prop31
280
     0
102
RTVSPost2010PropOp31
 70
     1
102
RTVSPost2010Prop32
280
     0
102
RTVSPost2010PropOp32
 70
     1
102
RTVSPost2010Prop33
280
     0
102
RTVSPost2010PropOp33
 70
     1
102
RTVSPost2010Prop34
280
     0
102
RTVSPost2010PropOp34
 70
     1
102
RTVSPost2010Prop35
280
     0
102
RTVSPost2010PropOp35
 70
     1
102
RTVSPost2010Prop36
280
     0
102
RTVSPost2010PropOp36
 70
     1
102
RTVSPost2010Prop37
 90
       50
102
RTVSPost2010PropOp37
 70
     0
102
RTVSPost2010Prop38
140
0.0
102
RTVSPost2010PropOp38
 70
     0
102
RTVSPost2010Prop39
140
1.0
102
RTVSPost2010PropOp39
 70
     0
102
RTVSPost2010Prop40
 90
        0
102
RTVSPost2010PropOp40
 70
     0
102
RTVSPost2010Prop41ColorIndex
 90
       18
102
RTVSPost2010Prop41ColorRGB
 90
        0
102
RTVSPost2010PropOp41
 70
     0
102
RTVSPost2010Prop42
 90
       50
102
RTVSPost2010PropOp42
 70
     0
102
RTVSPost2010Prop43
 90
        3
102
RTVSPost2010PropOp43
 70
     0
102
RTVSPost2010Prop44ColorIndex
 90
        5
102
RTVSPost2010Prop44ColorRGB
 90
      255
102
RTVSPost2010PropOp44
 70
     0
102
RTVSPost2010Prop45
280
     0
102
RTVSPost2010PropOp45
 70
     1
102
RTVSPost2010Prop46
 90
       50
102
RTVSPost2010PropOp46
 70
     0
102
RTVSPost2010Prop47
 90
       50
102
RTVSPost2010PropOp47
 70
     0
102
RTVSPost2010Prop48
 90
       50
102
RTVSPost2010PropOp48
 70
     0
102
RTVSPost2010Prop49
280
     0
102
RTVSPost2010PropOp49
 70
     1
102
RTVSPost2010Prop50
 90
       50
102
RTVSPost2010PropOp50
 70
     0
102
RTVSPost2010Prop51ColorIndex
 90
      256
102
RTVSPost2010Prop51ColorRGB
 90
-16777216
102
RTVSPost2010PropOp51
 70
     0
102
RTVSPost2010Prop52
140
1.0
102
RTVSPost2010PropOp52
 70
     0
102
RTVSPost2010Prop53
 90
        2
102
RTVSPost2010PropOp53
 70
     0
102
RTVSPost2010Prop54
  1
strokes_ogs.tif
102
RTVSPost2010PropOp54
 70
     0
102
RTVSPost2010Prop55
280
     0
102
RTVSPost2010PropOp55
 70
     1
102
RTVSPost2010Prop56
140
1.0
102
RTVSPost2010PropOp56
 70
     0
102
RTVSPost2010Prop57
140
1.0
102
RTVSPost2010PropOp57
 70
     0
  0
XRECORD
  5
2E3D
102
{ACAD_REACTORS
330
2E3C
102
}
330
2E3C
100
AcDbXrecord
280
     1
102
RTVSPost2010Prop28
280
     0
102
RTVSPost2010PropOp28
 70
     1
102
RTVSPost2010Prop29
280
     1
102
RTVSPost2010PropOp29
 70
     1
102
RTVSPost2010Prop30
280
     1
102
RTVSPost2010PropOp30
 70
     1
102
RTVSPost2010Prop31
280
     0
102
RTVSPost2010PropOp31
 70
     1
102
RTVSPost2010Prop32
280
     0
102
RTVSPost2010PropOp32
 70
     1
102
RTVSPost2010Prop33
280
     0
102
RTVSPost2010PropOp33
 70
     1
102
RTVSPost2010Prop34
280
     0
102
RTVSPost2010PropOp34
 70
     1
102
RTVSPost2010Prop35
280
     0
102
RTVSPost2010PropOp35
 70
     1
102
RTVSPost2010Prop36
280
     0
102
RTVSPost2010PropOp36
 70
     1
102
RTVSPost2010Prop37
 90
       50
102
RTVSPost2010PropOp37
 70
     1
102
RTVSPost2010Prop38
140
0.0
102
RTVSPost2010PropOp38
 70
     1
102
RTVSPost2010Prop39
140
1.0
102
RTVSPost2010PropOp39
 70
     1
102
RTVSPost2010Prop40
 90
        0
102
RTVSPost2010PropOp40
 70
     1
102
RTVSPost2010Prop41ColorIndex
 90
       18
102
RTVSPost2010Prop41ColorRGB
 90
        0
102
RTVSPost2010PropOp41
 70
     1
102
RTVSPost2010Prop42
 90
       50
102
RTVSPost2010PropOp42
 70
     1
102
RTVSPost2010Prop43
 90
        3
102
RTVSPost2010PropOp43
 70
     1
102
RTVSPost2010Prop44ColorIndex
 90
        5
102
RTVSPost2010Prop44ColorRGB
 90
      255
102
RTVSPost2010PropOp44
 70
     1
102
RTVSPost2010Prop45
280
     0
102
RTVSPost2010PropOp45
 70
     1
102
RTVSPost2010Prop46
 90
       50
102
RTVSPost2010PropOp46
 70
     1
102
RTVSPost2010Prop47
 90
       50
102
RTVSPost2010PropOp47
 70
     1
102
RTVSPost2010Prop48
 90
       50
102
RTVSPost2010PropOp48
 70
     1
102
RTVSPost2010Prop49
280
     0
102
RTVSPost2010PropOp49
 70
     1
102
RTVSPost2010Prop50
 90
       50
102
RTVSPost2010PropOp50
 70
     1
102
RTVSPost2010Prop51ColorIndex
 90
      256
102
RTVSPost2010Prop51ColorRGB
 90
-16777216
102
RTVSPost2010PropOp51
 70
     0
102
RTVSPost2010Prop52
140
1.0
102
RTVSPost2010PropOp52
 70
     0
102
RTVSPost2010Prop53
 90
        2
102
RTVSPost2010PropOp53
 70
     1
102
RTVSPost2010Prop54
  1
strokes_ogs.tif
102
RTVSPost2010PropOp54
 70
     1
102
RTVSPost2010Prop55
280
     0
102
RTVSPost2010PropOp55
 70
     1
102
RTVSPost2010Prop56
140
1.0
102
RTVSPost2010PropOp56
 70
     1
102
RTVSPost2010Prop57
140
1.0
102
RTVSPost2010PropOp57
 70
     1
  0
XRECORD
  5
2E4F
102
{ACAD_REACTORS
330
2E4E
102
}
330
2E4E
100
AcDbXrecord
280
     1
102
RTVSPost2010Prop28
280
     0
102
RTVSPost2010PropOp28
 70
     1
102
RTVSPost2010Prop29
280
     1
102
RTVSPost2010PropOp29
 70
     1
102
RTVSPost2010Prop30
280
     1
102
RTVSPost2010PropOp30
 70
     1
102
RTVSPost2010Prop31
280
     0
102
RTVSPost2010PropOp31
 70
     1
102
RTVSPost2010Prop32
280
     0
102
RTVSPost2010PropOp32
 70
     1
102
RTVSPost2010Prop33
280
     0
102
RTVSPost2010PropOp33
 70
     1
102
RTVSPost2010Prop34
280
     0
102
RTVSPost2010PropOp34
 70
     1
102
RTVSPost2010Prop35
280
     0
102
RTVSPost2010PropOp35
 70
     1
102
RTVSPost2010Prop36
280
     0
102
RTVSPost2010PropOp36
 70
     1
102
RTVSPost2010Prop37
 90
       50
102
RTVSPost2010PropOp37
 70
     0
102
RTVSPost2010Prop38
140
0.0
102
RTVSPost2010PropOp38
 70
     0
102
RTVSPost2010Prop39
140
1.0
102
RTVSPost2010PropOp39
 70
     0
102
RTVSPost2010Prop40
 90
        0
102
RTVSPost2010PropOp40
 70
     0
102
RTVSPost2010Prop41ColorIndex
 90
       18
102
RTVSPost2010Prop41ColorRGB
 90
        0
102
RTVSPost2010PropOp41
 70
     0
102
RTVSPost2010Prop42
 90
       50
102
RTVSPost2010PropOp42
 70
     0
102
RTVSPost2010Prop43
 90
        3
102
RTVSPost2010PropOp43
 70
     0
102
RTVSPost2010Prop44ColorIndex
 90
        5
102
RTVSPost2010Prop44ColorRGB
 90
      255
102
RTVSPost2010PropOp44
 70
     0
102
RTVSPost2010Prop45
280
     0
102
RTVSPost2010PropOp45
 70
     1
102
RTVSPost2010Prop46
 90
       50
102
RTVSPost2010PropOp46
 70
     0
102
RTVSPost2010Prop47
 90
       50
102
RTVSPost2010PropOp47
 70
     0
102
RTVSPost2010Prop48
 90
       50
102
RTVSPost2010PropOp48
 70
     0
102
RTVSPost2010Prop49
280
     0
102
RTVSPost2010PropOp49
 70
     1
102
RTVSPost2010Prop50
 90
       50
102
RTVSPost2010PropOp50
 70
     0
102
RTVSPost2010Prop51ColorIndex
 90
      256
102
RTVSPost2010Prop51ColorRGB
 90
-16777216
102
RTVSPost2010PropOp51
 70
     0
102
RTVSPost2010Prop52
140
1.0
102
RTVSPost2010PropOp52
 70
     0
102
RTVSPost2010Prop53
 90
        2
102
RTVSPost2010PropOp53
 70
     0
102
RTVSPost2010Prop54
  1
strokes_ogs.tif
102
RTVSPost2010PropOp54
 70
     0
102
RTVSPost2010Prop55
280
     0
102
RTVSPost2010PropOp55
 70
     1
102
RTVSPost2010Prop56
140
1.0
102
RTVSPost2010PropOp56
 70
     0
102
RTVSPost2010Prop57
140
1.0
102
RTVSPost2010PropOp57
 70
     0
  0
XRECORD
  5
2E35
102
{ACAD_REACTORS
330
2E34
102
}
330
2E34
100
AcDbXrecord
280
     1
102
RTVSPost2010Prop28
280
     0
102
RTVSPost2010PropOp28
 70
     1
102
RTVSPost2010Prop29
280
     1
102
RTVSPost2010PropOp29
 70
     1
102
RTVSPost2010Prop30
280
     1
102
RTVSPost2010PropOp30
 70
     1
102
RTVSPost2010Prop31
280
     0
102
RTVSPost2010PropOp31
 70
     1
102
RTVSPost2010Prop32
280
     0
102
RTVSPost2010PropOp32
 70
     1
102
RTVSPost2010Prop33
280
     0
102
RTVSPost2010PropOp33
 70
     1
102
RTVSPost2010Prop34
280
     0
102
RTVSPost2010PropOp34
 70
     1
102
RTVSPost2010Prop35
280
     0
102
RTVSPost2010PropOp35
 70
     1
102
RTVSPost2010Prop36
280
     0
102
RTVSPost2010PropOp36
 70
     1
102
RTVSPost2010Prop37
 90
       50
102
RTVSPost2010PropOp37
 70
     1
102
RTVSPost2010Prop38
140
0.0
102
RTVSPost2010PropOp38
 70
     1
102
RTVSPost2010Prop39
140
1.0
102
RTVSPost2010PropOp39
 70
     1
102
RTVSPost2010Prop40
 90
        0
102
RTVSPost2010PropOp40
 70
     1
102
RTVSPost2010Prop41ColorIndex
 90
       18
102
RTVSPost2010Prop41ColorRGB
 90
        0
102
RTVSPost2010PropOp41
 70
     1
102
RTVSPost2010Prop42
 90
       50
102
RTVSPost2010PropOp42
 70
     1
102
RTVSPost2010Prop43
 90
        3
102
RTVSPost2010PropOp43
 70
     1
102
RTVSPost2010Prop44ColorIndex
 90
        5
102
RTVSPost2010Prop44ColorRGB
 90
      255
102
RTVSPost2010PropOp44
 70
     1
102
RTVSPost2010Prop45
280
     0
102
RTVSPost2010PropOp45
 70
     1
102
RTVSPost2010Prop46
 90
       50
102
RTVSPost2010PropOp46
 70
     1
102
RTVSPost2010Prop47
 90
       50
102
RTVSPost2010PropOp47
 70
     1
102
RTVSPost2010Prop48
 90
       50
102
RTVSPost2010PropOp48
 70
     1
102
RTVSPost2010Prop49
280
     0
102
RTVSPost2010PropOp49
 70
     1
102
RTVSPost2010Prop50
 90
       50
102
RTVSPost2010PropOp50
 70
     1
102
RTVSPost2010Prop51ColorIndex
 90
      256
102
RTVSPost2010Prop51ColorRGB
 90
-16777216
102
RTVSPost2010PropOp51
 70
     0
102
RTVSPost2010Prop52
140
1.0
102
RTVSPost2010PropOp52
 70
     0
102
RTVSPost2010Prop53
 90
        2
102
RTVSPost2010PropOp53
 70
     1
102
RTVSPost2010Prop54
  1
strokes_ogs.tif
102
RTVSPost2010PropOp54
 70
     1
102
RTVSPost2010Prop55
280
     0
102
RTVSPost2010PropOp55
 70
     1
102
RTVSPost2010Prop56
140
1.0
102
RTVSPost2010PropOp56
 70
     1
102
RTVSPost2010Prop57
140
1.0
102
RTVSPost2010PropOp57
 70
     1
  0
XRECORD
  5
2E4B
102
{ACAD_REACTORS
330
2E4A
102
}
330
2E4A
100
AcDbXrecord
280
     1
102
RTVSPost2010Prop28
280
     0
102
RTVSPost2010PropOp28
 70
     1
102
RTVSPost2010Prop29
280
     1
102
RTVSPost2010PropOp29
 70
     1
102
RTVSPost2010Prop30
280
     1
102
RTVSPost2010PropOp30
 70
     1
102
RTVSPost2010Prop31
280
     0
102
RTVSPost2010PropOp31
 70
     1
102
RTVSPost2010Prop32
280
     0
102
RTVSPost2010PropOp32
 70
     1
102
RTVSPost2010Prop33
280
     0
102
RTVSPost2010PropOp33
 70
     1
102
RTVSPost2010Prop34
280
     0
102
RTVSPost2010PropOp34
 70
     1
102
RTVSPost2010Prop35
280
     0
102
RTVSPost2010PropOp35
 70
     1
102
RTVSPost2010Prop36
280
     0
102
RTVSPost2010PropOp36
 70
     1
102
RTVSPost2010Prop37
 90
       50
102
RTVSPost2010PropOp37
 70
     1
102
RTVSPost2010Prop38
140
0.0
102
RTVSPost2010PropOp38
 70
     1
102
RTVSPost2010Prop39
140
1.0
102
RTVSPost2010PropOp39
 70
     1
102
RTVSPost2010Prop40
 90
        0
102
RTVSPost2010PropOp40
 70
     1
102
RTVSPost2010Prop41ColorIndex
 90
       18
102
RTVSPost2010Prop41ColorRGB
 90
        0
102
RTVSPost2010PropOp41
 70
     1
102
RTVSPost2010Prop42
 90
       50
102
RTVSPost2010PropOp42
 70
     1
102
RTVSPost2010Prop43
 90
        3
102
RTVSPost2010PropOp43
 70
     1
102
RTVSPost2010Prop44ColorIndex
 90
        5
102
RTVSPost2010Prop44ColorRGB
 90
      255
102
RTVSPost2010PropOp44
 70
     1
102
RTVSPost2010Prop45
280
     0
102
RTVSPost2010PropOp45
 70
     1
102
RTVSPost2010Prop46
 90
       50
102
RTVSPost2010PropOp46
 70
     1
102
RTVSPost2010Prop47
 90
       50
102
RTVSPost2010PropOp47
 70
     1
102
RTVSPost2010Prop48
 90
       50
102
RTVSPost2010PropOp48
 70
     1
102
RTVSPost2010Prop49
280
     0
102
RTVSPost2010PropOp49
 70
     1
102
RTVSPost2010Prop50
 90
       50
102
RTVSPost2010PropOp50
 70
     1
102
RTVSPost2010Prop51ColorIndex
 90
      256
102
RTVSPost2010Prop51ColorRGB
 90
-16777216
102
RTVSPost2010PropOp51
 70
     0
102
RTVSPost2010Prop52
140
1.0
102
RTVSPost2010PropOp52
 70
     0
102
RTVSPost2010Prop53
 90
        2
102
RTVSPost2010PropOp53
 70
     1
102
RTVSPost2010Prop54
  1
strokes_ogs.tif
102
RTVSPost2010PropOp54
 70
     1
102
RTVSPost2010Prop55
280
     0
102
RTVSPost2010PropOp55
 70
     1
102
RTVSPost2010Prop56
140
1.0
102
RTVSPost2010PropOp56
 70
     1
102
RTVSPost2010Prop57
140
1.0
102
RTVSPost2010PropOp57
 70
     1
  0
XRECORD
  5
2E49
102
{ACAD_REACTORS
330
2E48
102
}
330
2E48
100
AcDbXrecord
280
     1
102
RTVSPost2010Prop28
280
     0
102
RTVSPost2010PropOp28
 70
     1
102
RTVSPost2010Prop29
280
     1
102
RTVSPost2010PropOp29
 70
     1
102
RTVSPost2010Prop30
280
     1
102
RTVSPost2010PropOp30
 70
     1
102
RTVSPost2010Prop31
280
     0
102
RTVSPost2010PropOp31
 70
     1
102
RTVSPost2010Prop32
280
     0
102
RTVSPost2010PropOp32
 70
     1
102
RTVSPost2010Prop33
280
     0
102
RTVSPost2010PropOp33
 70
     1
102
RTVSPost2010Prop34
280
     0
102
RTVSPost2010PropOp34
 70
     1
102
RTVSPost2010Prop35
280
     0
102
RTVSPost2010PropOp35
 70
     1
102
RTVSPost2010Prop36
280
     0
102
RTVSPost2010PropOp36
 70
     1
102
RTVSPost2010Prop37
 90
       50
102
RTVSPost2010PropOp37
 70
     1
102
RTVSPost2010Prop38
140
0.0
102
RTVSPost2010PropOp38
 70
     1
102
RTVSPost2010Prop39
140
1.0
102
RTVSPost2010PropOp39
 70
     1
102
RTVSPost2010Prop40
 90
        0
102
RTVSPost2010PropOp40
 70
     1
102
RTVSPost2010Prop41ColorIndex
 90
       18
102
RTVSPost2010Prop41ColorRGB
 90
        0
102
RTVSPost2010PropOp41
 70
     1
102
RTVSPost2010Prop42
 90
       50
102
RTVSPost2010PropOp42
 70
     1
102
RTVSPost2010Prop43
 90
        3
102
RTVSPost2010PropOp43
 70
     1
102
RTVSPost2010Prop44ColorIndex
 90
        5
102
RTVSPost2010Prop44ColorRGB
 90
      255
102
RTVSPost2010PropOp44
 70
     1
102
RTVSPost2010Prop45
280
     0
102
RTVSPost2010PropOp45
 70
     1
102
RTVSPost2010Prop46
 90
       50
102
RTVSPost2010PropOp46
 70
     1
102
RTVSPost2010Prop47
 90
       50
102
RTVSPost2010PropOp47
 70
     1
102
RTVSPost2010Prop48
 90
       50
102
RTVSPost2010PropOp48
 70
     1
102
RTVSPost2010Prop49
280
     0
102
RTVSPost2010PropOp49
 70
     1
102
RTVSPost2010Prop50
 90
       50
102
RTVSPost2010PropOp50
 70
     1
102
RTVSPost2010Prop51ColorIndex
 90
      256
102
RTVSPost2010Prop51ColorRGB
 90
-16777216
102
RTVSPost2010PropOp51
 70
     0
102
RTVSPost2010Prop52
140
1.0
102
RTVSPost2010PropOp52
 70
     0
102
RTVSPost2010Prop53
 90
        2
102
RTVSPost2010PropOp53
 70
     1
102
RTVSPost2010Prop54
  1
strokes_ogs.tif
102
RTVSPost2010PropOp54
 70
     1
102
RTVSPost2010Prop55
280
     0
102
RTVSPost2010PropOp55
 70
     1
102
RTVSPost2010Prop56
140
1.0
102
RTVSPost2010PropOp56
 70
     1
102
RTVSPost2010Prop57
140
1.0
102
RTVSPost2010PropOp57
 70
     1
  0
XRECORD
  5
2E43
102
{ACAD_REACTORS
330
2E42
102
}
330
2E42
100
AcDbXrecord
280
     1
102
RTVSPost2010Prop28
280
     0
102
RTVSPost2010PropOp28
 70
     1
102
RTVSPost2010Prop29
280
     1
102
RTVSPost2010PropOp29
 70
     1
102
RTVSPost2010Prop30
280
     1
102
RTVSPost2010PropOp30
 70
     1
102
RTVSPost2010Prop31
280
     0
102
RTVSPost2010PropOp31
 70
     1
102
RTVSPost2010Prop32
280
     0
102
RTVSPost2010PropOp32
 70
     1
102
RTVSPost2010Prop33
280
     0
102
RTVSPost2010PropOp33
 70
     1
102
RTVSPost2010Prop34
280
     0
102
RTVSPost2010PropOp34
 70
     1
102
RTVSPost2010Prop35
280
     0
102
RTVSPost2010PropOp35
 70
     1
102
RTVSPost2010Prop36
280
     0
102
RTVSPost2010PropOp36
 70
     1
102
RTVSPost2010Prop37
 90
       50
102
RTVSPost2010PropOp37
 70
     1
102
RTVSPost2010Prop38
140
0.0
102
RTVSPost2010PropOp38
 70
     1
102
RTVSPost2010Prop39
140
1.0
102
RTVSPost2010PropOp39
 70
     1
102
RTVSPost2010Prop40
 90
        0
102
RTVSPost2010PropOp40
 70
     1
102
RTVSPost2010Prop41ColorIndex
 90
       18
102
RTVSPost2010Prop41ColorRGB
 90
        0
102
RTVSPost2010PropOp41
 70
     1
102
RTVSPost2010Prop42
 90
       50
102
RTVSPost2010PropOp42
 70
     1
102
RTVSPost2010Prop43
 90
        3
102
RTVSPost2010PropOp43
 70
     1
102
RTVSPost2010Prop44ColorIndex
 90
        5
102
RTVSPost2010Prop44ColorRGB
 90
      255
102
RTVSPost2010PropOp44
 70
     1
102
RTVSPost2010Prop45
280
     0
102
RTVSPost2010PropOp45
 70
     1
102
RTVSPost2010Prop46
 90
       50
102
RTVSPost2010PropOp46
 70
     1
102
RTVSPost2010Prop47
 90
       50
102
RTVSPost2010PropOp47
 70
     1
102
RTVSPost2010Prop48
 90
       50
102
RTVSPost2010PropOp48
 70
     1
102
RTVSPost2010Prop49
280
     0
102
RTVSPost2010PropOp49
 70
     1
102
RTVSPost2010Prop50
 90
       50
102
RTVSPost2010PropOp50
 70
     1
102
RTVSPost2010Prop51ColorIndex
 90
      256
102
RTVSPost2010Prop51ColorRGB
 90
-16777216
102
RTVSPost2010PropOp51
 70
     0
102
RTVSPost2010Prop52
140
1.0
102
RTVSPost2010PropOp52
 70
     0
102
RTVSPost2010Prop53
 90
        2
102
RTVSPost2010PropOp53
 70
     1
102
RTVSPost2010Prop54
  1
strokes_ogs.tif
102
RTVSPost2010PropOp54
 70
     1
102
RTVSPost2010Prop55
280
     0
102
RTVSPost2010PropOp55
 70
     1
102
RTVSPost2010Prop56
140
1.0
102
RTVSPost2010PropOp56
 70
     1
102
RTVSPost2010Prop57
140
1.0
102
RTVSPost2010PropOp57
 70
     1
  0
XRECORD
  5
2E45
102
{ACAD_REACTORS
330
2E44
102
}
330
2E44
100
AcDbXrecord
280
     1
102
RTVSPost2010Prop28
280
     0
102
RTVSPost2010PropOp28
 70
     1
102
RTVSPost2010Prop29
280
     1
102
RTVSPost2010PropOp29
 70
     1
102
RTVSPost2010Prop30
280
     1
102
RTVSPost2010PropOp30
 70
     1
102
RTVSPost2010Prop31
280
     0
102
RTVSPost2010PropOp31
 70
     1
102
RTVSPost2010Prop32
280
     0
102
RTVSPost2010PropOp32
 70
     1
102
RTVSPost2010Prop33
280
     0
102
RTVSPost2010PropOp33
 70
     1
102
RTVSPost2010Prop34
280
     0
102
RTVSPost2010PropOp34
 70
     1
102
RTVSPost2010Prop35
280
     0
102
RTVSPost2010PropOp35
 70
     1
102
RTVSPost2010Prop36
280
     0
102
RTVSPost2010PropOp36
 70
     1
102
RTVSPost2010Prop37
 90
       50
102
RTVSPost2010PropOp37
 70
     1
102
RTVSPost2010Prop38
140
0.0
102
RTVSPost2010PropOp38
 70
     1
102
RTVSPost2010Prop39
140
1.0
102
RTVSPost2010PropOp39
 70
     1
102
RTVSPost2010Prop40
 90
        0
102
RTVSPost2010PropOp40
 70
     1
102
RTVSPost2010Prop41ColorIndex
 90
       18
102
RTVSPost2010Prop41ColorRGB
 90
        0
102
RTVSPost2010PropOp41
 70
     1
102
RTVSPost2010Prop42
 90
       50
102
RTVSPost2010PropOp42
 70
     1
102
RTVSPost2010Prop43
 90
        3
102
RTVSPost2010PropOp43
 70
     1
102
RTVSPost2010Prop44ColorIndex
 90
        5
102
RTVSPost2010Prop44ColorRGB
 90
      255
102
RTVSPost2010PropOp44
 70
     1
102
RTVSPost2010Prop45
280
     0
102
RTVSPost2010PropOp45
 70
     1
102
RTVSPost2010Prop46
 90
       50
102
RTVSPost2010PropOp46
 70
     1
102
RTVSPost2010Prop47
 90
       50
102
RTVSPost2010PropOp47
 70
     1
102
RTVSPost2010Prop48
 90
       50
102
RTVSPost2010PropOp48
 70
     1
102
RTVSPost2010Prop49
280
     0
102
RTVSPost2010PropOp49
 70
     1
102
RTVSPost2010Prop50
 90
       50
102
RTVSPost2010PropOp50
 70
     1
102
RTVSPost2010Prop51ColorIndex
 90
      256
102
RTVSPost2010Prop51ColorRGB
 90
-16777216
102
RTVSPost2010PropOp51
 70
     0
102
RTVSPost2010Prop52
140
1.0
102
RTVSPost2010PropOp52
 70
     0
102
RTVSPost2010Prop53
 90
        2
102
RTVSPost2010PropOp53
 70
     1
102
RTVSPost2010Prop54
  1
strokes_ogs.tif
102
RTVSPost2010PropOp54
 70
     1
102
RTVSPost2010Prop55
280
     0
102
RTVSPost2010PropOp55
 70
     1
102
RTVSPost2010Prop56
140
1.0
102
RTVSPost2010PropOp56
 70
     1
102
RTVSPost2010Prop57
140
1.0
102
RTVSPost2010PropOp57
 70
     1
  0
XRECORD
  5
2E3B
102
{ACAD_REACTORS
330
2E3A
102
}
330
2E3A
100
AcDbXrecord
280
     1
102
RTVSPost2010Prop28
280
     0
102
RTVSPost2010PropOp28
 70
     1
102
RTVSPost2010Prop29
280
     1
102
RTVSPost2010PropOp29
 70
     1
102
RTVSPost2010Prop30
280
     1
102
RTVSPost2010PropOp30
 70
     1
102
RTVSPost2010Prop31
280
     0
102
RTVSPost2010PropOp31
 70
     1
102
RTVSPost2010Prop32
280
     0
102
RTVSPost2010PropOp32
 70
     1
102
RTVSPost2010Prop33
280
     0
102
RTVSPost2010PropOp33
 70
     1
102
RTVSPost2010Prop34
280
     0
102
RTVSPost2010PropOp34
 70
     1
102
RTVSPost2010Prop35
280
     0
102
RTVSPost2010PropOp35
 70
     1
102
RTVSPost2010Prop36
280
     0
102
RTVSPost2010PropOp36
 70
     1
102
RTVSPost2010Prop37
 90
       50
102
RTVSPost2010PropOp37
 70
     1
102
RTVSPost2010Prop38
140
0.0
102
RTVSPost2010PropOp38
 70
     1
102
RTVSPost2010Prop39
140
1.0
102
RTVSPost2010PropOp39
 70
     1
102
RTVSPost2010Prop40
 90
        0
102
RTVSPost2010PropOp40
 70
     1
102
RTVSPost2010Prop41ColorIndex
 90
       18
102
RTVSPost2010Prop41ColorRGB
 90
        0
102
RTVSPost2010PropOp41
 70
     1
102
RTVSPost2010Prop42
 90
       50
102
RTVSPost2010PropOp42
 70
     1
102
RTVSPost2010Prop43
 90
        3
102
RTVSPost2010PropOp43
 70
     1
102
RTVSPost2010Prop44ColorIndex
 90
        5
102
RTVSPost2010Prop44ColorRGB
 90
      255
102
RTVSPost2010PropOp44
 70
     1
102
RTVSPost2010Prop45
280
     0
102
RTVSPost2010PropOp45
 70
     1
102
RTVSPost2010Prop46
 90
       50
102
RTVSPost2010PropOp46
 70
     1
102
RTVSPost2010Prop47
 90
       50
102
RTVSPost2010PropOp47
 70
     1
102
RTVSPost2010Prop48
 90
       50
102
RTVSPost2010PropOp48
 70
     1
102
RTVSPost2010Prop49
280
     0
102
RTVSPost2010PropOp49
 70
     1
102
RTVSPost2010Prop50
 90
       50
102
RTVSPost2010PropOp50
 70
     1
102
RTVSPost2010Prop51ColorIndex
 90
      256
102
RTVSPost2010Prop51ColorRGB
 90
-16777216
102
RTVSPost2010PropOp51
 70
     0
102
RTVSPost2010Prop52
140
1.0
102
RTVSPost2010PropOp52
 70
     0
102
RTVSPost2010Prop53
 90
        2
102
RTVSPost2010PropOp53
 70
     1
102
RTVSPost2010Prop54
  1
strokes_ogs.tif
102
RTVSPost2010PropOp54
 70
     1
102
RTVSPost2010Prop55
280
     0
102
RTVSPost2010PropOp55
 70
     1
102
RTVSPost2010Prop56
140
1.0
102
RTVSPost2010PropOp56
 70
     1
102
RTVSPost2010Prop57
140
1.0
102
RTVSPost2010PropOp57
 70
     1
  0
XRECORD
  5
2E2F
102
{ACAD_REACTORS
330
2E2E
102
}
330
2E2E
100
AcDbXrecord
280
     1
102
RTVSPost2010Prop28
280
     0
102
RTVSPost2010PropOp28
 70
     1
102
RTVSPost2010Prop29
280
     1
102
RTVSPost2010PropOp29
 70
     1
102
RTVSPost2010Prop30
280
     1
102
RTVSPost2010PropOp30
 70
     1
102
RTVSPost2010Prop31
280
     0
102
RTVSPost2010PropOp31
 70
     1
102
RTVSPost2010Prop32
280
     0
102
RTVSPost2010PropOp32
 70
     1
102
RTVSPost2010Prop33
280
     0
102
RTVSPost2010PropOp33
 70
     1
102
RTVSPost2010Prop34
280
     0
102
RTVSPost2010PropOp34
 70
     1
102
RTVSPost2010Prop35
280
     0
102
RTVSPost2010PropOp35
 70
     1
102
RTVSPost2010Prop36
280
     0
102
RTVSPost2010PropOp36
 70
     1
102
RTVSPost2010Prop37
 90
       50
102
RTVSPost2010PropOp37
 70
     1
102
RTVSPost2010Prop38
140
0.0
102
RTVSPost2010PropOp38
 70
     1
102
RTVSPost2010Prop39
140
1.0
102
RTVSPost2010PropOp39
 70
     1
102
RTVSPost2010Prop40
 90
        0
102
RTVSPost2010PropOp40
 70
     1
102
RTVSPost2010Prop41ColorIndex
 90
       18
102
RTVSPost2010Prop41ColorRGB
 90
        0
102
RTVSPost2010PropOp41
 70
     1
102
RTVSPost2010Prop42
 90
       50
102
RTVSPost2010PropOp42
 70
     1
102
RTVSPost2010Prop43
 90
        3
102
RTVSPost2010PropOp43
 70
     1
102
RTVSPost2010Prop44ColorIndex
 90
        5
102
RTVSPost2010Prop44ColorRGB
 90
      255
102
RTVSPost2010PropOp44
 70
     1
102
RTVSPost2010Prop45
280
     0
102
RTVSPost2010PropOp45
 70
     1
102
RTVSPost2010Prop46
 90
       50
102
RTVSPost2010PropOp46
 70
     1
102
RTVSPost2010Prop47
 90
       50
102
RTVSPost2010PropOp47
 70
     1
102
RTVSPost2010Prop48
 90
       50
102
RTVSPost2010PropOp48
 70
     1
102
RTVSPost2010Prop49
280
     0
102
RTVSPost2010PropOp49
 70
     1
102
RTVSPost2010Prop50
 90
       50
102
RTVSPost2010PropOp50
 70
     1
102
RTVSPost2010Prop51ColorIndex
 90
      256
102
RTVSPost2010Prop51ColorRGB
 90
-16777216
102
RTVSPost2010PropOp51
 70
     0
102
RTVSPost2010Prop52
140
1.0
102
RTVSPost2010PropOp52
 70
     0
102
RTVSPost2010Prop53
 90
        2
102
RTVSPost2010PropOp53
 70
     1
102
RTVSPost2010Prop54
  1
strokes_ogs.tif
102
RTVSPost2010PropOp54
 70
     1
102
RTVSPost2010Prop55
280
     0
102
RTVSPost2010PropOp55
 70
     1
102
RTVSPost2010Prop56
140
1.0
102
RTVSPost2010PropOp56
 70
     1
102
RTVSPost2010Prop57
140
1.0
102
RTVSPost2010PropOp57
 70
     1
  0
XRECORD
  5
2E47
102
{ACAD_REACTORS
330
2E46
102
}
330
2E46
100
AcDbXrecord
280
     1
102
RTVSPost2010Prop28
280
     0
102
RTVSPost2010PropOp28
 70
     1
102
RTVSPost2010Prop29
280
     1
102
RTVSPost2010PropOp29
 70
     1
102
RTVSPost2010Prop30
280
     1
102
RTVSPost2010PropOp30
 70
     1
102
RTVSPost2010Prop31
280
     0
102
RTVSPost2010PropOp31
 70
     1
102
RTVSPost2010Prop32
280
     0
102
RTVSPost2010PropOp32
 70
     1
102
RTVSPost2010Prop33
280
     0
102
RTVSPost2010PropOp33
 70
     1
102
RTVSPost2010Prop34
280
     0
102
RTVSPost2010PropOp34
 70
     1
102
RTVSPost2010Prop35
280
     0
102
RTVSPost2010PropOp35
 70
     1
102
RTVSPost2010Prop36
280
     0
102
RTVSPost2010PropOp36
 70
     1
102
RTVSPost2010Prop37
 90
       50
102
RTVSPost2010PropOp37
 70
     1
102
RTVSPost2010Prop38
140
0.0
102
RTVSPost2010PropOp38
 70
     1
102
RTVSPost2010Prop39
140
1.0
102
RTVSPost2010PropOp39
 70
     1
102
RTVSPost2010Prop40
 90
        0
102
RTVSPost2010PropOp40
 70
     1
102
RTVSPost2010Prop41ColorIndex
 90
       18
102
RTVSPost2010Prop41ColorRGB
 90
        0
102
RTVSPost2010PropOp41
 70
     1
102
RTVSPost2010Prop42
 90
       50
102
RTVSPost2010PropOp42
 70
     1
102
RTVSPost2010Prop43
 90
        3
102
RTVSPost2010PropOp43
 70
     1
102
RTVSPost2010Prop44ColorIndex
 90
        5
102
RTVSPost2010Prop44ColorRGB
 90
      255
102
RTVSPost2010PropOp44
 70
     1
102
RTVSPost2010Prop45
280
     0
102
RTVSPost2010PropOp45
 70
     1
102
RTVSPost2010Prop46
 90
       50
102
RTVSPost2010PropOp46
 70
     1
102
RTVSPost2010Prop47
 90
       50
102
RTVSPost2010PropOp47
 70
     1
102
RTVSPost2010Prop48
 90
       50
102
RTVSPost2010PropOp48
 70
     1
102
RTVSPost2010Prop49
280
     0
102
RTVSPost2010PropOp49
 70
     1
102
RTVSPost2010Prop50
 90
       50
102
RTVSPost2010PropOp50
 70
     1
102
RTVSPost2010Prop51ColorIndex
 90
      256
102
RTVSPost2010Prop51ColorRGB
 90
-16777216
102
RTVSPost2010PropOp51
 70
     0
102
RTVSPost2010Prop52
140
1.0
102
RTVSPost2010PropOp52
 70
     0
102
RTVSPost2010Prop53
 90
        2
102
RTVSPost2010PropOp53
 70
     1
102
RTVSPost2010Prop54
  1
strokes_ogs.tif
102
RTVSPost2010PropOp54
 70
     1
102
RTVSPost2010Prop55
280
     0
102
RTVSPost2010PropOp55
 70
     1
102
RTVSPost2010Prop56
140
1.0
102
RTVSPost2010PropOp56
 70
     1
102
RTVSPost2010Prop57
140
1.0
102
RTVSPost2010PropOp57
 70
     1
  0
ENDSEC
  0
EOF
