  0
SECTION
  2
HEADER
  9
$ACADVER
  1
AC1015
  9
$ACADMAINTVER
 70
     6
  9
$DWGCODEPAGE
  3
ANSI_1252
  9
$INSBASE
 10
0.0
 20
0.0
 30
0.0
  9
$EXTMIN
 10
-76.96066018577983
 20
-104.4000000240001
 30
-0.0000000100000065
  9
$EXTMAX
 10
76.96066018577983
 20
52.81066017177993
 30
0.0000000100000021
  9
$LIMMIN
 10
0.0
 20
0.0
  9
$LIMMAX
 10
12.0
 20
9.0
  9
$ORTHOMODE
 70
     0
  9
$REGENMODE
 70
     1
  9
$FILLMODE
 70
     1
  9
$QTEXTMODE
 70
     0
  9
$MIRRTEXT
 70
     1
  9
$LTSCALE
 40
1.0
  9
$ATTMODE
 70
     1
  9
$TEXTSIZE
 40
0.2
  9
$TRACEWID
 40
0.05
  9
$TEXTSTYLE
  7
STANDARD
  9
$CLAYER
  8
0
  9
$CELTYPE
  6
BYLAYER
  9
$CECOLOR
 62
   256
  9
$CELTSCALE
 40
1.0
  9
$DISPSILH
 70
     0
  9
$DIMSCALE
 40
1.0
  9
$DIMASZ
 40
0.18
  9
$DIMEXO
 40
0.0625
  9
$DIMDLI
 40
0.38
  9
$DIMRND
 40
0.0
  9
$DIMDLE
 40
0.0
  9
$DIMEXE
 40
0.18
  9
$DIMTP
 40
0.0
  9
$DIMTM
 40
0.0
  9
$DIMTXT
 40
0.18
  9
$DIMCEN
 40
0.09
  9
$DIMTSZ
 40
0.0
  9
$DIMTOL
 70
     0
  9
$DIMLIM
 70
     0
  9
$DIMTIH
 70
     1
  9
$DIMTOH
 70
     1
  9
$DIMSE1
 70
     0
  9
$DIMSE2
 70
     0
  9
$DIMTAD
 70
     0
  9
$DIMZIN
 70
     0
  9
$DIMBLK
  1

  9
$DIMASO
 70
     1
  9
$DIMSHO
 70
     1
  9
$DIMPOST
  1

  9
$DIMAPOST
  1

  9
$DIMALT
 70
     0
  9
$DIMALTD
 70
     2
  9
$DIMALTF
 40
25.4
  9
$DIMLFAC
 40
1.0
  9
$DIMTOFL
 70
     0
  9
$DIMTVP
 40
0.0
  9
$DIMTIX
 70
     0
  9
$DIMSOXD
 70
     0
  9
$DIMSAH
 70
     0
  9
$DIMBLK1
  1

  9
$DIMBLK2
  1

  9
$DIMSTYLE
  2
STANDARD
  9
$DIMCLRD
 70
     0
  9
$DIMCLRE
 70
     0
  9
$DIMCLRT
 70
     0
  9
$DIMTFAC
 40
1.0
  9
$DIMGAP
 40
0.09
  9
$DIMJUST
 70
     0
  9
$DIMSD1
 70
     0
  9
$DIMSD2
 70
     0
  9
$DIMTOLJ
 70
     1
  9
$DIMTZIN
 70
     0
  9
$DIMALTZ
 70
     0
  9
$DIMALTTZ
 70
     0
  9
$DIMUPT
 70
     0
  9
$DIMDEC
 70
     4
  9
$DIMTDEC
 70
     4
  9
$DIMALTU
 70
     2
  9
$DIMALTTD
 70
     2
  9
$DIMTXSTY
  7
STANDARD
  9
$DIMAUNIT
 70
     0
  9
$DIMADEC
 70
     0
  9
$DIMALTRND
 40
0.0
  9
$DIMAZIN
 70
     0
  9
$DIMDSEP
 70
    46
  9
$DIMATFIT
 70
     3
  9
$DIMFRAC
 70
     0
  9
$DIMLDRBLK
  1

  9
$DIMLUNIT
 70
     2
  9
$DIMLWD
 70
    -2
  9
$DIMLWE
 70
    -2
  9
$DIMTMOVE
 70
     0
  9
$LUNITS
 70
     2
  9
$LUPREC
 70
     4
  9
$SKETCHINC
 40
0.1
  9
$FILLETRAD
 40
0.5
  9
$AUNITS
 70
     0
  9
$AUPREC
 70
     0
  9
$MENU
  1
.
  9
$ELEVATION
 40
0.0
  9
$PELEVATION
 40
0.0
  9
$THICKNESS
 40
0.0
  9
$LIMCHECK
 70
     0
  9
$CHAMFERA
 40
0.5
  9
$CHAMFERB
 40
0.5
  9
$CHAMFERC
 40
1.0
  9
$CHAMFERD
 40
0.0
  9
$SKPOLY
 70
     0
  9
$TDCREATE
 40
2451762.582693287
  9
$TDUCREATE
 40
2451762.499359953
  9
$TDUPDATE
 40
2452863.367406493
  9
$TDUUPDATE
 40
2452863.284073159
  9
$TDINDWG
 40
0.0006391319
  9
$TDUSRTIMER
 40
0.0006389583
  9
$USRTIMER
 70
     1
  9
$ANGBASE
 50
0.0
  9
$ANGDIR
 70
     0
  9
$PDMODE
 70
     0
  9
$PDSIZE
 40
0.0
  9
$PLINEWID
 40
0.0
  9
$SPLFRAME
 70
     0
  9
$SPLINETYPE
 70
     6
  9
$SPLINESEGS
 70
     8
  9
$HANDSEED
  5
3C6
  9
$SURFTAB1
 70
     6
  9
$SURFTAB2
 70
     6
  9
$SURFTYPE
 70
     6
  9
$SURFU
 70
     6
  9
$SURFV
 70
     6
  9
$UCSBASE
  2

  9
$UCSNAME
  2

  9
$UCSORG
 10
0.0
 20
0.0
 30
0.0
  9
$UCSXDIR
 10
1.0
 20
0.0
 30
0.0
  9
$UCSYDIR
 10
0.0
 20
1.0
 30
0.0
  9
$UCSORTHOREF
  2

  9
$UCSORTHOVIEW
 70
     0
  9
$UCSORGTOP
 10
0.0
 20
0.0
 30
0.0
  9
$UCSORGBOTTOM
 10
0.0
 20
0.0
 30
0.0
  9
$UCSORGLEFT
 10
0.0
 20
0.0
 30
0.0
  9
$UCSORGRIGHT
 10
0.0
 20
0.0
 30
0.0
  9
$UCSORGFRONT
 10
0.0
 20
0.0
 30
0.0
  9
$UCSORGBACK
 10
0.0
 20
0.0
 30
0.0
  9
$PUCSBASE
  2

  9
$PUCSNAME
  2

  9
$PUCSORG
 10
0.0
 20
0.0
 30
0.0
  9
$PUCSXDIR
 10
1.0
 20
0.0
 30
0.0
  9
$PUCSYDIR
 10
0.0
 20
1.0
 30
0.0
  9
$PUCSORTHOREF
  2

  9
$PUCSORTHOVIEW
 70
     0
  9
$PUCSORGTOP
 10
0.0
 20
0.0
 30
0.0
  9
$PUCSORGBOTTOM
 10
0.0
 20
0.0
 30
0.0
  9
$PUCSORGLEFT
 10
0.0
 20
0.0
 30
0.0
  9
$PUCSORGRIGHT
 10
0.0
 20
0.0
 30
0.0
  9
$PUCSORGFRONT
 10
0.0
 20
0.0
 30
0.0
  9
$PUCSORGBACK
 10
0.0
 20
0.0
 30
0.0
  9
$USERI1
 70
     0
  9
$USERI2
 70
     0
  9
$USERI3
 70
     0
  9
$USERI4
 70
     0
  9
$USERI5
 70
     0
  9
$USERR1
 40
0.0
  9
$USERR2
 40
0.0
  9
$USERR3
 40
0.0
  9
$USERR4
 40
0.0
  9
$USERR5
 40
0.0
  9
$WORLDVIEW
 70
     1
  9
$SHADEDGE
 70
     3
  9
$SHADEDIF
 70
    70
  9
$TILEMODE
 70
     1
  9
$MAXACTVP
 70
    64
  9
$PINSBASE
 10
0.0
 20
0.0
 30
0.0
  9
$PLIMCHECK
 70
     0
  9
$PEXTMIN
 10
1.000000000000000E+20
 20
1.000000000000000E+20
 30
1.000000000000000E+20
  9
$PEXTMAX
 10
-1.000000000000000E+20
 20
-1.000000000000000E+20
 30
-1.000000000000000E+20
  9
$PLIMMIN
 10
0.0
 20
0.0
  9
$PLIMMAX
 10
12.0
 20
9.0
  9
$UNITMODE
 70
     0
  9
$VISRETAIN
 70
     1
  9
$PLINEGEN
 70
     0
  9
$PSLTSCALE
 70
     1
  9
$TREEDEPTH
 70
  3020
  9
$CMLSTYLE
  2
STANDARD
  9
$CMLJUST
 70
     0
  9
$CMLSCALE
 40
1.0
  9
$PROXYGRAPHICS
 70
     1
  9
$MEASUREMENT
 70
     0
  9
$CELWEIGHT
370
    -1
  9
$ENDCAPS
280
     0
  9
$JOINSTYLE
280
     0
  9
$LWDISPLAY
290
     0
  9
$INSUNITS
 70
     0
  9
$HYPERLINKBASE
  1

  9
$STYLESHEET
  1

  9
$XEDIT
290
     1
  9
$CEPSNTYPE
380
     0
  9
$PSTYLEMODE
290
     1
  9
$FINGERPRINTGUID
  2
{82A26A79-0479-4DE8-84F8-1BDF3EB7C338}
  9
$VERSIONGUID
  2
{C4F90D4C-3ECA-4572-91DB-64ED69377456}
  9
$EXTNAMES
290
     1
  9
$PSVPSCALE
 40
0.0
  9
$OLESTARTUP
290
     0
  0
ENDSEC
  0
SECTION
  2
CLASSES
  0
CLASS
  1
ACDBDICTIONARYWDFLT
  2
AcDbDictionaryWithDefault
  3
AutoCAD 2000
 90
        0
280
     0
281
     0
  0
CLASS
  1
ACDBPLACEHOLDER
  2
AcDbPlaceHolder
  3
AutoCAD 2000
 90
        0
280
     0
281
     0
  0
CLASS
  1
LAYOUT
  2
AcDbLayout
  3
AutoCAD 2000
 90
        0
280
     0
281
     0
  0
CLASS
  1
LONG_TRANSACTION
  2
AcDbLongTransaction
  3
AutoCAD 2000
 90
    32768
280
     0
281
     0
  0
CLASS
  1
LWPOLYLINE
  2
AcDbPolyline
  3
AutoCAD 2000
 90
    32768
280
     0
281
     1
  0
CLASS
  1
HATCH
  2
AcDbHatch
  3
AutoCAD 2000
 90
    32768
280
     0
281
     1
  0
CLASS
  1
XRECORD
  2
AcDbXrecord
  3
AutoCAD 2000
 90
    32768
280
     0
281
     0
  0
ENDSEC
  0
SECTION
  2
TABLES
  0
TABLE
  2
VPORT
  5
8
330
0
100
AcDbSymbolTable
 70
     2
  0
VPORT
  5
3C5
330
8
100
AcDbSymbolTableRecord
100
AcDbViewportTableRecord
  2
*Active
 70
     0
 10
0.0
 20
0.0
 11
1.0
 21
1.0
 12
-0.0000000000000023
 22
-14.6809575341809
 13
0.0
 23
0.0
 14
0.5
 24
0.5
 15
0.5
 25
0.5
 16
0.0
 26
0.0
 36
1.0
 17
0.0
 27
0.0
 37
0.0
 40
181.4935434952365
 41
1.818713450292397
 42
50.0
 43
0.0
 44
0.0
 50
0.0
 51
0.0
 71
     0
 72
   100
 73
     1
 74
     3
 75
     0
 76
     0
 77
     0
 78
     0
281
     0
 65
     1
110
0.0
120
0.0
130
0.0
111
1.0
121
0.0
131
0.0
112
0.0
122
1.0
132
0.0
 79
     0
146
0.0
  0
ENDTAB
  0
TABLE
  2
LTYPE
  5
5
330
0
100
AcDbSymbolTable
 70
     1
  0
LTYPE
  5
14
330
5
100
AcDbSymbolTableRecord
100
AcDbLinetypeTableRecord
  2
BYBLOCK
 70
     0
  3

 72
    65
 73
     0
 40
0.0
  0
LTYPE
  5
15
330
5
100
AcDbSymbolTableRecord
100
AcDbLinetypeTableRecord
  2
BYLAYER
 70
     0
  3

 72
    65
 73
     0
 40
0.0
  0
LTYPE
  5
16
330
5
100
AcDbSymbolTableRecord
100
AcDbLinetypeTableRecord
  2
CONTINUOUS
 70
     0
  3
Solid line
 72
    65
 73
     0
 40
0.0
  0
ENDTAB
  0
TABLE
  2
LAYER
  5
2
330
0
100
AcDbSymbolTable
 70
     2
  0
LAYER
  5
10
330
2
100
AcDbSymbolTableRecord
100
AcDbLayerTableRecord
  2
0
 70
     0
 62
     7
  6
CONTINUOUS
370
    -3
390
216
  0
LAYER
  5
B1
330
2
100
AcDbSymbolTableRecord
100
AcDbLayerTableRecord
  2
PV-141
 70
     2
 62
     7
  6
CONTINUOUS
370
    -3
390
216
  0
ENDTAB
  0
TABLE
  2
STYLE
  5
3
330
0
100
AcDbSymbolTable
 70
     1
  0
STYLE
  5
11
330
3
100
AcDbSymbolTableRecord
100
AcDbTextStyleTableRecord
  2
STANDARD
 70
     0
 40
0.0
 41
1.0
 50
0.0
 71
     0
 42
0.2
  3
txt
  4

  0
ENDTAB
  0
TABLE
  2
VIEW
  5
6
330
0
100
AcDbSymbolTable
 70
     0
  0
ENDTAB
  0
TABLE
  2
UCS
  5
7
330
0
100
AcDbSymbolTable
 70
     0
  0
ENDTAB
  0
TABLE
  2
APPID
  5
9
330
0
100
AcDbSymbolTable
 70
     2
  0
APPID
  5
12
330
9
100
AcDbSymbolTableRecord
100
AcDbRegAppTableRecord
  2
ACAD
 70
     0
  0
APPID
  5
3C3
330
9
100
AcDbSymbolTableRecord
100
AcDbRegAppTableRecord
  2
DCO15
 70
     0
  0
ENDTAB
  0
TABLE
  2
DIMSTYLE
  5
A
330
0
100
AcDbSymbolTable
 70
     1
100
AcDbDimStyleTable
 71
     0
  0
DIMSTYLE
105
27
330
A
100
AcDbSymbolTableRecord
100
AcDbDimStyleTableRecord
  2
STANDARD
 70
     0
340
11
  0
ENDTAB
  0
TABLE
  2
BLOCK_RECORD
  5
1
330
0
100
AcDbSymbolTable
 70
     8
  0
BLOCK_RECORD
  5
1F
102
{ACAD_XDICTIONARY
360
20F
102
}
330
1
100
AcDbSymbolTableRecord
100
AcDbBlockTableRecord
  2
*MODEL_SPACE
340
217
  0
BLOCK_RECORD
  5
1B
102
{ACAD_XDICTIONARY
360
20D
102
}
330
1
100
AcDbSymbolTableRecord
100
AcDbBlockTableRecord
  2
*PAPER_SPACE
340
218
  0
BLOCK_RECORD
  5
48
330
1
100
AcDbSymbolTableRecord
100
AcDbBlockTableRecord
  2
*U0
340
0
102
{BLKREFS
331
B4
331
295
102
}
  0
BLOCK_RECORD
  5
B3
330
1
100
AcDbSymbolTableRecord
100
AcDbBlockTableRecord
  2
FRONT
340
0
102
{BLKREFS
331
B7
102
}
  0
BLOCK_RECORD
  5
B8
330
1
100
AcDbSymbolTableRecord
100
AcDbBlockTableRecord
  2
*U2
340
0
102
{BLKREFS
331
131
331
2FC
102
}
  0
BLOCK_RECORD
  5
130
330
1
100
AcDbSymbolTableRecord
100
AcDbBlockTableRecord
  2
LEFT
340
0
102
{BLKREFS
331
134
102
}
  0
BLOCK_RECORD
  5
135
330
1
100
AcDbSymbolTableRecord
100
AcDbBlockTableRecord
  2
*U4
340
0
102
{BLKREFS
331
1B2
331
21B
102
}
  0
BLOCK_RECORD
  5
1B1
330
1
100
AcDbSymbolTableRecord
100
AcDbBlockTableRecord
  2
RIGHT
340
0
102
{BLKREFS
331
1B5
102
}
  0
BLOCK_RECORD
  5
1B6
330
1
100
AcDbSymbolTableRecord
100
AcDbBlockTableRecord
  2
*U6
340
0
102
{BLKREFS
331
208
331
372
102
}
  0
BLOCK_RECORD
  5
207
330
1
100
AcDbSymbolTableRecord
100
AcDbBlockTableRecord
  2
TOP
340
0
102
{BLKREFS
331
20B
102
}
  0
ENDTAB
  0
ENDSEC
  0
SECTION
  2
BLOCKS
  0
BLOCK
  5
20
330
1F
100
AcDbEntity
  8
0
100
AcDbBlockBegin
  2
*MODEL_SPACE
 70
     0
 10
0.0
 20
0.0
 30
0.0
  3
*MODEL_SPACE
  1

  0
ENDBLK
  5
21
330
1F
100
AcDbEntity
  8
0
100
AcDbBlockEnd
  0
BLOCK
  5
1C
330
1B
100
AcDbEntity
 67
     1
  8
0
100
AcDbBlockBegin
  2
*PAPER_SPACE
 70
     0
 10
0.0
 20
0.0
 30
0.0
  3
*PAPER_SPACE
  1

  0
ENDBLK
  5
1D
330
1B
100
AcDbEntity
 67
     1
  8
0
100
AcDbBlockEnd
  0
BLOCK
  5
AF
330
48
100
AcDbEntity
  8
0
100
AcDbBlockBegin
  2
*U0
 70
     1
 10
0.0
 20
0.0
 30
0.0
  3
*U0
  1
*ANON
  0
LINE
  5
49
330
48
100
AcDbEntity
  8
PV-141
100
AcDbLine
 10
-32.5120689655172
 20
0.0
 30
19.89999999999988
 11
-32.5120689655172
 21
0.0
 31
19.79999999999989
  0
LINE
  5
4A
330
48
100
AcDbEntity
  8
PV-141
100
AcDbLine
 10
-48.61206896551721
 20
0.0
 30
-50.0000000000001
 11
-44.51206896551717
 21
0.0
 31
-50.0000000000001
  0
ARC
  5
4B
330
48
100
AcDbEntity
  8
PV-141
100
AcDbCircle
 10
-48.61206896551721
 20
-38.0000000000001
 30
0.0
 40
12.0
210
0.0
220
-1.0
230
0.0
100
AcDbArc
 50
190.0786581077884
 51
270.0
  0
LINE
  5
4C
330
48
100
AcDbEntity
  8
PV-141
100
AcDbLine
 10
-60.6120689655172
 20
0.0
 30
-35.05803989155008
 11
-60.6120689655172
 21
0.0
 31
-21.14196010845046
  0
LINE
  5
4D
330
48
100
AcDbEntity
  8
PV-141
100
AcDbLine
 10
-60.6120689655172
 20
0.0
 30
-7.058039891550072
 11
-60.6120689655172
 21
0.0
 31
6.858039891549559
  0
LINE
  5
4E
330
48
100
AcDbEntity
  8
PV-141
100
AcDbLine
 10
-60.6120689655172
 20
0.0
 30
20.94196010844992
 11
-60.6120689655172
 21
0.0
 31
34.85803989154954
  0
ARC
  5
4F
330
48
100
AcDbEntity
  8
PV-141
100
AcDbCircle
 10
-48.61206896551721
 20
37.9999999999999
 30
0.0
 40
11.99999999999999
210
0.0
220
-1.0
230
0.0
100
AcDbArc
 50
89.99999999999834
 51
170.8898298470723
  0
LINE
  5
50
330
48
100
AcDbEntity
  8
PV-141
100
AcDbLine
 10
-44.51206896551719
 20
0.0
 30
49.99999999999989
 11
-48.61206896551721
 21
0.0
 31
49.99999999999989
  0
ARC
  5
51
330
48
100
AcDbEntity
  8
PV-141
100
AcDbCircle
 10
-44.51206896551719
 20
37.9999999999999
 30
0.0
 40
11.99999999999999
210
0.0
220
-1.0
230
0.0
100
AcDbArc
 50
76.01507072631632
 51
89.9999999999992
  0
ARC
  5
52
330
48
100
AcDbEntity
  8
PV-141
100
AcDbCircle
 10
-44.51206896551719
 20
-38.0000000000001
 30
0.0
 40
11.99999999999999
210
0.0
220
-1.0
230
0.0
100
AcDbArc
 50
270.0
 51
283.9849292736835
  0
LINE
  5
53
330
48
100
AcDbEntity
  8
PV-141
100
AcDbLine
 10
-38.61206896551718
 20
0.0
 30
19.89999999999988
 11
-38.61206896551718
 21
0.0
 31
20.0000000000001
  0
LINE
  5
54
330
48
100
AcDbEntity
  8
PV-141
100
AcDbLine
 10
-38.61206896551718
 20
0.0
 30
19.89999999999988
 11
-32.5120689655172
 21
0.0
 31
19.89999999999988
  0
SPLINE
  5
55
330
48
100
AcDbEntity
  8
PV-141
100
AcDbSpline
210
0.0
220
-1.0
230
0.0
 70
     8
 71
     3
 72
    14
 73
    10
 74
     0
 42
0.0000000001
 43
0.0000000001
 40
0.0
 40
0.0
 40
0.0
 40
0.0
 40
0.0003986139723433
 40
0.0003986139723433
 40
0.0007972279446866
 40
0.0007972279446866
 40
0.0011958419170298
 40
0.0011958419170298
 40
0.0015944558893731
 40
0.0015944558893731
 40
0.0015944558893731
 40
0.0015944558893731
 10
-40.61206896551715
 20
0.0
 30
-49.34856819162675
 10
-40.61206896551715
 20
0.0
 30
-49.34856819162674
 10
-40.63938367948479
 20
0.0
 30
-49.35804826759067
 10
-40.74238789279934
 20
0.0
 30
-49.39264922586333
 10
-40.818265001249
 20
0.0
 30
-49.41775893681266
 10
-41.00330167770029
 20
0.0
 30
-49.47597311715023
 10
-41.11404142062009
 20
0.0
 30
-49.50950578237762
 10
-41.35212620628812
 20
0.0
 30
-49.57713592858179
 10
-41.48136501884198
 20
0.0
 30
-49.61176027648392
 10
-41.61206896551717
 20
0.0
 30
-49.64431191612465
  0
SPLINE
  5
56
330
48
100
AcDbEntity
  8
PV-141
100
AcDbSpline
210
0.0
220
1.0
230
0.0
 70
     8
 71
     3
 72
    14
 73
    10
 74
     0
 42
0.0000000001
 43
0.0000000001
 40
0.0
 40
0.0
 40
0.0
 40
0.0
 40
0.0003986241037927
 40
0.0003986241037927
 40
0.0007972482075854
 40
0.0007972482075854
 40
0.0011958723113781
 40
0.0011958723113781
 40
0.0015944964151707
 40
0.0015944964151707
 40
0.0015944964151707
 40
0.0015944964151707
 10
-41.61206896551719
 20
0.0
 30
49.64431191612444
 10
-41.48126772753182
 20
0.0
 30
49.61173604621558
 10
-41.35379182846448
 20
0.0
 30
49.57760077067558
 10
-41.11384802364806
 20
0.0
 30
49.50945908849845
 10
-41.00401932398102
 20
0.0
 30
49.47619527814355
 10
-40.81835725418157
 20
0.0
 30
49.41779156155463
 10
-40.74258025258973
 20
0.0
 30
49.3927123296844
 10
-40.63979152997147
 20
0.0
 30
49.35818677632983
 10
-40.61206896551719
 20
0.0
 30
49.34856819162654
 10
-40.61206896551719
 20
0.0
 30
49.34856819162654
  0
LINE
  5
57
330
48
100
AcDbEntity
  8
PV-141
100
AcDbLine
 10
-40.61206896551719
 20
0.0
 30
19.7999999999999
 11
-40.61206896551719
 21
0.0
 31
20.00000000000008
  0
LINE
  5
58
330
48
100
AcDbEntity
  8
PV-141
100
AcDbLine
 10
-19.61206896551718
 20
0.0
 30
-20.0000000000001
 11
-40.58775389329105
 21
0.0
 31
-20.0000000000001
  0
LINE
  5
59
330
48
100
AcDbEntity
  8
PV-141
100
AcDbLine
 10
-19.61206896551718
 20
0.0
 30
-50.0000000000001
 11
-40.61206896551719
 21
0.0
 31
-50.0000000000001
  0
LINE
  5
5A
330
48
100
AcDbEntity
  8
PV-141
100
AcDbLine
 10
-40.61206896551719
 20
0.0
 30
-50.0000000000001
 11
-40.61206896551719
 21
0.0
 31
-20.0000000000001
  0
LINE
  5
5B
330
48
100
AcDbEntity
  8
PV-141
100
AcDbLine
 10
-34.6120689655172
 20
0.0
 30
19.9999999999999
 11
-34.6120689655172
 21
0.0
 31
19.89999999999988
  0
LINE
  5
5C
330
48
100
AcDbEntity
  8
PV-141
100
AcDbLine
 10
-21.11206896551718
 20
0.0
 30
-52.5000000000001
 11
-30.11206896551732
 21
0.0
 31
-52.5000000000001
  0
LINE
  5
5D
330
48
100
AcDbEntity
  8
PV-141
100
AcDbLine
 10
-30.11206896551734
 20
0.0
 30
-50.0000000000001
 11
-19.61206896551718
 21
0.0
 31
-50.0000000000001
  0
LINE
  5
5E
330
48
100
AcDbEntity
  8
PV-141
100
AcDbLine
 10
-40.61206896551719
 20
0.0
 30
-50.0000000000001
 11
-30.11206896551719
 21
0.0
 31
-50.0000000000001
  0
LINE
  5
5F
330
48
100
AcDbEntity
  8
PV-141
100
AcDbLine
 10
-30.11206896551719
 20
0.0
 30
-52.5000000000001
 11
-39.11206896551719
 21
0.0
 31
-52.5000000000001
  0
LINE
  5
60
330
48
100
AcDbEntity
  8
PV-141
100
AcDbLine
 10
-19.61206896551721
 20
0.0
 30
20.0000000000001
 11
-40.61206896551721
 21
0.0
 31
20.00000000000008
  0
LINE
  5
61
330
48
100
AcDbEntity
  8
PV-141
100
AcDbLine
 10
-19.61206896551722
 20
0.0
 30
50.0000000000001
 11
-40.61206896551722
 21
0.0
 31
50.00000000000009
  0
LINE
  5
62
330
48
100
AcDbEntity
  8
PV-141
100
AcDbLine
 10
-40.61206896551722
 20
0.0
 30
50.00000000000009
 11
-40.61206896551721
 21
0.0
 31
20.00000000000008
  0
LINE
  5
63
330
48
100
AcDbEntity
  8
PV-141
100
AcDbLine
 10
-21.11206896551721
 20
0.0
 30
52.5000000000001
 11
-30.11206896551735
 21
0.0
 31
52.5000000000001
  0
LINE
  5
64
330
48
100
AcDbEntity
  8
PV-141
100
AcDbLine
 10
-30.11206896551722
 20
0.0
 30
50.0000000000001
 11
-19.61206896551722
 21
0.0
 31
50.0000000000001
  0
LINE
  5
65
330
48
100
AcDbEntity
  8
PV-141
100
AcDbLine
 10
-40.61206896551722
 20
0.0
 30
50.00000000000009
 11
-30.11206896551707
 21
0.0
 31
50.0000000000001
  0
LINE
  5
66
330
48
100
AcDbEntity
  8
PV-141
100
AcDbLine
 10
-30.11206896551722
 20
0.0
 30
52.5000000000001
 11
-39.11206896551721
 21
0.0
 31
52.50000000000009
  0
LINE
  5
67
330
48
100
AcDbEntity
  8
PV-141
100
AcDbLine
 10
-44.1120689655172
 20
0.0
 30
19.79999999999989
 11
-44.11206896551719
 21
0.0
 31
-20.0000000000001
  0
LINE
  5
68
330
48
100
AcDbEntity
  8
PV-141
100
AcDbLine
 10
-41.11365260023868
 20
0.0
 30
19.79999999999989
 11
-41.11365260023865
 21
0.0
 31
-20.0000000000001
  0
LINE
  5
69
330
48
100
AcDbEntity
  8
PV-141
100
AcDbLine
 10
-44.1120689655172
 20
0.0
 30
19.79999999999989
 11
-41.11365260023868
 21
0.0
 31
19.79999999999989
  0
LINE
  5
6A
330
48
100
AcDbEntity
  8
PV-141
100
AcDbLine
 10
-40.58775389329108
 20
0.0
 30
19.79999999999989
 11
-41.11365260023869
 21
0.0
 31
19.79999999999989
  0
LINE
  5
6B
330
48
100
AcDbEntity
  8
PV-141
100
AcDbLine
 10
-44.11206896551719
 20
0.0
 30
-20.0000000000001
 11
-41.11365260023865
 21
0.0
 31
-20.0000000000001
  0
LINE
  5
6C
330
48
100
AcDbEntity
  8
PV-141
100
AcDbLine
 10
-40.58775389329105
 20
0.0
 30
-20.0000000000001
 11
-41.11365260023865
 21
0.0
 31
-20.0000000000001
  0
LINE
  5
6D
330
48
100
AcDbEntity
  8
PV-141
100
AcDbLine
 10
-19.61206896551721
 20
0.0
 30
19.7999999999999
 11
-19.61206896551718
 21
0.0
 31
-20.00000000000008
  0
LINE
  5
6E
330
48
100
AcDbEntity
  8
PV-141
100
AcDbLine
 10
-19.61206896551718
 20
0.0
 30
-20.00000000000008
 11
-40.58775389329105
 21
0.0
 31
-20.0000000000001
  0
LINE
  5
6F
330
48
100
AcDbEntity
  8
PV-141
100
AcDbLine
 10
-19.61206896551721
 20
0.0
 30
19.7999999999999
 11
-40.58775389329107
 21
0.0
 31
19.79999999999989
  0
LINE
  5
70
330
48
100
AcDbEntity
  8
PV-141
100
AcDbLine
 10
-69.11206896551721
 20
0.0
 30
-4.771796769724748
 11
-65.11206896551724
 21
0.0
 31
-3.700000000000262
  0
LINE
  5
71
330
48
100
AcDbEntity
  8
PV-141
100
AcDbLine
 10
-65.11206896551724
 20
0.0
 30
-3.700000000000267
 11
-63.11206896551723
 21
0.0
 31
-3.700000000000266
  0
LINE
  5
72
330
48
100
AcDbEntity
  8
PV-141
100
AcDbLine
 10
-63.11206896551723
 20
0.0
 30
-4.100000000000257
 11
-63.11206896551723
 21
0.0
 31
-3.700000000000264
  0
ARC
  5
73
330
48
100
AcDbEntity
  8
PV-141
100
AcDbCircle
 10
-60.11206896551724
 20
-4.100000000000257
 30
0.0
 40
2.999999999999999
210
0.0
220
-1.0
230
0.0
100
AcDbArc
 50
180.0
 51
270.0
  0
LINE
  5
74
330
48
100
AcDbEntity
  8
PV-141
100
AcDbLine
 10
-60.11206896551724
 20
0.0
 30
-7.100000000000257
 11
-54.11206896551725
 21
0.0
 31
-7.10000000000025
  0
ARC
  5
75
330
48
100
AcDbEntity
  8
PV-141
100
AcDbCircle
 10
-54.11206896551725
 20
-4.100000000000257
 30
0.0
 40
2.999999999999999
210
0.0
220
-1.0
230
0.0
100
AcDbArc
 50
270.0
 51
0.0000000000007994
  0
LINE
  5
76
330
48
100
AcDbEntity
  8
PV-141
100
AcDbLine
 10
-51.11206896551725
 20
0.0
 30
3.899999999999734
 11
-51.11206896551724
 21
0.0
 31
-4.10000000000025
  0
ARC
  5
77
330
48
100
AcDbEntity
  8
PV-141
100
AcDbCircle
 10
-54.11206896551725
 20
3.899999999999728
 30
0.0
 40
3.000000000000006
210
0.0
220
-1.0
230
0.0
100
AcDbArc
 50
0.0
 51
90.0
  0
LINE
  5
78
330
48
100
AcDbEntity
  8
PV-141
100
AcDbLine
 10
-54.11206896551725
 20
0.0
 30
6.899999999999739
 11
-60.11206896551725
 21
0.0
 31
6.899999999999742
  0
ARC
  5
79
330
48
100
AcDbEntity
  8
PV-141
100
AcDbCircle
 10
-60.11206896551725
 20
3.899999999999734
 30
0.0
 40
3.000000000000006
210
0.0
220
-1.0
230
0.0
100
AcDbArc
 50
90.0
 51
180.0
  0
LINE
  5
7A
330
48
100
AcDbEntity
  8
PV-141
100
AcDbLine
 10
-63.11206896551725
 20
0.0
 30
3.499999999999737
 11
-63.11206896551725
 21
0.0
 31
3.899999999999728
  0
LINE
  5
7B
330
48
100
AcDbEntity
  8
PV-141
100
AcDbLine
 10
-65.11206896551725
 20
0.0
 30
3.499999999999741
 11
-63.11206896551725
 21
0.0
 31
3.499999999999742
  0
LINE
  5
7C
330
48
100
AcDbEntity
  8
PV-141
100
AcDbLine
 10
-69.11206896551721
 20
0.0
 30
4.571796769724215
 11
-65.11206896551725
 21
0.0
 31
3.499999999999737
  0
LINE
  5
7D
330
48
100
AcDbEntity
  8
PV-141
100
AcDbLine
 10
-69.11206896551721
 20
0.0
 30
23.22820323027524
 11
-69.11206896551721
 21
0.0
 31
4.571796769724222
  0
LINE
  5
7E
330
48
100
AcDbEntity
  8
PV-141
100
AcDbLine
 10
-69.11206896551721
 20
0.0
 30
23.22820323027524
 11
-65.11206896551721
 21
0.0
 31
24.29999999999974
  0
LINE
  5
7F
330
48
100
AcDbEntity
  8
PV-141
100
AcDbLine
 10
-65.11206896551721
 20
0.0
 30
24.29999999999974
 11
-63.11206896551722
 21
0.0
 31
24.29999999999974
  0
LINE
  5
80
330
48
100
AcDbEntity
  8
PV-141
100
AcDbLine
 10
-63.11206896551722
 20
0.0
 30
23.89999999999973
 11
-63.11206896551722
 21
0.0
 31
24.29999999999974
  0
ARC
  5
81
330
48
100
AcDbEntity
  8
PV-141
100
AcDbCircle
 10
-60.11206896551722
 20
23.89999999999973
 30
0.0
 40
2.999999999999999
210
0.0
220
-1.0
230
0.0
100
AcDbArc
 50
179.9999999999998
 51
270.0
  0
LINE
  5
82
330
48
100
AcDbEntity
  8
PV-141
100
AcDbLine
 10
-60.11206896551722
 20
0.0
 30
20.89999999999974
 11
-54.11206896551721
 21
0.0
 31
20.89999999999974
  0
ARC
  5
83
330
48
100
AcDbEntity
  8
PV-141
100
AcDbCircle
 10
-54.11206896551721
 20
23.89999999999973
 30
0.0
 40
2.999999999999999
210
0.0
220
-1.0
230
0.0
100
AcDbArc
 50
270.0
 51
359.9999999999992
  0
LINE
  5
84
330
48
100
AcDbEntity
  8
PV-141
100
AcDbLine
 10
-51.11206896551721
 20
0.0
 30
31.89999999999972
 11
-51.11206896551721
 21
0.0
 31
23.89999999999973
  0
ARC
  5
85
330
48
100
AcDbEntity
  8
PV-141
100
AcDbCircle
 10
-54.11206896551721
 20
31.89999999999972
 30
0.0
 40
3.000000000000008
210
0.0
220
-1.0
230
0.0
100
AcDbArc
 50
359.9999999999984
 51
90.00000000000012
  0
LINE
  5
86
330
48
100
AcDbEntity
  8
PV-141
100
AcDbLine
 10
-54.11206896551721
 20
0.0
 30
34.89999999999974
 11
-60.11206896551723
 21
0.0
 31
34.89999999999974
  0
ARC
  5
87
330
48
100
AcDbEntity
  8
PV-141
100
AcDbCircle
 10
-60.11206896551722
 20
31.89999999999972
 30
0.0
 40
3.000000000000006
210
0.0
220
-1.0
230
0.0
100
AcDbArc
 50
90.00000000000012
 51
179.9999999999998
  0
LINE
  5
88
330
48
100
AcDbEntity
  8
PV-141
100
AcDbLine
 10
-63.11206896551722
 20
0.0
 30
31.49999999999973
 11
-63.11206896551722
 21
0.0
 31
31.89999999999972
  0
LINE
  5
89
330
48
100
AcDbEntity
  8
PV-141
100
AcDbLine
 10
-65.11206896551721
 20
0.0
 30
31.49999999999973
 11
-63.11206896551722
 21
0.0
 31
31.49999999999973
  0
LINE
  5
8A
330
48
100
AcDbEntity
  8
PV-141
100
AcDbLine
 10
-69.11206896551721
 20
0.0
 30
32.57179676972423
 11
-65.11206896551721
 21
0.0
 31
31.49999999999973
  0
LINE
  5
8B
330
48
100
AcDbEntity
  8
PV-141
100
AcDbLine
 10
-69.11206896551722
 20
0.0
 30
36.89999999999972
 11
-69.11206896551722
 21
0.0
 31
32.57179676972422
  0
ARC
  5
8C
330
48
100
AcDbEntity
  8
PV-141
100
AcDbCircle
 10
-66.11206896551722
 20
36.89999999999972
 30
0.0
 40
3.000000000000002
210
0.0
220
-1.0
230
0.0
100
AcDbArc
 50
90.0
 51
179.9999999999998
  0
LINE
  5
8D
330
48
100
AcDbEntity
  8
PV-141
100
AcDbLine
 10
-66.11206896551722
 20
0.0
 30
39.89999999999973
 11
-47.11206896551721
 21
0.0
 31
39.89999999999973
  0
ARC
  5
8E
330
48
100
AcDbEntity
  8
PV-141
100
AcDbCircle
 10
-47.11206896551721
 20
36.89999999999972
 30
0.0
 40
2.999999999999999
210
0.0
220
-1.0
230
0.0
100
AcDbArc
 50
359.9999999999984
 51
90.00000000000012
  0
LINE
  5
8F
330
48
100
AcDbEntity
  8
PV-141
100
AcDbLine
 10
-44.1120689655172
 20
0.0
 30
36.89999999999972
 11
-44.1120689655172
 21
0.0
 31
16.39999999999973
  0
LINE
  5
90
330
48
100
AcDbEntity
  8
PV-141
100
AcDbLine
 10
-41.11365260023868
 20
0.0
 30
16.39999999999975
 11
-44.1120689655172
 21
0.0
 31
16.39999999999973
  0
LINE
  5
91
330
48
100
AcDbEntity
  8
PV-141
100
AcDbLine
 10
-41.11365260023865
 20
0.0
 30
-16.60000000000025
 11
-44.11206896551719
 21
0.0
 31
-16.60000000000025
  0
LINE
  5
92
330
48
100
AcDbEntity
  8
PV-141
100
AcDbLine
 10
-44.11206896551719
 20
0.0
 30
-37.10000000000025
 11
-44.11206896551719
 21
0.0
 31
-16.60000000000025
  0
ARC
  5
93
330
48
100
AcDbEntity
  8
PV-141
100
AcDbCircle
 10
-47.11206896551717
 20
-37.10000000000025
 30
0.0
 40
2.999999999999999
210
0.0
220
-1.0
230
0.0
100
AcDbArc
 50
270.0
 51
359.9999999999992
  0
LINE
  5
94
330
48
100
AcDbEntity
  8
PV-141
100
AcDbLine
 10
-66.11206896551718
 20
0.0
 30
-40.10000000000027
 11
-47.11206896551717
 21
0.0
 31
-40.10000000000025
  0
ARC
  5
95
330
48
100
AcDbEntity
  8
PV-141
100
AcDbCircle
 10
-66.11206896551718
 20
-37.10000000000027
 30
0.0
 40
3.000000000000002
210
0.0
220
-1.0
230
0.0
100
AcDbArc
 50
179.9999999999998
 51
270.0
  0
LINE
  5
96
330
48
100
AcDbEntity
  8
PV-141
100
AcDbLine
 10
-69.11206896551719
 20
0.0
 30
-32.77179676972476
 11
-69.11206896551719
 21
0.0
 31
-37.10000000000027
  0
LINE
  5
97
330
48
100
AcDbEntity
  8
PV-141
100
AcDbLine
 10
-69.11206896551718
 20
0.0
 30
-32.77179676972476
 11
-65.11206896551718
 21
0.0
 31
-31.70000000000027
  0
LINE
  5
98
330
48
100
AcDbEntity
  8
PV-141
100
AcDbLine
 10
-65.11206896551718
 20
0.0
 30
-31.70000000000027
 11
-63.11206896551719
 21
0.0
 31
-31.70000000000027
  0
LINE
  5
99
330
48
100
AcDbEntity
  8
PV-141
100
AcDbLine
 10
-63.1120689655172
 20
0.0
 30
-31.70000000000026
 11
-63.1120689655172
 21
0.0
 31
-32.10000000000027
  0
ARC
  5
9A
330
48
100
AcDbEntity
  8
PV-141
100
AcDbCircle
 10
-60.11206896551719
 20
-32.10000000000025
 30
0.0
 40
3.000000000000006
210
0.0
220
-1.0
230
0.0
100
AcDbArc
 50
179.9999999999998
 51
270.0
  0
LINE
  5
9B
330
48
100
AcDbEntity
  8
PV-141
100
AcDbLine
 10
-54.11206896551719
 20
0.0
 30
-35.10000000000027
 11
-60.11206896551719
 21
0.0
 31
-35.10000000000027
  0
ARC
  5
9C
330
48
100
AcDbEntity
  8
PV-141
100
AcDbCircle
 10
-54.11206896551719
 20
-32.10000000000025
 30
0.0
 40
3.000000000000008
210
0.0
220
-1.0
230
0.0
100
AcDbArc
 50
270.0
 51
359.9999999999992
  0
LINE
  5
9D
330
48
100
AcDbEntity
  8
PV-141
100
AcDbLine
 10
-51.11206896551719
 20
0.0
 30
-32.10000000000025
 11
-51.11206896551721
 21
0.0
 31
-24.10000000000027
  0
ARC
  5
9E
330
48
100
AcDbEntity
  8
PV-141
100
AcDbCircle
 10
-54.11206896551719
 20
-24.10000000000027
 30
0.0
 40
2.999999999999999
210
0.0
220
-1.0
230
0.0
100
AcDbArc
 50
359.9999999999992
 51
90.0
  0
LINE
  5
9F
330
48
100
AcDbEntity
  8
PV-141
100
AcDbLine
 10
-60.11206896551719
 20
0.0
 30
-21.10000000000027
 11
-54.11206896551719
 21
0.0
 31
-21.10000000000027
  0
ARC
  5
A0
330
48
100
AcDbEntity
  8
PV-141
100
AcDbCircle
 10
-60.11206896551719
 20
-24.10000000000028
 30
0.0
 40
2.999999999999999
210
0.0
220
-1.0
230
0.0
100
AcDbArc
 50
90.0
 51
180.0
  0
LINE
  5
A1
330
48
100
AcDbEntity
  8
PV-141
100
AcDbLine
 10
-63.1120689655172
 20
0.0
 30
-24.10000000000028
 11
-63.1120689655172
 21
0.0
 31
-24.50000000000028
  0
LINE
  5
A2
330
48
100
AcDbEntity
  8
PV-141
100
AcDbLine
 10
-65.11206896551719
 20
0.0
 30
-24.50000000000028
 11
-63.1120689655172
 21
0.0
 31
-24.50000000000028
  0
LINE
  5
A3
330
48
100
AcDbEntity
  8
PV-141
100
AcDbLine
 10
-69.11206896551719
 20
0.0
 30
-23.42820323027577
 11
-65.11206896551718
 21
0.0
 31
-24.50000000000025
  0
LINE
  5
A4
330
48
100
AcDbEntity
  8
PV-141
100
AcDbLine
 10
-69.11206896551721
 20
0.0
 30
-4.771796769724737
 11
-69.11206896551719
 21
0.0
 31
-23.42820323027577
  0
LINE
  5
A5
330
48
100
AcDbEntity
  8
PV-141
100
AcDbLine
 10
-40.61206896551722
 20
0.0
 30
50.00000000000009
 11
-40.61206896551722
 21
0.0
 31
51.00000000000009
  0
LINE
  5
A6
330
48
100
AcDbEntity
  8
PV-141
100
AcDbLine
 10
-19.61206896551722
 20
0.0
 30
50.0000000000001
 11
-19.61206896551722
 21
0.0
 31
51.00000000000011
  0
LINE
  5
A7
330
48
100
AcDbEntity
  8
PV-141
100
AcDbLine
 10
-19.61206896551721
 20
0.0
 30
20.0000000000001
 11
-19.61206896551722
 21
0.0
 31
50.0000000000001
  0
LINE
  5
A8
330
48
100
AcDbEntity
  8
PV-141
100
AcDbLine
 10
-40.61206896551719
 20
0.0
 30
-51.0000000000001
 11
-40.61206896551719
 21
0.0
 31
-50.0000000000001
  0
LINE
  5
A9
330
48
100
AcDbEntity
  8
PV-141
100
AcDbLine
 10
-19.61206896551718
 20
0.0
 30
-51.0000000000001
 11
-19.61206896551718
 21
0.0
 31
-50.0000000000001
  0
LINE
  5
AA
330
48
100
AcDbEntity
  8
PV-141
100
AcDbLine
 10
-19.61206896551718
 20
0.0
 30
-50.0000000000001
 11
-19.61206896551718
 21
0.0
 31
-20.0000000000001
  0
ARC
  5
AB
330
48
100
AcDbEntity
  8
PV-141
100
AcDbCircle
 10
-39.11206896551721
 20
51.00000000000009
 30
0.0
 40
1.5
210
0.0
220
-1.0
230
0.0
100
AcDbArc
 50
89.99999999999811
 51
180.0
  0
ARC
  5
AC
330
48
100
AcDbEntity
  8
PV-141
100
AcDbCircle
 10
-21.11206896551721
 20
51.00000000000011
 30
0.0
 40
1.5
210
0.0
220
-1.0
230
0.0
100
AcDbArc
 50
0.0
 51
90.00000000000124
  0
ARC
  5
AD
330
48
100
AcDbEntity
  8
PV-141
100
AcDbCircle
 10
-39.11206896551719
 20
-51.0000000000001
 30
0.0
 40
1.5
210
0.0
220
-1.0
230
0.0
100
AcDbArc
 50
180.0000000000002
 51
270.000000000001
  0
ARC
  5
AE
330
48
100
AcDbEntity
  8
PV-141
100
AcDbCircle
 10
-21.11206896551718
 20
-51.0000000000001
 30
0.0
 40
1.5
210
0.0
220
-1.0
230
0.0
100
AcDbArc
 50
269.9999999999978
 51
359.9999999999997
  0
ENDBLK
  5
B0
330
48
100
AcDbEntity
  8
0
100
AcDbBlockEnd
  0
BLOCK
  5
B5
330
B3
100
AcDbEntity
  8
0
100
AcDbBlockBegin
  2
FRONT
 70
     0
 10
0.0
 20
0.0
 30
0.0
  3
FRONT
  1

  0
INSERT
  5
B4
330
B3
100
AcDbEntity
  8
PV-141
100
AcDbBlockReference
  2
*U0
 10
0.0
 20
0.0
 30
0.0
 50
180.0
210
0.0
220
1.0
230
0.0
  0
ENDBLK
  5
B6
330
B3
100
AcDbEntity
  8
0
100
AcDbBlockEnd
  0
BLOCK
  5
12E
330
B8
100
AcDbEntity
  8
0
100
AcDbBlockBegin
  2
*U2
 70
     1
 10
0.0
 20
0.0
 30
0.0
  3
*U2
  1
*ANON
  0
LINE
  5
B9
330
B8
100
AcDbEntity
  8
PV-141
100
AcDbLine
 10
0.0
 20
28.35788177339903
 30
49.99999999999989
 11
0.0
 21
30.85788177339903
 31
49.99999999999989
  0
LINE
  5
BA
330
B8
100
AcDbEntity
  8
PV-141
100
AcDbLine
 10
0.0
 20
28.35788177339904
 30
-50.0000000000001
 11
0.0
 21
30.85788177339904
 31
-50.0000000000001
  0
LINE
  5
BB
330
B8
100
AcDbEntity
  8
PV-141
100
AcDbLine
 10
0.0
 20
27.35788177339903
 30
49.34856819162654
 11
0.0
 21
17.05788177339902
 31
49.34856819162654
  0
LINE
  5
BC
330
B8
100
AcDbEntity
  8
PV-141
100
AcDbLine
 10
0.0
 20
17.05788177339902
 30
-49.34856819162675
 11
0.0
 21
27.35788177339903
 31
-49.34856819162675
  0
LINE
  5
BD
330
B8
100
AcDbEntity
  8
PV-141
100
AcDbLine
 10
0.0
 20
28.35788177339904
 30
-50.0000000000001
 11
0.0
 21
28.35788177339904
 31
-38.0000000000001
  0
LINE
  5
BE
330
B8
100
AcDbEntity
  8
PV-141
100
AcDbLine
 10
0.0
 20
28.35788177339904
 30
-38.0000000000001
 11
0.0
 21
28.35788177339903
 31
37.9999999999999
  0
LINE
  5
BF
330
B8
100
AcDbEntity
  8
PV-141
100
AcDbLine
 10
0.0
 20
28.35788177339903
 30
49.9999999999999
 11
0.0
 21
28.35788177339903
 31
37.9999999999999
  0
SPLINE
  5
C0
330
B8
100
AcDbEntity
  8
PV-141
100
AcDbSpline
210
1.0
220
0.0
230
0.0
 70
     8
 71
     3
 72
    14
 73
    10
 74
     0
 42
0.0000000001
 43
0.0000000001
 40
0.0
 40
0.0
 40
0.0
 40
0.0
 40
0.0003986139723433
 40
0.0003986139723433
 40
0.0007972279446866
 40
0.0007972279446866
 40
0.0011958419170298
 40
0.0011958419170298
 40
0.0015944558893731
 40
0.0015944558893731
 40
0.0015944558893731
 40
0.0015944558893731
 10
0.0
 20
27.35788177339903
 30
-49.34856819162675
 10
0.0
 20
27.49272182857882
 30
-49.34856819162674
 10
0.0
 20
27.62509037731756
 30
-49.35804826759067
 10
0.0
 20
27.86893160993979
 30
-49.39264922586333
 10
0.0
 20
27.97974862139432
 30
-49.41775893681266
 10
0.0
 20
28.16177573382387
 30
-49.47597311715023
 10
0.0
 20
28.23453245645374
 30
-49.50950578237762
 10
0.0
 20
28.33203659554019
 30
-49.57713592858179
 10
0.0
 20
28.35788177339904
 30
-49.61176027648392
 10
0.0
 20
28.35788177339904
 30
-49.64431191612465
  0
SPLINE
  5
C1
330
B8
100
AcDbEntity
  8
PV-141
100
AcDbSpline
210
1.0
220
0.0
230
0.0
 70
     8
 71
     3
 72
    14
 73
    10
 74
     0
 42
0.0000000001
 43
0.0000000001
 40
0.0
 40
0.0
 40
0.0
 40
0.0
 40
0.0003986241037927
 40
0.0003986241037927
 40
0.0007972482075854
 40
0.0007972482075854
 40
0.0011958723113781
 40
0.0011958723113781
 40
0.0015944964151707
 40
0.0015944964151707
 40
0.0015944964151707
 40
0.0015944964151707
 10
0.0
 20
28.35788177339903
 30
49.64431191612444
 10
0.0
 20
28.35788177339903
 30
49.61173604621558
 10
0.0
 20
28.33260700182892
 30
49.57760077067558
 10
0.0
 20
28.23456429492257
 30
49.50945908849845
 10
0.0
 20
28.16237780510792
 30
49.47619527814355
 10
0.0
 20
27.97994282417806
 30
49.41779156155463
 10
0.0
 20
27.86912517135116
 30
49.3927123296844
 10
0.0
 20
27.62631616424063
 30
49.35818677632983
 10
0.0
 20
27.49283085304293
 30
49.34856819162654
 10
0.0
 20
27.35788177339903
 30
49.34856819162654
  0
LINE
  5
C2
330
B8
100
AcDbEntity
  8
PV-141
100
AcDbLine
 10
0.0
 20
16.05788177339902
 30
48.95399470512916
 11
0.0
 21
16.05788177339904
 31
-48.95399470512938
  0
SPLINE
  5
C3
330
B8
100
AcDbEntity
  8
PV-141
100
AcDbSpline
210
1.0
220
0.0
230
0.0
 70
     8
 71
     3
 72
    14
 73
    10
 74
     0
 42
0.0000000001
 43
0.0000000001
 40
0.0
 40
0.0
 40
0.0
 40
0.0
 40
0.0004059635003688
 40
0.0004059635003688
 40
0.0008119270007376
 40
0.0008119270007376
 40
0.0012178905011064
 40
0.0012178905011064
 40
0.0016238540014751
 40
0.0016238540014751
 40
0.0016238540014751
 40
0.0016238540014751
 10
0.0
 20
16.05788177339904
 30
-48.95399470512938
 10
0.0
 20
16.05788177339904
 30
-49.01001033586251
 10
0.0
 20
16.08088408015379
 30
-49.06262613047317
 10
0.0
 20
16.17494418308216
 30
-49.15968026210894
 10
0.0
 20
16.24450085001217
 30
-49.20222907038073
 10
0.0
 20
16.42676824343476
 30
-49.27350574263687
 10
0.0
 20
16.53771874178905
 30
-49.30127413684787
 10
0.0
 20
16.78481261442461
 30
-49.33882772906946
 10
0.0
 20
16.9203654429309
 30
-49.34856819162675
 10
0.0
 20
17.05788177339902
 30
-49.34856819162675
  0
SPLINE
  5
C4
330
B8
100
AcDbEntity
  8
PV-141
100
AcDbSpline
210
1.0
220
0.0
230
0.0
 70
     8
 71
     3
 72
    14
 73
    10
 74
     0
 42
0.0000000001
 43
0.0000000001
 40
0.0
 40
0.0
 40
0.0
 40
0.0
 40
0.0004059857219147
 40
0.0004059857219147
 40
0.0008119714438295
 40
0.0008119714438295
 40
0.0012179571657442
 40
0.0012179571657442
 40
0.001623942887659
 40
0.001623942887659
 40
0.001623942887659
 40
0.001623942887659
 10
0.0
 20
17.05788177339902
 30
49.34856819162654
 10
0.0
 20
16.92056655241269
 30
49.34856819162654
 10
0.0
 20
16.78561861899803
 30
49.33890193637068
 10
0.0
 20
16.53856045706965
 30
49.30145003071103
 10
0.0
 20
16.42682371361201
 30
49.27345376532361
 10
0.0
 20
16.24575252486085
 30
49.20279168380154
 10
0.0
 20
16.17495590771365
 30
49.15957698187899
 10
0.0
 20
16.08142795633155
 30
49.06330201282133
 10
0.0
 20
16.05788177339902
 30
49.00995803148809
 10
0.0
 20
16.05788177339902
 30
48.95399470512916
  0
LINE
  5
C5
330
B8
100
AcDbEntity
  8
PV-141
100
AcDbLine
 10
0.0
 20
30.85788177339903
 30
37.9999999999999
 11
0.0
 21
30.85788177339903
 31
49.98499061326282
  0
LINE
  5
C6
330
B8
100
AcDbEntity
  8
PV-141
100
AcDbLine
 10
0.0
 20
30.85788177339903
 30
49.987492177719
 11
0.0
 21
30.85788177339903
 31
49.9999999999999
  0
LINE
  5
C7
330
B8
100
AcDbEntity
  8
PV-141
100
AcDbLine
 10
0.0
 20
30.85788177339904
 30
-38.0000000000001
 11
0.0
 21
30.85788177339903
 31
37.99999999999989
  0
LINE
  5
C8
330
B8
100
AcDbEntity
  8
PV-141
100
AcDbLine
 10
0.0
 20
30.85788177339904
 30
-50.0000000000001
 11
0.0
 21
30.85788177339904
 31
-38.0000000000001
  0
LINE
  5
C9
330
B8
100
AcDbEntity
  8
PV-141
100
AcDbLine
 10
0.0
 20
-7.142118226600969
 30
-20.0000000000001
 11
0.0
 21
2.643721221413991
 31
-20.0000000000001
  0
LINE
  5
CA
330
B8
100
AcDbEntity
  8
PV-141
100
AcDbLine
 10
0.0
 20
15.35788177339902
 30
-48.07275543012295
 11
0.0
 21
15.81775753028298
 31
-48.07275543012295
  0
SPLINE
  5
CB
330
B8
100
AcDbEntity
  8
PV-141
100
AcDbSpline
210
1.0
220
0.0
230
0.0
 70
     8
 71
     3
 72
     8
 73
     4
 74
     0
 42
0.0000000001
 43
0.0000000001
 40
0.0014897492227514
 40
0.0014897492227514
 40
0.0014897492227514
 40
0.0014897492227514
 40
0.0017303328857306
 40
0.0017303328857306
 40
0.0017303328857306
 40
0.0017303328857306
 10
0.0
 20
16.05788177339902
 30
-48.03783692200841
 10
0.0
 20
15.98037816701713
 30
-48.06065521580961
 10
0.0
 20
15.89964147597025
 30
-48.07275543012337
 10
0.0
 20
15.81775753028298
 30
-48.07275543012295
  0
LINE
  5
CC
330
B8
100
AcDbEntity
  8
PV-141
100
AcDbLine
 10
0.0
 20
15.35788177339902
 30
-20.0000000000001
 11
0.0
 21
16.05788177339902
 31
-20.0000000000001
  0
LINE
  5
CD
330
B8
100
AcDbEntity
  8
PV-141
100
AcDbLine
 10
0.0
 20
-7.142118226600969
 30
-50.0000000000001
 11
0.0
 21
3.357881773399027
 31
-50.0000000000001
  0
LINE
  5
CE
330
B8
100
AcDbEntity
  8
PV-141
100
AcDbLine
 10
0.0
 20
3.357881773399029
 30
-50.0000000000001
 11
0.0
 21
14.42257308884905
 31
-50.0000000000001
  0
LINE
  5
CF
330
B8
100
AcDbEntity
  8
PV-141
100
AcDbLine
 10
0.0
 20
14.42257308884905
 30
-50.0000000000001
 11
0.0
 21
14.42257308884905
 31
-49.10969281153806
  0
LINE
  5
D0
330
B8
100
AcDbEntity
  8
PV-141
100
AcDbLine
 10
0.0
 20
14.42257308884905
 30
-49.10969281153806
 11
0.0
 21
15.35788177339902
 31
-49.10969281153806
  0
LINE
  5
D1
330
B8
100
AcDbEntity
  8
PV-141
100
AcDbLine
 10
0.0
 20
15.35788177339902
 30
-49.10969281153806
 11
0.0
 21
15.35788177339902
 31
-20.0000000000001
  0
LINE
  5
D2
330
B8
100
AcDbEntity
  8
PV-141
100
AcDbLine
 10
0.0
 20
15.35281811314463
 30
-20.0000000000001
 11
0.0
 21
15.35788177339902
 31
-20.0000000000001
  0
LINE
  5
D3
330
B8
100
AcDbEntity
  8
PV-141
100
AcDbLine
 10
0.0
 20
30.85788177339901
 30
-38.00000000000014
 11
0.0
 21
30.85788177339901
 31
-49.98499061326302
  0
LINE
  5
D4
330
B8
100
AcDbEntity
  8
PV-141
100
AcDbLine
 10
0.0
 20
30.85788177339903
 30
37.9999999999999
 11
0.0
 21
30.85788177339903
 31
-38.0000000000001
  0
LINE
  5
D5
330
B8
100
AcDbEntity
  8
PV-141
100
AcDbLine
 10
0.0
 20
30.85788177339901
 30
49.98499061326281
 11
0.0
 21
30.85788177339901
 31
37.99999999999986
  0
LINE
  5
D6
330
B8
100
AcDbEntity
  8
PV-141
100
AcDbLine
 10
0.0
 20
34.85788177339903
 30
49.98499061326281
 11
0.0
 21
34.85788177339903
 31
49.987492177719
  0
LINE
  5
D7
330
B8
100
AcDbEntity
  8
PV-141
100
AcDbLine
 10
0.0
 20
34.85788177339903
 30
37.99999999999995
 11
0.0
 21
34.85788177339903
 31
49.98499061326281
  0
LINE
  5
D8
330
B8
100
AcDbEntity
  8
PV-141
100
AcDbLine
 10
0.0
 20
34.85788177339903
 30
37.9999999999999
 11
0.0
 21
34.85788177339903
 31
-38.0000000000001
  0
LINE
  5
D9
330
B8
100
AcDbEntity
  8
PV-141
100
AcDbLine
 10
0.0
 20
34.85788177339903
 30
-49.98499061326301
 11
0.0
 21
34.85788177339903
 31
-38.00000000000006
  0
LINE
  5
DA
330
B8
100
AcDbEntity
  8
PV-141
100
AcDbLine
 10
0.0
 20
34.85788177339903
 30
-49.98749217771919
 11
0.0
 21
34.85788177339903
 31
-49.98499061326302
  0
LINE
  5
DB
330
B8
100
AcDbEntity
  8
PV-141
100
AcDbLine
 10
0.0
 20
15.35788177339902
 30
-43.5000000000001
 11
0.0
 21
16.05788177339904
 31
-43.5000000000001
  0
LINE
  5
DC
330
B8
100
AcDbEntity
  8
PV-141
100
AcDbLine
 10
0.0
 20
15.35788177339902
 30
43.49999999999989
 11
0.0
 21
16.05788177339902
 31
43.49999999999989
  0
ARC
  5
DD
330
B8
100
AcDbEntity
  8
PV-141
100
AcDbCircle
 10
-13.35788177339902
 20
20.4999999999999
 30
0.0
 40
3.000000000000002
210
-1.0
220
0.0
230
0.0
100
AcDbArc
 50
131.8103148957783
 51
154.1580672368328
  0
ARC
  5
DE
330
B8
100
AcDbEntity
  8
PV-141
100
AcDbCircle
 10
-13.35788177339902
 20
-20.50000000000009
 30
0.0
 40
2.999999999999999
210
-1.0
220
0.0
230
0.0
100
AcDbArc
 50
205.8419327631667
 51
228.1896851042215
  0
LINE
  5
DF
330
B8
100
AcDbEntity
  8
PV-141
100
AcDbLine
 10
0.0
 20
13.85788177339903
 30
-51.0000000000001
 11
0.0
 21
13.85788177339903
 31
-50.0000000000001
  0
LINE
  5
E0
330
B8
100
AcDbEntity
  8
PV-141
100
AcDbLine
 10
0.0
 20
3.357881773398991
 30
-50.0000000000001
 11
0.0
 21
-7.142118226600969
 31
-50.0000000000001
  0
LINE
  5
E1
330
B8
100
AcDbEntity
  8
PV-141
100
AcDbLine
 10
0.0
 20
-7.142118226600969
 30
-51.0000000000001
 11
0.0
 21
-7.142118226600969
 31
-50.0000000000001
  0
ARC
  5
E2
330
B8
100
AcDbEntity
  8
PV-141
100
AcDbCircle
 10
-12.35788177339903
 20
-51.0000000000001
 30
0.0
 40
1.5
210
-1.0
220
0.0
230
0.0
100
AcDbArc
 50
179.9999999999996
 51
270.0
  0
ARC
  5
E3
330
B8
100
AcDbEntity
  8
PV-141
100
AcDbCircle
 10
5.642118226600969
 20
-51.0000000000001
 30
0.0
 40
1.499999999999998
210
-1.0
220
0.0
230
0.0
100
AcDbArc
 50
269.9999999999997
 51
0.0
  0
LINE
  5
E4
330
B8
100
AcDbEntity
  8
PV-141
100
AcDbLine
 10
0.0
 20
-5.642118226600971
 30
-52.5000000000001
 11
0.0
 21
12.35788177339903
 31
-52.5000000000001
  0
LINE
  5
E5
330
B8
100
AcDbEntity
  8
PV-141
100
AcDbLine
 10
0.0
 20
-7.142118226600969
 30
20.0000000000001
 11
0.0
 21
3.357881773399027
 31
20.00000000000008
  0
LINE
  5
E6
330
B8
100
AcDbEntity
  8
PV-141
100
AcDbLine
 10
0.0
 20
15.35788177339902
 30
20.0000000000001
 11
0.0
 21
16.05788177339902
 31
20.0000000000001
  0
SPLINE
  5
E7
330
B8
100
AcDbEntity
  8
PV-141
100
AcDbSpline
210
1.0
220
0.0
230
0.0
 70
     8
 71
     3
 72
     8
 73
     4
 74
     0
 42
0.0000000001
 43
0.0000000001
 40
0.0014897492227514
 40
0.0014897492227514
 40
0.0014897492227514
 40
0.0014897492227514
 40
0.0017303328857306
 40
0.0017303328857306
 40
0.0017303328857306
 40
0.0017303328857306
 10
0.0
 20
16.05788177339902
 30
48.03783692200839
 10
0.0
 20
15.98037816701713
 30
48.0606552158096
 10
0.0
 20
15.89964147597024
 30
48.07275543012336
 10
0.0
 20
15.81775753028298
 30
48.07275543012294
  0
LINE
  5
E8
330
B8
100
AcDbEntity
  8
PV-141
100
AcDbLine
 10
0.0
 20
15.35788177339902
 30
48.07275543012294
 11
0.0
 21
15.81775753028298
 31
48.07275543012294
  0
LINE
  5
E9
330
B8
100
AcDbEntity
  8
PV-141
100
AcDbLine
 10
0.0
 20
-7.142118226600969
 30
50.0000000000001
 11
0.0
 21
3.35788177339903
 31
50.00000000000009
  0
LINE
  5
EA
330
B8
100
AcDbEntity
  8
PV-141
100
AcDbLine
 10
0.0
 20
3.357881773399029
 30
20.0000000000001
 11
0.0
 21
10.35788177339902
 31
20.0000000000001
  0
LINE
  5
EB
330
B8
100
AcDbEntity
  8
PV-141
100
AcDbLine
 10
0.0
 20
14.35788177339903
 30
20.0000000000001
 11
0.0
 21
15.35788177339902
 31
20.0000000000001
  0
LINE
  5
EC
330
B8
100
AcDbEntity
  8
PV-141
100
AcDbLine
 10
0.0
 20
15.35788177339902
 30
49.10969281153805
 11
0.0
 21
15.35788177339902
 31
20.0000000000001
  0
LINE
  5
ED
330
B8
100
AcDbEntity
  8
PV-141
100
AcDbLine
 10
0.0
 20
14.42257308884905
 30
49.10969281153805
 11
0.0
 21
15.35788177339902
 31
49.10969281153805
  0
LINE
  5
EE
330
B8
100
AcDbEntity
  8
PV-141
100
AcDbLine
 10
0.0
 20
14.42257308884905
 30
50.00000000000009
 11
0.0
 21
14.42257308884905
 31
49.10969281153805
  0
LINE
  5
EF
330
B8
100
AcDbEntity
  8
PV-141
100
AcDbLine
 10
0.0
 20
3.357881773399029
 30
50.00000000000009
 11
0.0
 21
14.42257308884905
 31
50.00000000000009
  0
LINE
  5
F0
330
B8
100
AcDbEntity
  8
PV-141
100
AcDbLine
 10
0.0
 20
-7.142118226600969
 30
51.0000000000001
 11
0.0
 21
-7.142118226600969
 31
50.0000000000001
  0
LINE
  5
F1
330
B8
100
AcDbEntity
  8
PV-141
100
AcDbLine
 10
0.0
 20
3.357881773398991
 30
50.00000000000009
 11
0.0
 21
-7.142118226600969
 31
50.0000000000001
  0
LINE
  5
F2
330
B8
100
AcDbEntity
  8
PV-141
100
AcDbLine
 10
0.0
 20
13.85788177339903
 30
51.0000000000001
 11
0.0
 21
13.85788177339903
 31
50.0000000000001
  0
ARC
  5
F3
330
B8
100
AcDbEntity
  8
PV-141
100
AcDbCircle
 10
5.642118226600969
 20
51.0000000000001
 30
0.0
 40
1.499999999999998
210
-1.0
220
0.0
230
0.0
100
AcDbArc
 50
0.0
 51
90.0
  0
ARC
  5
F4
330
B8
100
AcDbEntity
  8
PV-141
100
AcDbCircle
 10
-12.35788177339903
 20
51.0000000000001
 30
0.0
 40
1.5
210
-1.0
220
0.0
230
0.0
100
AcDbArc
 50
90.0
 51
180.0
  0
LINE
  5
F5
330
B8
100
AcDbEntity
  8
PV-141
100
AcDbLine
 10
0.0
 20
-5.642118226600971
 30
52.5000000000001
 11
0.0
 21
12.35788177339903
 31
52.5000000000001
  0
LINE
  5
F6
330
B8
100
AcDbEntity
  8
PV-141
100
AcDbLine
 10
0.0
 20
15.35281811314463
 30
19.79999999999989
 11
0.0
 21
15.35281811314463
 31
-20.0000000000001
  0
LINE
  5
F7
330
B8
100
AcDbEntity
  8
PV-141
100
AcDbLine
 10
0.0
 20
15.35281811314463
 30
19.79999999999989
 11
0.0
 21
14.35788177339903
 31
19.79999999999989
  0
LINE
  5
F8
330
B8
100
AcDbEntity
  8
PV-141
100
AcDbLine
 10
0.0
 20
2.643721221413997
 30
19.79999999999989
 11
0.0
 21
10.35788177339902
 31
19.79999999999989
  0
LINE
  5
F9
330
B8
100
AcDbEntity
  8
PV-141
100
AcDbLine
 10
0.0
 20
15.35281811314463
 30
-20.0000000000001
 11
0.0
 21
14.35788177339903
 31
-20.0000000000001
  0
LINE
  5
FA
330
B8
100
AcDbEntity
  8
PV-141
100
AcDbLine
 10
0.0
 20
2.643721221413997
 30
-20.0000000000001
 11
0.0
 21
10.35788177339902
 31
-20.0000000000001
  0
LINE
  5
FB
330
B8
100
AcDbEntity
  8
PV-141
100
AcDbLine
 10
0.0
 20
-7.142118226600971
 30
-20.0000000000001
 11
0.0
 21
2.643721221413997
 31
-20.0000000000001
  0
LINE
  5
FC
330
B8
100
AcDbEntity
  8
PV-141
100
AcDbLine
 10
0.0
 20
-7.142118226600971
 30
19.79999999999989
 11
0.0
 21
2.643721221413998
 31
19.79999999999989
  0
LINE
  5
FD
330
B8
100
AcDbEntity
  8
PV-141
100
AcDbLine
 10
0.0
 20
10.35788177339902
 30
3.49999999999974
 11
0.0
 21
14.35788177342313
 31
3.49999999999974
  0
LINE
  5
FE
330
B8
100
AcDbEntity
  8
PV-141
100
AcDbLine
 10
0.0
 20
10.35788177339902
 30
-3.700000000000264
 11
0.0
 21
14.35788177342313
 31
-3.700000000000264
  0
LINE
  5
FF
330
B8
100
AcDbEntity
  8
PV-141
100
AcDbLine
 10
0.0
 20
10.35788177339902
 30
-24.50000000000028
 11
0.0
 21
14.35788177339903
 31
-24.50000000000028
  0
LINE
  5
100
330
B8
100
AcDbEntity
  8
PV-141
100
AcDbLine
 10
0.0
 20
10.35788177339902
 30
-31.70000000000027
 11
0.0
 21
14.35788177339903
 31
-31.70000000000027
  0
LINE
  5
101
330
B8
100
AcDbEntity
  8
PV-141
100
AcDbLine
 10
0.0
 20
10.35788177339902
 30
31.49999999999973
 11
0.0
 21
14.35788177339903
 31
31.49999999999973
  0
LINE
  5
102
330
B8
100
AcDbEntity
  8
PV-141
100
AcDbLine
 10
0.0
 20
10.35788177339902
 30
24.29999999999974
 11
0.0
 21
14.35788177339903
 31
24.29999999999974
  0
LINE
  5
103
330
B8
100
AcDbEntity
  8
PV-141
100
AcDbLine
 10
0.0
 20
14.35788177339903
 30
32.57179676972422
 11
0.0
 21
10.35788177339902
 31
32.57179676972422
  0
LINE
  5
104
330
B8
100
AcDbEntity
  8
PV-141
100
AcDbLine
 10
0.0
 20
14.35788177339903
 30
-40.10000000000027
 11
0.0
 21
10.35788177339902
 31
-40.10000000000027
  0
LINE
  5
105
330
B8
100
AcDbEntity
  8
PV-141
100
AcDbLine
 10
0.0
 20
10.35788177339902
 30
39.89999999999973
 11
0.0
 21
14.35788177339903
 31
39.89999999999973
  0
LINE
  5
106
330
B8
100
AcDbEntity
  8
PV-141
100
AcDbLine
 10
0.0
 20
14.35788177339903
 30
23.22820323027524
 11
0.0
 21
10.35788177339902
 31
23.22820323027524
  0
LINE
  5
107
330
B8
100
AcDbEntity
  8
PV-141
100
AcDbLine
 10
0.0
 20
14.35788177339903
 30
4.571796769724218
 11
0.0
 21
10.35788177339902
 31
4.571796769724218
  0
LINE
  5
108
330
B8
100
AcDbEntity
  8
PV-141
100
AcDbLine
 10
0.0
 20
14.35788177339903
 30
-32.77179676972476
 11
0.0
 21
10.35788177339902
 31
-32.77179676972476
  0
LINE
  5
109
330
B8
100
AcDbEntity
  8
PV-141
100
AcDbLine
 10
0.0
 20
14.35788177342313
 30
-4.77179676972474
 11
0.0
 21
10.35788177339902
 31
-4.77179676972474
  0
LINE
  5
10A
330
B8
100
AcDbEntity
  8
PV-141
100
AcDbLine
 10
0.0
 20
14.35788177339903
 30
-23.42820323027577
 11
0.0
 21
10.35788177339902
 31
-23.42820323027577
  0
LINE
  5
10B
330
B8
100
AcDbEntity
  8
PV-141
100
AcDbLine
 10
0.0
 20
14.35788177342313
 30
-3.700000000000264
 11
0.0
 21
14.35788177342313
 31
-4.771796769724751
  0
LINE
  5
10C
330
B8
100
AcDbEntity
  8
PV-141
100
AcDbLine
 10
0.0
 20
14.35788177339903
 30
-4.77179676972475
 11
0.0
 21
14.35788177339903
 31
-23.42820323027579
  0
LINE
  5
10D
330
B8
100
AcDbEntity
  8
PV-141
100
AcDbLine
 10
0.0
 20
14.35788177339903
 30
-24.50000000000028
 11
0.0
 21
14.35788177339903
 31
-23.42820323027579
  0
LINE
  5
10E
330
B8
100
AcDbEntity
  8
PV-141
100
AcDbLine
 10
0.0
 20
14.35788177339903
 30
-24.50000000000028
 11
0.0
 21
14.35788177339903
 31
-31.70000000000027
  0
LINE
  5
10F
330
B8
100
AcDbEntity
  8
PV-141
100
AcDbLine
 10
0.0
 20
14.35788177339903
 30
-31.70000000000027
 11
0.0
 21
14.35788177339903
 31
-32.77179676972477
  0
LINE
  5
110
330
B8
100
AcDbEntity
  8
PV-141
100
AcDbLine
 10
0.0
 20
14.35788177339903
 30
-32.77179676972476
 11
0.0
 21
14.35788177339903
 31
-37.10000000000027
  0
LINE
  5
111
330
B8
100
AcDbEntity
  8
PV-141
100
AcDbLine
 10
0.0
 20
14.35788177339903
 30
-37.10000000000027
 11
0.0
 21
14.35788177339903
 31
-40.10000000000027
  0
LINE
  5
112
330
B8
100
AcDbEntity
  8
PV-141
100
AcDbLine
 10
0.0
 20
14.35788177339903
 30
39.89999999999973
 11
0.0
 21
14.35788177339903
 31
36.89999999999972
  0
LINE
  5
113
330
B8
100
AcDbEntity
  8
PV-141
100
AcDbLine
 10
0.0
 20
14.35788177339903
 30
36.89999999999972
 11
0.0
 21
14.35788177339903
 31
32.57179676972422
  0
LINE
  5
114
330
B8
100
AcDbEntity
  8
PV-141
100
AcDbLine
 10
0.0
 20
14.35788177339903
 30
31.49999999999973
 11
0.0
 21
14.35788177339903
 31
32.57179676972422
  0
LINE
  5
115
330
B8
100
AcDbEntity
  8
PV-141
100
AcDbLine
 10
0.0
 20
14.35788177339903
 30
24.29999999999974
 11
0.0
 21
14.35788177339903
 31
31.49999999999973
  0
LINE
  5
116
330
B8
100
AcDbEntity
  8
PV-141
100
AcDbLine
 10
0.0
 20
14.35788177339903
 30
24.29999999999974
 11
0.0
 21
14.35788177339903
 31
23.22820323027524
  0
LINE
  5
117
330
B8
100
AcDbEntity
  8
PV-141
100
AcDbLine
 10
0.0
 20
14.35788177339903
 30
23.22820323027524
 11
0.0
 21
14.35788177339903
 31
4.571796769724222
  0
LINE
  5
118
330
B8
100
AcDbEntity
  8
PV-141
100
AcDbLine
 10
0.0
 20
14.35788177342313
 30
3.49999999999974
 11
0.0
 21
14.35788177342313
 31
4.571796769724218
  0
LINE
  5
119
330
B8
100
AcDbEntity
  8
PV-141
100
AcDbLine
 10
0.0
 20
14.35788177342313
 30
-3.700000000000264
 11
0.0
 21
14.35788177342313
 31
3.49999999999974
  0
LINE
  5
11A
330
B8
100
AcDbEntity
  8
PV-141
100
AcDbLine
 10
0.0
 20
10.35788177339902
 30
-4.771796769724748
 11
0.0
 21
10.35788177339902
 31
-3.700000000000262
  0
LINE
  5
11B
330
B8
100
AcDbEntity
  8
PV-141
100
AcDbLine
 10
0.0
 20
10.35788177339902
 30
3.499999999999744
 11
0.0
 21
10.35788177339902
 31
-3.700000000000264
  0
LINE
  5
11C
330
B8
100
AcDbEntity
  8
PV-141
100
AcDbLine
 10
0.0
 20
10.35788177339902
 30
4.571796769724215
 11
0.0
 21
10.35788177339902
 31
3.499999999999737
  0
LINE
  5
11D
330
B8
100
AcDbEntity
  8
PV-141
100
AcDbLine
 10
0.0
 20
10.35788177339902
 30
23.22820323027524
 11
0.0
 21
10.35788177339902
 31
4.571796769724222
  0
LINE
  5
11E
330
B8
100
AcDbEntity
  8
PV-141
100
AcDbLine
 10
0.0
 20
10.35788177339902
 30
23.22820323027524
 11
0.0
 21
10.35788177339902
 31
24.29999999999974
  0
LINE
  5
11F
330
B8
100
AcDbEntity
  8
PV-141
100
AcDbLine
 10
0.0
 20
10.35788177339902
 30
31.49999999999973
 11
0.0
 21
10.35788177339902
 31
24.29999999999974
  0
LINE
  5
120
330
B8
100
AcDbEntity
  8
PV-141
100
AcDbLine
 10
0.0
 20
10.35788177339902
 30
32.57179676972423
 11
0.0
 21
10.35788177339902
 31
31.49999999999973
  0
LINE
  5
121
330
B8
100
AcDbEntity
  8
PV-141
100
AcDbLine
 10
0.0
 20
10.35788177339902
 30
36.89999999999972
 11
0.0
 21
10.35788177339902
 31
32.57179676972422
  0
LINE
  5
122
330
B8
100
AcDbEntity
  8
PV-141
100
AcDbLine
 10
0.0
 20
10.35788177339902
 30
36.89999999999972
 11
0.0
 21
10.35788177339902
 31
39.89999999999973
  0
LINE
  5
123
330
B8
100
AcDbEntity
  8
PV-141
100
AcDbLine
 10
0.0
 20
10.35788177339902
 30
-40.10000000000027
 11
0.0
 21
10.35788177339902
 31
-37.10000000000027
  0
LINE
  5
124
330
B8
100
AcDbEntity
  8
PV-141
100
AcDbLine
 10
0.0
 20
10.35788177339902
 30
-32.77179676972476
 11
0.0
 21
10.35788177339902
 31
-37.10000000000027
  0
LINE
  5
125
330
B8
100
AcDbEntity
  8
PV-141
100
AcDbLine
 10
0.0
 20
10.35788177339902
 30
-32.77179676972476
 11
0.0
 21
10.35788177339902
 31
-31.70000000000027
  0
LINE
  5
126
330
B8
100
AcDbEntity
  8
PV-141
100
AcDbLine
 10
0.0
 20
10.35788177339902
 30
-31.70000000000028
 11
0.0
 21
10.35788177339902
 31
-24.50000000000027
  0
LINE
  5
127
330
B8
100
AcDbEntity
  8
PV-141
100
AcDbLine
 10
0.0
 20
10.35788177339902
 30
-23.42820323027577
 11
0.0
 21
10.35788177339902
 31
-24.50000000000025
  0
LINE
  5
128
330
B8
100
AcDbEntity
  8
PV-141
100
AcDbLine
 10
0.0
 20
10.35788177339902
 30
-4.771796769724737
 11
0.0
 21
10.35788177339902
 31
-23.42820323027577
  0
LINE
  5
129
330
B8
100
AcDbEntity
  8
PV-141
100
AcDbLine
 10
0.0
 20
-7.142118226600971
 30
-20.0000000000001
 11
0.0
 21
-7.142118226600971
 31
19.79999999999989
  0
LINE
  5
12A
330
B8
100
AcDbEntity
  8
PV-141
100
AcDbLine
 10
0.0
 20
-7.142118226600972
 30
20.0000000000001
 11
0.0
 21
-7.142118226600969
 31
50.0000000000001
  0
LINE
  5
12B
330
B8
100
AcDbEntity
  8
PV-141
100
AcDbLine
 10
0.0
 20
34.85788177339903
 30
-49.98749217771919
 11
0.0
 21
30.85788177339901
 31
-49.98749217771919
  0
LINE
  5
12C
330
B8
100
AcDbEntity
  8
PV-141
100
AcDbLine
 10
0.0
 20
30.85788177339901
 30
49.987492177719
 11
0.0
 21
34.85788177339903
 31
49.987492177719
  0
LINE
  5
12D
330
B8
100
AcDbEntity
  8
PV-141
100
AcDbLine
 10
0.0
 20
-7.142118226600969
 30
-50.0000000000001
 11
0.0
 21
-7.142118226600972
 31
-20.0000000000001
  0
ENDBLK
  5
12F
330
B8
100
AcDbEntity
  8
0
100
AcDbBlockEnd
  0
BLOCK
  5
132
330
130
100
AcDbEntity
  8
0
100
AcDbBlockBegin
  2
LEFT
 70
     0
 10
0.0
 20
0.0
 30
0.0
  3
LEFT
  1

  0
INSERT
  5
131
330
130
100
AcDbEntity
  8
PV-141
100
AcDbBlockReference
  2
*U2
 10
0.0
 20
0.0
 30
0.0
 50
270.0
210
0.0
220
1.0
230
0.0
  0
ENDBLK
  5
133
330
130
100
AcDbEntity
  8
0
100
AcDbBlockEnd
  0
BLOCK
  5
1AF
330
135
100
AcDbEntity
  8
0
100
AcDbBlockBegin
  2
*U4
 70
     1
 10
0.0
 20
0.0
 30
0.0
  3
*U4
  1
*ANON
  0
LINE
  5
136
330
135
100
AcDbEntity
  8
PV-141
100
AcDbLine
 10
0.0
 20
16.05788177339902
 30
19.89999999999988
 11
0.0
 21
16.05788177339902
 31
-19.9000000000001
  0
LINE
  5
137
330
135
100
AcDbEntity
  8
PV-141
100
AcDbLine
 10
0.0
 20
16.05788177339902
 30
-48.44940189675956
 11
0.0
 21
16.05788177339902
 31
-48.95399470512938
  0
LINE
  5
138
330
135
100
AcDbEntity
  8
PV-141
100
AcDbLine
 10
0.0
 20
18.05788177339902
 30
-19.9000000000001
 11
0.0
 21
18.05788177339902
 31
19.89999999999988
  0
LINE
  5
139
330
135
100
AcDbEntity
  8
PV-141
100
AcDbLine
 10
0.0
 20
16.05788177339902
 30
48.95399470512916
 11
0.0
 21
16.05788177339902
 31
48.44940189675934
  0
LINE
  5
13A
330
135
100
AcDbEntity
  8
PV-141
100
AcDbLine
 10
0.0
 20
28.35788177339903
 30
49.99999999999989
 11
0.0
 21
30.85788177339903
 31
49.99999999999989
  0
LINE
  5
13B
330
135
100
AcDbEntity
  8
PV-141
100
AcDbLine
 10
0.0
 20
28.35788177339904
 30
-50.0000000000001
 11
0.0
 21
30.85788177339904
 31
-50.0000000000001
  0
LINE
  5
13C
330
135
100
AcDbEntity
  8
PV-141
100
AcDbLine
 10
0.0
 20
27.35788177339903
 30
49.34856819162654
 11
0.0
 21
17.05788177339902
 31
49.34856819162654
  0
LINE
  5
13D
330
135
100
AcDbEntity
  8
PV-141
100
AcDbLine
 10
0.0
 20
17.05788177339902
 30
-49.34856819162675
 11
0.0
 21
27.35788177339903
 31
-49.34856819162675
  0
LINE
  5
13E
330
135
100
AcDbEntity
  8
PV-141
100
AcDbLine
 10
0.0
 20
28.35788177339903
 30
49.9999999999999
 11
0.0
 21
28.35788177339903
 31
49.64431191612444
  0
LINE
  5
13F
330
135
100
AcDbEntity
  8
PV-141
100
AcDbLine
 10
0.0
 20
28.35788177339903
 30
-49.64431191612465
 11
0.0
 21
28.35788177339903
 31
-50.0000000000001
  0
LINE
  5
140
330
135
100
AcDbEntity
  8
PV-141
100
AcDbLine
 10
0.0
 20
16.05788177339902
 30
19.89999999999988
 11
0.0
 21
16.05788177339902
 31
20.0000000000001
  0
LINE
  5
141
330
135
100
AcDbEntity
  8
PV-141
100
AcDbLine
 10
0.0
 20
16.05788177339902
 30
45.62364309603349
 11
0.0
 21
16.05788177339902
 31
48.44940189675934
  0
LINE
  5
142
330
135
100
AcDbEntity
  8
PV-141
100
AcDbLine
 10
0.0
 20
16.05788177339902
 30
48.44940189675934
 11
0.0
 21
27.35788177339903
 31
48.44940189675934
  0
LINE
  5
143
330
135
100
AcDbEntity
  8
PV-141
100
AcDbLine
 10
0.0
 20
27.35788177339903
 30
-48.44940189675956
 11
0.0
 21
16.05788177339904
 31
-48.44940189675956
  0
LINE
  5
144
330
135
100
AcDbEntity
  8
PV-141
100
AcDbLine
 10
0.0
 20
16.05788177339902
 30
-19.9000000000001
 11
0.0
 21
16.05788177339902
 31
-20.00000000000011
  0
LINE
  5
145
330
135
100
AcDbEntity
  8
PV-141
100
AcDbLine
 10
0.0
 20
16.05788177339902
 30
-45.62364309603351
 11
0.0
 21
16.05788177339902
 31
-48.44940189675956
  0
LINE
  5
146
330
135
100
AcDbEntity
  8
PV-141
100
AcDbLine
 10
0.0
 20
18.05788177339902
 30
19.89999999999988
 11
0.0
 21
16.05788177339902
 31
19.89999999999988
  0
LINE
  5
147
330
135
100
AcDbEntity
  8
PV-141
100
AcDbLine
 10
0.0
 20
18.05788177339902
 30
-19.9000000000001
 11
0.0
 21
16.05788177339902
 31
-19.9000000000001
  0
SPLINE
  5
148
330
135
100
AcDbEntity
  8
PV-141
100
AcDbSpline
210
1.0
220
0.0
230
0.0
 70
     8
 71
     3
 72
    14
 73
    10
 74
     0
 42
0.0000000001
 43
0.0000000001
 40
0.0
 40
0.0
 40
0.0
 40
0.0
 40
0.0003986139723433
 40
0.0003986139723433
 40
0.0007972279446866
 40
0.0007972279446866
 40
0.0011958419170298
 40
0.0011958419170298
 40
0.0015944558893731
 40
0.0015944558893731
 40
0.0015944558893731
 40
0.0015944558893731
 10
0.0
 20
27.35788177339903
 30
-49.34856819162675
 10
0.0
 20
27.49272182857882
 30
-49.34856819162674
 10
0.0
 20
27.62509037731756
 30
-49.35804826759067
 10
0.0
 20
27.86893160993979
 30
-49.39264922586333
 10
0.0
 20
27.97974862139432
 30
-49.41775893681266
 10
0.0
 20
28.16177573382387
 30
-49.47597311715023
 10
0.0
 20
28.23453245645374
 30
-49.50950578237762
 10
0.0
 20
28.33203659554019
 30
-49.57713592858179
 10
0.0
 20
28.35788177339904
 30
-49.61176027648392
 10
0.0
 20
28.35788177339904
 30
-49.64431191612465
  0
SPLINE
  5
149
330
135
100
AcDbEntity
  8
PV-141
100
AcDbSpline
210
1.0
220
0.0
230
0.0
 70
     8
 71
     3
 72
    14
 73
    10
 74
     0
 42
0.0000000001
 43
0.0000000001
 40
0.0
 40
0.0
 40
0.0
 40
0.0
 40
0.0003986241037927
 40
0.0003986241037927
 40
0.0007972482075854
 40
0.0007972482075854
 40
0.0011958723113781
 40
0.0011958723113781
 40
0.0015944964151707
 40
0.0015944964151707
 40
0.0015944964151707
 40
0.0015944964151707
 10
0.0
 20
28.35788177339903
 30
49.64431191612444
 10
0.0
 20
28.35788177339903
 30
49.61173604621558
 10
0.0
 20
28.33260700182892
 30
49.57760077067558
 10
0.0
 20
28.23456429492257
 30
49.50945908849845
 10
0.0
 20
28.16237780510792
 30
49.47619527814355
 10
0.0
 20
27.97994282417806
 30
49.41779156155463
 10
0.0
 20
27.86912517135116
 30
49.3927123296844
 10
0.0
 20
27.62631616424063
 30
49.35818677632983
 10
0.0
 20
27.49283085304293
 30
49.34856819162654
 10
0.0
 20
27.35788177339903
 30
49.34856819162654
  0
SPLINE
  5
14A
330
135
100
AcDbEntity
  8
PV-141
100
AcDbSpline
210
1.0
220
0.0
230
0.0
 70
     8
 71
     3
 72
    18
 73
    14
 74
     0
 42
0.0000000001
 43
0.0000000001
 40
0.0010568272077198
 40
0.0010568272077198
 40
0.0010568272077198
 40
0.0010568272077198
 40
0.0020062821952646
 40
0.0020062821952646
 40
0.002481009689037
 40
0.002481009689037
 40
0.0029557371828094
 40
0.0029557371828094
 40
0.0034304646765818
 40
0.0034304646765818
 40
0.0039051921703542
 40
0.0039051921703542
 40
0.0048546471578989
 40
0.0048546471578989
 40
0.0048546471578989
 40
0.0048546471578989
 10
0.0
 20
30.18630889814523
 30
-49.34856819162675
 10
0.0
 20
30.08463398384876
 30
-49.24973965973435
 10
0.0
 20
29.94267997154917
 30
-49.14653461796085
 10
0.0
 20
29.67184777619797
 30
-48.99228086538328
 10
0.0
 20
29.5714858556918
 30
-48.9409474319934
 10
0.0
 20
29.35668967122459
 30
-48.84302857100475
 10
0.0
 20
29.24156179381453
 30
-48.79601154506571
 10
0.0
 20
28.99506288286819
 30
-48.70746808745374
 10
0.0
 20
28.86228222230314
 30
-48.66558246399278
 10
0.0
 20
28.58629628676092
 30
-48.59157559843438
 10
0.0
 20
28.44346598920688
 30
-48.55942264066026
 10
0.0
 20
27.99994001887279
 30
-48.47975094397808
 10
0.0
 20
27.67976778406731
 30
-48.44940189675954
 10
0.0
 20
27.35788177339903
 30
-48.44940189675956
  0
SPLINE
  5
14B
330
135
100
AcDbEntity
  8
PV-141
100
AcDbSpline
210
1.0
220
0.0
230
0.0
 70
     8
 71
     3
 72
    14
 73
    10
 74
     0
 42
0.0000000001
 43
0.0000000001
 40
0.0
 40
0.0
 40
0.0
 40
0.0
 40
0.0009499640180249
 40
0.0009499640180249
 40
0.0018999280360499
 40
0.0018999280360499
 40
0.0028498920540748
 40
0.0028498920540748
 40
0.0037998560720997
 40
0.0037998560720997
 40
0.0037998560720997
 40
0.0037998560720997
 10
0.0
 20
27.35788177339903
 30
48.44940189675934
 10
0.0
 20
27.67951256364559
 30
48.44940189675932
 10
0.0
 20
27.99166422615891
 30
48.47846103145204
 10
0.0
 20
28.593042342235
 30
48.58609685981145
 10
0.0
 20
28.86832396379833
 30
48.66199782001757
 10
0.0
 20
29.36654313505494
 30
48.84085067638229
 10
0.0
 20
29.58107117571926
 30
48.94054271468458
 10
0.0
 20
29.94402139705546
 30
49.14733462689852
 10
0.0
 20
30.08508866504444
 30
49.25018161216012
 10
0.0
 20
30.18630889814522
 30
49.34856819162654
  0
SPLINE
  5
14C
330
135
100
AcDbEntity
  8
PV-141
100
AcDbSpline
210
1.0
220
0.0
230
0.0
 70
     8
 71
     3
 72
    14
 73
    10
 74
     0
 42
0.0000000001
 43
0.0000000001
 40
0.0
 40
0.0
 40
0.0
 40
0.0
 40
0.0004059635003688
 40
0.0004059635003688
 40
0.0008119270007376
 40
0.0008119270007376
 40
0.0012178905011064
 40
0.0012178905011064
 40
0.0016238540014751
 40
0.0016238540014751
 40
0.0016238540014751
 40
0.0016238540014751
 10
0.0
 20
16.05788177339904
 30
-48.95399470512938
 10
0.0
 20
16.05788177339904
 30
-49.01001033586251
 10
0.0
 20
16.08088408015379
 30
-49.06262613047317
 10
0.0
 20
16.17494418308216
 30
-49.15968026210894
 10
0.0
 20
16.24450085001217
 30
-49.20222907038073
 10
0.0
 20
16.42676824343476
 30
-49.27350574263687
 10
0.0
 20
16.53771874178905
 30
-49.30127413684787
 10
0.0
 20
16.78481261442461
 30
-49.33882772906946
 10
0.0
 20
16.9203654429309
 30
-49.34856819162675
 10
0.0
 20
17.05788177339902
 30
-49.34856819162675
  0
SPLINE
  5
14D
330
135
100
AcDbEntity
  8
PV-141
100
AcDbSpline
210
1.0
220
0.0
230
0.0
 70
     8
 71
     3
 72
    14
 73
    10
 74
     0
 42
0.0000000001
 43
0.0000000001
 40
0.0
 40
0.0
 40
0.0
 40
0.0
 40
0.0004059857219147
 40
0.0004059857219147
 40
0.0008119714438295
 40
0.0008119714438295
 40
0.0012179571657442
 40
0.0012179571657442
 40
0.001623942887659
 40
0.001623942887659
 40
0.001623942887659
 40
0.001623942887659
 10
0.0
 20
17.05788177339902
 30
49.34856819162654
 10
0.0
 20
16.92056655241269
 30
49.34856819162654
 10
0.0
 20
16.78561861899803
 30
49.33890193637068
 10
0.0
 20
16.53856045706965
 30
49.30145003071103
 10
0.0
 20
16.42682371361201
 30
49.27345376532361
 10
0.0
 20
16.24575252486085
 30
49.20279168380154
 10
0.0
 20
16.17495590771365
 30
49.15957698187899
 10
0.0
 20
16.08142795633155
 30
49.06330201282133
 10
0.0
 20
16.05788177339902
 30
49.00995803148809
 10
0.0
 20
16.05788177339902
 30
48.95399470512916
  0
LINE
  5
14E
330
135
100
AcDbEntity
  8
PV-141
100
AcDbLine
 10
0.0
 20
18.55788177339902
 30
-19.9000000000001
 11
0.0
 21
18.05788177339902
 31
-19.9000000000001
  0
LINE
  5
14F
330
135
100
AcDbEntity
  8
PV-141
100
AcDbLine
 10
0.0
 20
18.05788177339902
 30
19.89999999999988
 11
0.0
 21
18.55788177339902
 31
19.89999999999988
  0
LINE
  5
150
330
135
100
AcDbEntity
  8
PV-141
100
AcDbLine
 10
0.0
 20
30.85788177339904
 30
-49.34856819162675
 11
0.0
 21
30.18630889814523
 31
-49.34856819162675
  0
LINE
  5
151
330
135
100
AcDbEntity
  8
PV-141
100
AcDbLine
 10
0.0
 20
30.18630889814522
 30
49.34856819162654
 11
0.0
 21
30.18630889814522
 31
43.49999999999989
  0
LINE
  5
152
330
135
100
AcDbEntity
  8
PV-141
100
AcDbLine
 10
0.0
 20
30.18630889814523
 30
-43.5000000000001
 11
0.0
 21
30.18630889814523
 31
-49.34856819162675
  0
LINE
  5
153
330
135
100
AcDbEntity
  8
PV-141
100
AcDbLine
 10
0.0
 20
30.85788177339903
 30
49.34856819162654
 11
0.0
 21
30.18630889814522
 31
49.34856819162654
  0
LINE
  5
154
330
135
100
AcDbEntity
  8
PV-141
100
AcDbLine
 10
0.0
 20
30.85788177339903
 30
-49.34856819162675
 11
0.0
 21
30.85788177339903
 31
-50.0000000000001
  0
LINE
  5
155
330
135
100
AcDbEntity
  8
PV-141
100
AcDbLine
 10
0.0
 20
30.85788177339904
 30
-49.34856819162675
 11
0.0
 21
30.85788177339904
 31
-43.5000000000001
  0
LINE
  5
156
330
135
100
AcDbEntity
  8
PV-141
100
AcDbLine
 10
0.0
 20
30.85788177339903
 30
43.49999999999989
 11
0.0
 21
30.85788177339903
 31
49.34856819162654
  0
LINE
  5
157
330
135
100
AcDbEntity
  8
PV-141
100
AcDbLine
 10
0.0
 20
30.85788177339903
 30
49.9999999999999
 11
0.0
 21
30.85788177339903
 31
49.34856819162654
  0
LINE
  5
158
330
135
100
AcDbEntity
  8
PV-141
100
AcDbLine
 10
0.0
 20
15.81775753028298
 30
-20.0000000000001
 11
0.0
 21
16.81775753028297
 31
-20.0000000000001
  0
SPLINE
  5
159
330
135
100
AcDbEntity
  8
PV-141
100
AcDbSpline
210
1.0
220
0.0
230
0.0
 70
     8
 71
     3
 72
    14
 73
    10
 74
     0
 42
0.0000000001
 43
0.0000000001
 40
0.0
 40
0.0
 40
0.0
 40
0.0
 40
0.0003906076277808
 40
0.0003906076277808
 40
0.0007812152555616
 40
0.0007812152555616
 40
0.0011718228833424
 40
0.0011718228833424
 40
0.0015624305111232
 40
0.0015624305111232
 40
0.0015624305111232
 40
0.0015624305111232
 10
0.0
 20
15.81775753028298
 30
-38.13990671960548
 10
0.0
 20
15.94983472974208
 30
-38.13990671960546
 10
0.0
 20
16.07943466153116
 30
-38.13973920671495
 10
0.0
 20
16.32156268357521
 30
-38.13908962790618
 10
0.0
 20
16.43246225653377
 30
-38.13860798801165
 10
0.0
 20
16.61694863961226
 30
-38.13740285291081
 10
0.0
 20
16.69146343314562
 30
-38.1366705069752
 10
0.0
 20
16.7912811506959
 30
-38.13507648332643
 10
0.0
 20
16.81775753028297
 30
-38.13418827892462
 10
0.0
 20
16.81775753028297
 30
-38.13331121198084
  0
LINE
  5
15A
330
135
100
AcDbEntity
  8
PV-141
100
AcDbLine
 10
0.0
 20
13.77277342059434
 30
-20.0000000000001
 11
0.0
 21
-7.142118226600969
 31
-20.0000000000001
  0
SPLINE
  5
15B
330
135
100
AcDbEntity
  8
PV-141
100
AcDbSpline
210
1.0
220
0.0
230
0.0
 70
    12
 71
     3
 72
     8
 73
     4
 74
     0
 42
0.0000000001
 43
0.0000000001
 40
1.955103209609784
 40
1.955103209609784
 40
1.955103209609784
 40
1.955103209609784
 40
3.128682619448366
 40
3.128682619448366
 40
3.128682619448366
 40
3.128682619448366
 10
0.0
 20
14.42257308884905
 30
-49.10969281153806
 41
1.0
 10
0.0
 20
14.18035220963574
 30
-47.24054598389913
 41
0.8884816515039114
 10
0.0
 20
14.03288777074067
 30
-43.12499069045196
 41
0.8884816515039114
 10
0.0
 20
14.02951474422629
 30
-38.13990671960523
 41
1.0
  0
LINE
  5
15C
330
135
100
AcDbEntity
  8
PV-141
100
AcDbLine
 10
0.0
 20
15.81775753028298
 30
-38.13990671960548
 11
0.0
 21
14.02951474422629
 31
-38.13990671960548
  0
LINE
  5
15D
330
135
100
AcDbEntity
  8
PV-141
100
AcDbLine
 10
0.0
 20
14.02951474422645
 30
-38.13990671960523
 11
0.0
 21
14.02951474422645
 31
-20.0000000000001
  0
LINE
  5
15E
330
135
100
AcDbEntity
  8
PV-141
100
AcDbLine
 10
0.0
 20
15.81775753028298
 30
-20.0000000000001
 11
0.0
 21
14.32799447752018
 31
-20.0000000000001
  0
LINE
  5
15F
330
135
100
AcDbEntity
  8
PV-141
100
AcDbLine
 10
0.0
 20
16.81775753028297
 30
-38.13331121198084
 11
0.0
 21
16.81775753028297
 31
-41.26691063058371
  0
LINE
  5
160
330
135
100
AcDbEntity
  8
PV-141
100
AcDbLine
 10
0.0
 20
16.81775753028297
 30
-43.5000000000001
 11
0.0
 21
16.81775753028297
 31
-46.85984266838167
  0
LINE
  5
161
330
135
100
AcDbEntity
  8
PV-141
100
AcDbLine
 10
0.0
 20
16.81775753028297
 30
-20.0000000000001
 11
0.0
 21
16.81775753028297
 31
-38.13331121198084
  0
LINE
  5
162
330
135
100
AcDbEntity
  8
PV-141
100
AcDbLine
 10
0.0
 20
15.35788177339902
 30
-48.07275543012295
 11
0.0
 21
15.81775753028298
 31
-48.07275543012295
  0
SPLINE
  5
163
330
135
100
AcDbEntity
  8
PV-141
100
AcDbSpline
210
1.0
220
0.0
230
0.0
 70
     8
 71
     3
 72
    14
 73
    10
 74
     0
 42
0.0000000001
 43
0.0000000001
 40
0.0
 40
0.0
 40
0.0
 40
0.0
 40
0.0004325832214326
 40
0.0004325832214326
 40
0.0008651664428653
 40
0.0008651664428653
 40
0.0012977496642979
 40
0.0012977496642979
 40
0.0017303328857306
 40
0.0017303328857306
 40
0.0017303328857306
 40
0.0017303328857306
 10
0.0
 20
16.81775753028297
 30
-46.85984266838167
 10
0.0
 20
16.81775753028297
 30
-47.00618750220225
 10
0.0
 20
16.79748679396158
 30
-47.14901846491652
 10
0.0
 20
16.71281022245161
 30
-47.42702970384679
 10
0.0
 20
16.6486890079734
 30
-47.5592632042546
 10
0.0
 20
16.47407545020339
 30
-47.7930977742661
 10
0.0
 20
16.36388978479864
 30
-47.89322392867264
 10
0.0
 20
16.10851250369154
 30
-48.03363531379012
 10
0.0
 20
15.96498955996606
 30
-48.07275543012369
 10
0.0
 20
15.81775753028298
 30
-48.07275543012295
  0
LINE
  5
164
330
135
100
AcDbEntity
  8
PV-141
100
AcDbLine
 10
0.0
 20
13.84349188832206
 30
-50.0000000000001
 11
0.0
 21
-7.142118226600969
 31
-50.0000000000001
  0
LINE
  5
165
330
135
100
AcDbEntity
  8
PV-141
100
AcDbLine
 10
0.0
 20
13.84349188832206
 30
-50.0000000000001
 11
0.0
 21
14.42257308884905
 31
-50.0000000000001
  0
LINE
  5
166
330
135
100
AcDbEntity
  8
PV-141
100
AcDbLine
 10
0.0
 20
15.35788177339902
 30
-49.10969281153806
 11
0.0
 21
15.35788177339902
 31
-48.07275543012295
  0
LINE
  5
167
330
135
100
AcDbEntity
  8
PV-141
100
AcDbLine
 10
0.0
 20
14.42257308884905
 30
-50.0000000000001
 11
0.0
 21
14.42257308884905
 31
-49.10969281153806
  0
LINE
  5
168
330
135
100
AcDbEntity
  8
PV-141
100
AcDbLine
 10
0.0
 20
14.42257308884905
 30
-49.10969281153806
 11
0.0
 21
15.35788177339902
 31
-49.10969281153806
  0
LINE
  5
169
330
135
100
AcDbEntity
  8
PV-141
100
AcDbLine
 10
0.0
 20
29.85788177339902
 30
43.49999999999989
 11
0.0
 21
34.85788177339903
 31
43.49999999999989
  0
LINE
  5
16A
330
135
100
AcDbEntity
  8
PV-141
100
AcDbLine
 10
0.0
 20
34.85788177339903
 30
-43.5000000000001
 11
0.0
 21
29.85788177339902
 31
-43.5000000000001
  0
LINE
  5
16B
330
135
100
AcDbEntity
  8
PV-141
100
AcDbLine
 10
0.0
 20
34.85788177339903
 30
43.49999999999989
 11
0.0
 21
34.85788177339903
 31
46.4999999999999
  0
LINE
  5
16C
330
135
100
AcDbEntity
  8
PV-141
100
AcDbLine
 10
0.0
 20
34.85788177339903
 30
46.4999999999999
 11
0.0
 21
34.85788177339903
 31
47.98749217771899
  0
LINE
  5
16D
330
135
100
AcDbEntity
  8
PV-141
100
AcDbLine
 10
0.0
 20
34.85788177339903
 30
49.987492177719
 11
0.0
 21
34.85788177339903
 31
47.98749217771898
  0
LINE
  5
16E
330
135
100
AcDbEntity
  8
PV-141
100
AcDbLine
 10
0.0
 20
34.85788177339903
 30
-47.98749217771919
 11
0.0
 21
34.85788177339903
 31
-49.98749217771919
  0
LINE
  5
16F
330
135
100
AcDbEntity
  8
PV-141
100
AcDbLine
 10
0.0
 20
34.85788177339903
 30
-46.5000000000001
 11
0.0
 21
34.85788177339903
 31
-47.9874921777192
  0
LINE
  5
170
330
135
100
AcDbEntity
  8
PV-141
100
AcDbLine
 10
0.0
 20
34.85788177339903
 30
-46.50000000000009
 11
0.0
 21
34.85788177339903
 31
-43.5000000000001
  0
LINE
  5
171
330
135
100
AcDbEntity
  8
PV-141
100
AcDbLine
 10
0.0
 20
34.85788177339903
 30
43.49999999999989
 11
0.0
 21
34.85788177339903
 31
-43.5000000000001
  0
ARC
  5
172
330
135
100
AcDbEntity
  8
PV-141
100
AcDbCircle
 10
25.45788177339902
 20
-29.99780281173511
 30
0.0
 40
2.0
210
1.0
220
0.0
230
0.0
100
AcDbArc
 50
89.99999999999982
 51
90.12588971567167
  0
LINE
  5
173
330
135
100
AcDbEntity
  8
PV-141
100
AcDbLine
 10
0.0
 20
25.45348739686903
 30
-27.99780763937722
 11
0.0
 21
24.45348981069008
 31
-28.00000482764221
  0
ARC
  5
174
330
135
100
AcDbEntity
  8
PV-141
100
AcDbCircle
 10
24.45788418722007
 20
-30.0000000000001
 30
0.0
 40
2.0
210
1.0
220
0.0
230
0.0
100
AcDbArc
 50
90.12588971567167
 51
270.1258897156717
  0
LINE
  5
175
330
135
100
AcDbEntity
  8
PV-141
100
AcDbLine
 10
0.0
 20
25.46227614992901
 30
-31.997797984093
 11
0.0
 21
24.46227856375006
 31
-31.999995172358
  0
ARC
  5
176
330
135
100
AcDbEntity
  8
PV-141
100
AcDbCircle
 10
24.45788418722007
 20
29.9999999999999
 30
0.0
 40
2.0
210
1.0
220
0.0
230
0.0
100
AcDbArc
 50
89.99999999999982
 51
269.8741102843283
  0
LINE
  5
177
330
135
100
AcDbEntity
  8
PV-141
100
AcDbLine
 10
0.0
 20
25.45348739686903
 30
27.997807639377
 11
0.0
 21
24.45348981069008
 31
28.000004827642
  0
ARC
  5
178
330
135
100
AcDbEntity
  8
PV-141
100
AcDbCircle
 10
25.45788177339902
 20
29.99780281173491
 30
0.0
 40
2.0
210
1.0
220
0.0
230
0.0
100
AcDbArc
 50
269.8741102843275
 51
89.87411028432822
  0
LINE
  5
179
330
135
100
AcDbEntity
  8
PV-141
100
AcDbLine
 10
0.0
 20
25.46227614992901
 30
31.99779798409281
 11
0.0
 21
24.46227856375006
 31
31.99999517235781
  0
LINE
  5
17A
330
135
100
AcDbEntity
  8
PV-141
100
AcDbLine
 10
0.0
 20
18.85788177339903
 30
-20.0000000000001
 11
0.0
 21
16.81775753028297
 31
-20.0000000000001
  0
ARC
  5
17B
330
135
100
AcDbEntity
  8
PV-141
100
AcDbCircle
 10
18.85788177339903
 20
-17.00000000000009
 30
0.0
 40
2.999999999999999
210
1.0
220
0.0
230
0.0
100
AcDbArc
 50
270.0000000000002
 51
0.0000000000003997
  0
LINE
  5
17C
330
135
100
AcDbEntity
  8
PV-141
100
AcDbLine
 10
0.0
 20
21.85788177339901
 30
-17.00000000000009
 11
0.0
 21
21.85788177339901
 31
16.9999999999999
  0
ARC
  5
17D
330
135
100
AcDbEntity
  8
PV-141
100
AcDbCircle
 10
18.85788177339903
 20
16.9999999999999
 30
0.0
 40
3.0
210
1.0
220
0.0
230
0.0
100
AcDbArc
 50
359.9999999999987
 51
89.99999999999982
  0
LINE
  5
17E
330
135
100
AcDbEntity
  8
PV-141
100
AcDbLine
 10
0.0
 20
16.81775753028297
 30
19.9999999999999
 11
0.0
 21
18.85788177339903
 31
19.9999999999999
  0
LINE
  5
17F
330
135
100
AcDbEntity
  8
PV-141
100
AcDbLine
 10
0.0
 20
16.32913500082616
 30
43.49999999999989
 11
0.0
 21
29.85788177339902
 31
43.49999999999989
  0
LINE
  5
180
330
135
100
AcDbEntity
  8
PV-141
100
AcDbLine
 10
0.0
 20
16.32913500082604
 30
-43.5000000000001
 11
0.0
 21
29.85788177339902
 31
-43.5000000000001
  0
ARC
  5
181
330
135
100
AcDbEntity
  8
PV-141
100
AcDbCircle
 10
24.45788418722007
 20
29.9999999999999
 30
0.0
 40
2.0
210
1.0
220
0.0
230
0.0
100
AcDbArc
 50
89.87411028432822
 51
89.99999999999982
  0
ARC
  5
182
330
135
100
AcDbEntity
  8
PV-141
100
AcDbCircle
 10
25.45788177339902
 20
-29.99780281173511
 30
0.0
 40
2.0
210
1.0
220
0.0
230
0.0
100
AcDbArc
 50
270.1258897156717
 51
90.0000000000006
  0
LINE
  5
183
330
135
100
AcDbEntity
  8
PV-141
100
AcDbLine
 10
0.0
 20
12.35788177339903
 30
-52.5000000000001
 11
0.0
 21
-5.642118226600971
 31
-52.5000000000001
  0
LINE
  5
184
330
135
100
AcDbEntity
  8
PV-141
100
AcDbLine
 10
0.0
 20
-7.142118226600969
 30
-50.0000000000001
 11
0.0
 21
13.84349188832206
 31
-50.0000000000001
  0
LINE
  5
185
330
135
100
AcDbEntity
  8
PV-141
100
AcDbLine
 10
0.0
 20
13.85788177339903
 30
-51.0000000000001
 11
0.0
 21
13.85788177339903
 31
-50.0000000000001
  0
LINE
  5
186
330
135
100
AcDbEntity
  8
PV-141
100
AcDbLine
 10
0.0
 20
-7.142118226600969
 30
-51.0000000000001
 11
0.0
 21
-7.142118226600969
 31
-50.0000000000001
  0
ARC
  5
187
330
135
100
AcDbEntity
  8
PV-141
100
AcDbCircle
 10
12.35788177339903
 20
-51.0000000000001
 30
0.0
 40
1.5
210
1.0
220
0.0
230
0.0
100
AcDbArc
 50
270.0
 51
0.0000000000002799
  0
ARC
  5
188
330
135
100
AcDbEntity
  8
PV-141
100
AcDbCircle
 10
-5.642118226600969
 20
-51.0000000000001
 30
0.0
 40
1.499999999999998
210
1.0
220
0.0
230
0.0
100
AcDbArc
 50
180.0
 51
270.0000000000002
  0
LINE
  5
189
330
135
100
AcDbEntity
  8
PV-141
100
AcDbLine
 10
0.0
 20
15.81775753028298
 30
20.0000000000001
 11
0.0
 21
16.81775753028297
 31
20.0000000000001
  0
SPLINE
  5
18A
330
135
100
AcDbEntity
  8
PV-141
100
AcDbSpline
210
1.0
220
0.0
230
0.0
 70
     8
 71
     3
 72
    14
 73
    10
 74
     0
 42
0.0000000001
 43
0.0000000001
 40
0.0
 40
0.0
 40
0.0
 40
0.0
 40
0.0003906076277808
 40
0.0003906076277808
 40
0.0007812152555616
 40
0.0007812152555616
 40
0.0011718228833424
 40
0.0011718228833424
 40
0.0015624305111232
 40
0.0015624305111232
 40
0.0015624305111232
 40
0.0015624305111232
 10
0.0
 20
15.81775753028298
 30
38.13990671960548
 10
0.0
 20
15.94983472974208
 30
38.13990671960546
 10
0.0
 20
16.07943466153116
 30
38.13973920671495
 10
0.0
 20
16.32156268357521
 30
38.13908962790618
 10
0.0
 20
16.43246225653377
 30
38.13860798801165
 10
0.0
 20
16.61694863961226
 30
38.13740285291081
 10
0.0
 20
16.69146343314562
 30
38.1366705069752
 10
0.0
 20
16.7912811506959
 30
38.13507648332643
 10
0.0
 20
16.81775753028297
 30
38.13418827892462
 10
0.0
 20
16.81775753028297
 30
38.13331121198084
  0
LINE
  5
18B
330
135
100
AcDbEntity
  8
PV-141
100
AcDbLine
 10
0.0
 20
13.84349188832206
 30
20.0000000000001
 11
0.0
 21
-7.142118226600969
 31
20.0000000000001
  0
SPLINE
  5
18C
330
135
100
AcDbEntity
  8
PV-141
100
AcDbSpline
210
1.0
220
0.0
230
0.0
 70
    12
 71
     3
 72
     8
 73
     4
 74
     0
 42
0.0000000001
 43
0.0000000001
 40
1.955103209609784
 40
1.955103209609784
 40
1.955103209609784
 40
1.955103209609784
 40
3.128682619448366
 40
3.128682619448366
 40
3.128682619448366
 40
3.128682619448366
 10
0.0
 20
14.42257308884905
 30
49.10969281153805
 41
1.0
 10
0.0
 20
14.18035220963574
 30
47.24054598389911
 41
0.8884816515039114
 10
0.0
 20
14.03288777074067
 30
43.12499069045196
 41
0.8884816515039114
 10
0.0
 20
14.02951474422629
 30
38.13990671960523
 41
1.0
  0
LINE
  5
18D
330
135
100
AcDbEntity
  8
PV-141
100
AcDbLine
 10
0.0
 20
13.84349188832205
 30
20.0000000000001
 11
0.0
 21
14.02951474422629
 31
20.0000000000001
  0
LINE
  5
18E
330
135
100
AcDbEntity
  8
PV-141
100
AcDbLine
 10
0.0
 20
15.81775753028298
 30
20.0000000000001
 11
0.0
 21
14.02951474422629
 31
20.0000000000001
  0
LINE
  5
18F
330
135
100
AcDbEntity
  8
PV-141
100
AcDbLine
 10
0.0
 20
14.02951474422645
 30
38.13990671960523
 11
0.0
 21
14.02951474422645
 31
20.0000000000001
  0
LINE
  5
190
330
135
100
AcDbEntity
  8
PV-141
100
AcDbLine
 10
0.0
 20
15.81775753028298
 30
38.13990671960548
 11
0.0
 21
14.02951474422629
 31
38.13990671960548
  0
LINE
  5
191
330
135
100
AcDbEntity
  8
PV-141
100
AcDbLine
 10
0.0
 20
16.81775753028297
 30
20.0000000000001
 11
0.0
 21
16.81775753028297
 31
38.13331121198084
  0
LINE
  5
192
330
135
100
AcDbEntity
  8
PV-141
100
AcDbLine
 10
0.0
 20
16.81775753028297
 30
38.13331121198084
 11
0.0
 21
16.81775753028297
 31
41.26691063058363
  0
LINE
  5
193
330
135
100
AcDbEntity
  8
PV-141
100
AcDbLine
 10
0.0
 20
16.81775753028297
 30
43.49999999999989
 11
0.0
 21
16.81775753028297
 31
46.85984266838166
  0
SPLINE
  5
194
330
135
100
AcDbEntity
  8
PV-141
100
AcDbSpline
210
1.0
220
0.0
230
0.0
 70
     8
 71
     3
 72
    14
 73
    10
 74
     0
 42
0.0000000001
 43
0.0000000001
 40
0.0
 40
0.0
 40
0.0
 40
0.0
 40
0.0004325832214326
 40
0.0004325832214326
 40
0.0008651664428653
 40
0.0008651664428653
 40
0.0012977496642979
 40
0.0012977496642979
 40
0.0017303328857306
 40
0.0017303328857306
 40
0.0017303328857306
 40
0.0017303328857306
 10
0.0
 20
16.81775753028297
 30
46.85984266838166
 10
0.0
 20
16.81775753028297
 30
47.00618750220225
 10
0.0
 20
16.79748679396158
 30
47.14901846491651
 10
0.0
 20
16.71281022245161
 30
47.42702970384677
 10
0.0
 20
16.6486890079734
 30
47.5592632042546
 10
0.0
 20
16.47407545020339
 30
47.79309777426608
 10
0.0
 20
16.36388978479864
 30
47.89322392867263
 10
0.0
 20
16.10851250369154
 30
48.03363531379012
 10
0.0
 20
15.96498955996606
 30
48.07275543012369
 10
0.0
 20
15.81775753028298
 30
48.07275543012294
  0
LINE
  5
195
330
135
100
AcDbEntity
  8
PV-141
100
AcDbLine
 10
0.0
 20
15.35788177339902
 30
48.07275543012294
 11
0.0
 21
15.81775753028298
 31
48.07275543012294
  0
LINE
  5
196
330
135
100
AcDbEntity
  8
PV-141
100
AcDbLine
 10
0.0
 20
13.84349188832206
 30
50.0000000000001
 11
0.0
 21
14.42257308884905
 31
50.0000000000001
  0
LINE
  5
197
330
135
100
AcDbEntity
  8
PV-141
100
AcDbLine
 10
0.0
 20
13.84349188832206
 30
50.0000000000001
 11
0.0
 21
-7.142118226600969
 31
50.0000000000001
  0
LINE
  5
198
330
135
100
AcDbEntity
  8
PV-141
100
AcDbLine
 10
0.0
 20
15.35788177339902
 30
49.10969281153805
 11
0.0
 21
15.35788177339902
 31
48.07275543012294
  0
LINE
  5
199
330
135
100
AcDbEntity
  8
PV-141
100
AcDbLine
 10
0.0
 20
14.42257308884905
 30
49.10969281153805
 11
0.0
 21
15.35788177339902
 31
49.10969281153805
  0
LINE
  5
19A
330
135
100
AcDbEntity
  8
PV-141
100
AcDbLine
 10
0.0
 20
14.42257308884905
 30
50.00000000000009
 11
0.0
 21
14.42257308884905
 31
49.10969281153805
  0
LINE
  5
19B
330
135
100
AcDbEntity
  8
PV-141
100
AcDbLine
 10
0.0
 20
12.35788177339903
 30
52.5000000000001
 11
0.0
 21
-5.642118226600971
 31
52.5000000000001
  0
LINE
  5
19C
330
135
100
AcDbEntity
  8
PV-141
100
AcDbLine
 10
0.0
 20
-7.142118226600969
 30
50.0000000000001
 11
0.0
 21
13.84349188832206
 31
50.0000000000001
  0
LINE
  5
19D
330
135
100
AcDbEntity
  8
PV-141
100
AcDbLine
 10
0.0
 20
-7.142118226600969
 30
51.0000000000001
 11
0.0
 21
-7.142118226600969
 31
50.0000000000001
  0
LINE
  5
19E
330
135
100
AcDbEntity
  8
PV-141
100
AcDbLine
 10
0.0
 20
13.85788177339903
 30
51.0000000000001
 11
0.0
 21
13.85788177339903
 31
50.0000000000001
  0
ARC
  5
19F
330
135
100
AcDbEntity
  8
PV-141
100
AcDbCircle
 10
-5.642118226600969
 20
51.0000000000001
 30
0.0
 40
1.499999999999998
210
1.0
220
0.0
230
0.0
100
AcDbArc
 50
90.0
 51
180.0
  0
ARC
  5
1A0
330
135
100
AcDbEntity
  8
PV-141
100
AcDbCircle
 10
12.35788177339903
 20
51.0000000000001
 30
0.0
 40
1.5
210
1.0
220
0.0
230
0.0
100
AcDbArc
 50
0.0
 51
90.0
  0
LINE
  5
1A1
330
135
100
AcDbEntity
  8
PV-141
100
AcDbLine
 10
0.0
 20
15.35281811314463
 30
19.79999999999989
 11
0.0
 21
15.35281811314463
 31
-20.0000000000001
  0
LINE
  5
1A2
330
135
100
AcDbEntity
  8
PV-141
100
AcDbLine
 10
0.0
 20
13.77277342059434
 30
19.79999999999989
 11
0.0
 21
15.35281811314463
 31
19.79999999999989
  0
LINE
  5
1A3
330
135
100
AcDbEntity
  8
PV-141
100
AcDbLine
 10
0.0
 20
13.77277342059434
 30
19.79999999999989
 11
0.0
 21
3.357881773398954
 31
19.7999999999999
  0
LINE
  5
1A4
330
135
100
AcDbEntity
  8
PV-141
100
AcDbLine
 10
0.0
 20
13.77277342059434
 30
-20.0000000000001
 11
0.0
 21
3.357881773398954
 31
-20.00000000000008
  0
LINE
  5
1A5
330
135
100
AcDbEntity
  8
PV-141
100
AcDbLine
 10
0.0
 20
13.77277342059434
 30
-20.00000000000008
 11
0.0
 21
14.32799447752018
 31
-20.0000000000001
  0
LINE
  5
1A6
330
135
100
AcDbEntity
  8
PV-141
100
AcDbLine
 10
0.0
 20
3.357881773399101
 30
-20.00000000000008
 11
0.0
 21
-7.142118226600971
 31
-20.0000000000001
  0
LINE
  5
1A7
330
135
100
AcDbEntity
  8
PV-141
100
AcDbLine
 10
0.0
 20
3.357881773399101
 30
19.7999999999999
 11
0.0
 21
-7.142118226600971
 31
19.79999999999989
  0
LINE
  5
1A8
330
135
100
AcDbEntity
  8
PV-141
100
AcDbLine
 10
0.0
 20
14.35788177339903
 30
19.79999999999989
 11
0.0
 21
14.35788177339903
 31
20.0000000000001
  0
LINE
  5
1A9
330
135
100
AcDbEntity
  8
PV-141
100
AcDbLine
 10
0.0
 20
10.35788177339902
 30
20.0000000000001
 11
0.0
 21
10.35788177339902
 31
19.79999999999989
  0
LINE
  5
1AA
330
135
100
AcDbEntity
  8
PV-141
100
AcDbLine
 10
0.0
 20
-7.142118226600971
 30
-20.0000000000001
 11
0.0
 21
-7.142118226600971
 31
19.79999999999989
  0
LINE
  5
1AB
330
135
100
AcDbEntity
  8
PV-141
100
AcDbLine
 10
0.0
 20
-7.142118226600972
 30
20.0000000000001
 11
0.0
 21
-7.142118226600969
 31
50.0000000000001
  0
LINE
  5
1AC
330
135
100
AcDbEntity
  8
PV-141
100
AcDbLine
 10
0.0
 20
34.85788177339903
 30
-49.98749217771919
 11
0.0
 21
30.85788177339901
 31
-49.98749217771919
  0
LINE
  5
1AD
330
135
100
AcDbEntity
  8
PV-141
100
AcDbLine
 10
0.0
 20
30.85788177339901
 30
49.987492177719
 11
0.0
 21
34.85788177339903
 31
49.987492177719
  0
LINE
  5
1AE
330
135
100
AcDbEntity
  8
PV-141
100
AcDbLine
 10
0.0
 20
-7.142118226600969
 30
-50.0000000000001
 11
0.0
 21
-7.142118226600972
 31
-20.0000000000001
  0
ENDBLK
  5
1B0
330
135
100
AcDbEntity
  8
0
100
AcDbBlockEnd
  0
BLOCK
  5
1B3
330
1B1
100
AcDbEntity
  8
0
100
AcDbBlockBegin
  2
RIGHT
 70
     0
 10
0.0
 20
0.0
 30
0.0
  3
RIGHT
  1

  0
INSERT
  5
1B2
330
1B1
100
AcDbEntity
  8
PV-141
100
AcDbBlockReference
  2
*U4
 10
0.0
 20
0.0
 30
0.0
 50
90.0
210
0.0
220
1.0
230
0.0
  0
ENDBLK
  5
1B4
330
1B1
100
AcDbEntity
  8
0
100
AcDbBlockEnd
  0
BLOCK
  5
205
330
1B6
100
AcDbEntity
  8
0
100
AcDbBlockBegin
  2
*U6
 70
     1
 10
0.0
 20
0.0
 30
0.0
  3
*U6
  1
*ANON
  0
LINE
  5
1B7
330
1B6
100
AcDbEntity
  8
PV-141
100
AcDbLine
 10
-39.61206896551718
 20
16.05788177339902
 30
0.0
 11
-38.61206896551719
 21
16.05788177339902
 31
0.0
  0
LINE
  5
1B8
330
1B6
100
AcDbEntity
  8
PV-141
100
AcDbLine
 10
-60.6120689655172
 20
28.35788177339903
 30
0.0
 11
-60.6120689655172
 21
30.85788177339903
 31
0.0
  0
LINE
  5
1B9
330
1B6
100
AcDbEntity
  8
PV-141
100
AcDbLine
 10
-40.61206896551719
 20
27.35788177339903
 30
0.0
 11
-40.61206896551719
 21
17.05788177339902
 31
0.0
  0
LINE
  5
1BA
330
1B6
100
AcDbEntity
  8
PV-141
100
AcDbLine
 10
-48.61206896551704
 20
28.35788177339903
 30
0.0
 11
-60.61206896551721
 21
28.35788177339903
 31
0.0
  0
LINE
  5
1BB
330
1B6
100
AcDbEntity
  8
PV-141
100
AcDbLine
 10
-44.51206896551719
 20
28.35788177339903
 30
0.0
 11
-48.61206896551721
 21
28.35788177339903
 31
0.0
  0
LINE
  5
1BC
330
1B6
100
AcDbEntity
  8
PV-141
100
AcDbLine
 10
-44.51206896551719
 20
28.35788177339903
 30
0.0
 11
-41.61206896551719
 21
28.35788177339903
 31
0.0
  0
LINE
  5
1BD
330
1B6
100
AcDbEntity
  8
PV-141
100
AcDbLine
 10
-38.61206896551719
 20
16.05788177339902
 30
0.0
 11
-38.61206896551719
 21
27.35788177339903
 31
0.0
  0
LINE
  5
1BE
330
1B6
100
AcDbEntity
  8
PV-141
100
AcDbLine
 10
-32.5120689655172
 20
18.05788177339902
 30
0.0
 11
-32.5120689655172
 21
16.05788177339902
 31
0.0
  0
LINE
  5
1BF
330
1B6
100
AcDbEntity
  8
PV-141
100
AcDbLine
 10
-33.14129775596834
 20
16.05788177339902
 30
0.0
 11
-32.5120689655172
 21
16.05788177339902
 31
0.0
  0
LINE
  5
1C0
330
1B6
100
AcDbEntity
  8
PV-141
100
AcDbLine
 10
-34.61206896551718
 20
18.05788177339902
 30
0.0
 11
-32.51206896551718
 21
18.05788177339902
 31
0.0
  0
SPLINE
  5
1C1
330
1B6
100
AcDbEntity
  8
PV-141
100
AcDbSpline
210
0.0
220
0.0
230
1.0
 70
     8
 71
     3
 72
    14
 73
    10
 74
     0
 42
0.0000000001
 43
0.0000000001
 40
0.0
 40
0.0
 40
0.0
 40
0.0
 40
0.0003986241037927
 40
0.0003986241037927
 40
0.0007972482075854
 40
0.0007972482075854
 40
0.0011958723113781
 40
0.0011958723113781
 40
0.0015944964151707
 40
0.0015944964151707
 40
0.0015944964151707
 40
0.0015944964151707
 10
-41.61206896551719
 20
28.35788177339903
 30
0.0
 10
-41.48126772753182
 20
28.35788177339903
 30
0.0
 10
-41.35379182846448
 20
28.33260700182892
 30
0.0
 10
-41.11384802364806
 20
28.23456429492257
 30
0.0
 10
-41.00401932398102
 20
28.16237780510792
 30
0.0
 10
-40.81835725418157
 20
27.97994282417806
 30
0.0
 10
-40.74258025258973
 20
27.86912517135116
 30
0.0
 10
-40.63979152997147
 20
27.62631616424063
 30
0.0
 10
-40.61206896551719
 20
27.49283085304293
 30
0.0
 10
-40.61206896551719
 20
27.35788177339903
 30
0.0
  0
SPLINE
  5
1C2
330
1B6
100
AcDbEntity
  8
PV-141
100
AcDbSpline
210
0.0
220
0.0
230
1.0
 70
     8
 71
     3
 72
    14
 73
    10
 74
     0
 42
0.0000000001
 43
0.0000000001
 40
0.0
 40
0.0
 40
0.0
 40
0.0
 40
0.0009499640180249
 40
0.0009499640180249
 40
0.0018999280360499
 40
0.0018999280360499
 40
0.0028498920540748
 40
0.0028498920540748
 40
0.0037998560720997
 40
0.0037998560720997
 40
0.0037998560720997
 40
0.0037998560720997
 10
-38.61206896551719
 20
27.35788177339903
 30
0.0
 10
-38.61206896551719
 20
27.67951256364559
 30
0.0
 10
-38.66275567792617
 20
27.99166422615891
 30
0.0
 10
-38.85988666142103
 20
28.593042342235
 30
0.0
 10
-39.00186558674447
 20
28.86832396379833
 30
0.0
 10
-39.36265196920784
 20
29.36654313505494
 30
0.0
 10
-39.57502521815578
 20
29.58107117571926
 30
0.0
 10
-40.06158510742405
 20
29.94402139705546
 30
0.0
 10
-40.32577491264139
 20
30.08508866504444
 30
0.0
 10
-40.61206896551719
 20
30.18630889814522
 30
0.0
  0
SPLINE
  5
1C3
330
1B6
100
AcDbEntity
  8
PV-141
100
AcDbSpline
210
0.0
220
0.0
230
1.0
 70
     8
 71
     3
 72
    14
 73
    10
 74
     0
 42
0.0000000001
 43
0.0000000001
 40
0.0
 40
0.0
 40
0.0
 40
0.0
 40
0.0004059857219147
 40
0.0004059857219147
 40
0.0008119714438295
 40
0.0008119714438295
 40
0.0012179571657442
 40
0.0012179571657442
 40
0.001623942887659
 40
0.001623942887659
 40
0.001623942887659
 40
0.001623942887659
 10
-40.61206896551719
 20
17.05788177339902
 30
0.0
 10
-40.61206896551719
 20
16.92056655241269
 30
0.0
 10
-40.58364842163153
 20
16.78561861899803
 30
0.0
 10
-40.47716967363952
 20
16.53856045706965
 30
0.0
 10
-40.39874997934139
 20
16.42682371361201
 30
0.0
 10
-40.21002161916331
 20
16.24575252486085
 30
0.0
 10
-40.09844345349629
 20
16.17495590771365
 30
0.0
 10
-39.86238111062319
 20
16.08142795633155
 30
0.0
 10
-39.73717549217377
 20
16.05788177339902
 30
0.0
 10
-39.61206896551718
 20
16.05788177339902
 30
0.0
  0
LINE
  5
1C4
330
1B6
100
AcDbEntity
  8
PV-141
100
AcDbLine
 10
-40.61206896551719
 20
30.85788177339903
 30
0.0
 11
-40.61206896551719
 21
30.18630889814522
 31
0.0
  0
LINE
  5
1C5
330
1B6
100
AcDbEntity
  8
PV-141
100
AcDbLine
 10
-48.61206896551721
 20
30.85788177339903
 30
0.0
 11
-44.51206896551719
 21
30.85788177339903
 31
0.0
  0
LINE
  5
1C6
330
1B6
100
AcDbEntity
  8
PV-141
100
AcDbLine
 10
-60.61206896551721
 20
30.85788177339903
 30
0.0
 11
-49.21206896551719
 21
30.85788177339903
 31
0.0
  0
LINE
  5
1C7
330
1B6
100
AcDbEntity
  8
PV-141
100
AcDbLine
 10
-44.51206896551719
 20
30.85788177339903
 30
0.0
 11
-40.61206896551718
 21
30.85788177339903
 31
0.0
  0
LINE
  5
1C8
330
1B6
100
AcDbEntity
  8
PV-141
100
AcDbLine
 10
-47.11206896551718
 20
34.85788177339903
 30
0.0
 11
-47.11206896551718
 21
30.85788177339901
 31
0.0
  0
ARC
  5
1C9
330
1B6
100
AcDbEntity
  8
PV-141
100
AcDbCircle
 10
-39.6120689655172
 20
29.85788177339902
 30
0.0
 40
1.0
100
AcDbArc
 50
0.0000000000000035
 51
90.00000000000003
  0
ARC
  5
1CA
330
1B6
100
AcDbEntity
  8
PV-141
100
AcDbCircle
 10
-39.6120689655172
 20
29.85788177339902
 30
0.0
 40
5.0
100
AcDbArc
 50
0.0000000000000035
 51
90.00000000000003
  0
LINE
  5
1CB
330
1B6
100
AcDbEntity
  8
PV-141
100
AcDbLine
 10
-60.6120689655172
 20
30.85788177339903
 30
0.0
 11
-60.6120689655172
 21
34.85788177339903
 31
0.0
  0
LINE
  5
1CC
330
1B6
100
AcDbEntity
  8
PV-141
100
AcDbLine
 10
-49.21206896551719
 20
30.85788177339901
 30
0.0
 11
-60.6120689655172
 21
30.85788177339901
 31
0.0
  0
LINE
  5
1CD
330
1B6
100
AcDbEntity
  8
PV-141
100
AcDbLine
 10
-39.6120689655172
 20
30.85788177339901
 30
0.0
 11
-40.61206896551719
 21
30.85788177339901
 31
0.0
  0
LINE
  5
1CE
330
1B6
100
AcDbEntity
  8
PV-141
100
AcDbLine
 10
-44.11206896551719
 20
34.85788177339903
 30
0.0
 11
-47.11206896551718
 21
34.85788177339903
 31
0.0
  0
LINE
  5
1CF
330
1B6
100
AcDbEntity
  8
PV-141
100
AcDbLine
 10
-49.21206896551719
 20
34.85788177339903
 30
0.0
 11
-47.11206896551721
 21
34.85788177339903
 31
0.0
  0
LINE
  5
1D0
330
1B6
100
AcDbEntity
  8
PV-141
100
AcDbLine
 10
-60.6120689655172
 20
34.85788177339903
 30
0.0
 11
-49.21206896551719
 21
34.85788177339903
 31
0.0
  0
LINE
  5
1D1
330
1B6
100
AcDbEntity
  8
PV-141
100
AcDbLine
 10
-44.11206896551719
 20
34.85788177339903
 30
0.0
 11
-39.6120689655172
 21
34.85788177339903
 31
0.0
  0
LINE
  5
1D2
330
1B6
100
AcDbEntity
  8
PV-141
100
AcDbLine
 10
-38.6120689655172
 20
27.35788177339903
 30
0.0
 11
-38.6120689655172
 21
29.85788177339902
 31
0.0
  0
LINE
  5
1D3
330
1B6
100
AcDbEntity
  8
PV-141
100
AcDbLine
 10
-34.6120689655172
 20
16.32913500082616
 30
0.0
 11
-34.6120689655172
 21
29.85788177339902
 31
0.0
  0
SPLINE
  5
1D4
330
1B6
100
AcDbEntity
  8
PV-141
100
AcDbSpline
210
0.0
220
0.0
230
1.0
 70
     8
 71
     3
 72
    14
 73
    10
 74
     0
 42
0.0000000001
 43
0.0000000001
 40
0.0
 40
0.0
 40
0.0
 40
0.0
 40
0.0003906076277808
 40
0.0003906076277808
 40
0.0007812152555616
 40
0.0007812152555616
 40
0.0011718228833424
 40
0.0011718228833424
 40
0.0015624305111232
 40
0.0015624305111232
 40
0.0015624305111232
 40
0.0015624305111232
 10
-33.11206896551722
 20
15.81775753028298
 30
0.0
 10
-33.11206896551722
 20
15.94983472974208
 30
0.0
 10
-33.13805812401108
 20
16.07943466153116
 30
0.0
 10
-33.23836855467495
 20
16.32156268357521
 30
0.0
 10
-33.31260159907628
 20
16.43246225653377
 30
0.0
 10
-33.49700511415859
 20
16.61694863961226
 30
0.0
 10
-33.60849150319314
 20
16.69146343314562
 30
0.0
 10
-33.84900238505537
 20
16.7912811506959
 30
0.0
 10
-33.98182103601996
 20
16.81775753028297
 30
0.0
 10
-34.11206896551721
 20
16.81775753028297
 30
0.0
  0
LINE
  5
1D5
330
1B6
100
AcDbEntity
  8
PV-141
100
AcDbLine
 10
-33.11206896551722
 20
15.81775753028298
 30
0.0
 11
-33.11206896551722
 21
14.02951474422629
 31
0.0
  0
LINE
  5
1D6
330
1B6
100
AcDbEntity
  8
PV-141
100
AcDbLine
 10
-34.11206896551721
 20
16.81775753028297
 30
0.0
 11
-34.6120689655172
 21
16.81775753028297
 31
0.0
  0
LINE
  5
1D7
330
1B6
100
AcDbEntity
  8
PV-141
100
AcDbLine
 10
-35.59347097735049
 20
16.81775753028297
 30
0.0
 11
-38.61206896551721
 21
16.81775753028297
 31
0.0
  0
SPLINE
  5
1D8
330
1B6
100
AcDbEntity
  8
PV-141
100
AcDbSpline
210
0.0
220
0.0
230
1.0
 70
    24
 71
     3
 72
     8
 73
     4
 74
     0
 42
0.0000000001
 43
0.0000000001
 40
0.0014897492227514
 40
0.0014897492227514
 40
0.0014897492227514
 40
0.0014897492227514
 40
0.0017303328857306
 40
0.0017303328857306
 40
0.0017303328857306
 40
0.0017303328857306
 10
-38.61206896551721
 20
16.05788177339901
 30
0.0
 10
-38.61206896551721
 20
15.98037816701713
 30
0.0
 10
-38.61206896551721
 20
15.89964147597024
 30
0.0
 10
-38.61206896551721
 20
15.81775753028298
 30
0.0
  0
LINE
  5
1D9
330
1B6
100
AcDbEntity
  8
PV-141
100
AcDbLine
 10
-38.61206896551721
 20
15.35788177339902
 30
0.0
 11
-38.61206896551721
 21
15.81775753028298
 31
0.0
  0
LINE
  5
1DA
330
1B6
100
AcDbEntity
  8
PV-141
100
AcDbLine
 10
-29.56254142496637
 20
13.84349188832206
 30
0.0
 11
-40.61206896551722
 21
14.42257308884905
 31
0.0
  0
LINE
  5
1DB
330
1B6
100
AcDbEntity
  8
PV-141
100
AcDbLine
 10
-40.61206896551722
 20
15.35788177339902
 30
0.0
 11
-38.61206896551721
 21
15.35788177339902
 31
0.0
  0
LINE
  5
1DC
330
1B6
100
AcDbEntity
  8
PV-141
100
AcDbLine
 10
-40.61206896551722
 20
14.42257308884905
 30
0.0
 11
-40.61206896551722
 21
15.35788177339902
 31
0.0
  0
LINE
  5
1DD
330
1B6
100
AcDbEntity
  8
PV-141
100
AcDbLine
 10
-40.61206896551722
 20
3.357881773399029
 30
0.0
 11
-40.61206896551722
 21
14.42257308884905
 31
0.0
  0
LINE
  5
1DE
330
1B6
100
AcDbEntity
  8
PV-141
100
AcDbLine
 10
-29.61206896551722
 20
3.357881773399029
 30
0.0
 11
-30.11141955792401
 21
3.357881773399029
 31
0.0
  0
LINE
  5
1DF
330
1B6
100
AcDbEntity
  8
PV-141
100
AcDbLine
 10
-30.11271837311042
 20
3.357881773399029
 30
0.0
 11
-30.61206896551722
 21
3.357881773399029
 31
0.0
  0
LINE
  5
1E0
330
1B6
100
AcDbEntity
  8
PV-141
100
AcDbLine
 10
-29.61206896551722
 20
1.357881773399028
 30
0.0
 11
-29.61206896551722
 21
2.857881773399029
 31
0.0
  0
LINE
  5
1E1
330
1B6
100
AcDbEntity
  8
PV-141
100
AcDbLine
 10
-29.61206896551722
 20
3.857881773399029
 30
0.0
 11
-29.61206896551722
 21
5.357881773399029
 31
0.0
  0
LINE
  5
1E2
330
1B6
100
AcDbEntity
  8
PV-141
100
AcDbLine
 10
-29.61206896551722
 20
5.357881773399029
 30
0.0
 11
-30.61206896551722
 21
5.357881773399029
 31
0.0
  0
LINE
  5
1E3
330
1B6
100
AcDbEntity
  8
PV-141
100
AcDbLine
 10
-30.61206896551722
 20
3.857881773399029
 30
0.0
 11
-30.61206896551722
 21
5.357881773399029
 31
0.0
  0
LINE
  5
1E4
330
1B6
100
AcDbEntity
  8
PV-141
100
AcDbLine
 10
-30.61206896551722
 20
1.357881773399028
 30
0.0
 11
-30.61206896551722
 21
2.857881773399029
 31
0.0
  0
LINE
  5
1E5
330
1B6
100
AcDbEntity
  8
PV-141
100
AcDbLine
 10
-29.61206896551722
 20
1.357881773399028
 30
0.0
 11
-30.61206896551722
 21
1.357881773399028
 31
0.0
  0
ARC
  5
1E6
330
1B6
100
AcDbEntity
  8
PV-141
100
AcDbCircle
 10
-30.11206896551722
 20
3.357881773399029
 30
0.0
 40
10.5
100
AcDbArc
 50
269.9999999999982
 51
90.0
  0
LINE
  5
1E7
330
1B6
100
AcDbEntity
  8
PV-141
100
AcDbLine
 10
-32.11206896551721
 20
3.857881773399029
 30
0.0
 11
-32.11206896551721
 21
2.857881773399029
 31
0.0
  0
LINE
  5
1E8
330
1B6
100
AcDbEntity
  8
PV-141
100
AcDbLine
 10
-28.11206896551722
 20
2.857881773399029
 30
0.0
 11
-28.11206896551722
 21
3.857881773399029
 31
0.0
  0
LINE
  5
1E9
330
1B6
100
AcDbEntity
  8
PV-141
100
AcDbLine
 10
-30.61206896551722
 20
2.857881773399029
 30
0.0
 11
-29.61206896551722
 21
2.857881773399029
 31
0.0
  0
LINE
  5
1EA
330
1B6
100
AcDbEntity
  8
PV-141
100
AcDbLine
 10
-30.61206896551722
 20
2.857881773399029
 30
0.0
 11
-32.11206896551721
 21
2.857881773399029
 31
0.0
  0
LINE
  5
1EB
330
1B6
100
AcDbEntity
  8
PV-141
100
AcDbLine
 10
-28.11206896551722
 20
2.857881773399029
 30
0.0
 11
-29.61206896551722
 21
2.857881773399029
 31
0.0
  0
LINE
  5
1EC
330
1B6
100
AcDbEntity
  8
PV-141
100
AcDbLine
 10
-30.61206896551722
 20
2.858531180992228
 30
0.0
 11
-30.11271837311042
 21
3.357881773399031
 31
0.0
  0
LINE
  5
1ED
330
1B6
100
AcDbEntity
  8
PV-141
100
AcDbLine
 10
-30.61206896551722
 20
3.857232365805832
 30
0.0
 11
-30.11271837311042
 21
3.35788177339903
 31
0.0
  0
LINE
  5
1EE
330
1B6
100
AcDbEntity
  8
PV-141
100
AcDbLine
 10
-30.61206896551722
 20
2.858531180992229
 30
0.0
 11
-30.61206896551722
 21
3.857232365805831
 31
0.0
  0
LINE
  5
1EF
330
1B6
100
AcDbEntity
  8
PV-141
100
AcDbLine
 10
-30.11206896551722
 20
2.857881773399029
 30
0.0
 11
-30.11206896551722
 21
3.857881773399029
 31
0.0
  0
LINE
  5
1F0
330
1B6
100
AcDbEntity
  8
PV-141
100
AcDbLine
 10
-29.61206896551722
 20
3.857232365805831
 30
0.0
 11
-29.61206896551722
 21
2.858531180992229
 31
0.0
  0
LINE
  5
1F1
330
1B6
100
AcDbEntity
  8
PV-141
100
AcDbLine
 10
-29.61206896551722
 20
3.857232365805832
 30
0.0
 11
-30.11141955792401
 21
3.35788177339903
 31
0.0
  0
LINE
  5
1F2
330
1B6
100
AcDbEntity
  8
PV-141
100
AcDbLine
 10
-29.61206896551722
 20
2.858531180992229
 30
0.0
 11
-30.11141955792401
 21
3.357881773399031
 31
0.0
  0
LINE
  5
1F3
330
1B6
100
AcDbEntity
  8
PV-141
100
AcDbLine
 10
-29.61206896551722
 20
3.857881773399029
 30
0.0
 11
-28.11206896551722
 21
3.857881773399027
 31
0.0
  0
LINE
  5
1F4
330
1B6
100
AcDbEntity
  8
PV-141
100
AcDbLine
 10
-32.11206896551721
 20
3.857881773399029
 30
0.0
 11
-30.61206896551722
 21
3.857881773399029
 31
0.0
  0
LINE
  5
1F5
330
1B6
100
AcDbEntity
  8
PV-141
100
AcDbLine
 10
-29.61206896551722
 20
3.857881773399029
 30
0.0
 11
-30.61206896551722
 21
3.857881773399029
 31
0.0
  0
ARC
  5
1F6
330
1B6
100
AcDbEntity
  8
PV-141
100
AcDbCircle
 10
-30.11206896551722
 20
3.357881773399029
 30
0.0
 40
10.5
100
AcDbArc
 50
90.0
 51
270.0
  0
LINE
  5
1F7
330
1B6
100
AcDbEntity
  8
PV-141
100
AcDbLine
 10
-44.1120689655172
 20
10.35788177339902
 30
0.0
 11
-41.11365260023868
 21
10.35788177339902
 31
0.0
  0
LINE
  5
1F8
330
1B6
100
AcDbEntity
  8
PV-141
100
AcDbLine
 10
-41.11206896551721
 20
14.35788177339903
 30
0.0
 11
-44.1120689655172
 21
14.35788177339903
 31
0.0
  0
LINE
  5
1F9
330
1B6
100
AcDbEntity
  8
PV-141
100
AcDbLine
 10
-41.11206896551721
 20
15.35281811314463
 30
0.0
 11
-41.11206896551721
 21
14.35788177339903
 31
0.0
  0
LINE
  5
1FA
330
1B6
100
AcDbEntity
  8
PV-141
100
AcDbLine
 10
-28.77789057520303
 20
13.77277342059434
 30
0.0
 11
-33.11206896551722
 21
14.32799447752018
 31
0.0
  0
LINE
  5
1FB
330
1B6
100
AcDbEntity
  8
PV-141
100
AcDbLine
 10
-40.61206896551721
 20
15.2887666359181
 30
0.0
 11
-41.11206896551721
 21
15.35281811314463
 31
0.0
  0
LINE
  5
1FC
330
1B6
100
AcDbEntity
  8
PV-141
100
AcDbLine
 10
-40.58775389329108
 20
2.643721221413997
 30
0.0
 11
-41.11365260023869
 21
10.35788177339902
 31
0.0
  0
LINE
  5
1FD
330
1B6
100
AcDbEntity
  8
PV-141
100
AcDbLine
 10
-44.1120689655172
 20
10.35788177339902
 30
0.0
 11
-44.1120689655172
 21
14.35788177339903
 31
0.0
  0
LINE
  5
1FE
330
1B6
100
AcDbEntity
  8
PV-141
100
AcDbLine
 10
-69.11206896551722
 20
14.35788177339903
 30
0.0
 11
-69.11206896551722
 21
10.35788177339902
 31
0.0
  0
LINE
  5
1FF
330
1B6
100
AcDbEntity
  8
PV-141
100
AcDbLine
 10
-44.1120689655172
 20
14.35788177339903
 30
0.0
 11
-47.11206896551721
 21
14.35788177339903
 31
0.0
  0
LINE
  5
200
330
1B6
100
AcDbEntity
  8
PV-141
100
AcDbLine
 10
-47.11206896551721
 20
14.35788177339903
 30
0.0
 11
-66.11206896551722
 21
14.35788177339903
 31
0.0
  0
LINE
  5
201
330
1B6
100
AcDbEntity
  8
PV-141
100
AcDbLine
 10
-66.11206896551722
 20
14.35788177339903
 30
0.0
 11
-69.11206896551722
 21
14.35788177339903
 31
0.0
  0
LINE
  5
202
330
1B6
100
AcDbEntity
  8
PV-141
100
AcDbLine
 10
-69.11206896551722
 20
10.35788177339902
 30
0.0
 11
-66.11206896551722
 21
10.35788177339902
 31
0.0
  0
LINE
  5
203
330
1B6
100
AcDbEntity
  8
PV-141
100
AcDbLine
 10
-66.11206896551722
 20
10.35788177339902
 30
0.0
 11
-47.11206896551721
 21
10.35788177339902
 31
0.0
  0
LINE
  5
204
330
1B6
100
AcDbEntity
  8
PV-141
100
AcDbLine
 10
-47.11206896551721
 20
10.35788177339902
 30
0.0
 11
-44.1120689655172
 21
10.35788177339902
 31
0.0
  0
ENDBLK
  5
206
330
1B6
100
AcDbEntity
  8
0
100
AcDbBlockEnd
  0
BLOCK
  5
209
330
207
100
AcDbEntity
  8
0
100
AcDbBlockBegin
  2
TOP
 70
     0
 10
0.0
 20
0.0
 30
0.0
  3
TOP
  1

  0
INSERT
  5
208
330
207
100
AcDbEntity
  8
PV-141
100
AcDbBlockReference
  2
*U6
 10
0.0
 20
0.0
 30
0.0
  0
ENDBLK
  5
20A
330
207
100
AcDbEntity
  8
0
100
AcDbBlockEnd
  0
ENDSEC
  0
SECTION
  2
ENTITIES
  0
LINE
  5
21C
330
1F
100
AcDbEntity
  8
PV-141
100
AcDbLine
 10
-53.45000001400001
 20
19.89999999999988
 30
0.000000000000001
 11
-53.45000001400001
 21
-19.9000000000001
 31
0.000000000000001
210
0.0
220
1.0
230
0.0
  0
LINE
  5
21D
330
1F
100
AcDbEntity
  8
PV-141
100
AcDbLine
 10
-53.45000001400001
 20
-48.44940189675956
 30
0.000000000000001
 11
-53.45000001400001
 21
-48.95399470512938
 31
0.000000000000001
210
0.0
220
1.0
230
0.0
  0
LINE
  5
21E
330
1F
100
AcDbEntity
  8
PV-141
100
AcDbLine
 10
-51.45000001400001
 20
-19.9000000000001
 30
0.0000000000000011
 11
-51.45000001400001
 21
19.89999999999988
 31
0.0000000000000011
210
0.0
220
1.0
230
0.0
  0
LINE
  5
21F
330
1F
100
AcDbEntity
  8
PV-141
100
AcDbLine
 10
-53.45000001400002
 20
48.95399470512916
 30
0.000000000000001
 11
-53.45000001400002
 21
48.44940189675934
 31
0.000000000000001
210
0.0
220
1.0
230
0.0
  0
LINE
  5
220
330
1F
100
AcDbEntity
  8
PV-141
100
AcDbLine
 10
-41.15000001400001
 20
49.99999999999989
 30
0.0000000000000017
 11
-38.65000001400001
 21
49.99999999999989
 31
0.0000000000000019
210
0.0
220
1.0
230
0.0
  0
LINE
  5
221
330
1F
100
AcDbEntity
  8
PV-141
100
AcDbLine
 10
-41.150000014
 20
-50.0000000000001
 30
0.0000000000000017
 11
-38.650000014
 21
-50.0000000000001
 31
0.0000000000000019
210
0.0
220
1.0
230
0.0
  0
LINE
  5
222
330
1F
100
AcDbEntity
  8
PV-141
100
AcDbLine
 10
-42.15000001400001
 20
49.34856819162654
 30
0.0000000000000017
 11
-52.45000001400002
 21
49.34856819162654
 31
0.000000000000001
210
0.0
220
1.0
230
0.0
  0
LINE
  5
223
330
1F
100
AcDbEntity
  8
PV-141
100
AcDbLine
 10
-52.45000001400001
 20
-49.34856819162675
 30
0.000000000000001
 11
-42.15000001400001
 21
-49.34856819162675
 31
0.0000000000000017
210
0.0
220
1.0
230
0.0
  0
LINE
  5
224
330
1F
100
AcDbEntity
  8
PV-141
100
AcDbLine
 10
-41.15000001400001
 20
49.9999999999999
 30
0.0000000000000017
 11
-41.15000001400001
 21
49.64431191612444
 31
0.0000000000000017
210
0.0
220
1.0
230
0.0
  0
LINE
  5
225
330
1F
100
AcDbEntity
  8
PV-141
100
AcDbLine
 10
-41.15000001400001
 20
-49.64431191612465
 30
0.0000000000000017
 11
-41.15000001400001
 21
-50.0000000000001
 31
0.0000000000000017
210
0.0
220
1.0
230
0.0
  0
LINE
  5
226
330
1F
100
AcDbEntity
  8
PV-141
100
AcDbLine
 10
-53.45000001400001
 20
19.89999999999988
 30
0.000000000000001
 11
-53.45000001400001
 21
20.0000000000001
 31
0.000000000000001
210
0.0
220
1.0
230
0.0
  0
LINE
  5
227
330
1F
100
AcDbEntity
  8
PV-141
100
AcDbLine
 10
-53.45000001400002
 20
45.62364309603349
 30
0.000000000000001
 11
-53.45000001400002
 21
48.44940189675934
 31
0.000000000000001
210
0.0
220
1.0
230
0.0
  0
LINE
  5
228
330
1F
100
AcDbEntity
  8
PV-141
100
AcDbLine
 10
-53.45000001400002
 20
48.44940189675934
 30
0.000000000000001
 11
-42.15000001400001
 21
48.44940189675934
 31
0.0000000000000017
210
0.0
220
1.0
230
0.0
  0
LINE
  5
229
330
1F
100
AcDbEntity
  8
PV-141
100
AcDbLine
 10
-42.15000001400001
 20
-48.44940189675956
 30
0.0000000000000017
 11
-53.450000014
 21
-48.44940189675956
 31
0.000000000000001
210
0.0
220
1.0
230
0.0
  0
LINE
  5
22A
330
1F
100
AcDbEntity
  8
PV-141
100
AcDbLine
 10
-53.45000001400001
 20
-19.9000000000001
 30
0.000000000000001
 11
-53.45000001400001
 21
-20.00000000000011
 31
0.000000000000001
210
0.0
220
1.0
230
0.0
  0
LINE
  5
22B
330
1F
100
AcDbEntity
  8
PV-141
100
AcDbLine
 10
-53.45000001400001
 20
-45.62364309603351
 30
0.000000000000001
 11
-53.45000001400001
 21
-48.44940189675956
 31
0.000000000000001
210
0.0
220
1.0
230
0.0
  0
LINE
  5
22C
330
1F
100
AcDbEntity
  8
PV-141
100
AcDbLine
 10
-51.45000001400001
 20
19.89999999999988
 30
0.0000000000000011
 11
-53.45000001400001
 21
19.89999999999988
 31
0.000000000000001
210
0.0
220
1.0
230
0.0
  0
LINE
  5
22D
330
1F
100
AcDbEntity
  8
PV-141
100
AcDbLine
 10
-51.45000001400001
 20
-19.9000000000001
 30
0.0000000000000011
 11
-53.45000001400001
 21
-19.9000000000001
 31
0.000000000000001
210
0.0
220
1.0
230
0.0
  0
SPLINE
  5
22E
330
1F
100
AcDbEntity
  8
PV-141
100
AcDbSpline
210
-0.0000000000000003
220
-0.0000000000000013
230
-1.0
 70
     8
 71
     3
 72
    14
 73
    10
 74
     0
 42
0.0000000001
 43
0.0000000001
 40
0.0
 40
0.0
 40
0.0
 40
0.0
 40
0.0003986139723433
 40
0.0003986139723433
 40
0.0007972279446866
 40
0.0007972279446866
 40
0.0011958419170298
 40
0.0011958419170298
 40
0.0015944558893731
 40
0.0015944558893731
 40
0.0015944558893731
 40
0.0015944558893731
 10
-42.15000001400001
 20
-49.34856819162675
 30
0.0000000000000017
 10
-42.01515995882021
 20
-49.34856819162674
 30
0.0000000000000017
 10
-41.88279141008147
 20
-49.35804826759067
 30
0.0000000000000017
 10
-41.63895017745924
 20
-49.39264922586333
 30
0.0000000000000017
 10
-41.52813316600472
 20
-49.41775893681266
 30
0.0000000000000017
 10
-41.34610605357517
 20
-49.47597311715023
 30
0.0000000000000017
 10
-41.2733493309453
 20
-49.50950578237762
 30
0.0000000000000017
 10
-41.17584519185884
 20
-49.57713592858179
 30
0.0000000000000017
 10
-41.150000014
 20
-49.61176027648392
 30
0.0000000000000017
 10
-41.150000014
 20
-49.64431191612465
 30
0.0000000000000017
  0
SPLINE
  5
22F
330
1F
100
AcDbEntity
  8
PV-141
100
AcDbSpline
210
-0.0000000000000003
220
0.0000000000000013
230
-1.0
 70
     8
 71
     3
 72
    14
 73
    10
 74
     0
 42
0.0000000001
 43
0.0000000001
 40
0.0
 40
0.0
 40
0.0
 40
0.0
 40
0.0003986241037927
 40
0.0003986241037927
 40
0.0007972482075854
 40
0.0007972482075854
 40
0.0011958723113781
 40
0.0011958723113781
 40
0.0015944964151707
 40
0.0015944964151707
 40
0.0015944964151707
 40
0.0015944964151707
 10
-41.15000001400001
 20
49.64431191612444
 30
0.0000000000000017
 10
-41.15000001400001
 20
49.61173604621558
 30
0.0000000000000017
 10
-41.17527478557012
 20
49.57760077067558
 30
0.0000000000000017
 10
-41.27331749247647
 20
49.50945908849845
 30
0.0000000000000017
 10
-41.34550398229111
 20
49.47619527814355
 30
0.0000000000000017
 10
-41.52793896322098
 20
49.41779156155463
 30
0.0000000000000017
 10
-41.63875661604788
 20
49.3927123296844
 30
0.0000000000000017
 10
-41.88156562315841
 20
49.35818677632983
 30
0.0000000000000017
 10
-42.0150509343561
 20
49.34856819162654
 30
0.0000000000000017
 10
-42.15000001400001
 20
49.34856819162654
 30
0.0000000000000017
  0
SPLINE
  5
230
330
1F
100
AcDbEntity
  8
PV-141
100
AcDbSpline
210
-0.0000000000000005
220
-0.0000000000000017
230
-1.0
 70
     8
 71
     3
 72
    18
 73
    14
 74
     0
 42
0.0000000001
 43
0.0000000001
 40
0.0010568272077198
 40
0.0010568272077198
 40
0.0010568272077198
 40
0.0010568272077198
 40
0.0020062821952646
 40
0.0020062821952646
 40
0.002481009689037
 40
0.002481009689037
 40
0.0029557371828094
 40
0.0029557371828094
 40
0.0034304646765818
 40
0.0034304646765818
 40
0.0039051921703542
 40
0.0039051921703542
 40
0.0048546471578989
 40
0.0048546471578989
 40
0.0048546471578989
 40
0.0048546471578989
 10
-39.32157288925381
 20
-49.34856819162675
 30
0.0000000000000018
 10
-39.42324780355028
 20
-49.24973965973435
 30
0.0000000000000018
 10
-39.56520181584987
 20
-49.14653461796085
 30
0.0000000000000018
 10
-39.83603401120106
 20
-48.99228086538328
 30
0.0000000000000018
 10
-39.93639593170724
 20
-48.9409474319934
 30
0.0000000000000018
 10
-40.15119211617445
 20
-48.84302857100475
 30
0.0000000000000018
 10
-40.26631999358452
 20
-48.79601154506571
 30
0.0000000000000018
 10
-40.51281890453085
 20
-48.70746808745374
 30
0.0000000000000018
 10
-40.6455995650959
 20
-48.66558246399278
 30
0.0000000000000018
 10
-40.92158550063812
 20
-48.59157559843438
 30
0.0000000000000018
 10
-41.06441579819215
 20
-48.55942264066026
 30
0.0000000000000017
 10
-41.50794176852624
 20
-48.47975094397808
 30
0.0000000000000017
 10
-41.82811400333173
 20
-48.44940189675954
 30
0.0000000000000017
 10
-42.15000001400001
 20
-48.44940189675956
 30
0.0000000000000017
  0
SPLINE
  5
231
330
1F
100
AcDbEntity
  8
PV-141
100
AcDbSpline
210
-0.0000000000000006
220
0.000000000000002
230
-1.0
 70
     8
 71
     3
 72
    14
 73
    10
 74
     0
 42
0.0000000001
 43
0.0000000001
 40
0.0
 40
0.0
 40
0.0
 40
0.0
 40
0.0009499640180249
 40
0.0009499640180249
 40
0.0018999280360499
 40
0.0018999280360499
 40
0.0028498920540748
 40
0.0028498920540748
 40
0.0037998560720997
 40
0.0037998560720997
 40
0.0037998560720997
 40
0.0037998560720997
 10
-42.15000001400001
 20
48.44940189675934
 30
0.0000000000000017
 10
-41.82836922375344
 20
48.44940189675932
 30
0.0000000000000017
 10
-41.51621756124013
 20
48.47846103145204
 30
0.0000000000000017
 10
-40.91483944516403
 20
48.58609685981145
 30
0.0000000000000018
 10
-40.6395578236007
 20
48.66199782001757
 30
0.0000000000000018
 10
-40.1413386523441
 20
48.84085067638229
 30
0.0000000000000018
 10
-39.92681061167978
 20
48.94054271468458
 30
0.0000000000000018
 10
-39.56386039034358
 20
49.14733462689852
 30
0.0000000000000018
 10
-39.4227931223546
 20
49.25018161216012
 30
0.0000000000000018
 10
-39.32157288925382
 20
49.34856819162654
 30
0.0000000000000018
  0
SPLINE
  5
232
330
1F
100
AcDbEntity
  8
PV-141
100
AcDbSpline
210
-0.0000000000000002
220
-0.0000000000000007
230
-1.0
 70
     8
 71
     3
 72
    14
 73
    10
 74
     0
 42
0.0000000001
 43
0.0000000001
 40
0.0
 40
0.0
 40
0.0
 40
0.0
 40
0.0004059635003688
 40
0.0004059635003688
 40
0.0008119270007376
 40
0.0008119270007376
 40
0.0012178905011064
 40
0.0012178905011064
 40
0.0016238540014751
 40
0.0016238540014751
 40
0.0016238540014751
 40
0.0016238540014751
 10
-53.450000014
 20
-48.95399470512938
 30
0.000000000000001
 10
-53.450000014
 20
-49.01001033586251
 30
0.000000000000001
 10
-53.42699770724525
 20
-49.06262613047317
 30
0.000000000000001
 10
-53.33293760431688
 20
-49.15968026210894
 30
0.000000000000001
 10
-53.26338093738687
 20
-49.20222907038073
 30
0.000000000000001
 10
-53.08111354396428
 20
-49.27350574263687
 30
0.000000000000001
 10
-52.97016304560999
 20
-49.30127413684787
 30
0.000000000000001
 10
-52.72306917297443
 20
-49.33882772906946
 30
0.000000000000001
 10
-52.58751634446813
 20
-49.34856819162675
 30
0.000000000000001
 10
-52.45000001400001
 20
-49.34856819162675
 30
0.000000000000001
  0
SPLINE
  5
233
330
1F
100
AcDbEntity
  8
PV-141
100
AcDbSpline
210
-0.0000000000000002
220
0.0000000000000007
230
-1.0
 70
     8
 71
     3
 72
    14
 73
    10
 74
     0
 42
0.0000000001
 43
0.0000000001
 40
0.0
 40
0.0
 40
0.0
 40
0.0
 40
0.0004059857219147
 40
0.0004059857219147
 40
0.0008119714438295
 40
0.0008119714438295
 40
0.0012179571657442
 40
0.0012179571657442
 40
0.001623942887659
 40
0.001623942887659
 40
0.001623942887659
 40
0.001623942887659
 10
-52.45000001400002
 20
49.34856819162654
 30
0.000000000000001
 10
-52.58731523498635
 20
49.34856819162654
 30
0.000000000000001
 10
-52.72226316840101
 20
49.33890193637068
 30
0.000000000000001
 10
-52.96932133032939
 20
49.30145003071103
 30
0.000000000000001
 10
-53.08105807378701
 20
49.27345376532361
 30
0.000000000000001
 10
-53.2621292625382
 20
49.20279168380154
 30
0.000000000000001
 10
-53.33292587968539
 20
49.15957698187899
 30
0.000000000000001
 10
-53.42645383106749
 20
49.06330201282133
 30
0.000000000000001
 10
-53.45000001400002
 20
49.00995803148809
 30
0.000000000000001
 10
-53.45000001400002
 20
48.95399470512916
 30
0.000000000000001
  0
LINE
  5
234
330
1F
100
AcDbEntity
  8
PV-141
100
AcDbLine
 10
-50.95000001400001
 20
-19.9000000000001
 30
0.0000000000000011
 11
-51.45000001400001
 21
-19.9000000000001
 31
0.0000000000000011
210
0.0
220
1.0
230
0.0
  0
LINE
  5
235
330
1F
100
AcDbEntity
  8
PV-141
100
AcDbLine
 10
-51.45000001400001
 20
19.89999999999988
 30
0.0000000000000011
 11
-50.95000001400001
 21
19.89999999999988
 31
0.0000000000000011
210
0.0
220
1.0
230
0.0
  0
LINE
  5
236
330
1F
100
AcDbEntity
  8
PV-141
100
AcDbLine
 10
-38.650000014
 20
-49.34856819162675
 30
0.0000000000000019
 11
-39.32157288925381
 21
-49.34856819162675
 31
0.0000000000000018
210
0.0
220
1.0
230
0.0
  0
LINE
  5
237
330
1F
100
AcDbEntity
  8
PV-141
100
AcDbLine
 10
-39.32157288925382
 20
49.34856819162654
 30
0.0000000000000018
 11
-39.32157288925382
 21
43.49999999999989
 31
0.0000000000000018
210
0.0
220
1.0
230
0.0
  0
LINE
  5
238
330
1F
100
AcDbEntity
  8
PV-141
100
AcDbLine
 10
-39.32157288925381
 20
-43.5000000000001
 30
0.0000000000000018
 11
-39.32157288925381
 21
-49.34856819162675
 31
0.0000000000000018
210
0.0
220
1.0
230
0.0
  0
LINE
  5
239
330
1F
100
AcDbEntity
  8
PV-141
100
AcDbLine
 10
-38.65000001400001
 20
49.34856819162654
 30
0.0000000000000019
 11
-39.32157288925382
 21
49.34856819162654
 31
0.0000000000000018
210
0.0
220
1.0
230
0.0
  0
LINE
  5
23A
330
1F
100
AcDbEntity
  8
PV-141
100
AcDbLine
 10
-38.65000001400001
 20
-49.34856819162675
 30
0.0000000000000019
 11
-38.65000001400001
 21
-50.0000000000001
 31
0.0000000000000019
210
0.0
220
1.0
230
0.0
  0
LINE
  5
23B
330
1F
100
AcDbEntity
  8
PV-141
100
AcDbLine
 10
-38.650000014
 20
-49.34856819162675
 30
0.0000000000000019
 11
-38.650000014
 21
-43.5000000000001
 31
0.0000000000000019
210
0.0
220
1.0
230
0.0
  0
LINE
  5
23C
330
1F
100
AcDbEntity
  8
PV-141
100
AcDbLine
 10
-38.65000001400001
 20
43.49999999999989
 30
0.0000000000000019
 11
-38.65000001400001
 21
49.34856819162654
 31
0.0000000000000019
210
0.0
220
1.0
230
0.0
  0
LINE
  5
23D
330
1F
100
AcDbEntity
  8
PV-141
100
AcDbLine
 10
-38.65000001400001
 20
49.9999999999999
 30
0.0000000000000019
 11
-38.65000001400001
 21
49.34856819162654
 31
0.0000000000000019
210
0.0
220
1.0
230
0.0
  0
LINE
  5
23E
330
1F
100
AcDbEntity
  8
PV-141
100
AcDbLine
 10
-53.69012425711606
 20
-20.0000000000001
 30
0.000000000000001
 11
-52.69012425711607
 21
-20.0000000000001
 31
0.000000000000001
210
0.0
220
1.0
230
0.0
  0
SPLINE
  5
23F
330
1F
100
AcDbEntity
  8
PV-141
100
AcDbSpline
210
-0.0000000000000003
220
0.0000000000000465
230
-1.0
 70
     8
 71
     3
 72
    14
 73
    10
 74
     0
 42
0.0000000001
 43
0.0000000001
 40
0.0
 40
0.0
 40
0.0
 40
0.0
 40
0.0003906076277808
 40
0.0003906076277808
 40
0.0007812152555616
 40
0.0007812152555616
 40
0.0011718228833424
 40
0.0011718228833424
 40
0.0015624305111232
 40
0.0015624305111232
 40
0.0015624305111232
 40
0.0015624305111232
 10
-53.69012425711606
 20
-38.13990671960548
 30
0.000000000000001
 10
-53.55804705765696
 20
-38.13990671960546
 30
0.000000000000001
 10
-53.42844712586789
 20
-38.13973920671495
 30
0.000000000000001
 10
-53.18631910382383
 20
-38.13908962790618
 30
0.000000000000001
 10
-53.07541953086526
 20
-38.13860798801165
 30
0.000000000000001
 10
-52.89093314778678
 20
-38.13740285291081
 30
0.000000000000001
 10
-52.81641835425342
 20
-38.1366705069752
 30
0.000000000000001
 10
-52.71660063670314
 20
-38.13507648332643
 30
0.000000000000001
 10
-52.69012425711607
 20
-38.13418827892462
 30
0.000000000000001
 10
-52.69012425711607
 20
-38.13331121198084
 30
0.000000000000001
  0
LINE
  5
240
330
1F
100
AcDbEntity
  8
PV-141
100
AcDbLine
 10
-55.7351083668047
 20
-20.0000000000001
 30
0.0000000000000008
 11
-76.65000001400001
 21
-20.0000000000001
 31
-0.0000000000000004
210
0.0
220
1.0
230
0.0
  0
SPLINE
  5
241
330
1F
100
AcDbEntity
  8
PV-141
100
AcDbSpline
210
-0.0000000000000002
220
0.0
230
-1.0
 70
    12
 71
     3
 72
     8
 73
     4
 74
     0
 42
0.0000000001
 43
0.0000000001
 40
1.955103209609784
 40
1.955103209609784
 40
1.955103209609784
 40
1.955103209609784
 40
3.128682619448366
 40
3.128682619448366
 40
3.128682619448366
 40
3.128682619448366
 10
-55.08530869854999
 20
-49.10969281153806
 30
0.0000000000000009
 41
1.0
 10
-55.32752957776329
 20
-47.24054598389913
 30
0.0000000000000009
 41
0.8884816515039114
 10
-55.47499401665837
 20
-43.12499069045196
 30
0.0000000000000009
 41
0.8884816515039114
 10
-55.47836704317275
 20
-38.13990671960523
 30
0.0000000000000009
 41
1.0
  0
LINE
  5
242
330
1F
100
AcDbEntity
  8
PV-141
100
AcDbLine
 10
-53.69012425711606
 20
-38.13990671960548
 30
0.000000000000001
 11
-55.47836704317275
 21
-38.13990671960548
 31
0.0000000000000009
210
0.0
220
1.0
230
0.0
  0
LINE
  5
243
330
1F
100
AcDbEntity
  8
PV-141
100
AcDbLine
 10
-55.47836704317259
 20
-38.13990671960523
 30
0.0000000000000009
 11
-55.47836704317259
 21
-20.0000000000001
 31
0.0000000000000009
210
0.0
220
1.0
230
0.0
  0
LINE
  5
244
330
1F
100
AcDbEntity
  8
PV-141
100
AcDbLine
 10
-53.69012425711606
 20
-20.0000000000001
 30
0.000000000000001
 11
-55.17988730987887
 21
-20.0000000000001
 31
0.0000000000000009
210
0.0
220
1.0
230
0.0
  0
LINE
  5
245
330
1F
100
AcDbEntity
  8
PV-141
100
AcDbLine
 10
-52.69012425711607
 20
-38.13331121198084
 30
0.000000000000001
 11
-52.69012425711607
 21
-41.26691063058371
 31
0.000000000000001
210
0.0
220
1.0
230
0.0
  0
LINE
  5
246
330
1F
100
AcDbEntity
  8
PV-141
100
AcDbLine
 10
-52.69012425711607
 20
-43.5000000000001
 30
0.000000000000001
 11
-52.69012425711607
 21
-46.85984266838167
 31
0.000000000000001
210
0.0
220
1.0
230
0.0
  0
LINE
  5
247
330
1F
100
AcDbEntity
  8
PV-141
100
AcDbLine
 10
-52.69012425711607
 20
-20.0000000000001
 30
0.000000000000001
 11
-52.69012425711607
 21
-38.13331121198084
 31
0.000000000000001
210
0.0
220
1.0
230
0.0
  0
LINE
  5
248
330
1F
100
AcDbEntity
  8
PV-141
100
AcDbLine
 10
-54.15000001400002
 20
-48.07275543012295
 30
0.0000000000000009
 11
-53.69012425711606
 21
-48.07275543012295
 31
0.000000000000001
210
0.0
220
1.0
230
0.0
  0
SPLINE
  5
249
330
1F
100
AcDbEntity
  8
PV-141
100
AcDbSpline
210
-0.0000000000000003
220
0.0000000000000003
230
-1.0
 70
     8
 71
     3
 72
    14
 73
    10
 74
     0
 42
0.0000000001
 43
0.0000000001
 40
0.0
 40
0.0
 40
0.0
 40
0.0
 40
0.0004325832214326
 40
0.0004325832214326
 40
0.0008651664428653
 40
0.0008651664428653
 40
0.0012977496642979
 40
0.0012977496642979
 40
0.0017303328857306
 40
0.0017303328857306
 40
0.0017303328857306
 40
0.0017303328857306
 10
-52.69012425711607
 20
-46.85984266838167
 30
0.000000000000001
 10
-52.69012425711607
 20
-47.00618750220225
 30
0.000000000000001
 10
-52.71039499343746
 20
-47.14901846491652
 30
0.000000000000001
 10
-52.79507156494742
 20
-47.42702970384679
 30
0.000000000000001
 10
-52.85919277942563
 20
-47.5592632042546
 30
0.000000000000001
 10
-53.03380633719566
 20
-47.7930977742661
 30
0.000000000000001
 10
-53.1439920026004
 20
-47.89322392867264
 30
0.000000000000001
 10
-53.3993692837075
 20
-48.03363531379012
 30
0.000000000000001
 10
-53.54289222743297
 20
-48.07275543012369
 30
0.000000000000001
 10
-53.69012425711606
 20
-48.07275543012295
 30
0.000000000000001
  0
LINE
  5
24A
330
1F
100
AcDbEntity
  8
PV-141
100
AcDbLine
 10
-55.66438989907698
 20
-50.0000000000001
 30
0.0000000000000008
 11
-76.65000001400001
 21
-50.0000000000001
 31
-0.0000000000000004
210
0.0
220
1.0
230
0.0
  0
LINE
  5
24B
330
1F
100
AcDbEntity
  8
PV-141
100
AcDbLine
 10
-55.66438989907698
 20
-50.0000000000001
 30
0.0000000000000008
 11
-55.08530869854999
 21
-50.0000000000001
 31
0.0000000000000009
210
0.0
220
1.0
230
0.0
  0
LINE
  5
24C
330
1F
100
AcDbEntity
  8
PV-141
100
AcDbLine
 10
-54.15000001400002
 20
-49.10969281153806
 30
0.0000000000000009
 11
-54.15000001400002
 21
-48.07275543012295
 31
0.0000000000000009
210
0.0
220
1.0
230
0.0
  0
LINE
  5
24D
330
1F
100
AcDbEntity
  8
PV-141
100
AcDbLine
 10
-55.08530869854999
 20
-50.0000000000001
 30
0.0000000000000009
 11
-55.08530869854999
 21
-49.10969281153806
 31
0.0000000000000009
210
0.0
220
1.0
230
0.0
  0
LINE
  5
24E
330
1F
100
AcDbEntity
  8
PV-141
100
AcDbLine
 10
-55.08530869854999
 20
-49.10969281153806
 30
0.0000000000000009
 11
-54.15000001400002
 21
-49.10969281153806
 31
0.0000000000000009
210
0.0
220
1.0
230
0.0
  0
LINE
  5
24F
330
1F
100
AcDbEntity
  8
PV-141
100
AcDbLine
 10
-39.65000001400003
 20
43.49999999999989
 30
0.0000000000000018
 11
-34.65000001400001
 21
43.49999999999989
 31
0.0000000000000021
210
0.0
220
1.0
230
0.0
  0
LINE
  5
250
330
1F
100
AcDbEntity
  8
PV-141
100
AcDbLine
 10
-34.65000001400001
 20
-43.5000000000001
 30
0.0000000000000021
 11
-39.65000001400003
 21
-43.5000000000001
 31
0.0000000000000018
210
0.0
220
1.0
230
0.0
  0
LINE
  5
251
330
1F
100
AcDbEntity
  8
PV-141
100
AcDbLine
 10
-34.65000001400001
 20
43.49999999999989
 30
0.0000000000000021
 11
-34.65000001400001
 21
46.4999999999999
 31
0.0000000000000021
210
0.0
220
1.0
230
0.0
  0
LINE
  5
252
330
1F
100
AcDbEntity
  8
PV-141
100
AcDbLine
 10
-34.65000001400001
 20
46.4999999999999
 30
0.0000000000000021
 11
-34.65000001400001
 21
47.98749217771899
 31
0.0000000000000021
210
0.0
220
1.0
230
0.0
  0
LINE
  5
253
330
1F
100
AcDbEntity
  8
PV-141
100
AcDbLine
 10
-34.65000001400001
 20
49.987492177719
 30
0.0000000000000021
 11
-34.65000001400001
 21
47.98749217771898
 31
0.0000000000000021
210
0.0
220
1.0
230
0.0
  0
LINE
  5
254
330
1F
100
AcDbEntity
  8
PV-141
100
AcDbLine
 10
-34.65000001400001
 20
-47.98749217771919
 30
0.0000000000000021
 11
-34.65000001400001
 21
-49.98749217771919
 31
0.0000000000000021
210
0.0
220
1.0
230
0.0
  0
LINE
  5
255
330
1F
100
AcDbEntity
  8
PV-141
100
AcDbLine
 10
-34.65000001400001
 20
-46.5000000000001
 30
0.0000000000000021
 11
-34.65000001400001
 21
-47.9874921777192
 31
0.0000000000000021
210
0.0
220
1.0
230
0.0
  0
LINE
  5
256
330
1F
100
AcDbEntity
  8
PV-141
100
AcDbLine
 10
-34.65000001400001
 20
-46.50000000000009
 30
0.0000000000000021
 11
-34.65000001400001
 21
-43.5000000000001
 31
0.0000000000000021
210
0.0
220
1.0
230
0.0
  0
LINE
  5
257
330
1F
100
AcDbEntity
  8
PV-141
100
AcDbLine
 10
-34.65000001400001
 20
43.49999999999989
 30
0.0000000000000021
 11
-34.65000001400001
 21
-43.5000000000001
 31
0.0000000000000021
210
0.0
220
1.0
230
0.0
  0
ARC
  5
258
330
1F
100
AcDbEntity
  8
PV-141
100
AcDbCircle
 10
-44.05000001400002
 20
-29.99780281173511
 30
0.0000000000000016
 40
2.0
100
AcDbArc
 50
90.0
 51
90.12588971567197
  0
LINE
  5
259
330
1F
100
AcDbEntity
  8
PV-141
100
AcDbLine
 10
-44.05439439053001
 20
-27.99780763937722
 30
0.0000000000000016
 11
-45.05439197670896
 21
-28.00000482764221
 31
0.0000000000000015
210
0.0
220
1.0
230
0.0
  0
ARC
  5
25A
330
1F
100
AcDbEntity
  8
PV-141
100
AcDbCircle
 10
-45.04999760017897
 20
-30.0000000000001
 30
0.0000000000000015
 40
2.0
100
AcDbArc
 50
90.12588971567197
 51
270.1258897156719
  0
LINE
  5
25B
330
1F
100
AcDbEntity
  8
PV-141
100
AcDbLine
 10
-44.04560563747003
 20
-31.997797984093
 30
0.0000000000000016
 11
-45.04560322364898
 21
-31.999995172358
 31
0.0000000000000015
210
0.0
220
1.0
230
0.0
  0
ARC
  5
25C
330
1F
100
AcDbEntity
  8
PV-141
100
AcDbCircle
 10
-45.04999760017897
 20
29.9999999999999
 30
0.0000000000000015
 40
2.0
100
AcDbArc
 50
90.0
 51
269.874110284328
  0
LINE
  5
25D
330
1F
100
AcDbEntity
  8
PV-141
100
AcDbLine
 10
-44.05439439053001
 20
27.997807639377
 30
0.0000000000000016
 11
-45.05439197670896
 21
28.000004827642
 31
0.0000000000000015
210
0.0
220
1.0
230
0.0
  0
ARC
  5
25E
330
1F
100
AcDbEntity
  8
PV-141
100
AcDbCircle
 10
-44.05000001400002
 20
29.99780281173491
 30
0.0000000000000016
 40
2.0
100
AcDbArc
 50
269.8741102843272
 51
89.87411028432802
  0
LINE
  5
25F
330
1F
100
AcDbEntity
  8
PV-141
100
AcDbLine
 10
-44.04560563747003
 20
31.99779798409281
 30
0.0000000000000016
 11
-45.04560322364898
 21
31.99999517235781
 31
0.0000000000000015
210
0.0
220
1.0
230
0.0
  0
LINE
  5
260
330
1F
100
AcDbEntity
  8
PV-141
100
AcDbLine
 10
-50.65000001400001
 20
-20.0000000000001
 30
0.0000000000000012
 11
-52.69012425711607
 21
-20.0000000000001
 31
0.000000000000001
210
0.0
220
1.0
230
0.0
  0
ARC
  5
261
330
1F
100
AcDbEntity
  8
PV-141
100
AcDbCircle
 10
-50.65000001400001
 20
-17.00000000000009
 30
0.0000000000000012
 40
2.999999999999999
100
AcDbArc
 50
270.0
 51
0.0000000000003997
  0
LINE
  5
262
330
1F
100
AcDbEntity
  8
PV-141
100
AcDbLine
 10
-47.65000001400003
 20
-17.00000000000009
 30
0.0000000000000013
 11
-47.65000001400003
 21
16.9999999999999
 31
0.0000000000000013
210
0.0
220
1.0
230
0.0
  0
ARC
  5
263
330
1F
100
AcDbEntity
  8
PV-141
100
AcDbCircle
 10
-50.65000001400001
 20
16.9999999999999
 30
0.0000000000000012
 40
3.0
100
AcDbArc
 50
359.9999999999987
 51
90.0
  0
LINE
  5
264
330
1F
100
AcDbEntity
  8
PV-141
100
AcDbLine
 10
-52.69012425711607
 20
19.9999999999999
 30
0.000000000000001
 11
-50.65000001400001
 21
19.9999999999999
 31
0.0000000000000012
210
0.0
220
1.0
230
0.0
  0
LINE
  5
265
330
1F
100
AcDbEntity
  8
PV-141
100
AcDbLine
 10
-53.17874678657289
 20
43.49999999999989
 30
0.000000000000001
 11
-39.65000001400003
 21
43.49999999999989
 31
0.0000000000000018
210
0.0
220
1.0
230
0.0
  0
LINE
  5
266
330
1F
100
AcDbEntity
  8
PV-141
100
AcDbLine
 10
-53.178746786573
 20
-43.5000000000001
 30
0.000000000000001
 11
-39.65000001400003
 21
-43.5000000000001
 31
0.0000000000000018
210
0.0
220
1.0
230
0.0
  0
ARC
  5
267
330
1F
100
AcDbEntity
  8
PV-141
100
AcDbCircle
 10
-45.04999760017897
 20
29.9999999999999
 30
0.0000000000000015
 40
2.0
100
AcDbArc
 50
89.87411028432802
 51
90.0
  0
ARC
  5
268
330
1F
100
AcDbEntity
  8
PV-141
100
AcDbCircle
 10
-44.05000001400002
 20
-29.99780281173511
 30
0.0000000000000016
 40
2.0
100
AcDbArc
 50
270.1258897156719
 51
90.00000000000081
  0
LINE
  5
269
330
1F
100
AcDbEntity
  8
PV-141
100
AcDbLine
 10
-57.15000001400001
 20
-52.5000000000001
 30
0.0000000000000008
 11
-75.15000001400001
 21
-52.5000000000001
 31
-0.0000000000000003
210
0.0
220
1.0
230
0.0
  0
LINE
  5
26A
330
1F
100
AcDbEntity
  8
PV-141
100
AcDbLine
 10
-76.65000001400001
 20
-50.0000000000001
 30
-0.0000000000000004
 11
-55.66438989907698
 21
-50.0000000000001
 31
0.0000000000000008
210
0.0
220
1.0
230
0.0
  0
LINE
  5
26B
330
1F
100
AcDbEntity
  8
PV-141
100
AcDbLine
 10
-55.65000001400001
 20
-51.0000000000001
 30
0.0000000000000008
 11
-55.65000001400001
 21
-50.0000000000001
 31
0.0000000000000008
210
0.0
220
1.0
230
0.0
  0
LINE
  5
26C
330
1F
100
AcDbEntity
  8
PV-141
100
AcDbLine
 10
-76.65000001400001
 20
-51.0000000000001
 30
-0.0000000000000004
 11
-76.65000001400001
 21
-50.0000000000001
 31
-0.0000000000000004
210
0.0
220
1.0
230
0.0
  0
ARC
  5
26D
330
1F
100
AcDbEntity
  8
PV-141
100
AcDbCircle
 10
-57.15000001400001
 20
-51.0000000000001
 30
0.0000000000000008
 40
1.5
100
AcDbArc
 50
270.0
 51
0.0000000000002799
  0
ARC
  5
26E
330
1F
100
AcDbEntity
  8
PV-141
100
AcDbCircle
 10
-75.15000001400001
 20
-51.0000000000001
 30
-0.0000000000000003
 40
1.499999999999998
100
AcDbArc
 50
180.0
 51
270.0
  0
LINE
  5
26F
330
1F
100
AcDbEntity
  8
PV-141
100
AcDbLine
 10
-53.69012425711606
 20
20.0000000000001
 30
0.000000000000001
 11
-52.69012425711607
 21
20.0000000000001
 31
0.000000000000001
210
0.0
220
1.0
230
0.0
  0
SPLINE
  5
270
330
1F
100
AcDbEntity
  8
PV-141
100
AcDbSpline
210
-0.0000000000000003
220
-0.0000000000000465
230
-1.0
 70
     8
 71
     3
 72
    14
 73
    10
 74
     0
 42
0.0000000001
 43
0.0000000001
 40
0.0
 40
0.0
 40
0.0
 40
0.0
 40
0.0003906076277808
 40
0.0003906076277808
 40
0.0007812152555616
 40
0.0007812152555616
 40
0.0011718228833424
 40
0.0011718228833424
 40
0.0015624305111232
 40
0.0015624305111232
 40
0.0015624305111232
 40
0.0015624305111232
 10
-53.69012425711606
 20
38.13990671960548
 30
0.000000000000001
 10
-53.55804705765696
 20
38.13990671960546
 30
0.000000000000001
 10
-53.42844712586789
 20
38.13973920671495
 30
0.000000000000001
 10
-53.18631910382383
 20
38.13908962790618
 30
0.000000000000001
 10
-53.07541953086526
 20
38.13860798801165
 30
0.000000000000001
 10
-52.89093314778678
 20
38.13740285291081
 30
0.000000000000001
 10
-52.81641835425342
 20
38.1366705069752
 30
0.000000000000001
 10
-52.71660063670314
 20
38.13507648332643
 30
0.000000000000001
 10
-52.69012425711607
 20
38.13418827892462
 30
0.000000000000001
 10
-52.69012425711607
 20
38.13331121198084
 30
0.000000000000001
  0
LINE
  5
271
330
1F
100
AcDbEntity
  8
PV-141
100
AcDbLine
 10
-55.66438989907698
 20
20.0000000000001
 30
0.0000000000000008
 11
-76.65000001400001
 21
20.0000000000001
 31
-0.0000000000000004
210
0.0
220
1.0
230
0.0
  0
SPLINE
  5
272
330
1F
100
AcDbEntity
  8
PV-141
100
AcDbSpline
210
-0.0000000000000002
220
0.0
230
-1.0
 70
    12
 71
     3
 72
     8
 73
     4
 74
     0
 42
0.0000000001
 43
0.0000000001
 40
1.955103209609784
 40
1.955103209609784
 40
1.955103209609784
 40
1.955103209609784
 40
3.128682619448366
 40
3.128682619448366
 40
3.128682619448366
 40
3.128682619448366
 10
-55.08530869854999
 20
49.10969281153805
 30
0.0000000000000009
 41
1.0
 10
-55.32752957776329
 20
47.24054598389911
 30
0.0000000000000009
 41
0.8884816515039114
 10
-55.47499401665837
 20
43.12499069045196
 30
0.0000000000000009
 41
0.8884816515039114
 10
-55.47836704317275
 20
38.13990671960523
 30
0.0000000000000009
 41
1.0
  0
LINE
  5
273
330
1F
100
AcDbEntity
  8
PV-141
100
AcDbLine
 10
-55.66438989907699
 20
20.0000000000001
 30
0.0000000000000008
 11
-55.47836704317275
 21
20.0000000000001
 31
0.0000000000000009
210
0.0
220
1.0
230
0.0
  0
LINE
  5
274
330
1F
100
AcDbEntity
  8
PV-141
100
AcDbLine
 10
-53.69012425711606
 20
20.0000000000001
 30
0.000000000000001
 11
-55.47836704317275
 21
20.0000000000001
 31
0.0000000000000009
210
0.0
220
1.0
230
0.0
  0
LINE
  5
275
330
1F
100
AcDbEntity
  8
PV-141
100
AcDbLine
 10
-55.47836704317259
 20
38.13990671960523
 30
0.0000000000000009
 11
-55.47836704317259
 21
20.0000000000001
 31
0.0000000000000009
210
0.0
220
1.0
230
0.0
  0
LINE
  5
276
330
1F
100
AcDbEntity
  8
PV-141
100
AcDbLine
 10
-53.69012425711606
 20
38.13990671960548
 30
0.000000000000001
 11
-55.47836704317275
 21
38.13990671960548
 31
0.0000000000000009
210
0.0
220
1.0
230
0.0
  0
LINE
  5
277
330
1F
100
AcDbEntity
  8
PV-141
100
AcDbLine
 10
-52.69012425711607
 20
20.0000000000001
 30
0.000000000000001
 11
-52.69012425711607
 21
38.13331121198084
 31
0.000000000000001
210
0.0
220
1.0
230
0.0
  0
LINE
  5
278
330
1F
100
AcDbEntity
  8
PV-141
100
AcDbLine
 10
-52.69012425711607
 20
38.13331121198084
 30
0.000000000000001
 11
-52.69012425711607
 21
41.26691063058363
 31
0.000000000000001
210
0.0
220
1.0
230
0.0
  0
LINE
  5
279
330
1F
100
AcDbEntity
  8
PV-141
100
AcDbLine
 10
-52.69012425711607
 20
43.49999999999989
 30
0.000000000000001
 11
-52.69012425711607
 21
46.85984266838166
 31
0.000000000000001
210
0.0
220
1.0
230
0.0
  0
SPLINE
  5
27A
330
1F
100
AcDbEntity
  8
PV-141
100
AcDbSpline
210
-0.0000000000000003
220
-0.0000000000000003
230
-1.0
 70
     8
 71
     3
 72
    14
 73
    10
 74
     0
 42
0.0000000001
 43
0.0000000001
 40
0.0
 40
0.0
 40
0.0
 40
0.0
 40
0.0004325832214326
 40
0.0004325832214326
 40
0.0008651664428653
 40
0.0008651664428653
 40
0.0012977496642979
 40
0.0012977496642979
 40
0.0017303328857306
 40
0.0017303328857306
 40
0.0017303328857306
 40
0.0017303328857306
 10
-52.69012425711607
 20
46.85984266838166
 30
0.000000000000001
 10
-52.69012425711607
 20
47.00618750220225
 30
0.000000000000001
 10
-52.71039499343746
 20
47.14901846491651
 30
0.000000000000001
 10
-52.79507156494742
 20
47.42702970384677
 30
0.000000000000001
 10
-52.85919277942563
 20
47.5592632042546
 30
0.000000000000001
 10
-53.03380633719566
 20
47.79309777426608
 30
0.000000000000001
 10
-53.1439920026004
 20
47.89322392867263
 30
0.000000000000001
 10
-53.3993692837075
 20
48.03363531379012
 30
0.000000000000001
 10
-53.54289222743297
 20
48.07275543012369
 30
0.000000000000001
 10
-53.69012425711606
 20
48.07275543012294
 30
0.000000000000001
  0
LINE
  5
27B
330
1F
100
AcDbEntity
  8
PV-141
100
AcDbLine
 10
-54.15000001400002
 20
48.07275543012294
 30
0.0000000000000009
 11
-53.69012425711606
 21
48.07275543012294
 31
0.000000000000001
210
0.0
220
1.0
230
0.0
  0
LINE
  5
27C
330
1F
100
AcDbEntity
  8
PV-141
100
AcDbLine
 10
-55.66438989907698
 20
50.0000000000001
 30
0.0000000000000008
 11
-55.08530869854999
 21
50.0000000000001
 31
0.0000000000000009
210
0.0
220
1.0
230
0.0
  0
LINE
  5
27D
330
1F
100
AcDbEntity
  8
PV-141
100
AcDbLine
 10
-55.66438989907698
 20
50.0000000000001
 30
0.0000000000000008
 11
-76.65000001400001
 21
50.0000000000001
 31
-0.0000000000000004
210
0.0
220
1.0
230
0.0
  0
LINE
  5
27E
330
1F
100
AcDbEntity
  8
PV-141
100
AcDbLine
 10
-54.15000001400002
 20
49.10969281153805
 30
0.0000000000000009
 11
-54.15000001400002
 21
48.07275543012294
 31
0.0000000000000009
210
0.0
220
1.0
230
0.0
  0
LINE
  5
27F
330
1F
100
AcDbEntity
  8
PV-141
100
AcDbLine
 10
-55.08530869854999
 20
49.10969281153805
 30
0.0000000000000009
 11
-54.15000001400002
 21
49.10969281153805
 31
0.0000000000000009
210
0.0
220
1.0
230
0.0
  0
LINE
  5
280
330
1F
100
AcDbEntity
  8
PV-141
100
AcDbLine
 10
-55.08530869854999
 20
50.00000000000009
 30
0.0000000000000009
 11
-55.08530869854999
 21
49.10969281153805
 31
0.0000000000000009
210
0.0
220
1.0
230
0.0
  0
LINE
  5
281
330
1F
100
AcDbEntity
  8
PV-141
100
AcDbLine
 10
-57.15000001400001
 20
52.5000000000001
 30
0.0000000000000008
 11
-75.15000001400001
 21
52.5000000000001
 31
-0.0000000000000003
210
0.0
220
1.0
230
0.0
  0
LINE
  5
282
330
1F
100
AcDbEntity
  8
PV-141
100
AcDbLine
 10
-76.65000001400001
 20
50.0000000000001
 30
-0.0000000000000004
 11
-55.66438989907698
 21
50.0000000000001
 31
0.0000000000000008
210
0.0
220
1.0
230
0.0
  0
LINE
  5
283
330
1F
100
AcDbEntity
  8
PV-141
100
AcDbLine
 10
-76.65000001400001
 20
51.0000000000001
 30
-0.0000000000000004
 11
-76.65000001400001
 21
50.0000000000001
 31
-0.0000000000000004
210
0.0
220
1.0
230
0.0
  0
LINE
  5
284
330
1F
100
AcDbEntity
  8
PV-141
100
AcDbLine
 10
-55.65000001400001
 20
51.0000000000001
 30
0.0000000000000008
 11
-55.65000001400001
 21
50.0000000000001
 31
0.0000000000000008
210
0.0
220
1.0
230
0.0
  0
ARC
  5
285
330
1F
100
AcDbEntity
  8
PV-141
100
AcDbCircle
 10
-75.15000001400001
 20
51.0000000000001
 30
-0.0000000000000003
 40
1.499999999999998
100
AcDbArc
 50
90.0
 51
180.0
  0
ARC
  5
286
330
1F
100
AcDbEntity
  8
PV-141
100
AcDbCircle
 10
-57.15000001400001
 20
51.0000000000001
 30
0.0000000000000008
 40
1.5
100
AcDbArc
 50
0.0
 51
90.0
  0
LINE
  5
287
330
1F
100
AcDbEntity
  8
PV-141
100
AcDbLine
 10
-54.15506367425441
 20
19.79999999999989
 30
0.0000000000000009
 11
-54.15506367425441
 21
-20.0000000000001
 31
0.0000000000000009
210
0.0
220
1.0
230
0.0
  0
LINE
  5
288
330
1F
100
AcDbEntity
  8
PV-141
100
AcDbLine
 10
-55.7351083668047
 20
19.79999999999989
 30
0.0000000000000008
 11
-54.15506367425441
 21
19.79999999999989
 31
0.0000000000000009
210
0.0
220
1.0
230
0.0
  0
LINE
  5
289
330
1F
100
AcDbEntity
  8
PV-141
100
AcDbLine
 10
-55.7351083668047
 20
19.79999999999989
 30
0.0000000000000008
 11
-66.15000001400009
 21
19.7999999999999
 31
0.0000000000000002
210
0.0
220
1.0
230
0.0
  0
LINE
  5
28A
330
1F
100
AcDbEntity
  8
PV-141
100
AcDbLine
 10
-55.7351083668047
 20
-20.0000000000001
 30
0.0000000000000008
 11
-66.15000001400009
 21
-20.00000000000008
 31
0.0000000000000002
210
0.0
220
1.0
230
0.0
  0
LINE
  5
28B
330
1F
100
AcDbEntity
  8
PV-141
100
AcDbLine
 10
-55.7351083668047
 20
-20.00000000000008
 30
0.0000000000000008
 11
-55.17988730987887
 21
-20.0000000000001
 31
0.0000000000000009
210
0.0
220
1.0
230
0.0
  0
LINE
  5
28C
330
1F
100
AcDbEntity
  8
PV-141
100
AcDbLine
 10
-66.15000001399994
 20
-20.00000000000008
 30
0.0000000000000002
 11
-76.65000001400001
 21
-20.0000000000001
 31
-0.0000000000000004
210
0.0
220
1.0
230
0.0
  0
LINE
  5
28D
330
1F
100
AcDbEntity
  8
PV-141
100
AcDbLine
 10
-66.15000001399994
 20
19.7999999999999
 30
0.0000000000000002
 11
-76.65000001400001
 21
19.79999999999989
 31
-0.0000000000000004
210
0.0
220
1.0
230
0.0
  0
LINE
  5
28E
330
1F
100
AcDbEntity
  8
PV-141
100
AcDbLine
 10
-55.15000001400001
 20
19.79999999999989
 30
0.0000000000000009
 11
-55.15000001400001
 21
20.0000000000001
 31
0.0000000000000009
210
0.0
220
1.0
230
0.0
  0
LINE
  5
28F
330
1F
100
AcDbEntity
  8
PV-141
100
AcDbLine
 10
-59.15000001400001
 20
20.0000000000001
 30
0.0000000000000006
 11
-59.15000001400001
 21
19.79999999999989
 31
0.0000000000000006
210
0.0
220
1.0
230
0.0
  0
LINE
  5
290
330
1F
100
AcDbEntity
  8
PV-141
100
AcDbLine
 10
-76.65000001400001
 20
-20.0000000000001
 30
-0.0000000000000004
 11
-76.65000001400001
 21
19.79999999999989
 31
-0.0000000000000004
210
0.0
220
1.0
230
0.0
  0
LINE
  5
291
330
1F
100
AcDbEntity
  8
PV-141
100
AcDbLine
 10
-76.65000001400001
 20
20.0000000000001
 30
-0.0000000000000004
 11
-76.65000001400001
 21
50.0000000000001
 31
-0.0000000000000004
210
0.0
220
1.0
230
0.0
  0
LINE
  5
292
330
1F
100
AcDbEntity
  8
PV-141
100
AcDbLine
 10
-34.65000001400001
 20
-49.98749217771919
 30
0.0000000000000021
 11
-38.65000001400002
 21
-49.98749217771919
 31
0.0000000000000019
210
0.0
220
1.0
230
0.0
  0
LINE
  5
293
330
1F
100
AcDbEntity
  8
PV-141
100
AcDbLine
 10
-38.65000001400002
 20
49.987492177719
 30
0.0000000000000019
 11
-34.65000001400001
 21
49.987492177719
 31
0.0000000000000021
210
0.0
220
1.0
230
0.0
  0
LINE
  5
294
330
1F
100
AcDbEntity
  8
PV-141
100
AcDbLine
 10
-76.65000001400001
 20
-50.0000000000001
 30
-0.0000000000000004
 11
-76.65000001400001
 21
-20.0000000000001
 31
-0.0000000000000004
210
0.0
220
1.0
230
0.0
  0
LINE
  5
296
330
1F
100
AcDbEntity
  8
PV-141
100
AcDbLine
 10
11.85
 20
19.89999999999987
 30
-0.000000000000004
 11
11.85
 21
19.79999999999988
 31
-0.000000000000004
210
0.0
220
1.0
230
0.0
  0
LINE
  5
297
330
1F
100
AcDbEntity
  8
PV-141
100
AcDbLine
 10
-4.249999999999992
 20
-50.00000000000011
 30
-0.000000000000006
 11
-0.149999999999963
 21
-50.0000000000001
 31
-0.0000000000000055
210
0.0
220
1.0
230
0.0
  0
ARC
  5
298
330
1F
100
AcDbEntity
  8
PV-141
100
AcDbCircle
 10
-4.249999999999992
 20
-38.0000000000001
 30
-0.000000000000006
 40
12.0
100
AcDbArc
 50
190.0786581077884
 51
270.0
  0
LINE
  5
299
330
1F
100
AcDbEntity
  8
PV-141
100
AcDbLine
 10
-16.24999999999999
 20
-35.05803989155008
 30
-0.0000000000000074
 11
-16.24999999999999
 21
-21.14196010845047
 31
-0.0000000000000074
210
0.0
220
1.0
230
0.0
  0
LINE
  5
29A
330
1F
100
AcDbEntity
  8
PV-141
100
AcDbLine
 10
-16.24999999999999
 20
-7.058039891550079
 30
-0.0000000000000074
 11
-16.24999999999999
 21
6.858039891549552
 31
-0.0000000000000074
210
0.0
220
1.0
230
0.0
  0
LINE
  5
29B
330
1F
100
AcDbEntity
  8
PV-141
100
AcDbLine
 10
-16.24999999999999
 20
20.94196010844991
 30
-0.0000000000000074
 11
-16.24999999999999
 21
34.85803989154953
 31
-0.0000000000000074
210
0.0
220
1.0
230
0.0
  0
ARC
  5
29C
330
1F
100
AcDbEntity
  8
PV-141
100
AcDbCircle
 10
-4.25
 20
37.99999999999989
 30
-0.000000000000006
 40
11.99999999999999
100
AcDbArc
 50
89.99999999999836
 51
170.8898298470723
  0
LINE
  5
29D
330
1F
100
AcDbEntity
  8
PV-141
100
AcDbLine
 10
-0.1499999999999773
 20
49.99999999999989
 30
-0.0000000000000055
 11
-4.25
 21
49.99999999999989
 31
-0.000000000000006
210
0.0
220
1.0
230
0.0
  0
ARC
  5
29E
330
1F
100
AcDbEntity
  8
PV-141
100
AcDbCircle
 10
-0.1499999999999773
 20
37.99999999999989
 30
-0.0000000000000055
 40
11.99999999999999
100
AcDbArc
 50
76.01507072631637
 51
89.9999999999992
  0
ARC
  5
29F
330
1F
100
AcDbEntity
  8
PV-141
100
AcDbCircle
 10
-0.1499999999999773
 20
-38.00000000000011
 30
-0.0000000000000055
 40
11.99999999999999
100
AcDbArc
 50
270.0
 51
283.9849292736836
  0
LINE
  5
2A0
330
1F
100
AcDbEntity
  8
PV-141
100
AcDbLine
 10
5.750000000000028
 20
19.89999999999987
 30
-0.0000000000000047
 11
5.750000000000028
 21
20.00000000000009
 31
-0.0000000000000047
210
0.0
220
1.0
230
0.0
  0
LINE
  5
2A1
330
1F
100
AcDbEntity
  8
PV-141
100
AcDbLine
 10
5.750000000000028
 20
19.89999999999987
 30
-0.0000000000000047
 11
11.85
 21
19.89999999999987
 31
-0.000000000000004
210
0.0
220
1.0
230
0.0
  0
SPLINE
  5
2A2
330
1F
100
AcDbEntity
  8
PV-141
100
AcDbSpline
210
-0.0000000000000683
220
0.0000000000002283
230
-1.0
 70
     8
 71
     3
 72
    14
 73
    10
 74
     0
 42
0.0000000001
 43
0.0000000001
 40
0.0
 40
0.0
 40
0.0
 40
0.0
 40
0.0003986139723433
 40
0.0003986139723433
 40
0.0007972279446866
 40
0.0007972279446866
 40
0.0011958419170298
 40
0.0011958419170298
 40
0.0015944558893731
 40
0.0015944558893731
 40
0.0015944558893731
 40
0.0015944558893731
 10
3.750000000000049
 20
-49.34856819162675
 30
-0.000000000000005
 10
3.750000000000049
 20
-49.34856819162675
 30
-0.000000000000005
 10
3.722685286032422
 20
-49.35804826759067
 30
-0.000000000000005
 10
3.619681072717867
 20
-49.39264922586334
 30
-0.000000000000005
 10
3.543803964268207
 20
-49.41775893681267
 30
-0.000000000000005
 10
3.358767287816917
 20
-49.47597311715024
 30
-0.000000000000005
 10
3.248027544897119
 20
-49.50950578237763
 30
-0.000000000000005
 10
3.00994275922909
 20
-49.5771359285818
 30
-0.0000000000000051
 10
2.880703946675232
 20
-49.61176027648392
 30
-0.0000000000000051
 10
2.750000000000042
 20
-49.64431191612465
 30
-0.0000000000000051
  0
SPLINE
  5
2A3
330
1F
100
AcDbEntity
  8
PV-141
100
AcDbSpline
210
-0.0000000000000684
220
-0.0000000000002284
230
-1.0
 70
     8
 71
     3
 72
    14
 73
    10
 74
     0
 42
0.0000000001
 43
0.0000000001
 40
0.0
 40
0.0
 40
0.0
 40
0.0
 40
0.0003986241037927
 40
0.0003986241037927
 40
0.0007972482075854
 40
0.0007972482075854
 40
0.0011958723113781
 40
0.0011958723113781
 40
0.0015944964151707
 40
0.0015944964151707
 40
0.0015944964151707
 40
0.0015944964151707
 10
2.750000000000021
 20
49.64431191612443
 30
-0.0000000000000051
 10
2.880801237985387
 20
49.61173604621557
 30
-0.0000000000000051
 10
3.008277137052722
 20
49.57760077067558
 30
-0.0000000000000051
 10
3.248220941869142
 20
49.50945908849845
 30
-0.000000000000005
 10
3.35804964153619
 20
49.47619527814354
 30
-0.000000000000005
 10
3.543711711335639
 20
49.41779156155462
 30
-0.000000000000005
 10
3.61948871292747
 20
49.39271232968439
 30
-0.000000000000005
 10
3.722277435545741
 20
49.35818677632982
 30
-0.000000000000005
 10
3.750000000000021
 20
49.34856819162654
 30
-0.000000000000005
 10
3.750000000000021
 20
49.34856819162654
 30
-0.000000000000005
  0
LINE
  5
2A4
330
1F
100
AcDbEntity
  8
PV-141
100
AcDbLine
 10
3.750000000000021
 20
19.79999999999989
 30
-0.000000000000005
 11
3.750000000000021
 21
20.00000000000008
 31
-0.000000000000005
210
0.0
220
1.0
230
0.0
  0
LINE
  5
2A5
330
1F
100
AcDbEntity
  8
PV-141
100
AcDbLine
 10
24.75000000000002
 20
-20.0000000000001
 30
-0.0000000000000024
 11
3.774315072226158
 21
-20.0000000000001
 31
-0.000000000000005
210
0.0
220
1.0
230
0.0
  0
LINE
  5
2A6
330
1F
100
AcDbEntity
  8
PV-141
100
AcDbLine
 10
24.75000000000002
 20
-50.0000000000001
 30
-0.0000000000000024
 11
3.750000000000021
 21
-50.0000000000001
 31
-0.000000000000005
210
0.0
220
1.0
230
0.0
  0
LINE
  5
2A7
330
1F
100
AcDbEntity
  8
PV-141
100
AcDbLine
 10
3.750000000000021
 20
-50.0000000000001
 30
-0.000000000000005
 11
3.750000000000021
 21
-20.0000000000001
 31
-0.000000000000005
210
0.0
220
1.0
230
0.0
  0
LINE
  5
2A8
330
1F
100
AcDbEntity
  8
PV-141
100
AcDbLine
 10
9.750000000000007
 20
19.99999999999989
 30
-0.0000000000000042
 11
9.750000000000007
 21
19.89999999999987
 31
-0.0000000000000042
210
0.0
220
1.0
230
0.0
  0
LINE
  5
2A9
330
1F
100
AcDbEntity
  8
PV-141
100
AcDbLine
 10
23.25000000000002
 20
-52.5000000000001
 30
-0.0000000000000026
 11
14.24999999999989
 21
-52.5000000000001
 31
-0.0000000000000037
210
0.0
220
1.0
230
0.0
  0
LINE
  5
2AA
330
1F
100
AcDbEntity
  8
PV-141
100
AcDbLine
 10
14.24999999999986
 20
-50.0000000000001
 30
-0.0000000000000037
 11
24.75000000000002
 21
-50.0000000000001
 31
-0.0000000000000024
210
0.0
220
1.0
230
0.0
  0
LINE
  5
2AB
330
1F
100
AcDbEntity
  8
PV-141
100
AcDbLine
 10
3.750000000000021
 20
-50.0000000000001
 30
-0.000000000000005
 11
14.25000000000002
 21
-50.0000000000001
 31
-0.0000000000000037
210
0.0
220
1.0
230
0.0
  0
LINE
  5
2AC
330
1F
100
AcDbEntity
  8
PV-141
100
AcDbLine
 10
14.25000000000002
 20
-52.5000000000001
 30
-0.0000000000000037
 11
5.250000000000021
 21
-52.5000000000001
 31
-0.0000000000000048
210
0.0
220
1.0
230
0.0
  0
LINE
  5
2AD
330
1F
100
AcDbEntity
  8
PV-141
100
AcDbLine
 10
24.75
 20
20.00000000000009
 30
-0.0000000000000024
 11
3.75
 21
20.00000000000008
 31
-0.000000000000005
210
0.0
220
1.0
230
0.0
  0
LINE
  5
2AE
330
1F
100
AcDbEntity
  8
PV-141
100
AcDbLine
 10
24.74999999999999
 20
50.00000000000009
 30
-0.0000000000000024
 11
3.749999999999992
 21
50.00000000000008
 31
-0.000000000000005
210
0.0
220
1.0
230
0.0
  0
LINE
  5
2AF
330
1F
100
AcDbEntity
  8
PV-141
100
AcDbLine
 10
3.749999999999992
 20
50.00000000000008
 30
-0.000000000000005
 11
3.75
 21
20.00000000000008
 31
-0.000000000000005
210
0.0
220
1.0
230
0.0
  0
LINE
  5
2B0
330
1F
100
AcDbEntity
  8
PV-141
100
AcDbLine
 10
23.25
 20
52.50000000000009
 30
-0.0000000000000026
 11
14.24999999999986
 21
52.50000000000009
 31
-0.0000000000000037
210
0.0
220
1.0
230
0.0
  0
LINE
  5
2B1
330
1F
100
AcDbEntity
  8
PV-141
100
AcDbLine
 10
14.24999999999998
 20
50.00000000000009
 30
-0.0000000000000037
 11
24.74999999999999
 21
50.00000000000009
 31
-0.0000000000000024
210
0.0
220
1.0
230
0.0
  0
LINE
  5
2B2
330
1F
100
AcDbEntity
  8
PV-141
100
AcDbLine
 10
3.749999999999992
 20
50.00000000000008
 30
-0.000000000000005
 11
14.25000000000014
 21
50.00000000000009
 31
-0.0000000000000037
210
0.0
220
1.0
230
0.0
  0
LINE
  5
2B3
330
1F
100
AcDbEntity
  8
PV-141
100
AcDbLine
 10
14.24999999999998
 20
52.50000000000009
 30
-0.0000000000000037
 11
5.249999999999992
 21
52.50000000000008
 31
-0.0000000000000048
210
0.0
220
1.0
230
0.0
  0
LINE
  5
2B4
330
1F
100
AcDbEntity
  8
PV-141
100
AcDbLine
 10
0.2500000000000071
 20
19.79999999999988
 30
-0.0000000000000054
 11
0.2500000000000213
 21
-20.0000000000001
 31
-0.0000000000000054
210
0.0
220
1.0
230
0.0
  0
LINE
  5
2B5
330
1F
100
AcDbEntity
  8
PV-141
100
AcDbLine
 10
3.248416365278529
 20
19.79999999999988
 30
-0.000000000000005
 11
3.248416365278551
 21
-20.0000000000001
 31
-0.000000000000005
210
0.0
220
1.0
230
0.0
  0
LINE
  5
2B6
330
1F
100
AcDbEntity
  8
PV-141
100
AcDbLine
 10
0.2500000000000071
 20
19.79999999999988
 30
-0.0000000000000054
 11
3.248416365278529
 21
19.79999999999988
 31
-0.000000000000005
210
0.0
220
1.0
230
0.0
  0
LINE
  5
2B7
330
1F
100
AcDbEntity
  8
PV-141
100
AcDbLine
 10
3.77431507222613
 20
19.79999999999988
 30
-0.000000000000005
 11
3.248416365278522
 21
19.79999999999988
 31
-0.000000000000005
210
0.0
220
1.0
230
0.0
  0
LINE
  5
2B8
330
1F
100
AcDbEntity
  8
PV-141
100
AcDbLine
 10
0.2500000000000213
 20
-20.0000000000001
 30
-0.0000000000000054
 11
3.248416365278551
 21
-20.0000000000001
 31
-0.000000000000005
210
0.0
220
1.0
230
0.0
  0
LINE
  5
2B9
330
1F
100
AcDbEntity
  8
PV-141
100
AcDbLine
 10
3.774315072226158
 20
-20.0000000000001
 30
-0.000000000000005
 11
3.248416365278551
 21
-20.0000000000001
 31
-0.000000000000005
210
0.0
220
1.0
230
0.0
  0
LINE
  5
2BA
330
1F
100
AcDbEntity
  8
PV-141
100
AcDbLine
 10
24.75
 20
19.79999999999989
 30
-0.0000000000000024
 11
24.75000000000002
 21
-20.00000000000009
 31
-0.0000000000000024
210
0.0
220
1.0
230
0.0
  0
LINE
  5
2BB
330
1F
100
AcDbEntity
  8
PV-141
100
AcDbLine
 10
24.75000000000002
 20
-20.00000000000009
 30
-0.0000000000000024
 11
3.774315072226158
 21
-20.0000000000001
 31
-0.000000000000005
210
0.0
220
1.0
230
0.0
  0
LINE
  5
2BC
330
1F
100
AcDbEntity
  8
PV-141
100
AcDbLine
 10
24.75
 20
19.79999999999989
 30
-0.0000000000000024
 11
3.774315072226137
 21
19.79999999999988
 31
-0.000000000000005
210
0.0
220
1.0
230
0.0
  0
LINE
  5
2BD
330
1F
100
AcDbEntity
  8
PV-141
100
AcDbLine
 10
-24.75
 20
-4.771796769724755
 30
-0.0000000000000085
 11
-20.75000000000002
 21
-3.700000000000269
 31
-0.000000000000008
210
0.0
220
1.0
230
0.0
  0
LINE
  5
2BE
330
1F
100
AcDbEntity
  8
PV-141
100
AcDbLine
 10
-20.75000000000002
 20
-3.700000000000274
 30
-0.000000000000008
 11
-18.75000000000002
 21
-3.700000000000273
 31
-0.0000000000000077
210
0.0
220
1.0
230
0.0
  0
LINE
  5
2BF
330
1F
100
AcDbEntity
  8
PV-141
100
AcDbLine
 10
-18.75000000000002
 20
-4.100000000000264
 30
-0.0000000000000077
 11
-18.75000000000002
 21
-3.700000000000271
 31
-0.0000000000000077
210
0.0
220
1.0
230
0.0
  0
ARC
  5
2C0
330
1F
100
AcDbEntity
  8
PV-141
100
AcDbCircle
 10
-15.75000000000002
 20
-4.100000000000264
 30
-0.0000000000000074
 40
2.999999999999999
100
AcDbArc
 50
180.0
 51
270.0
  0
LINE
  5
2C1
330
1F
100
AcDbEntity
  8
PV-141
100
AcDbLine
 10
-15.75000000000002
 20
-7.100000000000264
 30
-0.0000000000000074
 11
-9.750000000000042
 21
-7.100000000000257
 31
-0.0000000000000066
210
0.0
220
1.0
230
0.0
  0
ARC
  5
2C2
330
1F
100
AcDbEntity
  8
PV-141
100
AcDbCircle
 10
-9.750000000000042
 20
-4.100000000000264
 30
-0.0000000000000066
 40
2.999999999999999
100
AcDbArc
 50
270.0
 51
0.0000000000007994
  0
LINE
  5
2C3
330
1F
100
AcDbEntity
  8
PV-141
100
AcDbLine
 10
-6.750000000000042
 20
3.899999999999727
 30
-0.0000000000000063
 11
-6.750000000000028
 21
-4.100000000000257
 31
-0.0000000000000063
210
0.0
220
1.0
230
0.0
  0
ARC
  5
2C4
330
1F
100
AcDbEntity
  8
PV-141
100
AcDbCircle
 10
-9.750000000000042
 20
3.899999999999721
 30
-0.0000000000000066
 40
3.000000000000006
100
AcDbArc
 50
0.0
 51
90.0
  0
LINE
  5
2C5
330
1F
100
AcDbEntity
  8
PV-141
100
AcDbLine
 10
-9.750000000000042
 20
6.899999999999732
 30
-0.0000000000000066
 11
-15.75000000000004
 21
6.899999999999735
 31
-0.0000000000000074
210
0.0
220
1.0
230
0.0
  0
ARC
  5
2C6
330
1F
100
AcDbEntity
  8
PV-141
100
AcDbCircle
 10
-15.75000000000004
 20
3.899999999999727
 30
-0.0000000000000074
 40
3.000000000000006
100
AcDbArc
 50
90.0
 51
180.0
  0
LINE
  5
2C7
330
1F
100
AcDbEntity
  8
PV-141
100
AcDbLine
 10
-18.75000000000004
 20
3.499999999999729
 30
-0.0000000000000077
 11
-18.75000000000004
 21
3.899999999999721
 31
-0.0000000000000077
210
0.0
220
1.0
230
0.0
  0
LINE
  5
2C8
330
1F
100
AcDbEntity
  8
PV-141
100
AcDbLine
 10
-20.75000000000004
 20
3.499999999999734
 30
-0.000000000000008
 11
-18.75000000000004
 21
3.499999999999735
 31
-0.0000000000000077
210
0.0
220
1.0
230
0.0
  0
LINE
  5
2C9
330
1F
100
AcDbEntity
  8
PV-141
100
AcDbLine
 10
-24.75
 20
4.571796769724207
 30
-0.0000000000000085
 11
-20.75000000000004
 21
3.499999999999729
 31
-0.000000000000008
210
0.0
220
1.0
230
0.0
  0
LINE
  5
2CA
330
1F
100
AcDbEntity
  8
PV-141
100
AcDbLine
 10
-24.75
 20
23.22820323027523
 30
-0.0000000000000085
 11
-24.75
 21
4.571796769724215
 31
-0.0000000000000085
210
0.0
220
1.0
230
0.0
  0
LINE
  5
2CB
330
1F
100
AcDbEntity
  8
PV-141
100
AcDbLine
 10
-24.75
 20
23.22820323027524
 30
-0.0000000000000085
 11
-20.75
 21
24.29999999999973
 31
-0.000000000000008
210
0.0
220
1.0
230
0.0
  0
LINE
  5
2CC
330
1F
100
AcDbEntity
  8
PV-141
100
AcDbLine
 10
-20.75
 20
24.29999999999973
 30
-0.000000000000008
 11
-18.75
 21
24.29999999999973
 31
-0.0000000000000077
210
0.0
220
1.0
230
0.0
  0
LINE
  5
2CD
330
1F
100
AcDbEntity
  8
PV-141
100
AcDbLine
 10
-18.75
 20
23.89999999999972
 30
-0.0000000000000077
 11
-18.75
 21
24.29999999999973
 31
-0.0000000000000077
210
0.0
220
1.0
230
0.0
  0
ARC
  5
2CE
330
1F
100
AcDbEntity
  8
PV-141
100
AcDbCircle
 10
-15.75
 20
23.89999999999972
 30
-0.0000000000000074
 40
2.999999999999999
100
AcDbArc
 50
179.9999999999998
 51
270.0
  0
LINE
  5
2CF
330
1F
100
AcDbEntity
  8
PV-141
100
AcDbLine
 10
-15.75
 20
20.89999999999973
 30
-0.0000000000000074
 11
-9.75
 21
20.89999999999973
 31
-0.0000000000000066
210
0.0
220
1.0
230
0.0
  0
ARC
  5
2D0
330
1F
100
AcDbEntity
  8
PV-141
100
AcDbCircle
 10
-9.75
 20
23.89999999999973
 30
-0.0000000000000066
 40
2.999999999999999
100
AcDbArc
 50
270.0
 51
359.9999999999992
  0
LINE
  5
2D1
330
1F
100
AcDbEntity
  8
PV-141
100
AcDbLine
 10
-6.750000000000007
 20
31.89999999999971
 30
-0.0000000000000063
 11
-6.750000000000007
 21
23.89999999999973
 31
-0.0000000000000063
210
0.0
220
1.0
230
0.0
  0
ARC
  5
2D2
330
1F
100
AcDbEntity
  8
PV-141
100
AcDbCircle
 10
-9.75
 20
31.89999999999971
 30
-0.0000000000000066
 40
3.000000000000008
100
AcDbArc
 50
359.9999999999984
 51
90.0
  0
LINE
  5
2D3
330
1F
100
AcDbEntity
  8
PV-141
100
AcDbLine
 10
-9.750000000000007
 20
34.89999999999973
 30
-0.0000000000000066
 11
-15.75000000000002
 21
34.89999999999973
 31
-0.0000000000000074
210
0.0
220
1.0
230
0.0
  0
ARC
  5
2D4
330
1F
100
AcDbEntity
  8
PV-141
100
AcDbCircle
 10
-15.75
 20
31.89999999999971
 30
-0.0000000000000074
 40
3.000000000000006
100
AcDbArc
 50
90.0
 51
179.9999999999998
  0
LINE
  5
2D5
330
1F
100
AcDbEntity
  8
PV-141
100
AcDbLine
 10
-18.75
 20
31.49999999999972
 30
-0.0000000000000077
 11
-18.75
 21
31.89999999999971
 31
-0.0000000000000077
210
0.0
220
1.0
230
0.0
  0
LINE
  5
2D6
330
1F
100
AcDbEntity
  8
PV-141
100
AcDbLine
 10
-20.75
 20
31.49999999999972
 30
-0.000000000000008
 11
-18.75
 21
31.49999999999972
 31
-0.0000000000000077
210
0.0
220
1.0
230
0.0
  0
LINE
  5
2D7
330
1F
100
AcDbEntity
  8
PV-141
100
AcDbLine
 10
-24.75
 20
32.57179676972422
 30
-0.0000000000000085
 11
-20.75
 21
31.49999999999972
 31
-0.000000000000008
210
0.0
220
1.0
230
0.0
  0
LINE
  5
2D8
330
1F
100
AcDbEntity
  8
PV-141
100
AcDbLine
 10
-24.75000000000001
 20
36.89999999999971
 30
-0.0000000000000085
 11
-24.75000000000001
 21
32.57179676972421
 31
-0.0000000000000085
210
0.0
220
1.0
230
0.0
  0
ARC
  5
2D9
330
1F
100
AcDbEntity
  8
PV-141
100
AcDbCircle
 10
-21.75000000000001
 20
36.89999999999971
 30
-0.0000000000000081
 40
3.000000000000002
100
AcDbArc
 50
90.0
 51
179.9999999999998
  0
LINE
  5
2DA
330
1F
100
AcDbEntity
  8
PV-141
100
AcDbLine
 10
-21.75000000000001
 20
39.89999999999972
 30
-0.0000000000000081
 11
-2.75
 21
39.89999999999972
 31
-0.0000000000000058
210
0.0
220
1.0
230
0.0
  0
ARC
  5
2DB
330
1F
100
AcDbEntity
  8
PV-141
100
AcDbCircle
 10
-2.75
 20
36.89999999999972
 30
-0.0000000000000058
 40
2.999999999999999
100
AcDbArc
 50
359.9999999999984
 51
90.0
  0
LINE
  5
2DC
330
1F
100
AcDbEntity
  8
PV-141
100
AcDbLine
 10
0.25
 20
36.89999999999972
 30
-0.0000000000000054
 11
0.2500000000000071
 21
16.39999999999973
 31
-0.0000000000000054
210
0.0
220
1.0
230
0.0
  0
LINE
  5
2DD
330
1F
100
AcDbEntity
  8
PV-141
100
AcDbLine
 10
3.248416365278529
 20
16.39999999999974
 30
-0.000000000000005
 11
0.2500000000000071
 21
16.39999999999973
 31
-0.0000000000000054
210
0.0
220
1.0
230
0.0
  0
LINE
  5
2DE
330
1F
100
AcDbEntity
  8
PV-141
100
AcDbLine
 10
3.248416365278551
 20
-16.60000000000025
 30
-0.000000000000005
 11
0.2500000000000213
 21
-16.60000000000025
 31
-0.0000000000000054
210
0.0
220
1.0
230
0.0
  0
LINE
  5
2DF
330
1F
100
AcDbEntity
  8
PV-141
100
AcDbLine
 10
0.2500000000000213
 20
-37.10000000000026
 30
-0.0000000000000054
 11
0.2500000000000213
 21
-16.60000000000025
 31
-0.0000000000000054
210
0.0
220
1.0
230
0.0
  0
ARC
  5
2E0
330
1F
100
AcDbEntity
  8
PV-141
100
AcDbCircle
 10
-2.749999999999971
 20
-37.10000000000026
 30
-0.0000000000000058
 40
2.999999999999999
100
AcDbArc
 50
270.0
 51
359.9999999999992
  0
LINE
  5
2E1
330
1F
100
AcDbEntity
  8
PV-141
100
AcDbLine
 10
-21.74999999999997
 20
-40.10000000000028
 30
-0.0000000000000081
 11
-2.749999999999971
 21
-40.10000000000026
 31
-0.0000000000000058
210
0.0
220
1.0
230
0.0
  0
ARC
  5
2E2
330
1F
100
AcDbEntity
  8
PV-141
100
AcDbCircle
 10
-21.74999999999997
 20
-37.10000000000027
 30
-0.0000000000000081
 40
3.000000000000002
100
AcDbArc
 50
179.9999999999998
 51
270.0
  0
LINE
  5
2E3
330
1F
100
AcDbEntity
  8
PV-141
100
AcDbLine
 10
-24.74999999999998
 20
-32.77179676972476
 30
-0.0000000000000085
 11
-24.74999999999998
 21
-37.10000000000027
 31
-0.0000000000000085
210
0.0
220
1.0
230
0.0
  0
LINE
  5
2E4
330
1F
100
AcDbEntity
  8
PV-141
100
AcDbLine
 10
-24.74999999999997
 20
-32.77179676972476
 30
-0.0000000000000085
 11
-20.74999999999997
 21
-31.70000000000027
 31
-0.000000000000008
210
0.0
220
1.0
230
0.0
  0
LINE
  5
2E5
330
1F
100
AcDbEntity
  8
PV-141
100
AcDbLine
 10
-20.74999999999997
 20
-31.70000000000027
 30
-0.000000000000008
 11
-18.74999999999998
 21
-31.70000000000027
 31
-0.0000000000000077
210
0.0
220
1.0
230
0.0
  0
LINE
  5
2E6
330
1F
100
AcDbEntity
  8
PV-141
100
AcDbLine
 10
-18.74999999999999
 20
-31.70000000000026
 30
-0.0000000000000077
 11
-18.74999999999999
 21
-32.10000000000027
 31
-0.0000000000000077
210
0.0
220
1.0
230
0.0
  0
ARC
  5
2E7
330
1F
100
AcDbEntity
  8
PV-141
100
AcDbCircle
 10
-15.74999999999997
 20
-32.10000000000026
 30
-0.0000000000000074
 40
3.000000000000006
100
AcDbArc
 50
179.9999999999998
 51
270.0
  0
LINE
  5
2E8
330
1F
100
AcDbEntity
  8
PV-141
100
AcDbLine
 10
-9.749999999999978
 20
-35.10000000000028
 30
-0.0000000000000066
 11
-15.74999999999997
 21
-35.10000000000028
 31
-0.0000000000000074
210
0.0
220
1.0
230
0.0
  0
ARC
  5
2E9
330
1F
100
AcDbEntity
  8
PV-141
100
AcDbCircle
 10
-9.749999999999978
 20
-32.10000000000025
 30
-0.0000000000000066
 40
3.000000000000008
100
AcDbArc
 50
270.0
 51
359.9999999999992
  0
LINE
  5
2EA
330
1F
100
AcDbEntity
  8
PV-141
100
AcDbLine
 10
-6.749999999999978
 20
-32.10000000000025
 30
-0.0000000000000063
 11
-6.749999999999992
 21
-24.10000000000028
 31
-0.0000000000000063
210
0.0
220
1.0
230
0.0
  0
ARC
  5
2EB
330
1F
100
AcDbEntity
  8
PV-141
100
AcDbCircle
 10
-9.749999999999978
 20
-24.10000000000028
 30
-0.0000000000000066
 40
2.999999999999999
100
AcDbArc
 50
359.9999999999992
 51
90.0
  0
LINE
  5
2EC
330
1F
100
AcDbEntity
  8
PV-141
100
AcDbLine
 10
-15.74999999999997
 20
-21.10000000000027
 30
-0.0000000000000074
 11
-9.749999999999978
 21
-21.10000000000027
 31
-0.0000000000000066
210
0.0
220
1.0
230
0.0
  0
ARC
  5
2ED
330
1F
100
AcDbEntity
  8
PV-141
100
AcDbCircle
 10
-15.74999999999997
 20
-24.10000000000028
 30
-0.0000000000000074
 40
2.999999999999999
100
AcDbArc
 50
90.0
 51
180.0
  0
LINE
  5
2EE
330
1F
100
AcDbEntity
  8
PV-141
100
AcDbLine
 10
-18.74999999999999
 20
-24.10000000000028
 30
-0.0000000000000077
 11
-18.74999999999999
 21
-24.50000000000029
 31
-0.0000000000000077
210
0.0
220
1.0
230
0.0
  0
LINE
  5
2EF
330
1F
100
AcDbEntity
  8
PV-141
100
AcDbLine
 10
-20.74999999999998
 20
-24.50000000000029
 30
-0.000000000000008
 11
-18.74999999999999
 21
-24.50000000000029
 31
-0.0000000000000077
210
0.0
220
1.0
230
0.0
  0
LINE
  5
2F0
330
1F
100
AcDbEntity
  8
PV-141
100
AcDbLine
 10
-24.74999999999998
 20
-23.42820323027577
 30
-0.0000000000000085
 11
-20.74999999999997
 21
-24.50000000000026
 31
-0.000000000000008
210
0.0
220
1.0
230
0.0
  0
LINE
  5
2F1
330
1F
100
AcDbEntity
  8
PV-141
100
AcDbLine
 10
-24.75
 20
-4.771796769724744
 30
-0.0000000000000085
 11
-24.74999999999998
 21
-23.42820323027577
 31
-0.0000000000000085
210
0.0
220
1.0
230
0.0
  0
LINE
  5
2F2
330
1F
100
AcDbEntity
  8
PV-141
100
AcDbLine
 10
3.749999999999992
 20
50.00000000000008
 30
-0.000000000000005
 11
3.749999999999992
 21
51.00000000000008
 31
-0.000000000000005
210
0.0
220
1.0
230
0.0
  0
LINE
  5
2F3
330
1F
100
AcDbEntity
  8
PV-141
100
AcDbLine
 10
24.74999999999999
 20
50.00000000000009
 30
-0.0000000000000024
 11
24.74999999999999
 21
51.0000000000001
 31
-0.0000000000000024
210
0.0
220
1.0
230
0.0
  0
LINE
  5
2F4
330
1F
100
AcDbEntity
  8
PV-141
100
AcDbLine
 10
24.75
 20
20.00000000000009
 30
-0.0000000000000024
 11
24.74999999999999
 21
50.00000000000009
 31
-0.0000000000000024
210
0.0
220
1.0
230
0.0
  0
LINE
  5
2F5
330
1F
100
AcDbEntity
  8
PV-141
100
AcDbLine
 10
3.750000000000021
 20
-51.00000000000011
 30
-0.000000000000005
 11
3.750000000000021
 21
-50.0000000000001
 31
-0.000000000000005
210
0.0
220
1.0
230
0.0
  0
LINE
  5
2F6
330
1F
100
AcDbEntity
  8
PV-141
100
AcDbLine
 10
24.75000000000002
 20
-51.00000000000011
 30
-0.0000000000000024
 11
24.75000000000002
 21
-50.0000000000001
 31
-0.0000000000000024
210
0.0
220
1.0
230
0.0
  0
LINE
  5
2F7
330
1F
100
AcDbEntity
  8
PV-141
100
AcDbLine
 10
24.75000000000002
 20
-50.0000000000001
 30
-0.0000000000000024
 11
24.75000000000002
 21
-20.0000000000001
 31
-0.0000000000000024
210
0.0
220
1.0
230
0.0
  0
ARC
  5
2F8
330
1F
100
AcDbEntity
  8
PV-141
100
AcDbCircle
 10
5.249999999999992
 20
51.00000000000008
 30
-0.0000000000000048
 40
1.5
100
AcDbArc
 50
89.99999999999797
 51
180.0
  0
ARC
  5
2F9
330
1F
100
AcDbEntity
  8
PV-141
100
AcDbCircle
 10
23.25
 20
51.0000000000001
 30
-0.0000000000000026
 40
1.5
100
AcDbArc
 50
0.0
 51
90.00000000000122
  0
ARC
  5
2FA
330
1F
100
AcDbEntity
  8
PV-141
100
AcDbCircle
 10
5.250000000000021
 20
-51.00000000000011
 30
-0.0000000000000048
 40
1.5
100
AcDbArc
 50
180.0000000000002
 51
270.0000000000008
  0
ARC
  5
2FB
330
1F
100
AcDbEntity
  8
PV-141
100
AcDbCircle
 10
23.25000000000002
 20
-51.00000000000011
 30
-0.0000000000000026
 40
1.5
100
AcDbArc
 50
269.9999999999979
 51
359.9999999999997
  0
LINE
  5
2FD
330
1F
100
AcDbEntity
  8
PV-141
100
AcDbLine
 10
41.15000001400001
 20
49.99999999999989
 30
-0.0000000000000052
 11
38.65000001400001
 21
49.99999999999989
 31
-0.0000000000000057
210
0.0
220
1.0
230
0.0
  0
LINE
  5
2FE
330
1F
100
AcDbEntity
  8
PV-141
100
AcDbLine
 10
41.150000014
 20
-50.0000000000001
 30
-0.0000000000000052
 11
38.650000014
 21
-50.0000000000001
 31
-0.0000000000000057
210
0.0
220
1.0
230
0.0
  0
LINE
  5
2FF
330
1F
100
AcDbEntity
  8
PV-141
100
AcDbLine
 10
42.15000001400001
 20
49.34856819162654
 30
-0.000000000000005
 11
52.45000001400002
 21
49.34856819162654
 31
-0.0000000000000031
210
0.0
220
1.0
230
0.0
  0
LINE
  5
300
330
1F
100
AcDbEntity
  8
PV-141
100
AcDbLine
 10
52.45000001400001
 20
-49.34856819162675
 30
-0.0000000000000031
 11
42.15000001400001
 21
-49.34856819162675
 31
-0.000000000000005
210
0.0
220
1.0
230
0.0
  0
LINE
  5
301
330
1F
100
AcDbEntity
  8
PV-141
100
AcDbLine
 10
41.150000014
 20
-50.0000000000001
 30
-0.0000000000000052
 11
41.150000014
 21
-38.0000000000001
 31
-0.0000000000000052
210
0.0
220
1.0
230
0.0
  0
LINE
  5
302
330
1F
100
AcDbEntity
  8
PV-141
100
AcDbLine
 10
41.150000014
 20
-38.0000000000001
 30
-0.0000000000000052
 11
41.15000001400001
 21
37.9999999999999
 31
-0.0000000000000052
210
0.0
220
1.0
230
0.0
  0
LINE
  5
303
330
1F
100
AcDbEntity
  8
PV-141
100
AcDbLine
 10
41.15000001400001
 20
49.9999999999999
 30
-0.0000000000000052
 11
41.15000001400001
 21
37.9999999999999
 31
-0.0000000000000052
210
0.0
220
1.0
230
0.0
  0
SPLINE
  5
304
330
1F
100
AcDbEntity
  8
PV-141
100
AcDbSpline
210
-0.000000000000001
220
0.0000000000000038
230
-1.0
 70
     8
 71
     3
 72
    14
 73
    10
 74
     0
 42
0.0000000001
 43
0.0000000001
 40
0.0
 40
0.0
 40
0.0
 40
0.0
 40
0.0003986139723433
 40
0.0003986139723433
 40
0.0007972279446866
 40
0.0007972279446866
 40
0.0011958419170298
 40
0.0011958419170298
 40
0.0015944558893731
 40
0.0015944558893731
 40
0.0015944558893731
 40
0.0015944558893731
 10
42.15000001400001
 20
-49.34856819162675
 30
-0.000000000000005
 10
42.01515995882021
 20
-49.34856819162674
 30
-0.0000000000000051
 10
41.88279141008147
 20
-49.35804826759067
 30
-0.0000000000000051
 10
41.63895017745924
 20
-49.39264922586333
 30
-0.0000000000000051
 10
41.52813316600472
 20
-49.41775893681266
 30
-0.0000000000000051
 10
41.34610605357517
 20
-49.47597311715023
 30
-0.0000000000000052
 10
41.2733493309453
 20
-49.50950578237762
 30
-0.0000000000000052
 10
41.17584519185884
 20
-49.57713592858179
 30
-0.0000000000000052
 10
41.150000014
 20
-49.61176027648392
 30
-0.0000000000000052
 10
41.150000014
 20
-49.64431191612465
 30
-0.0000000000000052
  0
SPLINE
  5
305
330
1F
100
AcDbEntity
  8
PV-141
100
AcDbSpline
210
-0.000000000000001
220
-0.0000000000000038
230
-1.0
 70
     8
 71
     3
 72
    14
 73
    10
 74
     0
 42
0.0000000001
 43
0.0000000001
 40
0.0
 40
0.0
 40
0.0
 40
0.0
 40
0.0003986241037927
 40
0.0003986241037927
 40
0.0007972482075854
 40
0.0007972482075854
 40
0.0011958723113781
 40
0.0011958723113781
 40
0.0015944964151707
 40
0.0015944964151707
 40
0.0015944964151707
 40
0.0015944964151707
 10
41.15000001400001
 20
49.64431191612444
 30
-0.0000000000000052
 10
41.15000001400001
 20
49.61173604621558
 30
-0.0000000000000052
 10
41.17527478557012
 20
49.57760077067558
 30
-0.0000000000000052
 10
41.27331749247647
 20
49.50945908849845
 30
-0.0000000000000052
 10
41.34550398229111
 20
49.47619527814355
 30
-0.0000000000000052
 10
41.52793896322098
 20
49.41779156155463
 30
-0.0000000000000051
 10
41.63875661604788
 20
49.3927123296844
 30
-0.0000000000000051
 10
41.88156562315841
 20
49.35818677632983
 30
-0.0000000000000051
 10
42.0150509343561
 20
49.34856819162654
 30
-0.0000000000000051
 10
42.15000001400001
 20
49.34856819162654
 30
-0.000000000000005
  0
LINE
  5
306
330
1F
100
AcDbEntity
  8
PV-141
100
AcDbLine
 10
53.45000001400002
 20
48.95399470512916
 30
-0.0000000000000029
 11
53.450000014
 21
-48.95399470512938
 31
-0.0000000000000029
210
0.0
220
1.0
230
0.0
  0
SPLINE
  5
307
330
1F
100
AcDbEntity
  8
PV-141
100
AcDbSpline
210
-0.0000000000000007
220
0.0000000000000021
230
-1.0
 70
     8
 71
     3
 72
    14
 73
    10
 74
     0
 42
0.0000000001
 43
0.0000000001
 40
0.0
 40
0.0
 40
0.0
 40
0.0
 40
0.0004059635003688
 40
0.0004059635003688
 40
0.0008119270007376
 40
0.0008119270007376
 40
0.0012178905011064
 40
0.0012178905011064
 40
0.0016238540014751
 40
0.0016238540014751
 40
0.0016238540014751
 40
0.0016238540014751
 10
53.450000014
 20
-48.95399470512938
 30
-0.0000000000000029
 10
53.450000014
 20
-49.01001033586251
 30
-0.0000000000000029
 10
53.42699770724525
 20
-49.06262613047317
 30
-0.000000000000003
 10
53.33293760431688
 20
-49.15968026210894
 30
-0.000000000000003
 10
53.26338093738687
 20
-49.20222907038073
 30
-0.000000000000003
 10
53.08111354396428
 20
-49.27350574263687
 30
-0.000000000000003
 10
52.97016304560999
 20
-49.30127413684787
 30
-0.000000000000003
 10
52.72306917297443
 20
-49.33882772906946
 30
-0.0000000000000031
 10
52.58751634446813
 20
-49.34856819162675
 30
-0.0000000000000031
 10
52.45000001400001
 20
-49.34856819162675
 30
-0.0000000000000031
  0
SPLINE
  5
308
330
1F
100
AcDbEntity
  8
PV-141
100
AcDbSpline
210
-0.0000000000000007
220
-0.0000000000000021
230
-1.0
 70
     8
 71
     3
 72
    14
 73
    10
 74
     0
 42
0.0000000001
 43
0.0000000001
 40
0.0
 40
0.0
 40
0.0
 40
0.0
 40
0.0004059857219147
 40
0.0004059857219147
 40
0.0008119714438295
 40
0.0008119714438295
 40
0.0012179571657442
 40
0.0012179571657442
 40
0.001623942887659
 40
0.001623942887659
 40
0.001623942887659
 40
0.001623942887659
 10
52.45000001400002
 20
49.34856819162654
 30
-0.0000000000000031
 10
52.58731523498635
 20
49.34856819162654
 30
-0.0000000000000031
 10
52.72226316840101
 20
49.33890193637068
 30
-0.0000000000000031
 10
52.96932133032939
 20
49.30145003071103
 30
-0.000000000000003
 10
53.08105807378701
 20
49.27345376532361
 30
-0.000000000000003
 10
53.2621292625382
 20
49.20279168380154
 30
-0.000000000000003
 10
53.33292587968539
 20
49.15957698187899
 30
-0.000000000000003
 10
53.42645383106749
 20
49.06330201282133
 30
-0.000000000000003
 10
53.45000001400002
 20
49.00995803148809
 30
-0.0000000000000029
 10
53.45000001400002
 20
48.95399470512916
 30
-0.0000000000000029
  0
LINE
  5
309
330
1F
100
AcDbEntity
  8
PV-141
100
AcDbLine
 10
38.65000001400001
 20
37.9999999999999
 30
-0.0000000000000057
 11
38.65000001400001
 21
49.98499061326282
 31
-0.0000000000000057
210
0.0
220
1.0
230
0.0
  0
LINE
  5
30A
330
1F
100
AcDbEntity
  8
PV-141
100
AcDbLine
 10
38.65000001400001
 20
49.987492177719
 30
-0.0000000000000057
 11
38.65000001400001
 21
49.9999999999999
 31
-0.0000000000000057
210
0.0
220
1.0
230
0.0
  0
LINE
  5
30B
330
1F
100
AcDbEntity
  8
PV-141
100
AcDbLine
 10
38.650000014
 20
-38.0000000000001
 30
-0.0000000000000057
 11
38.65000001400001
 21
37.99999999999989
 31
-0.0000000000000057
210
0.0
220
1.0
230
0.0
  0
LINE
  5
30C
330
1F
100
AcDbEntity
  8
PV-141
100
AcDbLine
 10
38.650000014
 20
-50.0000000000001
 30
-0.0000000000000057
 11
38.650000014
 21
-38.0000000000001
 31
-0.0000000000000057
210
0.0
220
1.0
230
0.0
  0
LINE
  5
30D
330
1F
100
AcDbEntity
  8
PV-141
100
AcDbLine
 10
76.65000001400001
 20
-20.0000000000001
 30
0.0000000000000013
 11
66.86416056598504
 21
-20.0000000000001
 31
-0.0000000000000005
210
0.0
220
1.0
230
0.0
  0
LINE
  5
30E
330
1F
100
AcDbEntity
  8
PV-141
100
AcDbLine
 10
54.15000001400002
 20
-48.07275543012295
 30
-0.0000000000000028
 11
53.69012425711606
 21
-48.07275543012295
 31
-0.0000000000000029
210
0.0
220
1.0
230
0.0
  0
SPLINE
  5
30F
330
1F
100
AcDbEntity
  8
PV-141
100
AcDbSpline
210
-0.0000000000000009
220
-0.0000000000000062
230
-1.0
 70
     8
 71
     3
 72
     8
 73
     4
 74
     0
 42
0.0000000001
 43
0.0000000001
 40
0.0014897492227514
 40
0.0014897492227514
 40
0.0014897492227514
 40
0.0014897492227514
 40
0.0017303328857306
 40
0.0017303328857306
 40
0.0017303328857306
 40
0.0017303328857306
 10
53.45000001400001
 20
-48.03783692200841
 30
-0.0000000000000029
 10
53.5275036203819
 20
-48.06065521580961
 30
-0.0000000000000029
 10
53.60824031142879
 20
-48.07275543012337
 30
-0.0000000000000029
 10
53.69012425711606
 20
-48.07275543012295
 30
-0.0000000000000029
  0
LINE
  5
310
330
1F
100
AcDbEntity
  8
PV-141
100
AcDbLine
 10
54.15000001400002
 20
-20.0000000000001
 30
-0.0000000000000028
 11
53.45000001400001
 21
-20.0000000000001
 31
-0.0000000000000029
210
0.0
220
1.0
230
0.0
  0
LINE
  5
311
330
1F
100
AcDbEntity
  8
PV-141
100
AcDbLine
 10
76.65000001400001
 20
-50.0000000000001
 30
0.0000000000000013
 11
66.15000001400002
 21
-50.0000000000001
 31
-0.0000000000000006
210
0.0
220
1.0
230
0.0
  0
LINE
  5
312
330
1F
100
AcDbEntity
  8
PV-141
100
AcDbLine
 10
66.15000001400002
 20
-50.0000000000001
 30
-0.0000000000000006
 11
55.08530869854999
 21
-50.0000000000001
 31
-0.0000000000000026
210
0.0
220
1.0
230
0.0
  0
LINE
  5
313
330
1F
100
AcDbEntity
  8
PV-141
100
AcDbLine
 10
55.08530869854999
 20
-50.0000000000001
 30
-0.0000000000000026
 11
55.08530869854999
 21
-49.10969281153806
 31
-0.0000000000000026
210
0.0
220
1.0
230
0.0
  0
LINE
  5
314
330
1F
100
AcDbEntity
  8
PV-141
100
AcDbLine
 10
55.08530869854999
 20
-49.10969281153806
 30
-0.0000000000000026
 11
54.15000001400002
 21
-49.10969281153806
 31
-0.0000000000000028
210
0.0
220
1.0
230
0.0
  0
LINE
  5
315
330
1F
100
AcDbEntity
  8
PV-141
100
AcDbLine
 10
54.15000001400002
 20
-49.10969281153806
 30
-0.0000000000000028
 11
54.15000001400002
 21
-20.0000000000001
 31
-0.0000000000000028
210
0.0
220
1.0
230
0.0
  0
LINE
  5
316
330
1F
100
AcDbEntity
  8
PV-141
100
AcDbLine
 10
54.15506367425441
 20
-20.0000000000001
 30
-0.0000000000000028
 11
54.15000001400002
 21
-20.0000000000001
 31
-0.0000000000000028
210
0.0
220
1.0
230
0.0
  0
LINE
  5
317
330
1F
100
AcDbEntity
  8
PV-141
100
AcDbLine
 10
38.65000001400002
 20
-38.00000000000014
 30
-0.0000000000000057
 11
38.65000001400002
 21
-49.98499061326302
 31
-0.0000000000000057
210
0.0
220
1.0
230
0.0
  0
LINE
  5
318
330
1F
100
AcDbEntity
  8
PV-141
100
AcDbLine
 10
38.65000001400001
 20
37.9999999999999
 30
-0.0000000000000057
 11
38.65000001400001
 21
-38.0000000000001
 31
-0.0000000000000057
210
0.0
220
1.0
230
0.0
  0
LINE
  5
319
330
1F
100
AcDbEntity
  8
PV-141
100
AcDbLine
 10
38.65000001400002
 20
49.98499061326281
 30
-0.0000000000000057
 11
38.65000001400002
 21
37.99999999999986
 31
-0.0000000000000057
210
0.0
220
1.0
230
0.0
  0
LINE
  5
31A
330
1F
100
AcDbEntity
  8
PV-141
100
AcDbLine
 10
34.65000001400001
 20
49.98499061326281
 30
-0.0000000000000064
 11
34.65000001400001
 21
49.987492177719
 31
-0.0000000000000064
210
0.0
220
1.0
230
0.0
  0
LINE
  5
31B
330
1F
100
AcDbEntity
  8
PV-141
100
AcDbLine
 10
34.65000001400001
 20
37.99999999999995
 30
-0.0000000000000064
 11
34.65000001400001
 21
49.98499061326281
 31
-0.0000000000000064
210
0.0
220
1.0
230
0.0
  0
LINE
  5
31C
330
1F
100
AcDbEntity
  8
PV-141
100
AcDbLine
 10
34.65000001400001
 20
37.9999999999999
 30
-0.0000000000000064
 11
34.65000001400001
 21
-38.0000000000001
 31
-0.0000000000000064
210
0.0
220
1.0
230
0.0
  0
LINE
  5
31D
330
1F
100
AcDbEntity
  8
PV-141
100
AcDbLine
 10
34.65000001400001
 20
-49.98499061326301
 30
-0.0000000000000064
 11
34.65000001400001
 21
-38.00000000000006
 31
-0.0000000000000064
210
0.0
220
1.0
230
0.0
  0
LINE
  5
31E
330
1F
100
AcDbEntity
  8
PV-141
100
AcDbLine
 10
34.65000001400001
 20
-49.98749217771919
 30
-0.0000000000000064
 11
34.65000001400001
 21
-49.98499061326302
 31
-0.0000000000000064
210
0.0
220
1.0
230
0.0
  0
LINE
  5
31F
330
1F
100
AcDbEntity
  8
PV-141
100
AcDbLine
 10
54.15000001400002
 20
-43.5000000000001
 30
-0.0000000000000028
 11
53.450000014
 21
-43.5000000000001
 31
-0.0000000000000029
210
0.0
220
1.0
230
0.0
  0
LINE
  5
320
330
1F
100
AcDbEntity
  8
PV-141
100
AcDbLine
 10
54.15000001400002
 20
43.49999999999989
 30
-0.0000000000000028
 11
53.45000001400002
 21
43.49999999999989
 31
-0.0000000000000029
210
0.0
220
1.0
230
0.0
  0
ARC
  5
321
330
1F
100
AcDbEntity
  8
PV-141
100
AcDbCircle
 10
56.15000001400002
 20
20.4999999999999
 30
-0.0000000000000025
 40
3.000000000000002
100
AcDbArc
 50
131.810314895778
 51
154.1580672368329
  0
ARC
  5
322
330
1F
100
AcDbEntity
  8
PV-141
100
AcDbCircle
 10
56.15000001400002
 20
-20.50000000000009
 30
-0.0000000000000025
 40
2.999999999999999
100
AcDbArc
 50
205.8419327631667
 51
228.1896851042212
  0
LINE
  5
323
330
1F
100
AcDbEntity
  8
PV-141
100
AcDbLine
 10
55.65000001400001
 20
-51.0000000000001
 30
-0.0000000000000025
 11
55.65000001400001
 21
-50.0000000000001
 31
-0.0000000000000025
210
0.0
220
1.0
230
0.0
  0
LINE
  5
324
330
1F
100
AcDbEntity
  8
PV-141
100
AcDbLine
 10
66.15000001400005
 20
-50.0000000000001
 30
-0.0000000000000006
 11
76.65000001400001
 21
-50.0000000000001
 31
0.0000000000000013
210
0.0
220
1.0
230
0.0
  0
LINE
  5
325
330
1F
100
AcDbEntity
  8
PV-141
100
AcDbLine
 10
76.65000001400001
 20
-51.0000000000001
 30
0.0000000000000013
 11
76.65000001400001
 21
-50.0000000000001
 31
0.0000000000000013
210
0.0
220
1.0
230
0.0
  0
ARC
  5
326
330
1F
100
AcDbEntity
  8
PV-141
100
AcDbCircle
 10
57.15000001400001
 20
-51.0000000000001
 30
-0.0000000000000023
 40
1.5
100
AcDbArc
 50
179.9999999999996
 51
270.0
  0
ARC
  5
327
330
1F
100
AcDbEntity
  8
PV-141
100
AcDbCircle
 10
75.15000001400001
 20
-51.0000000000001
 30
0.000000000000001
 40
1.499999999999998
100
AcDbArc
 50
270.0
 51
0.0
  0
LINE
  5
328
330
1F
100
AcDbEntity
  8
PV-141
100
AcDbLine
 10
75.15000001400001
 20
-52.5000000000001
 30
0.000000000000001
 11
57.15000001400001
 21
-52.5000000000001
 31
-0.0000000000000023
210
0.0
220
1.0
230
0.0
  0
LINE
  5
329
330
1F
100
AcDbEntity
  8
PV-141
100
AcDbLine
 10
76.65000001400001
 20
20.0000000000001
 30
0.0000000000000013
 11
66.15000001400002
 21
20.00000000000008
 31
-0.0000000000000006
210
0.0
220
1.0
230
0.0
  0
LINE
  5
32A
330
1F
100
AcDbEntity
  8
PV-141
100
AcDbLine
 10
54.15000001400002
 20
20.0000000000001
 30
-0.0000000000000028
 11
53.45000001400002
 21
20.0000000000001
 31
-0.0000000000000029
210
0.0
220
1.0
230
0.0
  0
SPLINE
  5
32B
330
1F
100
AcDbEntity
  8
PV-141
100
AcDbSpline
210
-0.0000000000000009
220
0.0000000000000062
230
-1.0
 70
     8
 71
     3
 72
     8
 73
     4
 74
     0
 42
0.0000000001
 43
0.0000000001
 40
0.0014897492227514
 40
0.0014897492227514
 40
0.0014897492227514
 40
0.0014897492227514
 40
0.0017303328857306
 40
0.0017303328857306
 40
0.0017303328857306
 40
0.0017303328857306
 10
53.45000001400002
 20
48.03783692200839
 30
-0.0000000000000029
 10
53.52750362038191
 20
48.0606552158096
 30
-0.0000000000000029
 10
53.6082403114288
 20
48.07275543012336
 30
-0.0000000000000029
 10
53.69012425711606
 20
48.07275543012294
 30
-0.0000000000000029
  0
LINE
  5
32C
330
1F
100
AcDbEntity
  8
PV-141
100
AcDbLine
 10
54.15000001400002
 20
48.07275543012294
 30
-0.0000000000000028
 11
53.69012425711606
 21
48.07275543012294
 31
-0.0000000000000029
210
0.0
220
1.0
230
0.0
  0
LINE
  5
32D
330
1F
100
AcDbEntity
  8
PV-141
100
AcDbLine
 10
76.65000001400001
 20
50.0000000000001
 30
0.0000000000000013
 11
66.15000001400002
 21
50.00000000000009
 31
-0.0000000000000006
210
0.0
220
1.0
230
0.0
  0
LINE
  5
32E
330
1F
100
AcDbEntity
  8
PV-141
100
AcDbLine
 10
66.15000001400002
 20
20.0000000000001
 30
-0.0000000000000006
 11
59.15000001400002
 21
20.0000000000001
 31
-0.0000000000000019
210
0.0
220
1.0
230
0.0
  0
LINE
  5
32F
330
1F
100
AcDbEntity
  8
PV-141
100
AcDbLine
 10
55.15000001400001
 20
20.0000000000001
 30
-0.0000000000000026
 11
54.15000001400002
 21
20.0000000000001
 31
-0.0000000000000028
210
0.0
220
1.0
230
0.0
  0
LINE
  5
330
330
1F
100
AcDbEntity
  8
PV-141
100
AcDbLine
 10
54.15000001400002
 20
49.10969281153805
 30
-0.0000000000000028
 11
54.15000001400002
 21
20.0000000000001
 31
-0.0000000000000028
210
0.0
220
1.0
230
0.0
  0
LINE
  5
331
330
1F
100
AcDbEntity
  8
PV-141
100
AcDbLine
 10
55.08530869854999
 20
49.10969281153805
 30
-0.0000000000000026
 11
54.15000001400002
 21
49.10969281153805
 31
-0.0000000000000028
210
0.0
220
1.0
230
0.0
  0
LINE
  5
332
330
1F
100
AcDbEntity
  8
PV-141
100
AcDbLine
 10
55.08530869854999
 20
50.00000000000009
 30
-0.0000000000000026
 11
55.08530869854999
 21
49.10969281153805
 31
-0.0000000000000026
210
0.0
220
1.0
230
0.0
  0
LINE
  5
333
330
1F
100
AcDbEntity
  8
PV-141
100
AcDbLine
 10
66.15000001400002
 20
50.00000000000009
 30
-0.0000000000000006
 11
55.08530869854999
 21
50.00000000000009
 31
-0.0000000000000026
210
0.0
220
1.0
230
0.0
  0
LINE
  5
334
330
1F
100
AcDbEntity
  8
PV-141
100
AcDbLine
 10
76.65000001400001
 20
51.0000000000001
 30
0.0000000000000013
 11
76.65000001400001
 21
50.0000000000001
 31
0.0000000000000013
210
0.0
220
1.0
230
0.0
  0
LINE
  5
335
330
1F
100
AcDbEntity
  8
PV-141
100
AcDbLine
 10
66.15000001400005
 20
50.00000000000009
 30
-0.0000000000000006
 11
76.65000001400001
 21
50.0000000000001
 31
0.0000000000000013
210
0.0
220
1.0
230
0.0
  0
LINE
  5
336
330
1F
100
AcDbEntity
  8
PV-141
100
AcDbLine
 10
55.65000001400001
 20
51.0000000000001
 30
-0.0000000000000025
 11
55.65000001400001
 21
50.0000000000001
 31
-0.0000000000000025
210
0.0
220
1.0
230
0.0
  0
ARC
  5
337
330
1F
100
AcDbEntity
  8
PV-141
100
AcDbCircle
 10
75.15000001400001
 20
51.0000000000001
 30
0.000000000000001
 40
1.499999999999998
100
AcDbArc
 50
0.0
 51
90.0
  0
ARC
  5
338
330
1F
100
AcDbEntity
  8
PV-141
100
AcDbCircle
 10
57.15000001400001
 20
51.0000000000001
 30
-0.0000000000000023
 40
1.5
100
AcDbArc
 50
90.0
 51
180.0
  0
LINE
  5
339
330
1F
100
AcDbEntity
  8
PV-141
100
AcDbLine
 10
75.15000001400001
 20
52.5000000000001
 30
0.000000000000001
 11
57.15000001400001
 21
52.5000000000001
 31
-0.0000000000000023
210
0.0
220
1.0
230
0.0
  0
LINE
  5
33A
330
1F
100
AcDbEntity
  8
PV-141
100
AcDbLine
 10
54.15506367425441
 20
19.79999999999989
 30
-0.0000000000000028
 11
54.15506367425441
 21
-20.0000000000001
 31
-0.0000000000000028
210
0.0
220
1.0
230
0.0
  0
LINE
  5
33B
330
1F
100
AcDbEntity
  8
PV-141
100
AcDbLine
 10
54.15506367425441
 20
19.79999999999989
 30
-0.0000000000000028
 11
55.15000001400001
 21
19.79999999999989
 31
-0.0000000000000026
210
0.0
220
1.0
230
0.0
  0
LINE
  5
33C
330
1F
100
AcDbEntity
  8
PV-141
100
AcDbLine
 10
66.86416056598504
 20
19.79999999999989
 30
-0.0000000000000005
 11
59.15000001400002
 21
19.79999999999989
 31
-0.0000000000000019
210
0.0
220
1.0
230
0.0
  0
LINE
  5
33D
330
1F
100
AcDbEntity
  8
PV-141
100
AcDbLine
 10
54.15506367425441
 20
-20.0000000000001
 30
-0.0000000000000028
 11
55.15000001400001
 21
-20.0000000000001
 31
-0.0000000000000026
210
0.0
220
1.0
230
0.0
  0
LINE
  5
33E
330
1F
100
AcDbEntity
  8
PV-141
100
AcDbLine
 10
66.86416056598504
 20
-20.0000000000001
 30
-0.0000000000000005
 11
59.15000001400002
 21
-20.0000000000001
 31
-0.0000000000000019
210
0.0
220
1.0
230
0.0
  0
LINE
  5
33F
330
1F
100
AcDbEntity
  8
PV-141
100
AcDbLine
 10
76.65000001400001
 20
-20.0000000000001
 30
0.0000000000000013
 11
66.86416056598504
 21
-20.0000000000001
 31
-0.0000000000000005
210
0.0
220
1.0
230
0.0
  0
LINE
  5
340
330
1F
100
AcDbEntity
  8
PV-141
100
AcDbLine
 10
76.65000001400001
 20
19.79999999999989
 30
0.0000000000000013
 11
66.86416056598504
 21
19.79999999999989
 31
-0.0000000000000005
210
0.0
220
1.0
230
0.0
  0
LINE
  5
341
330
1F
100
AcDbEntity
  8
PV-141
100
AcDbLine
 10
59.15000001400002
 20
3.49999999999974
 30
-0.0000000000000019
 11
55.15000001397591
 21
3.49999999999974
 31
-0.0000000000000026
210
0.0
220
1.0
230
0.0
  0
LINE
  5
342
330
1F
100
AcDbEntity
  8
PV-141
100
AcDbLine
 10
59.15000001400002
 20
-3.700000000000264
 30
-0.0000000000000019
 11
55.15000001397591
 21
-3.700000000000264
 31
-0.0000000000000026
210
0.0
220
1.0
230
0.0
  0
LINE
  5
343
330
1F
100
AcDbEntity
  8
PV-141
100
AcDbLine
 10
59.15000001400002
 20
-24.50000000000028
 30
-0.0000000000000019
 11
55.15000001400001
 21
-24.50000000000028
 31
-0.0000000000000026
210
0.0
220
1.0
230
0.0
  0
LINE
  5
344
330
1F
100
AcDbEntity
  8
PV-141
100
AcDbLine
 10
59.15000001400002
 20
-31.70000000000027
 30
-0.0000000000000019
 11
55.15000001400001
 21
-31.70000000000027
 31
-0.0000000000000026
210
0.0
220
1.0
230
0.0
  0
LINE
  5
345
330
1F
100
AcDbEntity
  8
PV-141
100
AcDbLine
 10
59.15000001400002
 20
31.49999999999973
 30
-0.0000000000000019
 11
55.15000001400001
 21
31.49999999999973
 31
-0.0000000000000026
210
0.0
220
1.0
230
0.0
  0
LINE
  5
346
330
1F
100
AcDbEntity
  8
PV-141
100
AcDbLine
 10
59.15000001400002
 20
24.29999999999974
 30
-0.0000000000000019
 11
55.15000001400001
 21
24.29999999999974
 31
-0.0000000000000026
210
0.0
220
1.0
230
0.0
  0
LINE
  5
347
330
1F
100
AcDbEntity
  8
PV-141
100
AcDbLine
 10
55.15000001400001
 20
32.57179676972422
 30
-0.0000000000000026
 11
59.15000001400002
 21
32.57179676972422
 31
-0.0000000000000019
210
0.0
220
1.0
230
0.0
  0
LINE
  5
348
330
1F
100
AcDbEntity
  8
PV-141
100
AcDbLine
 10
55.15000001400001
 20
-40.10000000000027
 30
-0.0000000000000026
 11
59.15000001400002
 21
-40.10000000000027
 31
-0.0000000000000019
210
0.0
220
1.0
230
0.0
  0
LINE
  5
349
330
1F
100
AcDbEntity
  8
PV-141
100
AcDbLine
 10
59.15000001400002
 20
39.89999999999973
 30
-0.0000000000000019
 11
55.15000001400001
 21
39.89999999999973
 31
-0.0000000000000026
210
0.0
220
1.0
230
0.0
  0
LINE
  5
34A
330
1F
100
AcDbEntity
  8
PV-141
100
AcDbLine
 10
55.15000001400001
 20
23.22820323027524
 30
-0.0000000000000026
 11
59.15000001400002
 21
23.22820323027524
 31
-0.0000000000000019
210
0.0
220
1.0
230
0.0
  0
LINE
  5
34B
330
1F
100
AcDbEntity
  8
PV-141
100
AcDbLine
 10
55.15000001400001
 20
4.571796769724218
 30
-0.0000000000000026
 11
59.15000001400002
 21
4.571796769724218
 31
-0.0000000000000019
210
0.0
220
1.0
230
0.0
  0
LINE
  5
34C
330
1F
100
AcDbEntity
  8
PV-141
100
AcDbLine
 10
55.15000001400001
 20
-32.77179676972476
 30
-0.0000000000000026
 11
59.15000001400002
 21
-32.77179676972476
 31
-0.0000000000000019
210
0.0
220
1.0
230
0.0
  0
LINE
  5
34D
330
1F
100
AcDbEntity
  8
PV-141
100
AcDbLine
 10
55.15000001397591
 20
-4.77179676972474
 30
-0.0000000000000026
 11
59.15000001400002
 21
-4.77179676972474
 31
-0.0000000000000019
210
0.0
220
1.0
230
0.0
  0
LINE
  5
34E
330
1F
100
AcDbEntity
  8
PV-141
100
AcDbLine
 10
55.15000001400001
 20
-23.42820323027577
 30
-0.0000000000000026
 11
59.15000001400002
 21
-23.42820323027577
 31
-0.0000000000000019
210
0.0
220
1.0
230
0.0
  0
LINE
  5
34F
330
1F
100
AcDbEntity
  8
PV-141
100
AcDbLine
 10
55.15000001397591
 20
-3.700000000000264
 30
-0.0000000000000026
 11
55.15000001397591
 21
-4.771796769724751
 31
-0.0000000000000026
210
0.0
220
1.0
230
0.0
  0
LINE
  5
350
330
1F
100
AcDbEntity
  8
PV-141
100
AcDbLine
 10
55.15000001400001
 20
-4.77179676972475
 30
-0.0000000000000026
 11
55.15000001400001
 21
-23.42820323027579
 31
-0.0000000000000026
210
0.0
220
1.0
230
0.0
  0
LINE
  5
351
330
1F
100
AcDbEntity
  8
PV-141
100
AcDbLine
 10
55.15000001400001
 20
-24.50000000000028
 30
-0.0000000000000026
 11
55.15000001400001
 21
-23.42820323027579
 31
-0.0000000000000026
210
0.0
220
1.0
230
0.0
  0
LINE
  5
352
330
1F
100
AcDbEntity
  8
PV-141
100
AcDbLine
 10
55.15000001400001
 20
-24.50000000000028
 30
-0.0000000000000026
 11
55.15000001400001
 21
-31.70000000000027
 31
-0.0000000000000026
210
0.0
220
1.0
230
0.0
  0
LINE
  5
353
330
1F
100
AcDbEntity
  8
PV-141
100
AcDbLine
 10
55.15000001400001
 20
-31.70000000000027
 30
-0.0000000000000026
 11
55.15000001400001
 21
-32.77179676972477
 31
-0.0000000000000026
210
0.0
220
1.0
230
0.0
  0
LINE
  5
354
330
1F
100
AcDbEntity
  8
PV-141
100
AcDbLine
 10
55.15000001400001
 20
-32.77179676972476
 30
-0.0000000000000026
 11
55.15000001400001
 21
-37.10000000000027
 31
-0.0000000000000026
210
0.0
220
1.0
230
0.0
  0
LINE
  5
355
330
1F
100
AcDbEntity
  8
PV-141
100
AcDbLine
 10
55.15000001400001
 20
-37.10000000000027
 30
-0.0000000000000026
 11
55.15000001400001
 21
-40.10000000000027
 31
-0.0000000000000026
210
0.0
220
1.0
230
0.0
  0
LINE
  5
356
330
1F
100
AcDbEntity
  8
PV-141
100
AcDbLine
 10
55.15000001400001
 20
39.89999999999973
 30
-0.0000000000000026
 11
55.15000001400001
 21
36.89999999999972
 31
-0.0000000000000026
210
0.0
220
1.0
230
0.0
  0
LINE
  5
357
330
1F
100
AcDbEntity
  8
PV-141
100
AcDbLine
 10
55.15000001400001
 20
36.89999999999972
 30
-0.0000000000000026
 11
55.15000001400001
 21
32.57179676972422
 31
-0.0000000000000026
210
0.0
220
1.0
230
0.0
  0
LINE
  5
358
330
1F
100
AcDbEntity
  8
PV-141
100
AcDbLine
 10
55.15000001400001
 20
31.49999999999973
 30
-0.0000000000000026
 11
55.15000001400001
 21
32.57179676972422
 31
-0.0000000000000026
210
0.0
220
1.0
230
0.0
  0
LINE
  5
359
330
1F
100
AcDbEntity
  8
PV-141
100
AcDbLine
 10
55.15000001400001
 20
24.29999999999974
 30
-0.0000000000000026
 11
55.15000001400001
 21
31.49999999999973
 31
-0.0000000000000026
210
0.0
220
1.0
230
0.0
  0
LINE
  5
35A
330
1F
100
AcDbEntity
  8
PV-141
100
AcDbLine
 10
55.15000001400001
 20
24.29999999999974
 30
-0.0000000000000026
 11
55.15000001400001
 21
23.22820323027524
 31
-0.0000000000000026
210
0.0
220
1.0
230
0.0
  0
LINE
  5
35B
330
1F
100
AcDbEntity
  8
PV-141
100
AcDbLine
 10
55.15000001400001
 20
23.22820323027524
 30
-0.0000000000000026
 11
55.15000001400001
 21
4.571796769724222
 31
-0.0000000000000026
210
0.0
220
1.0
230
0.0
  0
LINE
  5
35C
330
1F
100
AcDbEntity
  8
PV-141
100
AcDbLine
 10
55.15000001397591
 20
3.49999999999974
 30
-0.0000000000000026
 11
55.15000001397591
 21
4.571796769724218
 31
-0.0000000000000026
210
0.0
220
1.0
230
0.0
  0
LINE
  5
35D
330
1F
100
AcDbEntity
  8
PV-141
100
AcDbLine
 10
55.15000001397591
 20
-3.700000000000264
 30
-0.0000000000000026
 11
55.15000001397591
 21
3.49999999999974
 31
-0.0000000000000026
210
0.0
220
1.0
230
0.0
  0
LINE
  5
35E
330
1F
100
AcDbEntity
  8
PV-141
100
AcDbLine
 10
59.15000001400002
 20
-4.771796769724748
 30
-0.0000000000000019
 11
59.15000001400002
 21
-3.700000000000262
 31
-0.0000000000000019
210
0.0
220
1.0
230
0.0
  0
LINE
  5
35F
330
1F
100
AcDbEntity
  8
PV-141
100
AcDbLine
 10
59.15000001400002
 20
3.499999999999744
 30
-0.0000000000000019
 11
59.15000001400002
 21
-3.700000000000264
 31
-0.0000000000000019
210
0.0
220
1.0
230
0.0
  0
LINE
  5
360
330
1F
100
AcDbEntity
  8
PV-141
100
AcDbLine
 10
59.15000001400002
 20
4.571796769724215
 30
-0.0000000000000019
 11
59.15000001400002
 21
3.499999999999737
 31
-0.0000000000000019
210
0.0
220
1.0
230
0.0
  0
LINE
  5
361
330
1F
100
AcDbEntity
  8
PV-141
100
AcDbLine
 10
59.15000001400002
 20
23.22820323027524
 30
-0.0000000000000019
 11
59.15000001400002
 21
4.571796769724222
 31
-0.0000000000000019
210
0.0
220
1.0
230
0.0
  0
LINE
  5
362
330
1F
100
AcDbEntity
  8
PV-141
100
AcDbLine
 10
59.15000001400002
 20
23.22820323027524
 30
-0.0000000000000019
 11
59.15000001400002
 21
24.29999999999974
 31
-0.0000000000000019
210
0.0
220
1.0
230
0.0
  0
LINE
  5
363
330
1F
100
AcDbEntity
  8
PV-141
100
AcDbLine
 10
59.15000001400002
 20
31.49999999999973
 30
-0.0000000000000019
 11
59.15000001400002
 21
24.29999999999974
 31
-0.0000000000000019
210
0.0
220
1.0
230
0.0
  0
LINE
  5
364
330
1F
100
AcDbEntity
  8
PV-141
100
AcDbLine
 10
59.15000001400002
 20
32.57179676972423
 30
-0.0000000000000019
 11
59.15000001400002
 21
31.49999999999973
 31
-0.0000000000000019
210
0.0
220
1.0
230
0.0
  0
LINE
  5
365
330
1F
100
AcDbEntity
  8
PV-141
100
AcDbLine
 10
59.15000001400002
 20
36.89999999999972
 30
-0.0000000000000019
 11
59.15000001400002
 21
32.57179676972422
 31
-0.0000000000000019
210
0.0
220
1.0
230
0.0
  0
LINE
  5
366
330
1F
100
AcDbEntity
  8
PV-141
100
AcDbLine
 10
59.15000001400002
 20
36.89999999999972
 30
-0.0000000000000019
 11
59.15000001400002
 21
39.89999999999973
 31
-0.0000000000000019
210
0.0
220
1.0
230
0.0
  0
LINE
  5
367
330
1F
100
AcDbEntity
  8
PV-141
100
AcDbLine
 10
59.15000001400002
 20
-40.10000000000027
 30
-0.0000000000000019
 11
59.15000001400002
 21
-37.10000000000027
 31
-0.0000000000000019
210
0.0
220
1.0
230
0.0
  0
LINE
  5
368
330
1F
100
AcDbEntity
  8
PV-141
100
AcDbLine
 10
59.15000001400002
 20
-32.77179676972476
 30
-0.0000000000000019
 11
59.15000001400002
 21
-37.10000000000027
 31
-0.0000000000000019
210
0.0
220
1.0
230
0.0
  0
LINE
  5
369
330
1F
100
AcDbEntity
  8
PV-141
100
AcDbLine
 10
59.15000001400002
 20
-32.77179676972476
 30
-0.0000000000000019
 11
59.15000001400002
 21
-31.70000000000027
 31
-0.0000000000000019
210
0.0
220
1.0
230
0.0
  0
LINE
  5
36A
330
1F
100
AcDbEntity
  8
PV-141
100
AcDbLine
 10
59.15000001400002
 20
-31.70000000000028
 30
-0.0000000000000019
 11
59.15000001400002
 21
-24.50000000000027
 31
-0.0000000000000019
210
0.0
220
1.0
230
0.0
  0
LINE
  5
36B
330
1F
100
AcDbEntity
  8
PV-141
100
AcDbLine
 10
59.15000001400001
 20
-23.42820323027577
 30
-0.0000000000000019
 11
59.15000001400001
 21
-24.50000000000025
 31
-0.0000000000000019
210
0.0
220
1.0
230
0.0
  0
LINE
  5
36C
330
1F
100
AcDbEntity
  8
PV-141
100
AcDbLine
 10
59.15000001400002
 20
-4.771796769724737
 30
-0.0000000000000019
 11
59.15000001400002
 21
-23.42820323027577
 31
-0.0000000000000019
210
0.0
220
1.0
230
0.0
  0
LINE
  5
36D
330
1F
100
AcDbEntity
  8
PV-141
100
AcDbLine
 10
76.65000001400001
 20
-20.0000000000001
 30
0.0000000000000013
 11
76.65000001400001
 21
19.79999999999989
 31
0.0000000000000013
210
0.0
220
1.0
230
0.0
  0
LINE
  5
36E
330
1F
100
AcDbEntity
  8
PV-141
100
AcDbLine
 10
76.65000001400001
 20
20.0000000000001
 30
0.0000000000000013
 11
76.65000001400001
 21
50.0000000000001
 31
0.0000000000000013
210
0.0
220
1.0
230
0.0
  0
LINE
  5
36F
330
1F
100
AcDbEntity
  8
PV-141
100
AcDbLine
 10
34.65000001400001
 20
-49.98749217771919
 30
-0.0000000000000064
 11
38.65000001400002
 21
-49.98749217771919
 31
-0.0000000000000057
210
0.0
220
1.0
230
0.0
  0
LINE
  5
370
330
1F
100
AcDbEntity
  8
PV-141
100
AcDbLine
 10
38.65000001400002
 20
49.987492177719
 30
-0.0000000000000057
 11
34.65000001400001
 21
49.987492177719
 31
-0.0000000000000064
210
0.0
220
1.0
230
0.0
  0
LINE
  5
371
330
1F
100
AcDbEntity
  8
PV-141
100
AcDbLine
 10
76.65000001400001
 20
-50.0000000000001
 30
0.0000000000000013
 11
76.65000001400001
 21
-20.0000000000001
 31
0.0000000000000013
210
0.0
220
1.0
230
0.0
  0
LINE
  5
373
330
1F
100
AcDbEntity
  8
PV-141
100
AcDbLine
 10
4.749999995000038
 20
-81.20000002400015
 30
0.0
 11
5.749999995000031
 21
-81.20000002400015
 31
0.0
  0
LINE
  5
374
330
1F
100
AcDbEntity
  8
PV-141
100
AcDbLine
 10
-16.25000000499998
 20
-68.90000002400014
 30
0.0
 11
-16.25000000499998
 21
-66.40000002400014
 31
0.0
  0
LINE
  5
375
330
1F
100
AcDbEntity
  8
PV-141
100
AcDbLine
 10
3.749999995000031
 20
-69.90000002400013
 30
0.0
 11
3.749999995000031
 21
-80.20000002400015
 31
0.0
  0
LINE
  5
376
330
1F
100
AcDbEntity
  8
PV-141
100
AcDbLine
 10
-4.250000004999819
 20
-68.90000002400014
 30
0.0
 11
-16.25000000499999
 21
-68.90000002400014
 31
0.0
  0
LINE
  5
377
330
1F
100
AcDbEntity
  8
PV-141
100
AcDbLine
 10
-0.150000004999967
 20
-68.90000002400014
 30
0.0
 11
-4.250000004999989
 21
-68.90000002400014
 31
0.0
  0
LINE
  5
378
330
1F
100
AcDbEntity
  8
PV-141
100
AcDbLine
 10
-0.150000004999967
 20
-68.90000002400014
 30
0.0
 11
2.749999995000031
 21
-68.90000002400014
 31
0.0
  0
LINE
  5
379
330
1F
100
AcDbEntity
  8
PV-141
100
AcDbLine
 10
5.749999995000031
 20
-81.20000002400015
 30
0.0
 11
5.749999995000031
 21
-69.90000002400013
 31
0.0
  0
LINE
  5
37A
330
1F
100
AcDbEntity
  8
PV-141
100
AcDbLine
 10
11.84999999500002
 20
-79.20000002400013
 30
0.0
 11
11.84999999500002
 21
-81.20000002400013
 31
0.0
  0
LINE
  5
37B
330
1F
100
AcDbEntity
  8
PV-141
100
AcDbLine
 10
11.22077120454888
 20
-81.20000002400013
 30
0.0
 11
11.84999999500002
 21
-81.20000002400013
 31
0.0
  0
LINE
  5
37C
330
1F
100
AcDbEntity
  8
PV-141
100
AcDbLine
 10
9.749999995000031
 20
-79.20000002400013
 30
0.0
 11
11.84999999500003
 21
-79.20000002400013
 31
0.0
  0
SPLINE
  5
37D
330
1F
100
AcDbEntity
  8
PV-141
100
AcDbSpline
210
0.0
220
0.0
230
1.0
 70
     8
 71
     3
 72
    14
 73
    10
 74
     0
 42
0.0000000001
 43
0.0000000001
 40
0.0
 40
0.0
 40
0.0
 40
0.0
 40
0.0003986241037927
 40
0.0003986241037927
 40
0.0007972482075854
 40
0.0007972482075854
 40
0.0011958723113781
 40
0.0011958723113781
 40
0.0015944964151707
 40
0.0015944964151707
 40
0.0015944964151707
 40
0.0015944964151707
 10
2.749999995000031
 20
-68.90000002400014
 30
0.0
 10
2.880801232985398
 20
-68.90000002400014
 30
0.0
 10
3.008277132052732
 20
-68.92527479557024
 30
0.0
 10
3.248220936869152
 20
-69.0233175024766
 30
0.0
 10
3.3580496365362
 20
-69.09550399229124
 30
0.0
 10
3.543711706335649
 20
-69.2779389732211
 30
0.0
 10
3.61948870792748
 20
-69.388756626048
 30
0.0
 10
3.722277430545751
 20
-69.63156563315853
 30
0.0
 10
3.749999995000031
 20
-69.76505094435623
 30
0.0
 10
3.749999995000031
 20
-69.90000002400013
 30
0.0
  0
SPLINE
  5
37E
330
1F
100
AcDbEntity
  8
PV-141
100
AcDbSpline
210
0.0
220
0.0
230
1.0
 70
     8
 71
     3
 72
    14
 73
    10
 74
     0
 42
0.0000000001
 43
0.0000000001
 40
0.0
 40
0.0
 40
0.0
 40
0.0
 40
0.0009499640180249
 40
0.0009499640180249
 40
0.0018999280360499
 40
0.0018999280360499
 40
0.0028498920540748
 40
0.0028498920540748
 40
0.0037998560720997
 40
0.0037998560720997
 40
0.0037998560720997
 40
0.0037998560720997
 10
5.749999995000031
 20
-69.90000002400013
 30
0.0
 10
5.749999995000031
 20
-69.57836923375356
 30
0.0
 10
5.699313282591049
 20
-69.26621757124024
 30
0.0
 10
5.50218229909619
 20
-68.66483945516415
 30
0.0
 10
5.360203373772748
 20
-68.38955783360083
 30
0.0
 10
4.999416991309381
 20
-67.89133866234422
 30
0.0
 10
4.78704374236144
 20
-67.67681062167991
 30
0.0
 10
4.300483853093162
 20
-67.3138604003437
 30
0.0
 10
4.036294047875827
 20
-67.17279313235472
 30
0.0
 10
3.749999995000031
 20
-67.07157289925394
 30
0.0
  0
SPLINE
  5
37F
330
1F
100
AcDbEntity
  8
PV-141
100
AcDbSpline
210
0.0
220
0.0
230
1.0
 70
     8
 71
     3
 72
    14
 73
    10
 74
     0
 42
0.0000000001
 43
0.0000000001
 40
0.0
 40
0.0
 40
0.0
 40
0.0
 40
0.0004059857219147
 40
0.0004059857219147
 40
0.0008119714438295
 40
0.0008119714438295
 40
0.0012179571657442
 40
0.0012179571657442
 40
0.001623942887659
 40
0.001623942887659
 40
0.001623942887659
 40
0.001623942887659
 10
3.749999995000031
 20
-80.20000002400015
 30
0.0
 10
3.749999995000031
 20
-80.33731524498646
 30
0.0
 10
3.77842053888569
 20
-80.47226317840113
 30
0.0
 10
3.884899286877697
 20
-80.71932134032952
 30
0.0
 10
3.963318981175831
 20
-80.83105808378714
 30
0.0
 10
4.152047341353913
 20
-81.01212927253831
 30
0.0
 10
4.263625507020933
 20
-81.0829258896855
 30
0.0
 10
4.499687849894023
 20
-81.1764538410676
 30
0.0
 10
4.624893468343451
 20
-81.20000002400015
 30
0.0
 10
4.749999995000031
 20
-81.20000002400015
 30
0.0
  0
LINE
  5
380
330
1F
100
AcDbEntity
  8
PV-141
100
AcDbLine
 10
3.749999995000031
 20
-66.40000002400014
 30
0.0
 11
3.749999995000031
 21
-67.07157289925394
 31
0.0
  0
LINE
  5
381
330
1F
100
AcDbEntity
  8
PV-141
100
AcDbLine
 10
-4.250000004999989
 20
-66.40000002400014
 30
0.0
 11
-0.150000004999967
 21
-66.40000002400014
 31
0.0
  0
LINE
  5
382
330
1F
100
AcDbEntity
  8
PV-141
100
AcDbLine
 10
-16.25000000499999
 20
-66.40000002400014
 30
0.0
 11
-4.850000004999976
 21
-66.40000002400014
 31
0.0
  0
LINE
  5
383
330
1F
100
AcDbEntity
  8
PV-141
100
AcDbLine
 10
-0.150000004999967
 20
-66.40000002400014
 30
0.0
 11
3.749999995000038
 21
-66.40000002400014
 31
0.0
  0
LINE
  5
384
330
1F
100
AcDbEntity
  8
PV-141
100
AcDbLine
 10
-2.750000004999968
 20
-62.40000002400013
 30
0.0
 11
-2.750000004999968
 21
-66.40000002400014
 31
0.0
  0
ARC
  5
385
330
1F
100
AcDbEntity
  8
PV-141
100
AcDbCircle
 10
4.749999995000017
 20
-67.40000002400015
 30
0.0
 40
1.0
100
AcDbArc
 50
0.0
 51
90.0
  0
ARC
  5
386
330
1F
100
AcDbEntity
  8
PV-141
100
AcDbCircle
 10
4.749999995000017
 20
-67.40000002400015
 30
0.0
 40
5.0
100
AcDbArc
 50
0.0
 51
90.0
  0
LINE
  5
387
330
1F
100
AcDbEntity
  8
PV-141
100
AcDbLine
 10
-16.25000000499998
 20
-66.40000002400014
 30
0.0
 11
-16.25000000499998
 21
-62.40000002400013
 31
0.0
  0
LINE
  5
388
330
1F
100
AcDbEntity
  8
PV-141
100
AcDbLine
 10
-4.850000004999976
 20
-66.40000002400014
 30
0.0
 11
-16.25000000499998
 21
-66.40000002400014
 31
0.0
  0
LINE
  5
389
330
1F
100
AcDbEntity
  8
PV-141
100
AcDbLine
 10
4.749999995000017
 20
-66.40000002400014
 30
0.0
 11
3.749999995000031
 21
-66.40000002400014
 31
0.0
  0
LINE
  5
38A
330
1F
100
AcDbEntity
  8
PV-141
100
AcDbLine
 10
0.2499999950000316
 20
-62.40000002400013
 30
0.0
 11
-2.750000004999968
 21
-62.40000002400013
 31
0.0
  0
LINE
  5
38B
330
1F
100
AcDbEntity
  8
PV-141
100
AcDbLine
 10
-4.850000004999976
 20
-62.40000002400013
 30
0.0
 11
-2.750000004999989
 21
-62.40000002400013
 31
0.0
  0
LINE
  5
38C
330
1F
100
AcDbEntity
  8
PV-141
100
AcDbLine
 10
-16.25000000499998
 20
-62.40000002400013
 30
0.0
 11
-4.850000004999976
 21
-62.40000002400013
 31
0.0
  0
LINE
  5
38D
330
1F
100
AcDbEntity
  8
PV-141
100
AcDbLine
 10
0.2499999950000316
 20
-62.40000002400013
 30
0.0
 11
4.749999995000017
 21
-62.40000002400013
 31
0.0
  0
LINE
  5
38E
330
1F
100
AcDbEntity
  8
PV-141
100
AcDbLine
 10
5.749999995000017
 20
-69.90000002400013
 30
0.0
 11
5.749999995000017
 21
-67.40000002400015
 31
0.0
  0
LINE
  5
38F
330
1F
100
AcDbEntity
  8
PV-141
100
AcDbLine
 10
9.749999995000017
 20
-80.92874679657301
 30
0.0
 11
9.749999995000017
 21
-67.40000002400015
 31
0.0
  0
SPLINE
  5
390
330
1F
100
AcDbEntity
  8
PV-141
100
AcDbSpline
210
0.0
220
0.0
230
1.0
 70
     8
 71
     3
 72
    14
 73
    10
 74
     0
 42
0.0000000001
 43
0.0000000001
 40
0.0
 40
0.0
 40
0.0
 40
0.0
 40
0.0003906076277808
 40
0.0003906076277808
 40
0.0007812152555616
 40
0.0007812152555616
 40
0.0011718228833424
 40
0.0011718228833424
 40
0.0015624305111232
 40
0.0015624305111232
 40
0.0015624305111232
 40
0.0015624305111232
 10
11.249999995
 20
-81.44012426711618
 30
0.0
 10
11.249999995
 20
-81.30804706765708
 30
0.0
 10
11.22401083650613
 20
-81.178447135868
 30
0.0
 10
11.12370040584227
 20
-80.93631911382395
 30
0.0
 10
11.04946736144093
 20
-80.82541954086538
 30
0.0
 10
10.86506384635863
 20
-80.6409331577869
 30
0.0
 10
10.75357745732407
 20
-80.56641836425354
 30
0.0
 10
10.51306657546184
 20
-80.46660064670325
 30
0.0
 10
10.38024792449726
 20
-80.44012426711619
 30
0.0
 10
10.249999995
 20
-80.44012426711619
 30
0.0
  0
LINE
  5
391
330
1F
100
AcDbEntity
  8
PV-141
100
AcDbLine
 10
11.249999995
 20
-81.44012426711618
 30
0.0
 11
11.249999995
 21
-83.22836705317287
 31
0.0
  0
LINE
  5
392
330
1F
100
AcDbEntity
  8
PV-141
100
AcDbLine
 10
10.249999995
 20
-80.44012426711619
 30
0.0
 11
9.749999995000017
 21
-80.44012426711619
 31
0.0
  0
LINE
  5
393
330
1F
100
AcDbEntity
  8
PV-141
100
AcDbLine
 10
8.768597983166728
 20
-80.44012426711619
 30
0.0
 11
5.74999999500001
 21
-80.44012426711619
 31
0.0
  0
SPLINE
  5
394
330
1F
100
AcDbEntity
  8
PV-141
100
AcDbSpline
210
0.0
220
0.0
230
1.0
 70
    24
 71
     3
 72
     8
 73
     4
 74
     0
 42
0.0000000001
 43
0.0000000001
 40
0.0014897492227514
 40
0.0014897492227514
 40
0.0014897492227514
 40
0.0014897492227514
 40
0.0017303328857306
 40
0.0017303328857306
 40
0.0017303328857306
 40
0.0017303328857306
 10
5.74999999500001
 20
-81.20000002400017
 30
0.0
 10
5.74999999500001
 20
-81.27750363038202
 30
0.0
 10
5.74999999500001
 20
-81.35824032142892
 30
0.0
 10
5.74999999500001
 20
-81.44012426711618
 30
0.0
  0
LINE
  5
395
330
1F
100
AcDbEntity
  8
PV-141
100
AcDbLine
 10
5.74999999500001
 20
-81.90000002400015
 30
0.0
 11
5.74999999500001
 21
-81.44012426711618
 31
0.0
  0
LINE
  5
396
330
1F
100
AcDbEntity
  8
PV-141
100
AcDbLine
 10
14.79952753555085
 20
-83.41438990907709
 30
0.0
 11
3.749999995000003
 21
-82.83530870855011
 31
0.0
  0
LINE
  5
397
330
1F
100
AcDbEntity
  8
PV-141
100
AcDbLine
 10
3.749999995000003
 20
-81.90000002400015
 30
0.0
 11
5.74999999500001
 21
-81.90000002400015
 31
0.0
  0
LINE
  5
398
330
1F
100
AcDbEntity
  8
PV-141
100
AcDbLine
 10
3.749999995000003
 20
-82.83530870855011
 30
0.0
 11
3.749999995000003
 21
-81.90000002400015
 31
0.0
  0
LINE
  5
399
330
1F
100
AcDbEntity
  8
PV-141
100
AcDbLine
 10
3.749999995000003
 20
-93.90000002400013
 30
0.0
 11
3.749999995000003
 21
-82.83530870855011
 31
0.0
  0
LINE
  5
39A
330
1F
100
AcDbEntity
  8
PV-141
100
AcDbLine
 10
14.749999995
 20
-93.90000002400013
 30
0.0
 11
14.2506494025932
 21
-93.90000002400013
 31
0.0
  0
LINE
  5
39B
330
1F
100
AcDbEntity
  8
PV-141
100
AcDbLine
 10
14.24935058740679
 20
-93.90000002400013
 30
0.0
 11
13.74999999499999
 21
-93.90000002400013
 31
0.0
  0
LINE
  5
39C
330
1F
100
AcDbEntity
  8
PV-141
100
AcDbLine
 10
14.749999995
 20
-95.90000002400014
 30
0.0
 11
14.749999995
 21
-94.40000002400013
 31
0.0
  0
LINE
  5
39D
330
1F
100
AcDbEntity
  8
PV-141
100
AcDbLine
 10
14.749999995
 20
-93.40000002400014
 30
0.0
 11
14.749999995
 21
-91.90000002400013
 31
0.0
  0
LINE
  5
39E
330
1F
100
AcDbEntity
  8
PV-141
100
AcDbLine
 10
14.749999995
 20
-91.90000002400013
 30
0.0
 11
13.74999999499999
 21
-91.90000002400013
 31
0.0
  0
LINE
  5
39F
330
1F
100
AcDbEntity
  8
PV-141
100
AcDbLine
 10
13.74999999499999
 20
-93.40000002400014
 30
0.0
 11
13.74999999499999
 21
-91.90000002400013
 31
0.0
  0
LINE
  5
3A0
330
1F
100
AcDbEntity
  8
PV-141
100
AcDbLine
 10
13.74999999499999
 20
-95.90000002400014
 30
0.0
 11
13.74999999499999
 21
-94.40000002400013
 31
0.0
  0
LINE
  5
3A1
330
1F
100
AcDbEntity
  8
PV-141
100
AcDbLine
 10
14.749999995
 20
-95.90000002400014
 30
0.0
 11
13.74999999499999
 21
-95.90000002400014
 31
0.0
  0
ARC
  5
3A2
330
1F
100
AcDbEntity
  8
PV-141
100
AcDbCircle
 10
14.249999995
 20
-93.90000002400013
 30
0.0
 40
10.5
100
AcDbArc
 50
269.9999999999983
 51
90.0
  0
LINE
  5
3A3
330
1F
100
AcDbEntity
  8
PV-141
100
AcDbLine
 10
12.249999995
 20
-93.40000002400014
 30
0.0
 11
12.249999995
 21
-94.40000002400013
 31
0.0
  0
LINE
  5
3A4
330
1F
100
AcDbEntity
  8
PV-141
100
AcDbLine
 10
16.24999999499999
 20
-94.40000002400013
 30
0.0
 11
16.24999999499999
 21
-93.40000002400014
 31
0.0
  0
LINE
  5
3A5
330
1F
100
AcDbEntity
  8
PV-141
100
AcDbLine
 10
13.74999999499999
 20
-94.40000002400013
 30
0.0
 11
14.749999995
 21
-94.40000002400013
 31
0.0
  0
LINE
  5
3A6
330
1F
100
AcDbEntity
  8
PV-141
100
AcDbLine
 10
13.74999999499999
 20
-94.40000002400013
 30
0.0
 11
12.249999995
 21
-94.40000002400013
 31
0.0
  0
LINE
  5
3A7
330
1F
100
AcDbEntity
  8
PV-141
100
AcDbLine
 10
16.24999999499999
 20
-94.40000002400013
 30
0.0
 11
14.749999995
 21
-94.40000002400013
 31
0.0
  0
LINE
  5
3A8
330
1F
100
AcDbEntity
  8
PV-141
100
AcDbLine
 10
13.74999999499999
 20
-94.39935061640694
 30
0.0
 11
14.24935058740679
 21
-93.90000002400013
 31
0.0
  0
LINE
  5
3A9
330
1F
100
AcDbEntity
  8
PV-141
100
AcDbLine
 10
13.74999999499999
 20
-93.40064943159333
 30
0.0
 11
14.24935058740679
 21
-93.90000002400013
 31
0.0
  0
LINE
  5
3AA
330
1F
100
AcDbEntity
  8
PV-141
100
AcDbLine
 10
13.74999999499999
 20
-94.39935061640694
 30
0.0
 11
13.74999999499999
 21
-93.40064943159333
 31
0.0
  0
LINE
  5
3AB
330
1F
100
AcDbEntity
  8
PV-141
100
AcDbLine
 10
14.249999995
 20
-94.40000002400013
 30
0.0
 11
14.249999995
 21
-93.40000002400014
 31
0.0
  0
LINE
  5
3AC
330
1F
100
AcDbEntity
  8
PV-141
100
AcDbLine
 10
14.749999995
 20
-93.40064943159333
 30
0.0
 11
14.749999995
 21
-94.39935061640694
 31
0.0
  0
LINE
  5
3AD
330
1F
100
AcDbEntity
  8
PV-141
100
AcDbLine
 10
14.749999995
 20
-93.40064943159333
 30
0.0
 11
14.2506494025932
 21
-93.90000002400013
 31
0.0
  0
LINE
  5
3AE
330
1F
100
AcDbEntity
  8
PV-141
100
AcDbLine
 10
14.749999995
 20
-94.39935061640694
 30
0.0
 11
14.2506494025932
 21
-93.90000002400013
 31
0.0
  0
LINE
  5
3AF
330
1F
100
AcDbEntity
  8
PV-141
100
AcDbLine
 10
14.749999995
 20
-93.40000002400014
 30
0.0
 11
16.24999999499999
 21
-93.40000002400014
 31
0.0
  0
LINE
  5
3B0
330
1F
100
AcDbEntity
  8
PV-141
100
AcDbLine
 10
12.249999995
 20
-93.40000002400014
 30
0.0
 11
13.74999999499999
 21
-93.40000002400014
 31
0.0
  0
LINE
  5
3B1
330
1F
100
AcDbEntity
  8
PV-141
100
AcDbLine
 10
14.749999995
 20
-93.40000002400014
 30
0.0
 11
13.74999999499999
 21
-93.40000002400014
 31
0.0
  0
ARC
  5
3B2
330
1F
100
AcDbEntity
  8
PV-141
100
AcDbCircle
 10
14.249999995
 20
-93.90000002400013
 30
0.0
 40
10.5
100
AcDbArc
 50
90.0
 51
270.0
  0
LINE
  5
3B3
330
1F
100
AcDbEntity
  8
PV-141
100
AcDbLine
 10
0.2499999950000173
 20
-86.90000002400015
 30
0.0
 11
3.24841636027854
 21
-86.90000002400015
 31
0.0
  0
LINE
  5
3B4
330
1F
100
AcDbEntity
  8
PV-141
100
AcDbLine
 10
3.249999995000003
 20
-82.90000002400013
 30
0.0
 11
0.2499999950000173
 21
-82.90000002400013
 31
0.0
  0
LINE
  5
3B5
330
1F
100
AcDbEntity
  8
PV-141
100
AcDbLine
 10
3.249999995000003
 20
-81.90506368425452
 30
0.0
 11
3.249999995000003
 21
-82.90000002400013
 31
0.0
  0
LINE
  5
3B6
330
1F
100
AcDbEntity
  8
PV-141
100
AcDbLine
 10
15.58417838531418
 20
-83.48510837680482
 30
0.0
 11
11.249999995
 21
-82.92988731987898
 31
0.0
  0
LINE
  5
3B7
330
1F
100
AcDbEntity
  8
PV-141
100
AcDbLine
 10
3.74999999500001
 20
-81.96911516148107
 30
0.0
 11
3.249999995000003
 21
-81.90506368425452
 31
0.0
  0
LINE
  5
3B8
330
1F
100
AcDbEntity
  8
PV-141
100
AcDbLine
 10
3.77431506722614
 20
-94.61416057598517
 30
0.0
 11
3.248416360278532
 21
-86.90000002400015
 31
0.0
  0
LINE
  5
3B9
330
1F
100
AcDbEntity
  8
PV-141
100
AcDbLine
 10
0.2499999950000173
 20
-86.90000002400013
 30
0.0
 11
0.2499999950000173
 21
-82.90000002400013
 31
0.0
  0
LINE
  5
3BA
330
1F
100
AcDbEntity
  8
PV-141
100
AcDbLine
 10
-24.750000005
 20
-82.90000002400013
 30
0.0
 11
-24.750000005
 21
-86.90000002400015
 31
0.0
  0
LINE
  5
3BB
330
1F
100
AcDbEntity
  8
PV-141
100
AcDbLine
 10
0.2499999950000173
 20
-82.90000002400013
 30
0.0
 11
-2.750000004999989
 21
-82.90000002400013
 31
0.0
  0
LINE
  5
3BC
330
1F
100
AcDbEntity
  8
PV-141
100
AcDbLine
 10
-2.750000004999989
 20
-82.90000002400013
 30
0.0
 11
-21.750000005
 21
-82.90000002400013
 31
0.0
  0
LINE
  5
3BD
330
1F
100
AcDbEntity
  8
PV-141
100
AcDbLine
 10
-21.750000005
 20
-82.90000002400013
 30
0.0
 11
-24.750000005
 21
-82.90000002400013
 31
0.0
  0
LINE
  5
3BE
330
1F
100
AcDbEntity
  8
PV-141
100
AcDbLine
 10
-24.750000005
 20
-86.90000002400015
 30
0.0
 11
-21.750000005
 21
-86.90000002400015
 31
0.0
  0
LINE
  5
3BF
330
1F
100
AcDbEntity
  8
PV-141
100
AcDbLine
 10
-21.750000005
 20
-86.90000002400015
 30
0.0
 11
-2.750000004999989
 21
-86.90000002400013
 31
0.0
  0
LINE
  5
3C0
330
1F
100
AcDbEntity
  8
PV-141
100
AcDbLine
 10
-2.750000004999989
 20
-86.90000002400013
 30
0.0
 11
0.2499999950000173
 21
-86.90000002400013
 31
0.0
  0
ENDSEC
  0
SECTION
  2
OBJECTS
  0
DICTIONARY
  5
C
330
0
100
AcDbDictionary
281
     1
  3
ACAD_GROUP
350
D
  3
ACAD_LAYOUT
350
1A
  3
ACAD_MLINESTYLE
350
17
  3
ACAD_PLOTSETTINGS
350
19
  3
ACAD_PLOTSTYLENAME
350
215
  3
ASE_INDEX_DICTIONARY
350
3C2
1001
ACAD
1000
TREAT_AS_HARD
1070
     0
  0
DICTIONARY
  5
20F
330
1F
100
AcDbDictionary
281
     1
  3
ACAD_LAYOUTSELFREF
350
210
  0
DICTIONARY
  5
20D
330
1B
100
AcDbDictionary
281
     1
  3
ACAD_LAYOUTSELFREF
350
20E
  0
DICTIONARY
  5
D
102
{ACAD_REACTORS
330
C
102
}
330
C
100
AcDbDictionary
281
     1
1001
ACAD
1000
TREAT_AS_HARD
1070
     0
  0
DICTIONARY
  5
1A
102
{ACAD_REACTORS
330
C
102
}
330
C
100
AcDbDictionary
281
     1
  3
Model
350
217
  3
Layout1
350
218
1001
ACAD
1000
TREAT_AS_HARD
1070
     0
  0
DICTIONARY
  5
17
102
{ACAD_REACTORS
330
C
102
}
330
C
100
AcDbDictionary
281
     1
  3
STANDARD
350
18
1001
ACAD
1000
TREAT_AS_HARD
1070
     0
  0
DICTIONARY
  5
19
102
{ACAD_REACTORS
330
C
102
}
330
C
100
AcDbDictionary
281
     1
1001
ACAD
1000
TREAT_AS_HARD
1070
     0
  0
ACDBDICTIONARYWDFLT
  5
215
102
{ACAD_REACTORS
330
C
102
}
330
C
100
AcDbDictionary
281
     1
  3
Normal
350
216
100
AcDbDictionaryWithDefault
340
216
  0
DICTIONARY
  5
3C2
102
{ACAD_REACTORS
330
C
102
}
330
C
100
AcDbDictionary
281
     1
  3
ASEBlockHierarchyIndexRecord
350
3C4
1001
DCO15
1040
1473997439.921
  0
XRECORD
  5
210
102
{ACAD_REACTORS
330
20F
102
}
330
20F
100
AcDbXrecord
280
     1
340
1F
  0
XRECORD
  5
20E
102
{ACAD_REACTORS
330
20D
102
}
330
20D
100
AcDbXrecord
280
     1
340
1B
  0
LAYOUT
  5
217
102
{ACAD_REACTORS
330
1A
102
}
330
1A
100
AcDbPlotSettings
  1

  2
\\PDC01\AROABM2L
  4

  6

 40
0.0
 41
0.0
 42
0.0
 43
0.0
 44
0.0
 45
0.0
 46
0.0
 47
0.0
 48
0.0
 49
0.0
140
0.0
141
0.0
142
1.0
143
1.0
 70
  1712
 72
     0
 73
     0
 74
     0
  7

 75
     0
147
1.0
148
0.0
149
0.0
100
AcDbLayout
  1
Model
 70
     1
 71
     0
 10
0.0
 20
0.0
 11
12.0
 21
9.0
 12
0.0
 22
0.0
 32
0.0
 14
0.0
 24
0.0
 34
0.0
 15
0.0
 25
0.0
 35
0.0
146
0.0
 13
0.0
 23
0.0
 33
0.0
 16
1.0
 26
0.0
 36
0.0
 17
0.0
 27
1.0
 37
0.0
 76
     0
330
1F
  0
LAYOUT
  5
218
102
{ACAD_REACTORS
330
1A
102
}
330
1A
100
AcDbPlotSettings
  1

  2
\\PDC01\AROABM2L
  4

  6

 40
0.0
 41
0.0
 42
0.0
 43
0.0
 44
0.0
 45
0.0
 46
0.0
 47
0.0
 48
0.0
 49
0.0
140
0.0
141
0.0
142
1.0
143
1.0
 70
   688
 72
     0
 73
     0
 74
     5
  7

 75
    16
147
1.0
148
0.0
149
0.0
100
AcDbLayout
  1
Layout1
 70
     1
 71
     1
 10
0.0
 20
0.0
 11
12.0
 21
9.0
 12
0.0
 22
0.0
 32
0.0
 14
1.000000000000000E+20
 24
1.000000000000000E+20
 34
1.000000000000000E+20
 15
-1.000000000000000E+20
 25
-1.000000000000000E+20
 35
-1.000000000000000E+20
146
0.0
 13
0.0
 23
0.0
 33
0.0
 16
1.0
 26
0.0
 36
0.0
 17
0.0
 27
1.0
 37
0.0
 76
     0
330
1B
  0
MLINESTYLE
  5
18
102
{ACAD_REACTORS
330
17
102
}
330
17
100
AcDbMlineStyle
  2
STANDARD
 70
     0
  3

 62
   256
 51
90.0
 52
90.0
 71
     2
 49
0.5
 62
   256
  6
BYLAYER
 49
-0.5
 62
   256
  6
BYLAYER
  0
ACDBPLACEHOLDER
  5
216
102
{ACAD_REACTORS
330
215
102
}
330
215
  0
XRECORD
  5
3C4
102
{ACAD_REACTORS
330
3C2
102
}
330
3C2
100
AcDbXrecord
280
     1
330
B4
330
131
330
1B2
330
208
  0
ENDSEC
  0
EOF
