  0
SECTION
  2
HEADER
  9
$ACADVER
  1
AC1014
  9
$ACADMAINTVER
 70
     9
  9
$DWGCODEPAGE
  3
ANSI_1252
  9
$INSBASE
 10
0.0
 20
0.0
 30
0.0
  9
$EXTMIN
 10
-77.03066018577986
 20
-134.420000024
 30
-0.0000000100000075
  9
$EXTMAX
 10
77.03066018577986
 20
82.81066017177991
 30
0.0000000100000021
  9
$LIMMIN
 10
0.0
 20
0.0
  9
$LIMMAX
 10
12.0
 20
9.0
  9
$ORTHOMODE
 70
     0
  9
$REGENMODE
 70
     1
  9
$FILLMODE
 70
     1
  9
$QTEXTMODE
 70
     0
  9
$MIRRTEXT
 70
     1
  9
$DRAGMODE
 70
     2
  9
$LTSCALE
 40
1.0
  9
$OSMODE
 70
    37
  9
$ATTMODE
 70
     1
  9
$TEXTSIZE
 40
0.2
  9
$TRACEWID
 40
0.05
  9
$TEXTSTYLE
  7
STANDARD
  9
$CLAYER
  8
0
  9
$CELTYPE
  6
BYLAYER
  9
$CECOLOR
 62
   256
  9
$CELTSCALE
 40
1.0
  9
$DELOBJ
 70
     1
  9
$DISPSILH
 70
     0
  9
$DIMSCALE
 40
1.0
  9
$DIMASZ
 40
0.18
  9
$DIMEXO
 40
0.0625
  9
$DIMDLI
 40
0.38
  9
$DIMRND
 40
0.0
  9
$DIMDLE
 40
0.0
  9
$DIMEXE
 40
0.18
  9
$DIMTP
 40
0.0
  9
$DIMTM
 40
0.0
  9
$DIMTXT
 40
0.18
  9
$DIMCEN
 40
0.09
  9
$DIMTSZ
 40
0.0
  9
$DIMTOL
 70
     0
  9
$DIMLIM
 70
     0
  9
$DIMTIH
 70
     1
  9
$DIMTOH
 70
     1
  9
$DIMSE1
 70
     0
  9
$DIMSE2
 70
     0
  9
$DIMTAD
 70
     0
  9
$DIMZIN
 70
     0
  9
$DIMBLK
  1

  9
$DIMASO
 70
     1
  9
$DIMSHO
 70
     1
  9
$DIMPOST
  1

  9
$DIMAPOST
  1

  9
$DIMALT
 70
     0
  9
$DIMALTD
 70
     2
  9
$DIMALTF
 40
25.4
  9
$DIMLFAC
 40
1.0
  9
$DIMTOFL
 70
     0
  9
$DIMTVP
 40
0.0
  9
$DIMTIX
 70
     0
  9
$DIMSOXD
 70
     0
  9
$DIMSAH
 70
     0
  9
$DIMBLK1
  1

  9
$DIMBLK2
  1

  9
$DIMSTYLE
  2
STANDARD
  9
$DIMCLRD
 70
     0
  9
$DIMCLRE
 70
     0
  9
$DIMCLRT
 70
     0
  9
$DIMTFAC
 40
1.0
  9
$DIMGAP
 40
0.09
  9
$DIMJUST
 70
     0
  9
$DIMSD1
 70
     0
  9
$DIMSD2
 70
     0
  9
$DIMTOLJ
 70
     1
  9
$DIMTZIN
 70
     0
  9
$DIMALTZ
 70
     0
  9
$DIMALTTZ
 70
     0
  9
$DIMFIT
 70
     3
  9
$DIMUPT
 70
     0
  9
$DIMUNIT
 70
     2
  9
$DIMDEC
 70
     4
  9
$DIMTDEC
 70
     4
  9
$DIMALTU
 70
     2
  9
$DIMALTTD
 70
     2
  9
$DIMTXSTY
  7
STANDARD
  9
$DIMAUNIT
 70
     0
  9
$LUNITS
 70
     2
  9
$LUPREC
 70
     4
  9
$SKETCHINC
 40
0.1
  9
$FILLETRAD
 40
0.5
  9
$AUNITS
 70
     0
  9
$AUPREC
 70
     0
  9
$MENU
  1
.
  9
$ELEVATION
 40
0.0
  9
$PELEVATION
 40
0.0
  9
$THICKNESS
 40
0.0
  9
$LIMCHECK
 70
     0
  9
$BLIPMODE
 70
     0
  9
$CHAMFERA
 40
0.5
  9
$CHAMFERB
 40
0.5
  9
$CHAMFERC
 40
1.0
  9
$CHAMFERD
 40
0.0
  9
$SKPOLY
 70
     0
  9
$TDCREATE
 40
2451762.583306134
  9
$TDUPDATE
 40
2452863.371613854
  9
$TDINDWG
 40
0.0004502315
  9
$TDUSRTIMER
 40
0.0004500463
  9
$USRTIMER
 70
     1
  9
$ANGBASE
 50
0.0
  9
$ANGDIR
 70
     0
  9
$PDMODE
 70
     0
  9
$PDSIZE
 40
0.0
  9
$PLINEWID
 40
0.0
  9
$COORDS
 70
     1
  9
$SPLFRAME
 70
     0
  9
$SPLINETYPE
 70
     6
  9
$SPLINESEGS
 70
     8
  9
$ATTDIA
 70
     0
  9
$ATTREQ
 70
     1
  9
$HANDLING
 70
  4097
  9
$HANDSEED
  5
3DA
  9
$SURFTAB1
 70
     6
  9
$SURFTAB2
 70
     6
  9
$SURFTYPE
 70
     6
  9
$SURFU
 70
     6
  9
$SURFV
 70
     6
  9
$UCSNAME
  2

  9
$UCSORG
 10
0.0
 20
0.0
 30
0.0
  9
$UCSXDIR
 10
1.0
 20
0.0
 30
0.0
  9
$UCSYDIR
 10
0.0
 20
1.0
 30
0.0
  9
$PUCSNAME
  2

  9
$PUCSORG
 10
0.0
 20
0.0
 30
0.0
  9
$PUCSXDIR
 10
1.0
 20
0.0
 30
0.0
  9
$PUCSYDIR
 10
0.0
 20
1.0
 30
0.0
  9
$USERI1
 70
     0
  9
$USERI2
 70
     0
  9
$USERI3
 70
     0
  9
$USERI4
 70
     0
  9
$USERI5
 70
     0
  9
$USERR1
 40
0.0
  9
$USERR2
 40
0.0
  9
$USERR3
 40
0.0
  9
$USERR4
 40
0.0
  9
$USERR5
 40
0.0
  9
$WORLDVIEW
 70
     1
  9
$SHADEDGE
 70
     3
  9
$SHADEDIF
 70
    70
  9
$TILEMODE
 70
     1
  9
$MAXACTVP
 70
    64
  9
$PINSBASE
 10
0.0
 20
0.0
 30
0.0
  9
$PLIMCHECK
 70
     0
  9
$PEXTMIN
 10
1.000000000000000E+20
 20
1.000000000000000E+20
 30
1.000000000000000E+20
  9
$PEXTMAX
 10
-1.000000000000000E+20
 20
-1.000000000000000E+20
 30
-1.000000000000000E+20
  9
$PLIMMIN
 10
0.0
 20
0.0
  9
$PLIMMAX
 10
12.0
 20
9.0
  9
$UNITMODE
 70
     0
  9
$VISRETAIN
 70
     1
  9
$PLINEGEN
 70
     0
  9
$PSLTSCALE
 70
     1
  9
$TREEDEPTH
 70
  3020
  9
$PICKSTYLE
 70
     1
  9
$CMLSTYLE
  2
STANDARD
  9
$CMLJUST
 70
     0
  9
$CMLSCALE
 40
1.0
  9
$PROXYGRAPHICS
 70
     1
  9
$MEASUREMENT
 70
     0
  0
ENDSEC
  0
SECTION
  2
CLASSES
  0
CLASS
  1
ACDBDICTIONARYWDFLT
  2
AcDbDictionaryWithDefault
  3
AutoCAD 2000
 90
        0
280
     0
281
     0
  0
CLASS
  1
ACDBPLACEHOLDER
  2
AcDbPlaceHolder
  3
AutoCAD 2000
 90
        0
280
     0
281
     0
  0
CLASS
  1
LAYOUT
  2
AcDbLayout
  3
AutoCAD 2000
 90
        0
280
     0
281
     0
  0
CLASS
  1
LONG_TRANSACTION
  2
AcDbLongTransaction
  3
AutoCAD 2000
 90
        0
280
     0
281
     0
  0
CLASS
  1
LWPOLYLINE
  2
AcDbPolyline
  3
AutoCAD 2000
 90
        0
280
     0
281
     1
  0
CLASS
  1
HATCH
  2
AcDbHatch
  3
AutoCAD 2000
 90
        0
280
     0
281
     1
  0
CLASS
  1
XRECORD
  2
AcDbXrecord
  3
AutoCAD 2000
 90
        0
280
     0
281
     0
  0
CLASS
  1
LONG_TRANSACTION
  2
AcDbLongTransaction
  3
AutoCAD 2000
 90
        0
280
     0
281
     0
  0
CLASS
  1
LWPOLYLINE
  2
AcDbPolyline
  3
AutoCAD 2000
 90
        0
280
     0
281
     1
  0
CLASS
  1
HATCH
  2
AcDbHatch
  3
AutoCAD 2000
 90
        0
280
     0
281
     1
  0
CLASS
  1
XRECORD
  2
AcDbXrecord
  3
AutoCAD 2000
 90
        0
280
     0
281
     0
  0
ENDSEC
  0
SECTION
  2
TABLES
  0
TABLE
  2
VPORT
  5
8
330
0
100
AcDbSymbolTable
 70
     2
  0
VPORT
  5
3B7
330
8
100
AcDbSymbolTableRecord
100
AcDbViewportTableRecord
  2
*ACTIVE
 70
     0
 10
0.0
 20
0.0
 11
1.0
 21
1.0
 12
0.0000000000000024
 22
-10.38013580431955
 13
0.0
 23
0.0
 14
0.5
 24
0.5
 15
0.5
 25
0.5
 16
0.0
 26
0.0
 36
1.0
 17
0.0
 27
0.0
 37
0.0
 40
250.9214751645662
 41
1.818713450292397
 42
50.0
 43
0.0
 44
0.0
 50
0.0
 51
0.0
 71
     0
 72
   100
 73
     1
 74
     3
 75
     0
 76
     0
 77
     0
 78
     0
  0
ENDTAB
  0
TABLE
  2
LTYPE
  5
5
330
0
100
AcDbSymbolTable
 70
     1
  0
LTYPE
  5
14
330
5
100
AcDbSymbolTableRecord
100
AcDbLinetypeTableRecord
  2
BYBLOCK
 70
     0
  3

 72
    65
 73
     0
 40
0.0
  0
LTYPE
  5
15
330
5
100
AcDbSymbolTableRecord
100
AcDbLinetypeTableRecord
  2
BYLAYER
 70
     0
  3

 72
    65
 73
     0
 40
0.0
  0
LTYPE
  5
16
330
5
100
AcDbSymbolTableRecord
100
AcDbLinetypeTableRecord
  2
CONTINUOUS
 70
     0
  3
Solid line
 72
    65
 73
     0
 40
0.0
  0
ENDTAB
  0
TABLE
  2
LAYER
  5
2
330
0
100
AcDbSymbolTable
 70
     2
  0
LAYER
  5
10
330
2
100
AcDbSymbolTableRecord
100
AcDbLayerTableRecord
  2
0
 70
     0
 62
     7
  6
CONTINUOUS
  0
LAYER
  5
B0
330
2
100
AcDbSymbolTableRecord
100
AcDbLayerTableRecord
  2
PV-B9
 70
     2
 62
     7
  6
CONTINUOUS
  0
ENDTAB
  0
TABLE
  2
STYLE
  5
3
330
0
100
AcDbSymbolTable
 70
     1
  0
STYLE
  5
11
330
3
100
AcDbSymbolTableRecord
100
AcDbTextStyleTableRecord
  2
STANDARD
 70
     0
 40
0.0
 41
1.0
 50
0.0
 71
     0
 42
0.2
  3
txt
  4

  0
ENDTAB
  0
TABLE
  2
VIEW
  5
6
330
0
100
AcDbSymbolTable
 70
     0
  0
ENDTAB
  0
TABLE
  2
UCS
  5
7
330
0
100
AcDbSymbolTable
 70
     0
  0
ENDTAB
  0
TABLE
  2
APPID
  5
9
330
0
100
AcDbSymbolTable
 70
     1
  0
APPID
  5
12
330
9
100
AcDbSymbolTableRecord
100
AcDbRegAppTableRecord
  2
ACAD
 70
     0
  0
ENDTAB
  0
TABLE
  2
DIMSTYLE
  5
A
330
0
100
AcDbSymbolTable
 70
     1
  0
DIMSTYLE
105
27
330
A
100
AcDbSymbolTableRecord
100
AcDbDimStyleTableRecord
  2
STANDARD
 70
     0
  3

  4

  5

  6

  7

 40
1.0
 41
0.18
 42
0.0625
 43
0.38
 44
0.18
 45
0.0
 46
0.0
 47
0.0
 48
0.0
140
0.18
141
0.09
142
0.0
143
25.4
144
1.0
145
0.0
146
1.0
147
0.09
 71
     0
 72
     0
 73
     1
 74
     1
 75
     0
 76
     0
 77
     0
 78
     0
170
     0
171
     2
172
     0
173
     0
174
     0
175
     0
176
     0
177
     0
178
     0
270
     2
271
     4
272
     4
273
     2
274
     2
340
11
275
     0
280
     0
281
     0
282
     0
283
     1
284
     0
285
     0
286
     0
287
     3
288
     0
  0
ENDTAB
  0
TABLE
  2
BLOCK_RECORD
  5
1
330
0
100
AcDbSymbolTable
 70
     8
  0
BLOCK_RECORD
  5
1F
102
{ACAD_XDICTIONARY
360
20A
102
}
330
1
100
AcDbSymbolTableRecord
100
AcDbBlockTableRecord
  2
*MODEL_SPACE
  0
BLOCK_RECORD
  5
1B
102
{ACAD_XDICTIONARY
360
208
102
}
330
1
100
AcDbSymbolTableRecord
100
AcDbBlockTableRecord
  2
*PAPER_SPACE
  0
BLOCK_RECORD
  5
48
330
1
100
AcDbSymbolTableRecord
100
AcDbBlockTableRecord
  2
*U0
  0
BLOCK_RECORD
  5
B2
330
1
100
AcDbSymbolTableRecord
100
AcDbBlockTableRecord
  2
FRONT
  0
BLOCK_RECORD
  5
B7
330
1
100
AcDbSymbolTableRecord
100
AcDbBlockTableRecord
  2
*U2
  0
BLOCK_RECORD
  5
12D
330
1
100
AcDbSymbolTableRecord
100
AcDbBlockTableRecord
  2
LEFT
  0
BLOCK_RECORD
  5
132
330
1
100
AcDbSymbolTableRecord
100
AcDbBlockTableRecord
  2
*U4
  0
BLOCK_RECORD
  5
1AC
330
1
100
AcDbSymbolTableRecord
100
AcDbBlockTableRecord
  2
RIGHT
  0
BLOCK_RECORD
  5
1B1
330
1
100
AcDbSymbolTableRecord
100
AcDbBlockTableRecord
  2
*U6
  0
BLOCK_RECORD
  5
202
330
1
100
AcDbSymbolTableRecord
100
AcDbBlockTableRecord
  2
TOP
  0
ENDTAB
  0
ENDSEC
  0
SECTION
  2
BLOCKS
  0
BLOCK
  5
20
330
1F
100
AcDbEntity
  8
0
100
AcDbBlockBegin
  2
*MODEL_SPACE
 70
     0
 10
0.0
 20
0.0
 30
0.0
  3
*MODEL_SPACE
  1

  0
ENDBLK
  5
21
330
1F
100
AcDbEntity
  8
0
100
AcDbBlockEnd
  0
BLOCK
  5
1C
330
1B
100
AcDbEntity
 67
     1
  8
0
100
AcDbBlockBegin
  2
*PAPER_SPACE
 70
     0
 10
0.0
 20
0.0
 30
0.0
  3
*PAPER_SPACE
  1

  0
ENDBLK
  5
1D
330
1B
100
AcDbEntity
 67
     1
  8
0
100
AcDbBlockEnd
  0
BLOCK
  5
AE
330
48
100
AcDbEntity
  8
0
100
AcDbBlockBegin
  2
*U0
 70
     1
 10
0.0
 20
0.0
 30
0.0
  3
*U0
  1
*ANON
  0
LINE
  5
49
330
48
100
AcDbEntity
  8
PV-B9
100
AcDbLine
 10
-28.12044334975368
 20
0.0
 30
-40.00000000000007
 11
-49.10355589060586
 21
0.0
 31
-40.00000000000007
  0
LINE
  5
4A
330
48
100
AcDbEntity
  8
PV-B9
100
AcDbLine
 10
-28.12044334975368
 20
0.0
 30
-80.00000000000008
 11
-49.12044334975369
 21
0.0
 31
-80.00000000000008
  0
LINE
  5
4B
330
48
100
AcDbEntity
  8
PV-B9
100
AcDbLine
 10
-49.12044334975369
 20
0.0
 30
-80.00000000000008
 11
-49.12044334975369
 21
0.0
 31
-40.00000000000007
  0
LINE
  5
4C
330
48
100
AcDbEntity
  8
PV-B9
100
AcDbLine
 10
-41.02044334975367
 20
0.0
 30
39.9999999999999
 11
-41.02044334975367
 21
0.0
 31
39.79999999999991
  0
LINE
  5
4D
330
48
100
AcDbEntity
  8
PV-B9
100
AcDbLine
 10
-57.12044334975368
 20
0.0
 30
-79.90000000000009
 11
-53.02044334975366
 21
0.0
 31
-79.90000000000009
  0
ARC
  5
4E
330
48
100
AcDbEntity
  8
PV-B9
100
AcDbCircle
 10
-57.12044334975368
 20
-67.90000000000009
 30
0.0
 40
11.99999999999999
210
0.0
220
-1.0
230
0.0
100
AcDbArc
 50
180.0
 51
270.0
  0
LINE
  5
4F
330
48
100
AcDbEntity
  8
PV-B9
100
AcDbLine
 10
-69.12044334975369
 20
0.0
 30
-67.90000000000009
 11
-69.12044334975369
 21
0.0
 31
-40.00000000000006
  0
LINE
  5
50
330
48
100
AcDbEntity
  8
PV-B9
100
AcDbLine
 10
-69.12044334975369
 20
0.0
 30
-34.95803989154989
 11
-69.12044334975369
 21
0.0
 31
-21.04196010845027
  0
LINE
  5
51
330
48
100
AcDbEntity
  8
PV-B9
100
AcDbLine
 10
-69.12044334975369
 20
0.0
 30
-15.92093727122992
 11
-69.12044334975369
 21
0.0
 31
-12.07906272877024
  0
LINE
  5
52
330
48
100
AcDbEntity
  8
PV-B9
100
AcDbLine
 10
-69.12044334975369
 20
0.0
 30
-6.9580398915499
 11
-69.12044334975369
 21
0.0
 31
6.958039891549731
  0
LINE
  5
53
330
48
100
AcDbEntity
  8
PV-B9
100
AcDbLine
 10
-69.12044334975369
 20
0.0
 30
12.07906272877008
 11
-69.12044334975369
 21
0.0
 31
15.92093727122974
  0
LINE
  5
54
330
48
100
AcDbEntity
  8
PV-B9
100
AcDbLine
 10
-69.12044334975369
 20
0.0
 30
21.04196010845011
 11
-69.12044334975369
 21
0.0
 31
34.95803989154973
  0
LINE
  5
55
330
48
100
AcDbEntity
  8
PV-B9
100
AcDbLine
 10
-69.12044334975369
 20
0.0
 30
39.99999999999994
 11
-69.12044334975369
 21
0.0
 31
68.09999999999991
  0
ARC
  5
56
330
48
100
AcDbEntity
  8
PV-B9
100
AcDbCircle
 10
-57.12044334975368
 20
68.09999999999991
 30
0.0
 40
11.99999999999999
210
0.0
220
-1.0
230
0.0
100
AcDbArc
 50
90.0
 51
180.0
  0
LINE
  5
57
330
48
100
AcDbEntity
  8
PV-B9
100
AcDbLine
 10
-53.02044334975366
 20
0.0
 30
80.09999999999989
 11
-57.12044334975368
 21
0.0
 31
80.09999999999989
  0
ARC
  5
58
330
48
100
AcDbEntity
  8
PV-B9
100
AcDbCircle
 10
-53.02044334975366
 20
68.09999999999991
 30
0.0
 40
11.99999999999999
210
0.0
220
-1.0
230
0.0
100
AcDbArc
 50
76.01507072631635
 51
89.9999999999992
  0
ARC
  5
59
330
48
100
AcDbEntity
  8
PV-B9
100
AcDbCircle
 10
-53.02044334975366
 20
-67.90000000000009
 30
0.0
 40
11.99999999999999
210
0.0
220
-1.0
230
0.0
100
AcDbArc
 50
270.0
 51
283.9849292736837
  0
SPLINE
  5
5A
330
48
100
AcDbEntity
  8
PV-B9
100
AcDbSpline
210
0.0
220
-1.0
230
0.0
 70
     8
 71
     3
 72
    14
 73
    10
 74
     0
 42
0.0000000001
 43
0.0000000001
 40
0.0
 40
0.0
 40
0.0
 40
0.0
 40
0.0003986139723433
 40
0.0003986139723433
 40
0.0007972279446866
 40
0.0007972279446866
 40
0.0011958419170298
 40
0.0011958419170298
 40
0.0015944558893731
 40
0.0015944558893731
 40
0.0015944558893731
 40
0.0015944558893731
 10
-49.12044334975366
 20
0.0
 30
-79.24856819162673
 10
-49.12044334975366
 20
0.0
 30
-79.2485681916267
 10
-49.14775806372126
 20
0.0
 30
-79.25804826759065
 10
-49.25076227703583
 20
0.0
 30
-79.29264922586328
 10
-49.32663938548549
 20
0.0
 30
-79.31775893681264
 10
-49.51167606193678
 20
0.0
 30
-79.37597311715022
 10
-49.62241580485659
 20
0.0
 30
-79.40950578237759
 10
-49.86050059052461
 20
0.0
 30
-79.47713592858177
 10
-49.98973940307847
 20
0.0
 30
-79.5117602764839
 10
-50.12044334975366
 20
0.0
 30
-79.54431191612463
  0
SPLINE
  5
5B
330
48
100
AcDbEntity
  8
PV-B9
100
AcDbSpline
210
0.0
220
1.0
230
0.0
 70
     8
 71
     3
 72
    14
 73
    10
 74
     0
 42
0.0000000001
 43
0.0000000001
 40
0.0
 40
0.0
 40
0.0
 40
0.0
 40
0.0003986241037927
 40
0.0003986241037927
 40
0.0007972482075854
 40
0.0007972482075854
 40
0.0011958723113781
 40
0.0011958723113781
 40
0.0015944964151707
 40
0.0015944964151707
 40
0.0015944964151707
 40
0.0015944964151707
 10
-50.12044334975367
 20
0.0
 30
79.74431191612445
 10
-49.98964211176829
 20
0.0
 30
79.71173604621561
 10
-49.86216621270099
 20
0.0
 30
79.67760077067558
 10
-49.62222240788456
 20
0.0
 30
79.60945908849847
 10
-49.5123937082175
 20
0.0
 30
79.57619527814355
 10
-49.32673163841805
 20
0.0
 30
79.51779156155464
 10
-49.25095463682623
 20
0.0
 30
79.49271232968439
 10
-49.14816591420795
 20
0.0
 30
79.45818677632987
 10
-49.12044334975367
 20
0.0
 30
79.44856819162655
 10
-49.12044334975368
 20
0.0
 30
79.44856819162655
  0
LINE
  5
5C
330
48
100
AcDbEntity
  8
PV-B9
100
AcDbLine
 10
-49.12044334975366
 20
0.0
 30
39.79999999999991
 11
-49.12044334975366
 21
0.0
 31
40.00000000000007
  0
LINE
  5
5D
330
48
100
AcDbEntity
  8
PV-B9
100
AcDbLine
 10
-28.12044334975368
 20
0.0
 30
40.00000000000007
 11
-49.12044334975369
 21
0.0
 31
40.00000000000007
  0
LINE
  5
5E
330
48
100
AcDbEntity
  8
PV-B9
100
AcDbLine
 10
-28.12044334975368
 20
0.0
 30
80.00000000000008
 11
-49.12044334975369
 21
0.0
 31
80.00000000000008
  0
LINE
  5
5F
330
48
100
AcDbEntity
  8
PV-B9
100
AcDbLine
 10
-49.12044334975369
 20
0.0
 30
80.00000000000008
 11
-49.12044334975369
 21
0.0
 31
40.00000000000007
  0
LINE
  5
60
330
48
100
AcDbEntity
  8
PV-B9
100
AcDbLine
 10
-29.62044334975368
 20
0.0
 30
-82.50000000000008
 11
-47.62044334975369
 21
0.0
 31
-82.50000000000008
  0
LINE
  5
61
330
48
100
AcDbEntity
  8
PV-B9
100
AcDbLine
 10
-49.12044334975369
 20
0.0
 30
-80.00000000000008
 11
-28.12044334975368
 21
0.0
 31
-80.00000000000008
  0
LINE
  5
62
330
48
100
AcDbEntity
  8
PV-B9
100
AcDbLine
 10
-28.12044334975368
 20
0.0
 30
-81.00000000000008
 11
-28.12044334975368
 21
0.0
 31
-80.00000000000008
  0
LINE
  5
63
330
48
100
AcDbEntity
  8
PV-B9
100
AcDbLine
 10
-49.12044334975369
 20
0.0
 30
-81.00000000000008
 11
-49.12044334975369
 21
0.0
 31
-80.00000000000008
  0
ARC
  5
64
330
48
100
AcDbEntity
  8
PV-B9
100
AcDbCircle
 10
-29.62044334975368
 20
-81.00000000000008
 30
0.0
 40
1.5
210
0.0
220
-1.0
230
0.0
100
AcDbArc
 50
270.0
 51
0.0000000000002036
  0
ARC
  5
65
330
48
100
AcDbEntity
  8
PV-B9
100
AcDbCircle
 10
-47.62044334975369
 20
-81.00000000000008
 30
0.0
 40
1.499999999999998
210
0.0
220
-1.0
230
0.0
100
AcDbArc
 50
180.0
 51
270.0000000000002
  0
LINE
  5
66
330
48
100
AcDbEntity
  8
PV-B9
100
AcDbLine
 10
-29.62044334975368
 20
0.0
 30
82.50000000000008
 11
-47.62044334975369
 21
0.0
 31
82.50000000000008
  0
LINE
  5
67
330
48
100
AcDbEntity
  8
PV-B9
100
AcDbLine
 10
-49.12044334975369
 20
0.0
 30
80.00000000000008
 11
-28.12044334975368
 21
0.0
 31
80.00000000000008
  0
LINE
  5
68
330
48
100
AcDbEntity
  8
PV-B9
100
AcDbLine
 10
-49.12044334975369
 20
0.0
 30
81.00000000000008
 11
-49.12044334975369
 21
0.0
 31
80.00000000000008
  0
LINE
  5
69
330
48
100
AcDbEntity
  8
PV-B9
100
AcDbLine
 10
-28.12044334975368
 20
0.0
 30
81.00000000000008
 11
-28.12044334975368
 21
0.0
 31
80.00000000000008
  0
ARC
  5
6A
330
48
100
AcDbEntity
  8
PV-B9
100
AcDbCircle
 10
-47.62044334975369
 20
81.00000000000008
 30
0.0
 40
1.499999999999998
210
0.0
220
-1.0
230
0.0
100
AcDbArc
 50
90.0
 51
180.0
  0
ARC
  5
6B
330
48
100
AcDbEntity
  8
PV-B9
100
AcDbCircle
 10
-29.62044334975368
 20
81.00000000000008
 30
0.0
 40
1.5
210
0.0
220
-1.0
230
0.0
100
AcDbArc
 50
359.9999999999997
 51
90.0
  0
LINE
  5
6C
330
48
100
AcDbEntity
  8
PV-B9
100
AcDbLine
 10
-52.62044334975367
 20
0.0
 30
-40.00000000000007
 11
-52.62044334975369
 21
0.0
 31
39.79999999999991
  0
LINE
  5
6D
330
48
100
AcDbEntity
  8
PV-B9
100
AcDbLine
 10
-49.62002299183748
 20
0.0
 30
-40.00000000000007
 11
-49.6200229918375
 21
0.0
 31
39.79999999999991
  0
LINE
  5
6E
330
48
100
AcDbEntity
  8
PV-B9
100
AcDbLine
 10
-52.62044334975367
 20
0.0
 30
-40.00000000000007
 11
-49.62002299183748
 21
0.0
 31
-40.00000000000007
  0
LINE
  5
6F
330
48
100
AcDbEntity
  8
PV-B9
100
AcDbLine
 10
-49.10355589060586
 20
0.0
 30
-40.00000000000007
 11
-49.62002299183748
 21
0.0
 31
-40.00000000000007
  0
LINE
  5
70
330
48
100
AcDbEntity
  8
PV-B9
100
AcDbLine
 10
-52.62044334975369
 20
0.0
 30
39.79999999999991
 11
-49.6200229918375
 21
0.0
 31
39.79999999999991
  0
LINE
  5
71
330
48
100
AcDbEntity
  8
PV-B9
100
AcDbLine
 10
-49.10355589060587
 20
0.0
 30
39.79999999999991
 11
-49.6200229918375
 21
0.0
 31
39.79999999999991
  0
LINE
  5
72
330
48
100
AcDbEntity
  8
PV-B9
100
AcDbLine
 10
-28.1204433497537
 20
0.0
 30
39.79999999999991
 11
-49.10355589060586
 21
0.0
 31
39.79999999999991
  0
LINE
  5
73
330
48
100
AcDbEntity
  8
PV-B9
100
AcDbLine
 10
-28.12044334975368
 20
0.0
 30
-40.00000000000007
 11
-28.1204433497537
 21
0.0
 31
39.79999999999991
  0
LINE
  5
74
330
48
100
AcDbEntity
  8
PV-B9
100
AcDbLine
 10
-28.12044334975368
 20
0.0
 30
-40.00000000000007
 11
-49.10355589060586
 21
0.0
 31
-40.00000000000007
  0
LINE
  5
75
330
48
100
AcDbEntity
  8
PV-B9
100
AcDbLine
 10
-77.72044334975371
 20
0.0
 30
23.30140831103232
 11
-73.62044334975371
 21
0.0
 31
24.39999999999992
  0
LINE
  5
76
330
48
100
AcDbEntity
  8
PV-B9
100
AcDbLine
 10
-73.62044334975371
 20
0.0
 30
24.39999999999993
 11
-71.62044334975371
 21
0.0
 31
24.39999999999993
  0
LINE
  5
77
330
48
100
AcDbEntity
  8
PV-B9
100
AcDbLine
 10
-71.62044334975371
 20
0.0
 30
23.99999999999993
 11
-71.62044334975371
 21
0.0
 31
24.39999999999993
  0
ARC
  5
78
330
48
100
AcDbEntity
  8
PV-B9
100
AcDbCircle
 10
-68.62044334975371
 20
23.99999999999993
 30
0.0
 40
2.999999999999999
210
0.0
220
-1.0
230
0.0
100
AcDbArc
 50
180.0
 51
270.0
  0
LINE
  5
79
330
48
100
AcDbEntity
  8
PV-B9
100
AcDbLine
 10
-68.62044334975371
 20
0.0
 30
20.99999999999992
 11
-62.62044334975371
 21
0.0
 31
20.99999999999992
  0
ARC
  5
7A
330
48
100
AcDbEntity
  8
PV-B9
100
AcDbCircle
 10
-62.62044334975371
 20
23.99999999999993
 30
0.0
 40
2.999999999999999
210
0.0
220
-1.0
230
0.0
100
AcDbArc
 50
270.0
 51
359.9999999999992
  0
LINE
  5
7B
330
48
100
AcDbEntity
  8
PV-B9
100
AcDbLine
 10
-59.6204433497537
 20
0.0
 30
31.99999999999991
 11
-59.6204433497537
 21
0.0
 31
23.99999999999993
  0
ARC
  5
7C
330
48
100
AcDbEntity
  8
PV-B9
100
AcDbCircle
 10
-62.62044334975371
 20
31.99999999999991
 30
0.0
 40
3.000000000000008
210
0.0
220
-1.0
230
0.0
100
AcDbArc
 50
359.9999999999984
 51
90.0
  0
LINE
  5
7D
330
48
100
AcDbEntity
  8
PV-B9
100
AcDbLine
 10
-62.62044334975371
 20
0.0
 30
34.99999999999992
 11
-68.62044334975371
 21
0.0
 31
34.99999999999992
  0
ARC
  5
7E
330
48
100
AcDbEntity
  8
PV-B9
100
AcDbCircle
 10
-68.62044334975371
 20
31.99999999999991
 30
0.0
 40
3.000000000000006
210
0.0
220
-1.0
230
0.0
100
AcDbArc
 50
90.0
 51
180.0
  0
LINE
  5
7F
330
48
100
AcDbEntity
  8
PV-B9
100
AcDbLine
 10
-71.62044334975369
 20
0.0
 30
31.59999999999992
 11
-71.62044334975369
 21
0.0
 31
31.99999999999991
  0
LINE
  5
80
330
48
100
AcDbEntity
  8
PV-B9
100
AcDbLine
 10
-73.62044334975371
 20
0.0
 30
31.59999999999992
 11
-71.62044334975371
 21
0.0
 31
31.59999999999992
  0
LINE
  5
81
330
48
100
AcDbEntity
  8
PV-B9
100
AcDbLine
 10
-77.72044334975371
 20
0.0
 30
32.69859168896751
 11
-73.62044334975371
 21
0.0
 31
31.59999999999992
  0
LINE
  5
82
330
48
100
AcDbEntity
  8
PV-B9
100
AcDbLine
 10
-77.72044334975372
 20
0.0
 30
32.69859168896751
 11
-77.72044334975372
 21
0.0
 31
36.99999999999993
  0
ARC
  5
83
330
48
100
AcDbEntity
  8
PV-B9
100
AcDbCircle
 10
-74.72044334975371
 20
36.99999999999993
 30
0.0
 40
3.000000000000002
210
0.0
220
-1.0
230
0.0
100
AcDbArc
 50
90.0
 51
180.0
  0
LINE
  5
84
330
48
100
AcDbEntity
  8
PV-B9
100
AcDbLine
 10
-74.72044334975371
 20
0.0
 30
39.99999999999992
 11
-52.72044334975371
 21
0.0
 31
39.99999999999992
  0
LINE
  5
85
330
48
100
AcDbEntity
  8
PV-B9
100
AcDbLine
 10
-52.72044334975371
 20
0.0
 30
39.99999999999992
 11
-52.72044334975371
 21
0.0
 31
37.49999999999992
  0
LINE
  5
86
330
48
100
AcDbEntity
  8
PV-B9
100
AcDbLine
 10
-49.62002299183751
 20
0.0
 30
37.49999999999991
 11
-52.72044334975372
 21
0.0
 31
37.49999999999991
  0
LINE
  5
87
330
48
100
AcDbEntity
  8
PV-B9
100
AcDbLine
 10
-49.62002299183748
 20
0.0
 30
-37.50000000000007
 11
-52.72044334975369
 21
0.0
 31
-37.50000000000007
  0
LINE
  5
88
330
48
100
AcDbEntity
  8
PV-B9
100
AcDbLine
 10
-52.72044334975369
 20
0.0
 30
-40.00000000000007
 11
-52.72044334975369
 21
0.0
 31
-37.50000000000007
  0
LINE
  5
89
330
48
100
AcDbEntity
  8
PV-B9
100
AcDbLine
 10
-74.72044334975371
 20
0.0
 30
-40.00000000000007
 11
-52.72044334975369
 21
0.0
 31
-40.00000000000007
  0
ARC
  5
8A
330
48
100
AcDbEntity
  8
PV-B9
100
AcDbCircle
 10
-74.72044334975371
 20
-37.00000000000007
 30
0.0
 40
3.000000000000002
210
0.0
220
-1.0
230
0.0
100
AcDbArc
 50
180.0
 51
270.0
  0
LINE
  5
8B
330
48
100
AcDbEntity
  8
PV-B9
100
AcDbLine
 10
-77.72044334975371
 20
0.0
 30
-37.00000000000007
 11
-77.72044334975371
 21
0.0
 31
-32.69859168896768
  0
LINE
  5
8C
330
48
100
AcDbEntity
  8
PV-B9
100
AcDbLine
 10
-77.72044334975371
 20
0.0
 30
-32.69859168896767
 11
-73.6204433497537
 21
0.0
 31
-31.60000000000005
  0
LINE
  5
8D
330
48
100
AcDbEntity
  8
PV-B9
100
AcDbLine
 10
-73.6204433497537
 20
0.0
 30
-31.60000000000008
 11
-71.62044334975369
 21
0.0
 31
-31.60000000000008
  0
LINE
  5
8E
330
48
100
AcDbEntity
  8
PV-B9
100
AcDbLine
 10
-71.62044334975369
 20
0.0
 30
-31.60000000000008
 11
-71.62044334975369
 21
0.0
 31
-32.00000000000007
  0
ARC
  5
8F
330
48
100
AcDbEntity
  8
PV-B9
100
AcDbCircle
 10
-68.62044334975371
 20
-32.00000000000007
 30
0.0
 40
3.000000000000006
210
0.0
220
-1.0
230
0.0
100
AcDbArc
 50
180.0
 51
270.0
  0
LINE
  5
90
330
48
100
AcDbEntity
  8
PV-B9
100
AcDbLine
 10
-62.6204433497537
 20
0.0
 30
-35.00000000000007
 11
-68.62044334975371
 21
0.0
 31
-35.00000000000007
  0
ARC
  5
91
330
48
100
AcDbEntity
  8
PV-B9
100
AcDbCircle
 10
-62.6204433497537
 20
-32.00000000000007
 30
0.0
 40
3.000000000000008
210
0.0
220
-1.0
230
0.0
100
AcDbArc
 50
270.0
 51
359.9999999999992
  0
LINE
  5
92
330
48
100
AcDbEntity
  8
PV-B9
100
AcDbLine
 10
-59.6204433497537
 20
0.0
 30
-32.00000000000007
 11
-59.6204433497537
 21
0.0
 31
-24.00000000000008
  0
ARC
  5
93
330
48
100
AcDbEntity
  8
PV-B9
100
AcDbCircle
 10
-62.62044334975371
 20
-24.00000000000008
 30
0.0
 40
2.999999999999999
210
0.0
220
-1.0
230
0.0
100
AcDbArc
 50
359.9999999999984
 51
90.0
  0
LINE
  5
94
330
48
100
AcDbEntity
  8
PV-B9
100
AcDbLine
 10
-68.62044334975371
 20
0.0
 30
-21.00000000000008
 11
-62.62044334975371
 21
0.0
 31
-21.00000000000008
  0
ARC
  5
95
330
48
100
AcDbEntity
  8
PV-B9
100
AcDbCircle
 10
-68.62044334975371
 20
-24.00000000000008
 30
0.0
 40
2.999999999999999
210
0.0
220
-1.0
230
0.0
100
AcDbArc
 50
90.0
 51
180.0
  0
LINE
  5
96
330
48
100
AcDbEntity
  8
PV-B9
100
AcDbLine
 10
-71.62044334975371
 20
0.0
 30
-24.00000000000008
 11
-71.62044334975369
 21
0.0
 31
-24.40000000000007
  0
LINE
  5
97
330
48
100
AcDbEntity
  8
PV-B9
100
AcDbLine
 10
-73.6204433497537
 20
0.0
 30
-24.40000000000009
 11
-71.62044334975369
 21
0.0
 31
-24.40000000000009
  0
LINE
  5
98
330
48
100
AcDbEntity
  8
PV-B9
100
AcDbLine
 10
-77.72044334975371
 20
0.0
 30
-23.30140831103248
 11
-73.6204433497537
 21
0.0
 31
-24.40000000000008
  0
LINE
  5
99
330
48
100
AcDbEntity
  8
PV-B9
100
AcDbLine
 10
-77.72044334975371
 20
0.0
 30
-23.30140831103248
 11
-77.72044334975371
 21
0.0
 31
-4.698591688967694
  0
LINE
  5
9A
330
48
100
AcDbEntity
  8
PV-B9
100
AcDbLine
 10
-77.72044334975371
 20
0.0
 30
-4.698591688967692
 11
-73.62044334975374
 21
0.0
 31
-3.600000000000096
  0
LINE
  5
9B
330
48
100
AcDbEntity
  8
PV-B9
100
AcDbLine
 10
-73.62044334975374
 20
0.0
 30
-3.600000000000092
 11
-71.62044334975374
 21
0.0
 31
-3.600000000000092
  0
LINE
  5
9C
330
48
100
AcDbEntity
  8
PV-B9
100
AcDbLine
 10
-71.62044334975374
 20
0.0
 30
-3.600000000000085
 11
-71.62044334975374
 21
0.0
 31
-4.000000000000078
  0
ARC
  5
9D
330
48
100
AcDbEntity
  8
PV-B9
100
AcDbCircle
 10
-68.62044334975374
 20
-4.000000000000078
 30
0.0
 40
3.000000000000006
210
0.0
220
-1.0
230
0.0
100
AcDbArc
 50
180.0
 51
270.0
  0
LINE
  5
9E
330
48
100
AcDbEntity
  8
PV-B9
100
AcDbLine
 10
-62.62044334975374
 20
0.0
 30
-7.000000000000087
 11
-68.62044334975374
 21
0.0
 31
-7.000000000000095
  0
ARC
  5
9F
330
48
100
AcDbEntity
  8
PV-B9
100
AcDbCircle
 10
-62.62044334975374
 20
-4.000000000000071
 30
0.0
 40
3.000000000000006
210
0.0
220
-1.0
230
0.0
100
AcDbArc
 50
270.0
 51
359.9999999999992
  0
LINE
  5
A0
330
48
100
AcDbEntity
  8
PV-B9
100
AcDbLine
 10
-59.62044334975374
 20
0.0
 30
-4.000000000000071
 11
-59.62044334975374
 21
0.0
 31
3.999999999999913
  0
ARC
  5
A1
330
48
100
AcDbEntity
  8
PV-B9
100
AcDbCircle
 10
-62.62044334975374
 20
3.999999999999913
 30
0.0
 40
2.999999999999999
210
0.0
220
-1.0
230
0.0
100
AcDbArc
 50
359.9999999999984
 51
90.0
  0
LINE
  5
A2
330
48
100
AcDbEntity
  8
PV-B9
100
AcDbLine
 10
-68.62044334975374
 20
0.0
 30
6.99999999999991
 11
-62.62044334975374
 21
0.0
 31
6.999999999999906
  0
ARC
  5
A3
330
48
100
AcDbEntity
  8
PV-B9
100
AcDbCircle
 10
-68.62044334975374
 20
3.999999999999913
 30
0.0
 40
2.999999999999999
210
0.0
220
-1.0
230
0.0
100
AcDbArc
 50
90.0
 51
180.0
  0
LINE
  5
A4
330
48
100
AcDbEntity
  8
PV-B9
100
AcDbLine
 10
-71.62044334975374
 20
0.0
 30
3.999999999999913
 11
-71.62044334975374
 21
0.0
 31
3.599999999999916
  0
LINE
  5
A5
330
48
100
AcDbEntity
  8
PV-B9
100
AcDbLine
 10
-73.62044334975374
 20
0.0
 30
3.599999999999922
 11
-71.62044334975374
 21
0.0
 31
3.599999999999924
  0
LINE
  5
A6
330
48
100
AcDbEntity
  8
PV-B9
100
AcDbLine
 10
-77.72044334975371
 20
0.0
 30
4.698591688967511
 11
-73.62044334975374
 21
0.0
 31
3.599999999999916
  0
LINE
  5
A7
330
48
100
AcDbEntity
  8
PV-B9
100
AcDbLine
 10
-77.72044334975371
 20
0.0
 30
4.698591688967525
 11
-77.72044334975372
 21
0.0
 31
23.30140831103231
  0
ARC
  5
A8
330
48
100
AcDbEntity
  8
PV-B9
100
AcDbCircle
 10
-70.7204433497537
 20
13.99999999999991
 30
0.0
 40
2.500000000000002
210
0.0
220
-1.0
230
0.0
100
AcDbArc
 50
180.0
 51
0.0
  0
ARC
  5
A9
330
48
100
AcDbEntity
  8
PV-B9
100
AcDbCircle
 10
-70.7204433497537
 20
-14.00000000000008
 30
0.0
 40
2.500000000000002
210
0.0
220
-1.0
230
0.0
100
AcDbArc
 50
180.0
 51
0.0
  0
ARC
  5
AA
330
48
100
AcDbEntity
  8
PV-B9
100
AcDbCircle
 10
-70.7204433497537
 20
13.99999999999991
 30
0.0
 40
2.500000000000002
210
0.0
220
-1.0
230
0.0
100
AcDbArc
 50
359.9999999999992
 51
180.0
  0
ARC
  5
AB
330
48
100
AcDbEntity
  8
PV-B9
100
AcDbCircle
 10
-70.7204433497537
 20
-14.00000000000008
 30
0.0
 40
2.500000000000002
210
0.0
220
-1.0
230
0.0
100
AcDbArc
 50
359.9999999999992
 51
180.0
  0
LINE
  5
AC
330
48
100
AcDbEntity
  8
PV-B9
100
AcDbLine
 10
-28.12044334975368
 20
0.0
 30
40.00000000000007
 11
-28.12044334975368
 21
0.0
 31
80.00000000000008
  0
LINE
  5
AD
330
48
100
AcDbEntity
  8
PV-B9
100
AcDbLine
 10
-28.12044334975368
 20
0.0
 30
-80.00000000000008
 11
-28.12044334975368
 21
0.0
 31
-40.00000000000007
  0
ENDBLK
  5
AF
330
48
100
AcDbEntity
  8
0
100
AcDbBlockEnd
  0
BLOCK
  5
B4
330
B2
100
AcDbEntity
  8
0
100
AcDbBlockBegin
  2
FRONT
 70
     0
 10
0.0
 20
0.0
 30
0.0
  3
FRONT
  1

  0
INSERT
  5
B3
330
B2
100
AcDbEntity
  8
PV-B9
100
AcDbBlockReference
  2
*U0
 10
0.0
 20
0.0
 30
0.0
 50
180.0
210
0.0
220
1.0
230
0.0
  0
ENDBLK
  5
B5
330
B2
100
AcDbEntity
  8
0
100
AcDbBlockEnd
  0
BLOCK
  5
12B
330
B7
100
AcDbEntity
  8
0
100
AcDbBlockBegin
  2
*U2
 70
     1
 10
0.0
 20
0.0
 30
0.0
  3
*U2
  1
*ANON
  0
LINE
  5
B8
330
B7
100
AcDbEntity
  8
PV-B9
100
AcDbLine
 10
0.0
 20
16.05788177339904
 30
73.39999999999989
 11
0.0
 21
15.35788177339905
 31
73.39999999999989
  0
ARC
  5
B9
330
B7
100
AcDbEntity
  8
PV-B9
100
AcDbCircle
 10
-13.35788177339905
 20
40.4999999999999
 30
0.0
 40
3.000000000000002
210
-1.0
220
0.0
230
0.0
100
AcDbArc
 50
131.8103148957783
 51
154.1580672368328
  0
ARC
  5
BA
330
B7
100
AcDbEntity
  8
PV-B9
100
AcDbCircle
 10
-13.35788177339906
 20
-40.50000000000007
 30
0.0
 40
3.000000000000002
210
-1.0
220
0.0
230
0.0
100
AcDbArc
 50
205.8419327631664
 51
228.1896851042223
  0
LINE
  5
BB
330
B7
100
AcDbEntity
  8
PV-B9
100
AcDbLine
 10
0.0
 20
16.05788177339908
 30
-73.40000000000009
 11
0.0
 21
15.35788177339901
 31
-73.40000000000009
  0
LINE
  5
BC
330
B7
100
AcDbEntity
  8
PV-B9
100
AcDbLine
 10
0.0
 20
34.85788177339905
 30
79.88499061326281
 11
0.0
 21
34.85788177339905
 31
79.887492177719
  0
LINE
  5
BD
330
B7
100
AcDbEntity
  8
PV-B9
100
AcDbLine
 10
0.0
 20
34.85788177339905
 30
67.89999999999995
 11
0.0
 21
34.85788177339905
 31
79.88499061326281
  0
LINE
  5
BE
330
B7
100
AcDbEntity
  8
PV-B9
100
AcDbLine
 10
0.0
 20
34.85788177339905
 30
67.89999999999991
 11
0.0
 21
34.85788177339905
 31
-67.9000000000001
  0
LINE
  5
BF
330
B7
100
AcDbEntity
  8
PV-B9
100
AcDbLine
 10
0.0
 20
34.85788177339905
 30
-79.88499061326301
 11
0.0
 21
34.85788177339905
 31
-67.90000000000009
  0
LINE
  5
C0
330
B7
100
AcDbEntity
  8
PV-B9
100
AcDbLine
 10
0.0
 20
34.85788177339905
 30
-79.88749217771919
 11
0.0
 21
34.85788177339905
 31
-79.88499061326301
  0
LINE
  5
C1
330
B7
100
AcDbEntity
  8
PV-B9
100
AcDbLine
 10
0.0
 20
30.85788177339905
 30
67.89999999999991
 11
0.0
 21
30.85788177339905
 31
-67.9000000000001
  0
LINE
  5
C2
330
B7
100
AcDbEntity
  8
PV-B9
100
AcDbLine
 10
0.0
 20
30.85788177339905
 30
-67.90000000000009
 11
0.0
 21
30.85788177339905
 31
-79.88499061326301
  0
LINE
  5
C3
330
B7
100
AcDbEntity
  8
PV-B9
100
AcDbLine
 10
0.0
 20
-7.142118226600962
 30
-40.00000000000007
 11
0.0
 21
2.762607503983626
 31
-40.00000000000007
  0
LINE
  5
C4
330
B7
100
AcDbEntity
  8
PV-B9
100
AcDbLine
 10
0.0
 20
15.35788177339902
 30
-78.07275543012294
 11
0.0
 21
15.81775753028296
 31
-78.07275543012294
  0
SPLINE
  5
C5
330
B7
100
AcDbEntity
  8
PV-B9
100
AcDbSpline
210
1.0
220
0.0
230
0.0
 70
     8
 71
     3
 72
     8
 73
     4
 74
     0
 42
0.0000000001
 43
0.0000000001
 40
0.0014897492227513
 40
0.0014897492227513
 40
0.0014897492227513
 40
0.0014897492227513
 40
0.0017303328857306
 40
0.0017303328857306
 40
0.0017303328857306
 40
0.0017303328857306
 10
0.0
 20
16.05788177339908
 30
-78.03783692200839
 10
0.0
 20
15.98037816701717
 30
-78.0606552158096
 10
0.0
 20
15.89964147597026
 30
-78.07275543012337
 10
0.0
 20
15.81775753028296
 30
-78.07275543012294
  0
LINE
  5
C6
330
B7
100
AcDbEntity
  8
PV-B9
100
AcDbLine
 10
0.0
 20
-7.142118226600969
 30
-80.00000000000008
 11
0.0
 21
3.357881773399022
 31
-80.00000000000008
  0
LINE
  5
C7
330
B7
100
AcDbEntity
  8
PV-B9
100
AcDbLine
 10
0.0
 20
15.35788177339902
 30
-79.10969281153803
 11
0.0
 21
15.35788177339902
 31
-40.00000000000007
  0
LINE
  5
C8
330
B7
100
AcDbEntity
  8
PV-B9
100
AcDbLine
 10
0.0
 20
3.357881773399022
 30
-80.00000000000008
 11
0.0
 21
14.42257308884905
 31
-80.00000000000008
  0
LINE
  5
C9
330
B7
100
AcDbEntity
  8
PV-B9
100
AcDbLine
 10
0.0
 20
14.42257308884905
 30
-80.00000000000008
 11
0.0
 21
14.42257308884905
 31
-79.10969281153803
  0
LINE
  5
CA
330
B7
100
AcDbEntity
  8
PV-B9
100
AcDbLine
 10
0.0
 20
14.42257308884905
 30
-79.10969281153805
 11
0.0
 21
15.35788177339901
 31
-79.10969281153805
  0
LINE
  5
CB
330
B7
100
AcDbEntity
  8
PV-B9
100
AcDbLine
 10
0.0
 20
28.35788177339905
 30
80.09999999999989
 11
0.0
 21
30.85788177339905
 31
80.09999999999989
  0
LINE
  5
CC
330
B7
100
AcDbEntity
  8
PV-B9
100
AcDbLine
 10
0.0
 20
28.3578817733991
 30
-79.90000000000009
 11
0.0
 21
30.8578817733991
 31
-79.90000000000009
  0
LINE
  5
CD
330
B7
100
AcDbEntity
  8
PV-B9
100
AcDbLine
 10
0.0
 20
27.35788177339905
 30
79.44856819162655
 11
0.0
 21
17.05788177339905
 31
79.44856819162655
  0
LINE
  5
CE
330
B7
100
AcDbEntity
  8
PV-B9
100
AcDbLine
 10
0.0
 20
17.05788177339909
 30
-79.24856819162673
 11
0.0
 21
27.35788177339909
 31
-79.24856819162673
  0
LINE
  5
CF
330
B7
100
AcDbEntity
  8
PV-B9
100
AcDbLine
 10
0.0
 20
28.35788177339908
 30
-79.90000000000009
 11
0.0
 21
28.35788177339908
 31
-67.90000000000009
  0
LINE
  5
D0
330
B7
100
AcDbEntity
  8
PV-B9
100
AcDbLine
 10
0.0
 20
28.35788177339908
 30
-67.90000000000009
 11
0.0
 21
28.35788177339905
 31
68.09999999999991
  0
LINE
  5
D1
330
B7
100
AcDbEntity
  8
PV-B9
100
AcDbLine
 10
0.0
 20
28.35788177339905
 30
80.09999999999989
 11
0.0
 21
28.35788177339906
 31
68.09999999999991
  0
SPLINE
  5
D2
330
B7
100
AcDbEntity
  8
PV-B9
100
AcDbSpline
210
1.0
220
0.0
230
0.0
 70
     8
 71
     3
 72
    14
 73
    10
 74
     0
 42
0.0000000001
 43
0.0000000001
 40
0.0
 40
0.0
 40
0.0
 40
0.0
 40
0.0003986139723433
 40
0.0003986139723433
 40
0.0007972279446866
 40
0.0007972279446866
 40
0.0011958419170298
 40
0.0011958419170298
 40
0.0015944558893731
 40
0.0015944558893731
 40
0.0015944558893731
 40
0.0015944558893731
 10
0.0
 20
27.35788177339909
 30
-79.24856819162673
 10
0.0
 20
27.49272182857886
 30
-79.2485681916267
 10
0.0
 20
27.62509037731762
 30
-79.25804826759065
 10
0.0
 20
27.86893160993986
 30
-79.29264922586328
 10
0.0
 20
27.97974862139438
 30
-79.31775893681264
 10
0.0
 20
28.16177573382393
 30
-79.37597311715022
 10
0.0
 20
28.2345324564538
 30
-79.40950578237759
 10
0.0
 20
28.33203659554026
 30
-79.47713592858177
 10
0.0
 20
28.35788177339908
 30
-79.5117602764839
 10
0.0
 20
28.3578817733991
 30
-79.54431191612463
  0
SPLINE
  5
D3
330
B7
100
AcDbEntity
  8
PV-B9
100
AcDbSpline
210
1.0
220
0.0
230
0.0
 70
     8
 71
     3
 72
    14
 73
    10
 74
     0
 42
0.0000000001
 43
0.0000000001
 40
0.0
 40
0.0
 40
0.0
 40
0.0
 40
0.0003986241037927
 40
0.0003986241037927
 40
0.0007972482075854
 40
0.0007972482075854
 40
0.0011958723113781
 40
0.0011958723113781
 40
0.0015944964151707
 40
0.0015944964151707
 40
0.0015944964151707
 40
0.0015944964151707
 10
0.0
 20
28.35788177339905
 30
79.74431191612445
 10
0.0
 20
28.35788177339905
 30
79.71173604621561
 10
0.0
 20
28.33260700182893
 30
79.67760077067558
 10
0.0
 20
28.2345642949226
 30
79.60945908849847
 10
0.0
 20
28.16237780510794
 30
79.57619527814355
 10
0.0
 20
27.97994282417808
 30
79.51779156155464
 10
0.0
 20
27.86912517135119
 30
79.49271232968439
 10
0.0
 20
27.62631616424066
 30
79.45818677632987
 10
0.0
 20
27.49283085304297
 30
79.44856819162655
 10
0.0
 20
27.35788177339905
 30
79.44856819162655
  0
LINE
  5
D4
330
B7
100
AcDbEntity
  8
PV-B9
100
AcDbLine
 10
0.0
 20
16.05788177339904
 30
79.05399470512917
 11
0.0
 21
16.05788177339906
 31
39.79999999999991
  0
LINE
  5
D5
330
B7
100
AcDbEntity
  8
PV-B9
100
AcDbLine
 10
0.0
 20
16.05788177339908
 30
-40.00000000000007
 11
0.0
 21
16.05788177339908
 31
-78.85399470512936
  0
SPLINE
  5
D6
330
B7
100
AcDbEntity
  8
PV-B9
100
AcDbSpline
210
1.0
220
0.0
230
0.0
 70
     8
 71
     3
 72
    14
 73
    10
 74
     0
 42
0.0000000001
 43
0.0000000001
 40
0.0
 40
0.0
 40
0.0
 40
0.0
 40
0.0004059635003688
 40
0.0004059635003688
 40
0.0008119270007376
 40
0.0008119270007376
 40
0.0012178905011064
 40
0.0012178905011064
 40
0.0016238540014751
 40
0.0016238540014751
 40
0.0016238540014751
 40
0.0016238540014751
 10
0.0
 20
16.05788177339908
 30
-78.85399470512935
 10
0.0
 20
16.05788177339908
 30
-78.91001033586249
 10
0.0
 20
16.08088408015385
 30
-78.96262613047317
 10
0.0
 20
16.17494418308221
 30
-79.05968026210894
 10
0.0
 20
16.24450085001223
 30
-79.10222907038067
 10
0.0
 20
16.42676824343482
 30
-79.17350574263686
 10
0.0
 20
16.53771874178911
 30
-79.20127413684785
 10
0.0
 20
16.78481261442468
 30
-79.23882772906947
 10
0.0
 20
16.92036544293096
 30
-79.24856819162673
 10
0.0
 20
17.05788177339909
 30
-79.24856819162673
  0
SPLINE
  5
D7
330
B7
100
AcDbEntity
  8
PV-B9
100
AcDbSpline
210
1.0
220
0.0
230
0.0
 70
     8
 71
     3
 72
    14
 73
    10
 74
     0
 42
0.0000000001
 43
0.0000000001
 40
0.0
 40
0.0
 40
0.0
 40
0.0
 40
0.0004059857219147
 40
0.0004059857219147
 40
0.0008119714438295
 40
0.0008119714438295
 40
0.0012179571657442
 40
0.0012179571657442
 40
0.001623942887659
 40
0.001623942887659
 40
0.001623942887659
 40
0.001623942887659
 10
0.0
 20
17.05788177339905
 30
79.44856819162655
 10
0.0
 20
16.92056655241271
 30
79.44856819162652
 10
0.0
 20
16.78561861899806
 30
79.43890193637068
 10
0.0
 20
16.53856045706967
 30
79.40145003071105
 10
0.0
 20
16.42682371361204
 30
79.37345376532363
 10
0.0
 20
16.24575252486088
 30
79.30279168380156
 10
0.0
 20
16.17495590771368
 30
79.25957698187898
 10
0.0
 20
16.08142795633158
 30
79.16330201282133
 10
0.0
 20
16.05788177339904
 30
79.10995803148812
 10
0.0
 20
16.05788177339904
 30
79.05399470512917
  0
LINE
  5
D8
330
B7
100
AcDbEntity
  8
PV-B9
100
AcDbLine
 10
0.0
 20
30.85788177339906
 30
68.09999999999992
 11
0.0
 21
30.85788177339905
 31
80.09999999999989
  0
LINE
  5
D9
330
B7
100
AcDbEntity
  8
PV-B9
100
AcDbLine
 10
0.0
 20
30.85788177339908
 30
-67.90000000000009
 11
0.0
 21
30.85788177339906
 31
67.89999999999992
  0
LINE
  5
DA
330
B7
100
AcDbEntity
  8
PV-B9
100
AcDbLine
 10
0.0
 20
30.85788177339908
 30
-79.90000000000009
 11
0.0
 21
30.85788177339908
 31
-67.90000000000009
  0
LINE
  5
DB
330
B7
100
AcDbEntity
  8
PV-B9
100
AcDbLine
 10
0.0
 20
-7.142118226600945
 30
40.00000000000007
 11
0.0
 21
3.357881773399046
 31
40.00000000000007
  0
SPLINE
  5
DC
330
B7
100
AcDbEntity
  8
PV-B9
100
AcDbSpline
210
1.0
220
0.0
230
0.0
 70
     8
 71
     3
 72
     8
 73
     4
 74
     0
 42
0.0000000001
 43
0.0000000001
 40
0.0014897492227514
 40
0.0014897492227514
 40
0.0014897492227514
 40
0.0014897492227514
 40
0.0017303328857306
 40
0.0017303328857306
 40
0.0017303328857306
 40
0.0017303328857306
 10
0.0
 20
16.05788177339904
 30
78.03783692200839
 10
0.0
 20
15.98037816701715
 30
78.06065521580959
 10
0.0
 20
15.89964147597027
 30
78.07275543012335
 10
0.0
 20
15.81775753028301
 30
78.07275543012294
  0
LINE
  5
DD
330
B7
100
AcDbEntity
  8
PV-B9
100
AcDbLine
 10
0.0
 20
15.35788177339905
 30
78.07275543012292
 11
0.0
 21
15.81775753028301
 31
78.07275543012292
  0
LINE
  5
DE
330
B7
100
AcDbEntity
  8
PV-B9
100
AcDbLine
 10
0.0
 20
15.85788177339902
 30
40.00000000000007
 11
0.0
 21
16.05788177339906
 31
40.00000000000007
  0
LINE
  5
DF
330
B7
100
AcDbEntity
  8
PV-B9
100
AcDbLine
 10
0.0
 20
-7.142118226600935
 30
80.00000000000008
 11
0.0
 21
3.357881773399057
 31
80.00000000000008
  0
LINE
  5
E0
330
B7
100
AcDbEntity
  8
PV-B9
100
AcDbLine
 10
0.0
 20
14.42257308884908
 30
80.00000000000008
 11
0.0
 21
14.42257308884908
 31
79.10969281153803
  0
LINE
  5
E1
330
B7
100
AcDbEntity
  8
PV-B9
100
AcDbLine
 10
0.0
 20
3.357881773399057
 30
80.00000000000008
 11
0.0
 21
14.42257308884909
 31
80.00000000000008
  0
LINE
  5
E2
330
B7
100
AcDbEntity
  8
PV-B9
100
AcDbLine
 10
0.0
 20
3.357881773399046
 30
40.00000000000007
 11
0.0
 21
11.85788177339903
 31
40.00000000000007
  0
LINE
  5
E3
330
B7
100
AcDbEntity
  8
PV-B9
100
AcDbLine
 10
0.0
 20
15.35788177339905
 30
79.10969281153803
 11
0.0
 21
15.35788177339904
 31
40.00000000000007
  0
LINE
  5
E4
330
B7
100
AcDbEntity
  8
PV-B9
100
AcDbLine
 10
0.0
 20
14.42257308884909
 30
79.10969281153803
 11
0.0
 21
15.35788177339905
 31
79.10969281153803
  0
LINE
  5
E5
330
B7
100
AcDbEntity
  8
PV-B9
100
AcDbLine
 10
0.0
 20
-5.642118226600971
 30
-82.50000000000008
 11
0.0
 21
3.357881773399092
 31
-82.50000000000008
  0
LINE
  5
E6
330
B7
100
AcDbEntity
  8
PV-B9
100
AcDbLine
 10
0.0
 20
3.357881773399101
 30
-80.00000000000008
 11
0.0
 21
-7.142118226600969
 31
-80.00000000000008
  0
LINE
  5
E7
330
B7
100
AcDbEntity
  8
PV-B9
100
AcDbLine
 10
0.0
 20
3.357881773398966
 30
-82.50000000000008
 11
0.0
 21
12.35788177339903
 31
-82.50000000000008
  0
LINE
  5
E8
330
B7
100
AcDbEntity
  8
PV-B9
100
AcDbLine
 10
0.0
 20
-5.642118226600935
 30
82.50000000000008
 11
0.0
 21
3.357881773399129
 31
82.50000000000008
  0
LINE
  5
E9
330
B7
100
AcDbEntity
  8
PV-B9
100
AcDbLine
 10
0.0
 20
3.357881773399137
 30
80.00000000000008
 11
0.0
 21
-7.142118226600935
 31
80.00000000000008
  0
LINE
  5
EA
330
B7
100
AcDbEntity
  8
PV-B9
100
AcDbLine
 10
0.0
 20
3.357881773399002
 30
82.50000000000008
 11
0.0
 21
12.35788177339905
 31
82.50000000000008
  0
LINE
  5
EB
330
B7
100
AcDbEntity
  8
PV-B9
100
AcDbLine
 10
0.0
 20
17.56719380181283
 30
-40.00000000000007
 11
0.0
 21
17.56719380181283
 31
39.79999999999991
  0
LINE
  5
EC
330
B7
100
AcDbEntity
  8
PV-B9
100
AcDbLine
 10
0.0
 20
17.56719380181283
 30
-40.00000000000007
 11
0.0
 21
15.85788177339902
 31
-40.00000000000007
  0
LINE
  5
ED
330
B7
100
AcDbEntity
  8
PV-B9
100
AcDbLine
 10
0.0
 20
2.762607503983629
 30
-40.00000000000007
 11
0.0
 21
11.85788177339902
 31
-40.00000000000007
  0
LINE
  5
EE
330
B7
100
AcDbEntity
  8
PV-B9
100
AcDbLine
 10
0.0
 20
17.56719380181283
 30
39.79999999999991
 11
0.0
 21
15.85788177339902
 31
39.79999999999991
  0
LINE
  5
EF
330
B7
100
AcDbEntity
  8
PV-B9
100
AcDbLine
 10
0.0
 20
2.762607503983629
 30
39.79999999999991
 11
0.0
 21
11.85788177339902
 31
39.79999999999991
  0
LINE
  5
F0
330
B7
100
AcDbEntity
  8
PV-B9
100
AcDbLine
 10
0.0
 20
-7.142118226600969
 30
39.79999999999991
 11
0.0
 21
2.762607503983629
 31
39.79999999999991
  0
LINE
  5
F1
330
B7
100
AcDbEntity
  8
PV-B9
100
AcDbLine
 10
0.0
 20
-7.142118226600969
 30
-40.00000000000007
 11
0.0
 21
2.762607503983629
 31
-40.00000000000007
  0
LINE
  5
F2
330
B7
100
AcDbEntity
  8
PV-B9
100
AcDbLine
 10
0.0
 20
11.85788177339901
 30
-3.600000000000085
 11
0.0
 21
15.85788177342313
 31
-3.600000000000085
  0
LINE
  5
F3
330
B7
100
AcDbEntity
  8
PV-B9
100
AcDbLine
 10
0.0
 20
11.85788177339901
 30
3.599999999999916
 11
0.0
 21
15.85788177342313
 31
3.599999999999916
  0
LINE
  5
F4
330
B7
100
AcDbEntity
  8
PV-B9
100
AcDbLine
 10
0.0
 20
11.85788177339903
 30
24.39999999999993
 11
0.0
 21
15.85788177339902
 31
24.39999999999993
  0
LINE
  5
F5
330
B7
100
AcDbEntity
  8
PV-B9
100
AcDbLine
 10
0.0
 20
11.85788177339903
 30
31.59999999999992
 11
0.0
 21
15.85788177339902
 31
31.59999999999992
  0
LINE
  5
F6
330
B7
100
AcDbEntity
  8
PV-B9
100
AcDbLine
 10
0.0
 20
11.85788177339903
 30
-31.60000000000008
 11
0.0
 21
15.85788177339902
 31
-31.60000000000008
  0
LINE
  5
F7
330
B7
100
AcDbEntity
  8
PV-B9
100
AcDbLine
 10
0.0
 20
11.85788177339901
 30
-24.40000000000007
 11
0.0
 21
15.85788177339902
 31
-24.40000000000007
  0
LINE
  5
F8
330
B7
100
AcDbEntity
  8
PV-B9
100
AcDbLine
 10
0.0
 20
15.85788177339902
 30
-32.69859168896768
 11
0.0
 21
11.85788177339903
 31
-32.69859168896768
  0
LINE
  5
F9
330
B7
100
AcDbEntity
  8
PV-B9
100
AcDbLine
 10
0.0
 20
15.85788177339902
 30
39.99999999999992
 11
0.0
 21
11.85788177339903
 31
39.99999999999992
  0
LINE
  5
FA
330
B7
100
AcDbEntity
  8
PV-B9
100
AcDbLine
 10
0.0
 20
11.85788177339903
 30
-40.00000000000007
 11
0.0
 21
15.85788177339902
 31
-40.00000000000007
  0
LINE
  5
FB
330
B7
100
AcDbEntity
  8
PV-B9
100
AcDbLine
 10
0.0
 20
15.85788177339902
 30
-23.30140831103248
 11
0.0
 21
11.85788177339903
 31
-23.30140831103248
  0
LINE
  5
FC
330
B7
100
AcDbEntity
  8
PV-B9
100
AcDbLine
 10
0.0
 20
15.85788177339902
 30
-4.698591688967694
 11
0.0
 21
11.85788177339903
 31
-4.698591688967694
  0
LINE
  5
FD
330
B7
100
AcDbEntity
  8
PV-B9
100
AcDbLine
 10
0.0
 20
15.85788177339902
 30
32.69859168896751
 11
0.0
 21
11.85788177339903
 31
32.69859168896751
  0
LINE
  5
FE
330
B7
100
AcDbEntity
  8
PV-B9
100
AcDbLine
 10
0.0
 20
15.85788177339902
 30
23.30140831103232
 11
0.0
 21
11.85788177339903
 31
23.30140831103232
  0
LINE
  5
FF
330
B7
100
AcDbEntity
  8
PV-B9
100
AcDbLine
 10
0.0
 20
15.85788177342313
 30
4.698591688967525
 11
0.0
 21
11.85788177339903
 31
4.698591688967525
  0
LINE
  5
100
330
B7
100
AcDbEntity
  8
PV-B9
100
AcDbLine
 10
0.0
 20
15.85788177342313
 30
3.599999999999916
 11
0.0
 21
15.85788177342313
 31
-3.600000000000085
  0
LINE
  5
101
330
B7
100
AcDbEntity
  8
PV-B9
100
AcDbLine
 10
0.0
 20
15.85788177342313
 30
-3.600000000000085
 11
0.0
 21
15.85788177342313
 31
-4.698591688967682
  0
LINE
  5
102
330
B7
100
AcDbEntity
  8
PV-B9
100
AcDbLine
 10
0.0
 20
15.85788177339902
 30
-23.30140831103248
 11
0.0
 21
15.85788177339902
 31
-4.698591688967687
  0
LINE
  5
103
330
B7
100
AcDbEntity
  8
PV-B9
100
AcDbLine
 10
0.0
 20
15.85788177339902
 30
-24.40000000000007
 11
0.0
 21
15.85788177339902
 31
-23.30140831103247
  0
LINE
  5
104
330
B7
100
AcDbEntity
  8
PV-B9
100
AcDbLine
 10
0.0
 20
15.85788177339902
 30
-24.40000000000007
 11
0.0
 21
15.85788177339902
 31
-31.60000000000008
  0
LINE
  5
105
330
B7
100
AcDbEntity
  8
PV-B9
100
AcDbLine
 10
0.0
 20
15.85788177339902
 30
-31.60000000000008
 11
0.0
 21
15.85788177339902
 31
-32.69859168896768
  0
LINE
  5
106
330
B7
100
AcDbEntity
  8
PV-B9
100
AcDbLine
 10
0.0
 20
15.85788177339902
 30
-37.00000000000007
 11
0.0
 21
15.85788177339902
 31
-32.69859168896768
  0
LINE
  5
107
330
B7
100
AcDbEntity
  8
PV-B9
100
AcDbLine
 10
0.0
 20
15.85788177339902
 30
-40.00000000000007
 11
0.0
 21
15.85788177339902
 31
-37.00000000000002
  0
LINE
  5
108
330
B7
100
AcDbEntity
  8
PV-B9
100
AcDbLine
 10
0.0
 20
15.85788177339902
 30
36.99999999999993
 11
0.0
 21
15.85788177339902
 31
39.99999999999992
  0
LINE
  5
109
330
B7
100
AcDbEntity
  8
PV-B9
100
AcDbLine
 10
0.0
 20
15.85788177339902
 30
32.69859168896754
 11
0.0
 21
15.85788177339902
 31
36.99999999999993
  0
LINE
  5
10A
330
B7
100
AcDbEntity
  8
PV-B9
100
AcDbLine
 10
0.0
 20
15.85788177339902
 30
31.59999999999992
 11
0.0
 21
15.85788177339902
 31
32.69859168896753
  0
LINE
  5
10B
330
B7
100
AcDbEntity
  8
PV-B9
100
AcDbLine
 10
0.0
 20
15.85788177339902
 30
24.39999999999993
 11
0.0
 21
15.85788177339902
 31
31.59999999999992
  0
LINE
  5
10C
330
B7
100
AcDbEntity
  8
PV-B9
100
AcDbLine
 10
0.0
 20
15.85788177339902
 30
24.39999999999993
 11
0.0
 21
15.85788177339902
 31
23.30140831103232
  0
LINE
  5
10D
330
B7
100
AcDbEntity
  8
PV-B9
100
AcDbLine
 10
0.0
 20
15.85788177339902
 30
4.698591688967511
 11
0.0
 21
15.85788177339902
 31
23.30140831103232
  0
LINE
  5
10E
330
B7
100
AcDbEntity
  8
PV-B9
100
AcDbLine
 10
0.0
 20
15.85788177342313
 30
3.599999999999916
 11
0.0
 21
15.85788177342313
 31
4.698591688967511
  0
LINE
  5
10F
330
B7
100
AcDbEntity
  8
PV-B9
100
AcDbLine
 10
0.0
 20
11.85788177339901
 30
23.30140831103232
 11
0.0
 21
11.85788177339901
 31
24.39999999999992
  0
LINE
  5
110
330
B7
100
AcDbEntity
  8
PV-B9
100
AcDbLine
 10
0.0
 20
11.85788177339903
 30
31.59999999999992
 11
0.0
 21
11.85788177339903
 31
24.39999999999993
  0
LINE
  5
111
330
B7
100
AcDbEntity
  8
PV-B9
100
AcDbLine
 10
0.0
 20
11.85788177339902
 30
32.69859168896751
 11
0.0
 21
11.85788177339902
 31
31.59999999999992
  0
LINE
  5
112
330
B7
100
AcDbEntity
  8
PV-B9
100
AcDbLine
 10
0.0
 20
11.85788177339903
 30
32.69859168896751
 11
0.0
 21
11.85788177339903
 31
36.99999999999993
  0
LINE
  5
113
330
B7
100
AcDbEntity
  8
PV-B9
100
AcDbLine
 10
0.0
 20
11.85788177339903
 30
39.99999999999992
 11
0.0
 21
11.85788177339903
 31
36.99999999999993
  0
LINE
  5
114
330
B7
100
AcDbEntity
  8
PV-B9
100
AcDbLine
 10
0.0
 20
11.85788177339903
 30
-37.00000000000007
 11
0.0
 21
11.85788177339903
 31
-40.00000000000007
  0
LINE
  5
115
330
B7
100
AcDbEntity
  8
PV-B9
100
AcDbLine
 10
0.0
 20
11.85788177339903
 30
-37.00000000000007
 11
0.0
 21
11.85788177339903
 31
-32.69859168896768
  0
LINE
  5
116
330
B7
100
AcDbEntity
  8
PV-B9
100
AcDbLine
 10
0.0
 20
11.85788177339903
 30
-32.69859168896767
 11
0.0
 21
11.85788177339903
 31
-31.60000000000005
  0
LINE
  5
117
330
B7
100
AcDbEntity
  8
PV-B9
100
AcDbLine
 10
0.0
 20
11.85788177339903
 30
-31.60000000000008
 11
0.0
 21
11.85788177339903
 31
-24.40000000000007
  0
LINE
  5
118
330
B7
100
AcDbEntity
  8
PV-B9
100
AcDbLine
 10
0.0
 20
11.85788177339903
 30
-23.30140831103248
 11
0.0
 21
11.85788177339903
 31
-24.40000000000008
  0
LINE
  5
119
330
B7
100
AcDbEntity
  8
PV-B9
100
AcDbLine
 10
0.0
 20
11.85788177339903
 30
-23.30140831103248
 11
0.0
 21
11.85788177339903
 31
-4.698591688967694
  0
LINE
  5
11A
330
B7
100
AcDbEntity
  8
PV-B9
100
AcDbLine
 10
0.0
 20
11.85788177339901
 30
-4.698591688967692
 11
0.0
 21
11.85788177339901
 31
-3.600000000000096
  0
LINE
  5
11B
330
B7
100
AcDbEntity
  8
PV-B9
100
AcDbLine
 10
0.0
 20
11.85788177339903
 30
-3.600000000000085
 11
0.0
 21
11.85788177339903
 31
3.599999999999916
  0
LINE
  5
11C
330
B7
100
AcDbEntity
  8
PV-B9
100
AcDbLine
 10
0.0
 20
11.85788177339902
 30
4.698591688967511
 11
0.0
 21
11.85788177339902
 31
3.599999999999916
  0
LINE
  5
11D
330
B7
100
AcDbEntity
  8
PV-B9
100
AcDbLine
 10
0.0
 20
11.85788177339903
 30
4.698591688967525
 11
0.0
 21
11.85788177339903
 31
23.30140831103231
  0
LINE
  5
11E
330
B7
100
AcDbEntity
  8
PV-B9
100
AcDbLine
 10
0.0
 20
-7.142118226600964
 30
-40.00000000000007
 11
0.0
 21
-7.142118226600964
 31
39.79999999999991
  0
LINE
  5
11F
330
B7
100
AcDbEntity
  8
PV-B9
100
AcDbLine
 10
0.0
 20
13.85788177339906
 30
80.00000000000008
 11
0.0
 21
13.85788177339906
 31
81.00000000000008
  0
LINE
  5
120
330
B7
100
AcDbEntity
  8
PV-B9
100
AcDbLine
 10
0.0
 20
-7.142118226600934
 30
80.00000000000008
 11
0.0
 21
-7.142118226600934
 31
81.00000000000008
  0
LINE
  5
121
330
B7
100
AcDbEntity
  8
PV-B9
100
AcDbLine
 10
0.0
 20
13.85788177339903
 30
-81.00000000000008
 11
0.0
 21
13.85788177339903
 31
-80.00000000000008
  0
LINE
  5
122
330
B7
100
AcDbEntity
  8
PV-B9
100
AcDbLine
 10
0.0
 20
-7.142118226600969
 30
-81.00000000000008
 11
0.0
 21
-7.142118226600969
 31
-80.00000000000008
  0
LINE
  5
123
330
B7
100
AcDbEntity
  8
PV-B9
100
AcDbLine
 10
0.0
 20
-7.142118226600945
 30
40.00000000000007
 11
0.0
 21
-7.142118226600935
 31
80.00000000000008
  0
LINE
  5
124
330
B7
100
AcDbEntity
  8
PV-B9
100
AcDbLine
 10
0.0
 20
-7.142118226600969
 30
-80.00000000000008
 11
0.0
 21
-7.142118226600961
 31
-40.00000000000007
  0
LINE
  5
125
330
B7
100
AcDbEntity
  8
PV-B9
100
AcDbLine
 10
0.0
 20
34.85788177339905
 30
-79.88749217771919
 11
0.0
 21
30.85788177339905
 31
-79.88749217771919
  0
LINE
  5
126
330
B7
100
AcDbEntity
  8
PV-B9
100
AcDbLine
 10
0.0
 20
30.85788177339905
 30
79.887492177719
 11
0.0
 21
34.85788177339905
 31
79.887492177719
  0
ARC
  5
127
330
B7
100
AcDbEntity
  8
PV-B9
100
AcDbCircle
 10
-12.35788177339905
 20
81.00000000000008
 30
0.0
 40
1.5
210
-1.0
220
0.0
230
0.0
100
AcDbArc
 50
89.99999999999797
 51
180.0
  0
ARC
  5
128
330
B7
100
AcDbEntity
  8
PV-B9
100
AcDbCircle
 10
5.642118226600937
 20
81.00000000000008
 30
0.0
 40
1.5
210
-1.0
220
0.0
230
0.0
100
AcDbArc
 50
0.0
 51
90.00000000000124
  0
ARC
  5
129
330
B7
100
AcDbEntity
  8
PV-B9
100
AcDbCircle
 10
-12.35788177339903
 20
-81.00000000000008
 30
0.0
 40
1.5
210
-1.0
220
0.0
230
0.0
100
AcDbArc
 50
180.0000000000002
 51
270.0000000000012
  0
ARC
  5
12A
330
B7
100
AcDbEntity
  8
PV-B9
100
AcDbCircle
 10
5.642118226600971
 20
-81.00000000000008
 30
0.0
 40
1.5
210
-1.0
220
0.0
230
0.0
100
AcDbArc
 50
269.9999999999978
 51
359.9999999999997
  0
ENDBLK
  5
12C
330
B7
100
AcDbEntity
  8
0
100
AcDbBlockEnd
  0
BLOCK
  5
12F
330
12D
100
AcDbEntity
  8
0
100
AcDbBlockBegin
  2
LEFT
 70
     0
 10
0.0
 20
0.0
 30
0.0
  3
LEFT
  1

  0
INSERT
  5
12E
330
12D
100
AcDbEntity
  8
PV-B9
100
AcDbBlockReference
  2
*U2
 10
0.0
 20
0.0
 30
0.0
 50
270.0
210
0.0
220
1.0
230
0.0
  0
ENDBLK
  5
130
330
12D
100
AcDbEntity
  8
0
100
AcDbBlockEnd
  0
BLOCK
  5
1AA
330
132
100
AcDbEntity
  8
0
100
AcDbBlockBegin
  2
*U4
 70
     1
 10
0.0
 20
0.0
 30
0.0
  3
*U4
  1
*ANON
  0
LINE
  5
133
330
132
100
AcDbEntity
  8
PV-B9
100
AcDbLine
 10
0.0
 20
30.85788177339905
 30
73.39999999999989
 11
0.0
 21
34.85788177339905
 31
73.39999999999989
  0
LINE
  5
134
330
132
100
AcDbEntity
  8
PV-B9
100
AcDbLine
 10
0.0
 20
30.85788177339905
 30
-73.40000000000009
 11
0.0
 21
34.85788177339905
 31
-73.40000000000009
  0
LINE
  5
135
330
132
100
AcDbEntity
  8
PV-B9
100
AcDbLine
 10
0.0
 20
25.05788177339905
 30
56.99999999999992
 11
0.0
 21
26.05788177339904
 31
56.99999999999992
  0
ARC
  5
136
330
132
100
AcDbEntity
  8
PV-B9
100
AcDbCircle
 10
25.05788177339905
 20
54.99999999999992
 30
0.0
 40
1.999999999999998
210
1.0
220
0.0
230
0.0
100
AcDbArc
 50
89.99999999999982
 51
269.9999999999997
  0
LINE
  5
137
330
132
100
AcDbEntity
  8
PV-B9
100
AcDbLine
 10
0.0
 20
25.05788177339903
 30
52.99999999999992
 11
0.0
 21
26.05788177339904
 31
52.99999999999992
  0
ARC
  5
138
330
132
100
AcDbEntity
  8
PV-B9
100
AcDbCircle
 10
26.05788177339904
 20
54.99999999999992
 30
0.0
 40
1.999999999999998
210
1.0
220
0.0
230
0.0
100
AcDbArc
 50
269.9999999999997
 51
90.0000000000006
  0
ARC
  5
139
330
132
100
AcDbEntity
  8
PV-B9
100
AcDbCircle
 10
25.05788177339905
 20
-55.0000000000001
 30
0.0
 40
1.999999999999998
210
1.0
220
0.0
230
0.0
100
AcDbArc
 50
90.00000000000019
 51
270.0000000000002
  0
LINE
  5
13A
330
132
100
AcDbEntity
  8
PV-B9
100
AcDbLine
 10
0.0
 20
25.05788177339905
 30
-57.00000000000012
 11
0.0
 21
26.05788177339904
 31
-57.00000000000012
  0
ARC
  5
13B
330
132
100
AcDbEntity
  8
PV-B9
100
AcDbCircle
 10
26.05788177339904
 20
-55.0000000000001
 30
0.0
 40
1.999999999999998
210
1.0
220
0.0
230
0.0
100
AcDbArc
 50
269.9999999999993
 51
90.00000000000019
  0
LINE
  5
13C
330
132
100
AcDbEntity
  8
PV-B9
100
AcDbLine
 10
0.0
 20
25.05788177339903
 30
-53.00000000000012
 11
0.0
 21
26.05788177339904
 31
-53.00000000000012
  0
LINE
  5
13D
330
132
100
AcDbEntity
  8
PV-B9
100
AcDbLine
 10
0.0
 20
16.81775753028297
 30
-40.00000000000009
 11
0.0
 21
18.85788177339907
 31
-40.00000000000009
  0
ARC
  5
13E
330
132
100
AcDbEntity
  8
PV-B9
100
AcDbCircle
 10
18.85788177339907
 20
-37.00000000000009
 30
0.0
 40
2.999999999999999
210
1.0
220
0.0
230
0.0
100
AcDbArc
 50
270.0000000000002
 51
0.0000000000003997
  0
LINE
  5
13F
330
132
100
AcDbEntity
  8
PV-B9
100
AcDbLine
 10
0.0
 20
21.85788177339906
 30
36.9999999999999
 11
0.0
 21
21.85788177339906
 31
-37.00000000000009
  0
ARC
  5
140
330
132
100
AcDbEntity
  8
PV-B9
100
AcDbCircle
 10
18.85788177339906
 20
36.9999999999999
 30
0.0
 40
2.999999999999999
210
1.0
220
0.0
230
0.0
100
AcDbArc
 50
359.9999999999987
 51
89.99999999999982
  0
LINE
  5
141
330
132
100
AcDbEntity
  8
PV-B9
100
AcDbLine
 10
0.0
 20
18.85788177339906
 30
39.99999999999991
 11
0.0
 21
18.05788177339906
 31
39.99999999999991
  0
LINE
  5
142
330
132
100
AcDbEntity
  8
PV-B9
100
AcDbLine
 10
0.0
 20
30.85788177339905
 30
73.39999999999989
 11
0.0
 21
16.39976353937405
 31
73.39999999999989
  0
LINE
  5
143
330
132
100
AcDbEntity
  8
PV-B9
100
AcDbLine
 10
0.0
 20
30.85788177339905
 30
-73.40000000000009
 11
0.0
 21
16.39976353937389
 31
-73.40000000000009
  0
LINE
  5
144
330
132
100
AcDbEntity
  8
PV-B9
100
AcDbLine
 10
0.0
 20
34.85788177339905
 30
-73.40000000000009
 11
0.0
 21
34.85788177339905
 31
-76.40000000000011
  0
LINE
  5
145
330
132
100
AcDbEntity
  8
PV-B9
100
AcDbLine
 10
0.0
 20
34.85788177339905
 30
73.39999999999989
 11
0.0
 21
34.85788177339905
 31
-73.4000000000001
  0
LINE
  5
146
330
132
100
AcDbEntity
  8
PV-B9
100
AcDbLine
 10
0.0
 20
34.85788177339905
 30
73.39999999999989
 11
0.0
 21
34.85788177339905
 31
76.3999999999999
  0
LINE
  5
147
330
132
100
AcDbEntity
  8
PV-B9
100
AcDbLine
 10
0.0
 20
34.85788177339905
 30
77.887492177719
 11
0.0
 21
34.85788177339905
 31
76.39999999999989
  0
LINE
  5
148
330
132
100
AcDbEntity
  8
PV-B9
100
AcDbLine
 10
0.0
 20
34.85788177339905
 30
79.887492177719
 11
0.0
 21
34.85788177339905
 31
77.88749217771898
  0
LINE
  5
149
330
132
100
AcDbEntity
  8
PV-B9
100
AcDbLine
 10
0.0
 20
34.85788177339905
 30
-77.88749217771919
 11
0.0
 21
34.85788177339905
 31
-79.88749217771919
  0
LINE
  5
14A
330
132
100
AcDbEntity
  8
PV-B9
100
AcDbLine
 10
0.0
 20
34.85788177339905
 30
-77.88749217771919
 11
0.0
 21
34.85788177339905
 31
-76.40000000000009
  0
SPLINE
  5
14B
330
132
100
AcDbEntity
  8
PV-B9
100
AcDbSpline
210
1.0
220
0.0
230
0.0
 70
     8
 71
     3
 72
    14
 73
    10
 74
     0
 42
0.0000000001
 43
0.0000000001
 40
0.0
 40
0.0
 40
0.0
 40
0.0
 40
0.0003906076277808
 40
0.0003906076277808
 40
0.0007812152555616
 40
0.0007812152555616
 40
0.0011718228833424
 40
0.0011718228833424
 40
0.0015624305111232
 40
0.0015624305111232
 40
0.0015624305111232
 40
0.0015624305111232
 10
0.0
 20
15.81775753028296
 30
-68.13990671960548
 10
0.0
 20
15.94983472974208
 30
-68.13990671960545
 10
0.0
 20
16.07943466153116
 30
-68.13973920671493
 10
0.0
 20
16.32156268357521
 30
-68.13908962790617
 10
0.0
 20
16.43246225653377
 30
-68.13860798801164
 10
0.0
 20
16.61694863961226
 30
-68.13740285291079
 10
0.0
 20
16.69146343314562
 30
-68.13667050697521
 10
0.0
 20
16.7912811506959
 30
-68.13507648332642
 10
0.0
 20
16.81775753028297
 30
-68.13418827892461
 10
0.0
 20
16.81775753028297
 30
-68.13331121198084
  0
LINE
  5
14C
330
132
100
AcDbEntity
  8
PV-B9
100
AcDbLine
 10
0.0
 20
15.81775753028298
 30
-40.00000000000007
 11
0.0
 21
16.81775753028297
 31
-40.00000000000007
  0
LINE
  5
14D
330
132
100
AcDbEntity
  8
PV-B9
100
AcDbLine
 10
0.0
 20
13.42548898951504
 30
-40.00000000000007
 11
0.0
 21
-7.142118226600962
 31
-40.00000000000007
  0
SPLINE
  5
14E
330
132
100
AcDbEntity
  8
PV-B9
100
AcDbSpline
210
1.0
220
0.0
230
0.0
 70
    12
 71
     3
 72
     8
 73
     4
 74
     0
 42
0.0000000001
 43
0.0000000001
 40
1.955103209609784
 40
1.955103209609784
 40
1.955103209609784
 40
1.955103209609784
 40
3.128682619448366
 40
3.128682619448366
 40
3.128682619448366
 40
3.128682619448366
 10
0.0
 20
14.42257308884905
 30
-79.10969281153803
 41
1.0
 10
0.0
 20
14.18035220963573
 30
-77.24054598389912
 41
0.8884816515039114
 10
0.0
 20
14.03288777074067
 30
-73.12499069045195
 41
0.8884816515039114
 10
0.0
 20
14.02951474422629
 30
-68.13990671960522
 41
1.0
  0
LINE
  5
14F
330
132
100
AcDbEntity
  8
PV-B9
100
AcDbLine
 10
0.0
 20
14.02951474422645
 30
-68.13990671960522
 11
0.0
 21
14.02951474422646
 31
-40.00000000000007
  0
LINE
  5
150
330
132
100
AcDbEntity
  8
PV-B9
100
AcDbLine
 10
0.0
 20
15.81775753028298
 30
-40.00000000000007
 11
0.0
 21
15.19748584211618
 31
-40.00000000000007
  0
LINE
  5
151
330
132
100
AcDbEntity
  8
PV-B9
100
AcDbLine
 10
0.0
 20
15.81775753028298
 30
-68.13990671960548
 11
0.0
 21
14.02951474422629
 31
-68.13990671960548
  0
LINE
  5
152
330
132
100
AcDbEntity
  8
PV-B9
100
AcDbLine
 10
0.0
 20
16.81775753028297
 30
-68.13331121198084
 11
0.0
 21
16.81775753028297
 31
-71.26691063058366
  0
LINE
  5
153
330
132
100
AcDbEntity
  8
PV-B9
100
AcDbLine
 10
0.0
 20
16.81775753028297
 30
-73.40000000000009
 11
0.0
 21
16.81775753028297
 31
-76.85984266838166
  0
LINE
  5
154
330
132
100
AcDbEntity
  8
PV-B9
100
AcDbLine
 10
0.0
 20
16.81775753028297
 30
-40.00000000000007
 11
0.0
 21
16.81775753028297
 31
-68.13331121198084
  0
LINE
  5
155
330
132
100
AcDbEntity
  8
PV-B9
100
AcDbLine
 10
0.0
 20
15.35788177339902
 30
-78.07275543012294
 11
0.0
 21
15.81775753028296
 31
-78.07275543012294
  0
SPLINE
  5
156
330
132
100
AcDbEntity
  8
PV-B9
100
AcDbSpline
210
1.0
220
0.0
230
0.0
 70
     8
 71
     3
 72
    14
 73
    10
 74
     0
 42
0.0000000001
 43
0.0000000001
 40
0.0
 40
0.0
 40
0.0
 40
0.0
 40
0.0004325832214326
 40
0.0004325832214326
 40
0.0008651664428653
 40
0.0008651664428653
 40
0.0012977496642979
 40
0.0012977496642979
 40
0.0017303328857306
 40
0.0017303328857306
 40
0.0017303328857306
 40
0.0017303328857306
 10
0.0
 20
16.81775753028297
 30
-76.85984266838166
 10
0.0
 20
16.81775753028297
 30
-77.00618750220224
 10
0.0
 20
16.79748679396158
 30
-77.14901846491651
 10
0.0
 20
16.7128102224516
 30
-77.42702970384678
 10
0.0
 20
16.6486890079734
 30
-77.55926320425459
 10
0.0
 20
16.47407545020338
 30
-77.79309777426608
 10
0.0
 20
16.36388978479864
 30
-77.89322392867262
 10
0.0
 20
16.10851250369154
 30
-78.03363531379011
 10
0.0
 20
15.96498955996606
 30
-78.07275543012369
 10
0.0
 20
15.81775753028296
 30
-78.07275543012294
  0
LINE
  5
157
330
132
100
AcDbEntity
  8
PV-B9
100
AcDbLine
 10
0.0
 20
13.84349188832206
 30
-80.00000000000008
 11
0.0
 21
-7.142118226600969
 31
-80.00000000000008
  0
LINE
  5
158
330
132
100
AcDbEntity
  8
PV-B9
100
AcDbLine
 10
0.0
 20
13.84349188832205
 30
-80.00000000000008
 11
0.0
 21
14.42257308884905
 31
-80.00000000000008
  0
LINE
  5
159
330
132
100
AcDbEntity
  8
PV-B9
100
AcDbLine
 10
0.0
 20
15.35788177339901
 30
-79.10969281153805
 11
0.0
 21
15.35788177339902
 31
-78.07275543012294
  0
LINE
  5
15A
330
132
100
AcDbEntity
  8
PV-B9
100
AcDbLine
 10
0.0
 20
14.42257308884905
 30
-80.00000000000008
 11
0.0
 21
14.42257308884905
 31
-79.10969281153803
  0
LINE
  5
15B
330
132
100
AcDbEntity
  8
PV-B9
100
AcDbLine
 10
0.0
 20
14.42257308884905
 30
-79.10969281153805
 11
0.0
 21
15.35788177339901
 31
-79.10969281153805
  0
LINE
  5
15C
330
132
100
AcDbEntity
  8
PV-B9
100
AcDbLine
 10
0.0
 20
16.05788177339906
 30
39.9999999999999
 11
0.0
 21
16.05788177339908
 31
-39.80000000000008
  0
LINE
  5
15D
330
132
100
AcDbEntity
  8
PV-B9
100
AcDbLine
 10
0.0
 20
16.05788177339908
 30
-78.34940189675951
 11
0.0
 21
16.05788177339908
 31
-78.85399470512935
  0
LINE
  5
15E
330
132
100
AcDbEntity
  8
PV-B9
100
AcDbLine
 10
0.0
 20
18.05788177339908
 30
-39.80000000000008
 11
0.0
 21
18.05788177339906
 31
39.9999999999999
  0
LINE
  5
15F
330
132
100
AcDbEntity
  8
PV-B9
100
AcDbLine
 10
0.0
 20
16.05788177339904
 30
79.05399470512917
 11
0.0
 21
16.05788177339904
 31
78.54940189675935
  0
LINE
  5
160
330
132
100
AcDbEntity
  8
PV-B9
100
AcDbLine
 10
0.0
 20
28.35788177339905
 30
80.09999999999989
 11
0.0
 21
30.85788177339905
 31
80.09999999999989
  0
LINE
  5
161
330
132
100
AcDbEntity
  8
PV-B9
100
AcDbLine
 10
0.0
 20
28.3578817733991
 30
-79.90000000000009
 11
0.0
 21
30.8578817733991
 31
-79.90000000000009
  0
LINE
  5
162
330
132
100
AcDbEntity
  8
PV-B9
100
AcDbLine
 10
0.0
 20
27.35788177339905
 30
79.44856819162655
 11
0.0
 21
17.05788177339905
 31
79.44856819162655
  0
LINE
  5
163
330
132
100
AcDbEntity
  8
PV-B9
100
AcDbLine
 10
0.0
 20
17.05788177339909
 30
-79.24856819162673
 11
0.0
 21
27.35788177339909
 31
-79.24856819162673
  0
LINE
  5
164
330
132
100
AcDbEntity
  8
PV-B9
100
AcDbLine
 10
0.0
 20
28.35788177339905
 30
80.09999999999989
 11
0.0
 21
28.35788177339905
 31
79.74431191612445
  0
LINE
  5
165
330
132
100
AcDbEntity
  8
PV-B9
100
AcDbLine
 10
0.0
 20
28.35788177339908
 30
-79.54431191612463
 11
0.0
 21
28.35788177339908
 31
-79.90000000000009
  0
LINE
  5
166
330
132
100
AcDbEntity
  8
PV-B9
100
AcDbLine
 10
0.0
 20
16.05788177339904
 30
75.62364309603352
 11
0.0
 21
16.05788177339904
 31
78.54940189675935
  0
LINE
  5
167
330
132
100
AcDbEntity
  8
PV-B9
100
AcDbLine
 10
0.0
 20
16.05788177339904
 30
78.54940189675935
 11
0.0
 21
27.35788177339905
 31
78.54940189675935
  0
LINE
  5
168
330
132
100
AcDbEntity
  8
PV-B9
100
AcDbLine
 10
0.0
 20
27.35788177339909
 30
-78.34940189675951
 11
0.0
 21
16.05788177339908
 31
-78.34940189675951
  0
LINE
  5
169
330
132
100
AcDbEntity
  8
PV-B9
100
AcDbLine
 10
0.0
 20
16.05788177339908
 30
-75.6236430960335
 11
0.0
 21
16.05788177339908
 31
-78.34940189675951
  0
LINE
  5
16A
330
132
100
AcDbEntity
  8
PV-B9
100
AcDbLine
 10
0.0
 20
18.05788177339906
 30
39.9999999999999
 11
0.0
 21
16.05788177339906
 31
39.9999999999999
  0
LINE
  5
16B
330
132
100
AcDbEntity
  8
PV-B9
100
AcDbLine
 10
0.0
 20
18.05788177339908
 30
-39.80000000000008
 11
0.0
 21
16.05788177339908
 31
-39.80000000000008
  0
SPLINE
  5
16C
330
132
100
AcDbEntity
  8
PV-B9
100
AcDbSpline
210
1.0
220
0.0
230
0.0
 70
     8
 71
     3
 72
    14
 73
    10
 74
     0
 42
0.0000000001
 43
0.0000000001
 40
0.0
 40
0.0
 40
0.0
 40
0.0
 40
0.0003986139723433
 40
0.0003986139723433
 40
0.0007972279446866
 40
0.0007972279446866
 40
0.0011958419170298
 40
0.0011958419170298
 40
0.0015944558893731
 40
0.0015944558893731
 40
0.0015944558893731
 40
0.0015944558893731
 10
0.0
 20
27.35788177339909
 30
-79.24856819162673
 10
0.0
 20
27.49272182857886
 30
-79.2485681916267
 10
0.0
 20
27.62509037731762
 30
-79.25804826759065
 10
0.0
 20
27.86893160993986
 30
-79.29264922586328
 10
0.0
 20
27.97974862139438
 30
-79.31775893681264
 10
0.0
 20
28.16177573382393
 30
-79.37597311715022
 10
0.0
 20
28.2345324564538
 30
-79.40950578237759
 10
0.0
 20
28.33203659554026
 30
-79.47713592858177
 10
0.0
 20
28.35788177339908
 30
-79.5117602764839
 10
0.0
 20
28.3578817733991
 30
-79.54431191612463
  0
SPLINE
  5
16D
330
132
100
AcDbEntity
  8
PV-B9
100
AcDbSpline
210
1.0
220
0.0
230
0.0
 70
     8
 71
     3
 72
    14
 73
    10
 74
     0
 42
0.0000000001
 43
0.0000000001
 40
0.0
 40
0.0
 40
0.0
 40
0.0
 40
0.0003986241037927
 40
0.0003986241037927
 40
0.0007972482075854
 40
0.0007972482075854
 40
0.0011958723113781
 40
0.0011958723113781
 40
0.0015944964151707
 40
0.0015944964151707
 40
0.0015944964151707
 40
0.0015944964151707
 10
0.0
 20
28.35788177339905
 30
79.74431191612445
 10
0.0
 20
28.35788177339905
 30
79.71173604621561
 10
0.0
 20
28.33260700182893
 30
79.67760077067558
 10
0.0
 20
28.2345642949226
 30
79.60945908849847
 10
0.0
 20
28.16237780510794
 30
79.57619527814355
 10
0.0
 20
27.97994282417808
 30
79.51779156155464
 10
0.0
 20
27.86912517135119
 30
79.49271232968439
 10
0.0
 20
27.62631616424066
 30
79.45818677632987
 10
0.0
 20
27.49283085304297
 30
79.44856819162655
 10
0.0
 20
27.35788177339905
 30
79.44856819162655
  0
SPLINE
  5
16E
330
132
100
AcDbEntity
  8
PV-B9
100
AcDbSpline
210
1.0
220
0.0
230
0.0
 70
     8
 71
     3
 72
    18
 73
    14
 74
     0
 42
0.0000000001
 43
0.0000000001
 40
0.0010568272077198
 40
0.0010568272077198
 40
0.0010568272077198
 40
0.0010568272077198
 40
0.0020062821952646
 40
0.0020062821952646
 40
0.002481009689037
 40
0.002481009689037
 40
0.0029557371828094
 40
0.0029557371828094
 40
0.0034304646765818
 40
0.0034304646765818
 40
0.0039051921703542
 40
0.0039051921703542
 40
0.0048546471578989
 40
0.0048546471578989
 40
0.0048546471578989
 40
0.0048546471578989
 10
0.0
 20
30.18630889814529
 30
-79.24856819162673
 10
0.0
 20
30.08463398384881
 30
-79.14973965973432
 10
0.0
 20
29.94267997154922
 30
-79.04653461796079
 10
0.0
 20
29.67184777619804
 30
-78.89228086538325
 10
0.0
 20
29.57148585569187
 30
-78.84094743199336
 10
0.0
 20
29.35668967122465
 30
-78.74302857100471
 10
0.0
 20
29.24156179381458
 30
-78.69601154506567
 10
0.0
 20
28.99506288286824
 30
-78.6074680874537
 10
0.0
 20
28.86228222230319
 30
-78.56558246399274
 10
0.0
 20
28.58629628676097
 30
-78.49157559843432
 10
0.0
 20
28.44346598920694
 30
-78.45942264066025
 10
0.0
 20
27.99994001887286
 30
-78.37975094397805
 10
0.0
 20
27.67976778406735
 30
-78.3494018967595
 10
0.0
 20
27.35788177339909
 30
-78.34940189675951
  0
SPLINE
  5
16F
330
132
100
AcDbEntity
  8
PV-B9
100
AcDbSpline
210
1.0
220
0.0
230
0.0
 70
     8
 71
     3
 72
    14
 73
    10
 74
     0
 42
0.0000000001
 43
0.0000000001
 40
0.0
 40
0.0
 40
0.0
 40
0.0
 40
0.0009499640180249
 40
0.0009499640180249
 40
0.0018999280360499
 40
0.0018999280360499
 40
0.0028498920540748
 40
0.0028498920540748
 40
0.0037998560720998
 40
0.0037998560720998
 40
0.0037998560720998
 40
0.0037998560720998
 10
0.0
 20
27.35788177339905
 30
78.54940189675935
 10
0.0
 20
27.67951256364562
 30
78.54940189675935
 10
0.0
 20
27.99166422615893
 30
78.57846103145206
 10
0.0
 20
28.59304234223502
 30
78.68609685981148
 10
0.0
 20
28.86832396379835
 30
78.76199782001759
 10
0.0
 20
29.36654313505497
 30
78.94085067638233
 10
0.0
 20
29.58107117571928
 30
79.04054271468459
 10
0.0
 20
29.94402139705549
 30
79.2473346268985
 10
0.0
 20
30.08508866504447
 30
79.35018161216015
 10
0.0
 20
30.18630889814524
 30
79.44856819162655
  0
SPLINE
  5
170
330
132
100
AcDbEntity
  8
PV-B9
100
AcDbSpline
210
1.0
220
0.0
230
0.0
 70
     8
 71
     3
 72
    14
 73
    10
 74
     0
 42
0.0000000001
 43
0.0000000001
 40
0.0
 40
0.0
 40
0.0
 40
0.0
 40
0.0004059635003688
 40
0.0004059635003688
 40
0.0008119270007376
 40
0.0008119270007376
 40
0.0012178905011064
 40
0.0012178905011064
 40
0.0016238540014751
 40
0.0016238540014751
 40
0.0016238540014751
 40
0.0016238540014751
 10
0.0
 20
16.05788177339908
 30
-78.85399470512935
 10
0.0
 20
16.05788177339908
 30
-78.91001033586249
 10
0.0
 20
16.08088408015385
 30
-78.96262613047317
 10
0.0
 20
16.17494418308221
 30
-79.05968026210894
 10
0.0
 20
16.24450085001223
 30
-79.10222907038067
 10
0.0
 20
16.42676824343482
 30
-79.17350574263686
 10
0.0
 20
16.53771874178911
 30
-79.20127413684785
 10
0.0
 20
16.78481261442468
 30
-79.23882772906947
 10
0.0
 20
16.92036544293096
 30
-79.24856819162673
 10
0.0
 20
17.05788177339909
 30
-79.24856819162673
  0
SPLINE
  5
171
330
132
100
AcDbEntity
  8
PV-B9
100
AcDbSpline
210
1.0
220
0.0
230
0.0
 70
     8
 71
     3
 72
    14
 73
    10
 74
     0
 42
0.0000000001
 43
0.0000000001
 40
0.0
 40
0.0
 40
0.0
 40
0.0
 40
0.0004059857219147
 40
0.0004059857219147
 40
0.0008119714438295
 40
0.0008119714438295
 40
0.0012179571657442
 40
0.0012179571657442
 40
0.001623942887659
 40
0.001623942887659
 40
0.001623942887659
 40
0.001623942887659
 10
0.0
 20
17.05788177339905
 30
79.44856819162655
 10
0.0
 20
16.92056655241271
 30
79.44856819162652
 10
0.0
 20
16.78561861899806
 30
79.43890193637068
 10
0.0
 20
16.53856045706967
 30
79.40145003071105
 10
0.0
 20
16.42682371361204
 30
79.37345376532363
 10
0.0
 20
16.24575252486088
 30
79.30279168380156
 10
0.0
 20
16.17495590771368
 30
79.25957698187898
 10
0.0
 20
16.08142795633158
 30
79.16330201282133
 10
0.0
 20
16.05788177339904
 30
79.10995803148812
 10
0.0
 20
16.05788177339904
 30
79.05399470512917
  0
LINE
  5
172
330
132
100
AcDbEntity
  8
PV-B9
100
AcDbLine
 10
0.0
 20
18.55788177339908
 30
-39.80000000000008
 11
0.0
 21
18.05788177339908
 31
-39.80000000000008
  0
LINE
  5
173
330
132
100
AcDbEntity
  8
PV-B9
100
AcDbLine
 10
0.0
 20
30.85788177339908
 30
-79.24856819162673
 11
0.0
 21
30.18630889814529
 31
-79.24856819162673
  0
LINE
  5
174
330
132
100
AcDbEntity
  8
PV-B9
100
AcDbLine
 10
0.0
 20
30.18630889814524
 30
79.44856819162655
 11
0.0
 21
30.18630889814524
 31
73.39999999999989
  0
LINE
  5
175
330
132
100
AcDbEntity
  8
PV-B9
100
AcDbLine
 10
0.0
 20
30.18630889814528
 30
-73.40000000000009
 11
0.0
 21
30.18630889814528
 31
-79.24856819162673
  0
LINE
  5
176
330
132
100
AcDbEntity
  8
PV-B9
100
AcDbLine
 10
0.0
 20
30.85788177339905
 30
79.44856819162655
 11
0.0
 21
30.18630889814524
 31
79.44856819162655
  0
LINE
  5
177
330
132
100
AcDbEntity
  8
PV-B9
100
AcDbLine
 10
0.0
 20
30.85788177339908
 30
-79.24856819162672
 11
0.0
 21
30.85788177339908
 31
-79.90000000000009
  0
LINE
  5
178
330
132
100
AcDbEntity
  8
PV-B9
100
AcDbLine
 10
0.0
 20
30.85788177339908
 30
-79.24856819162673
 11
0.0
 21
30.85788177339908
 31
-73.40000000000009
  0
LINE
  5
179
330
132
100
AcDbEntity
  8
PV-B9
100
AcDbLine
 10
0.0
 20
30.85788177339905
 30
73.39999999999989
 11
0.0
 21
30.85788177339905
 31
79.44856819162655
  0
LINE
  5
17A
330
132
100
AcDbEntity
  8
PV-B9
100
AcDbLine
 10
0.0
 20
30.85788177339905
 30
80.09999999999989
 11
0.0
 21
30.85788177339905
 31
79.44856819162655
  0
SPLINE
  5
17B
330
132
100
AcDbEntity
  8
PV-B9
100
AcDbSpline
210
1.0
220
0.0
230
0.0
 70
     8
 71
     3
 72
    14
 73
    10
 74
     0
 42
0.0000000001
 43
0.0000000001
 40
0.0
 40
0.0
 40
0.0
 40
0.0
 40
0.0003906076277808
 40
0.0003906076277808
 40
0.0007812152555616
 40
0.0007812152555616
 40
0.0011718228833424
 40
0.0011718228833424
 40
0.0015624305111232
 40
0.0015624305111232
 40
0.0015624305111232
 40
0.0015624305111232
 10
0.0
 20
15.817757530283
 30
68.13990671960548
 10
0.0
 20
15.9498347297421
 30
68.13990671960545
 10
0.0
 20
16.07943466153119
 30
68.13973920671492
 10
0.0
 20
16.32156268357524
 30
68.13908962790616
 10
0.0
 20
16.43246225653381
 30
68.13860798801163
 10
0.0
 20
16.6169486396123
 30
68.13740285291078
 10
0.0
 20
16.69146343314565
 30
68.13667050697519
 10
0.0
 20
16.79128115069593
 30
68.1350764833264
 10
0.0
 20
16.817757530283
 30
68.13418827892459
 10
0.0
 20
16.81775753028301
 30
68.13331121198082
  0
LINE
  5
17C
330
132
100
AcDbEntity
  8
PV-B9
100
AcDbLine
 10
0.0
 20
15.817757530283
 30
40.00000000000007
 11
0.0
 21
16.05788177339906
 31
40.00000000000007
  0
LINE
  5
17D
330
132
100
AcDbEntity
  8
PV-B9
100
AcDbLine
 10
0.0
 20
13.84349188832207
 30
40.00000000000007
 11
0.0
 21
-7.142118226600945
 31
40.00000000000007
  0
LINE
  5
17E
330
132
100
AcDbEntity
  8
PV-B9
100
AcDbLine
 10
0.0
 20
13.84349188832207
 30
40.00000000000007
 11
0.0
 21
14.02951474422632
 31
40.00000000000007
  0
SPLINE
  5
17F
330
132
100
AcDbEntity
  8
PV-B9
100
AcDbSpline
210
1.0
220
0.0
230
0.0
 70
    12
 71
     3
 72
     8
 73
     4
 74
     0
 42
0.0000000001
 43
0.0000000001
 40
1.955103209609784
 40
1.955103209609784
 40
1.955103209609784
 40
1.955103209609784
 40
3.128682619448366
 40
3.128682619448366
 40
3.128682619448366
 40
3.128682619448366
 10
0.0
 20
14.42257308884908
 30
79.10969281153803
 41
1.0
 10
0.0
 20
14.18035220963576
 30
77.24054598389912
 41
0.8884816515039114
 10
0.0
 20
14.0328877707407
 30
73.12499069045195
 41
0.8884816515039114
 10
0.0
 20
14.02951474422632
 30
68.13990671960522
 41
1.0
  0
LINE
  5
180
330
132
100
AcDbEntity
  8
PV-B9
100
AcDbLine
 10
0.0
 20
15.817757530283
 30
40.00000000000007
 11
0.0
 21
14.02951474422647
 31
40.00000000000007
  0
LINE
  5
181
330
132
100
AcDbEntity
  8
PV-B9
100
AcDbLine
 10
0.0
 20
14.02951474422648
 30
68.13990671960522
 11
0.0
 21
14.02951474422648
 31
40.00000000000007
  0
LINE
  5
182
330
132
100
AcDbEntity
  8
PV-B9
100
AcDbLine
 10
0.0
 20
15.817757530283
 30
68.13990671960546
 11
0.0
 21
14.02951474422633
 31
68.13990671960546
  0
LINE
  5
183
330
132
100
AcDbEntity
  8
PV-B9
100
AcDbLine
 10
0.0
 20
16.817757530283
 30
40.00000000000007
 11
0.0
 21
16.817757530283
 31
68.13331121198082
  0
LINE
  5
184
330
132
100
AcDbEntity
  8
PV-B9
100
AcDbLine
 10
0.0
 20
16.817757530283
 30
68.13331121198082
 11
0.0
 21
16.817757530283
 31
71.26691063058365
  0
LINE
  5
185
330
132
100
AcDbEntity
  8
PV-B9
100
AcDbLine
 10
0.0
 20
16.817757530283
 30
73.39999999999989
 11
0.0
 21
16.81775753028301
 31
76.85984266838165
  0
SPLINE
  5
186
330
132
100
AcDbEntity
  8
PV-B9
100
AcDbSpline
210
1.0
220
0.0
230
0.0
 70
     8
 71
     3
 72
    14
 73
    10
 74
     0
 42
0.0000000001
 43
0.0000000001
 40
0.0
 40
0.0
 40
0.0
 40
0.0
 40
0.0004325832214326
 40
0.0004325832214326
 40
0.0008651664428653
 40
0.0008651664428653
 40
0.0012977496642979
 40
0.0012977496642979
 40
0.0017303328857306
 40
0.0017303328857306
 40
0.0017303328857306
 40
0.0017303328857306
 10
0.0
 20
16.81775753028301
 30
76.85984266838165
 10
0.0
 20
16.81775753028301
 30
77.00618750220222
 10
0.0
 20
16.79748679396161
 30
77.14901846491649
 10
0.0
 20
16.71281022245165
 30
77.42702970384677
 10
0.0
 20
16.64868900797344
 30
77.55926320425458
 10
0.0
 20
16.47407545020342
 30
77.79309777426608
 10
0.0
 20
16.36388978479867
 30
77.89322392867261
 10
0.0
 20
16.10851250369157
 30
78.0336353137901
 10
0.0
 20
15.9649895599661
 30
78.07275543012369
 10
0.0
 20
15.81775753028301
 30
78.07275543012294
  0
LINE
  5
187
330
132
100
AcDbEntity
  8
PV-B9
100
AcDbLine
 10
0.0
 20
15.35788177339905
 30
78.07275543012292
 11
0.0
 21
15.81775753028301
 31
78.07275543012292
  0
LINE
  5
188
330
132
100
AcDbEntity
  8
PV-B9
100
AcDbLine
 10
0.0
 20
13.84349188832209
 30
80.00000000000008
 11
0.0
 21
14.42257308884909
 31
80.00000000000008
  0
LINE
  5
189
330
132
100
AcDbEntity
  8
PV-B9
100
AcDbLine
 10
0.0
 20
13.84349188832209
 30
80.00000000000008
 11
0.0
 21
-7.142118226600935
 31
80.00000000000008
  0
LINE
  5
18A
330
132
100
AcDbEntity
  8
PV-B9
100
AcDbLine
 10
0.0
 20
15.35788177339905
 30
79.10969281153805
 11
0.0
 21
15.35788177339905
 31
78.07275543012294
  0
LINE
  5
18B
330
132
100
AcDbEntity
  8
PV-B9
100
AcDbLine
 10
0.0
 20
14.42257308884908
 30
80.00000000000008
 11
0.0
 21
14.42257308884908
 31
79.10969281153803
  0
LINE
  5
18C
330
132
100
AcDbEntity
  8
PV-B9
100
AcDbLine
 10
0.0
 20
14.42257308884909
 30
79.10969281153803
 11
0.0
 21
15.35788177339905
 31
79.10969281153803
  0
LINE
  5
18D
330
132
100
AcDbEntity
  8
PV-B9
100
AcDbLine
 10
0.0
 20
3.357881773399029
 30
-82.50000000000008
 11
0.0
 21
-5.642118226600971
 31
-82.50000000000008
  0
LINE
  5
18E
330
132
100
AcDbEntity
  8
PV-B9
100
AcDbLine
 10
0.0
 20
-7.142118226600969
 30
-80.00000000000008
 11
0.0
 21
3.357881773399029
 31
-80.00000000000008
  0
LINE
  5
18F
330
132
100
AcDbEntity
  8
PV-B9
100
AcDbLine
 10
0.0
 20
3.357881773399029
 30
-80.00000000000008
 11
0.0
 21
13.84349188832205
 31
-80.00000000000008
  0
LINE
  5
190
330
132
100
AcDbEntity
  8
PV-B9
100
AcDbLine
 10
0.0
 20
12.35788177339903
 30
-82.50000000000008
 11
0.0
 21
3.357881773399029
 31
-82.50000000000008
  0
LINE
  5
191
330
132
100
AcDbEntity
  8
PV-B9
100
AcDbLine
 10
0.0
 20
3.357881773399066
 30
82.50000000000008
 11
0.0
 21
-5.642118226600935
 31
82.50000000000008
  0
LINE
  5
192
330
132
100
AcDbEntity
  8
PV-B9
100
AcDbLine
 10
0.0
 20
-7.142118226600935
 30
80.00000000000008
 11
0.0
 21
3.357881773399063
 31
80.00000000000008
  0
LINE
  5
193
330
132
100
AcDbEntity
  8
PV-B9
100
AcDbLine
 10
0.0
 20
3.357881773399063
 30
80.00000000000008
 11
0.0
 21
13.84349188832209
 31
80.00000000000008
  0
LINE
  5
194
330
132
100
AcDbEntity
  8
PV-B9
100
AcDbLine
 10
0.0
 20
12.35788177339905
 30
82.50000000000008
 11
0.0
 21
3.357881773399066
 31
82.50000000000008
  0
LINE
  5
195
330
132
100
AcDbEntity
  8
PV-B9
100
AcDbLine
 10
0.0
 20
13.42548898951505
 30
-40.00000000000007
 11
0.0
 21
3.357881773398954
 31
-40.00000000000007
  0
LINE
  5
196
330
132
100
AcDbEntity
  8
PV-B9
100
AcDbLine
 10
0.0
 20
13.42548898951504
 30
-40.00000000000007
 11
0.0
 21
15.19748584211618
 31
-40.00000000000007
  0
LINE
  5
197
330
132
100
AcDbEntity
  8
PV-B9
100
AcDbLine
 10
0.0
 20
13.42548898951504
 30
39.79999999999991
 11
0.0
 21
16.05788177339904
 31
39.79999999999991
  0
LINE
  5
198
330
132
100
AcDbEntity
  8
PV-B9
100
AcDbLine
 10
0.0
 20
13.42548898951505
 30
39.79999999999991
 11
0.0
 21
3.357881773398954
 31
39.79999999999991
  0
LINE
  5
199
330
132
100
AcDbEntity
  8
PV-B9
100
AcDbLine
 10
0.0
 20
3.357881773399101
 30
39.79999999999991
 11
0.0
 21
-7.142118226600969
 31
39.79999999999991
  0
LINE
  5
19A
330
132
100
AcDbEntity
  8
PV-B9
100
AcDbLine
 10
0.0
 20
3.357881773399101
 30
-40.00000000000007
 11
0.0
 21
-7.142118226600969
 31
-40.00000000000007
  0
LINE
  5
19B
330
132
100
AcDbEntity
  8
PV-B9
100
AcDbLine
 10
0.0
 20
15.85788177339902
 30
39.79999999999991
 11
0.0
 21
15.85788177339902
 31
39.99999999999992
  0
LINE
  5
19C
330
132
100
AcDbEntity
  8
PV-B9
100
AcDbLine
 10
0.0
 20
11.85788177339903
 30
39.99999999999992
 11
0.0
 21
11.85788177339903
 31
39.79999999999991
  0
LINE
  5
19D
330
132
100
AcDbEntity
  8
PV-B9
100
AcDbLine
 10
0.0
 20
-7.142118226600964
 30
-40.00000000000007
 11
0.0
 21
-7.142118226600964
 31
39.79999999999991
  0
LINE
  5
19E
330
132
100
AcDbEntity
  8
PV-B9
100
AcDbLine
 10
0.0
 20
13.85788177339906
 30
80.00000000000008
 11
0.0
 21
13.85788177339906
 31
81.00000000000008
  0
LINE
  5
19F
330
132
100
AcDbEntity
  8
PV-B9
100
AcDbLine
 10
0.0
 20
-7.142118226600934
 30
80.00000000000008
 11
0.0
 21
-7.142118226600934
 31
81.00000000000008
  0
LINE
  5
1A0
330
132
100
AcDbEntity
  8
PV-B9
100
AcDbLine
 10
0.0
 20
13.85788177339903
 30
-81.00000000000008
 11
0.0
 21
13.85788177339903
 31
-80.00000000000008
  0
LINE
  5
1A1
330
132
100
AcDbEntity
  8
PV-B9
100
AcDbLine
 10
0.0
 20
-7.142118226600969
 30
-81.00000000000008
 11
0.0
 21
-7.142118226600969
 31
-80.00000000000008
  0
LINE
  5
1A2
330
132
100
AcDbEntity
  8
PV-B9
100
AcDbLine
 10
0.0
 20
-7.142118226600945
 30
40.00000000000007
 11
0.0
 21
-7.142118226600935
 31
80.00000000000008
  0
LINE
  5
1A3
330
132
100
AcDbEntity
  8
PV-B9
100
AcDbLine
 10
0.0
 20
-7.142118226600969
 30
-80.00000000000008
 11
0.0
 21
-7.142118226600961
 31
-40.00000000000007
  0
LINE
  5
1A4
330
132
100
AcDbEntity
  8
PV-B9
100
AcDbLine
 10
0.0
 20
34.85788177339905
 30
-79.88749217771919
 11
0.0
 21
30.85788177339905
 31
-79.88749217771919
  0
LINE
  5
1A5
330
132
100
AcDbEntity
  8
PV-B9
100
AcDbLine
 10
0.0
 20
30.85788177339905
 30
79.887492177719
 11
0.0
 21
34.85788177339905
 31
79.887492177719
  0
ARC
  5
1A6
330
132
100
AcDbEntity
  8
PV-B9
100
AcDbCircle
 10
12.35788177339905
 20
81.00000000000008
 30
0.0
 40
1.5
210
1.0
220
0.0
230
0.0
100
AcDbArc
 50
0.0
 51
90.00000000000124
  0
ARC
  5
1A7
330
132
100
AcDbEntity
  8
PV-B9
100
AcDbCircle
 10
-5.642118226600937
 20
81.00000000000008
 30
0.0
 40
1.5
210
1.0
220
0.0
230
0.0
100
AcDbArc
 50
89.99999999999797
 51
180.0
  0
ARC
  5
1A8
330
132
100
AcDbEntity
  8
PV-B9
100
AcDbCircle
 10
12.35788177339903
 20
-81.00000000000008
 30
0.0
 40
1.5
210
1.0
220
0.0
230
0.0
100
AcDbArc
 50
269.9999999999978
 51
359.9999999999997
  0
ARC
  5
1A9
330
132
100
AcDbEntity
  8
PV-B9
100
AcDbCircle
 10
-5.642118226600971
 20
-81.00000000000008
 30
0.0
 40
1.5
210
1.0
220
0.0
230
0.0
100
AcDbArc
 50
180.0000000000002
 51
270.0000000000012
  0
ENDBLK
  5
1AB
330
132
100
AcDbEntity
  8
0
100
AcDbBlockEnd
  0
BLOCK
  5
1AE
330
1AC
100
AcDbEntity
  8
0
100
AcDbBlockBegin
  2
RIGHT
 70
     0
 10
0.0
 20
0.0
 30
0.0
  3
RIGHT
  1

  0
INSERT
  5
1AD
330
1AC
100
AcDbEntity
  8
PV-B9
100
AcDbBlockReference
  2
*U4
 10
0.0
 20
0.0
 30
0.0
 50
90.0
210
0.0
220
1.0
230
0.0
  0
ENDBLK
  5
1AF
330
1AC
100
AcDbEntity
  8
0
100
AcDbBlockEnd
  0
BLOCK
  5
200
330
1B1
100
AcDbEntity
  8
0
100
AcDbBlockBegin
  2
*U6
 70
     1
 10
0.0
 20
0.0
 30
0.0
  3
*U6
  1
*ANON
  0
LINE
  5
1B2
330
1B1
100
AcDbEntity
  8
PV-B9
100
AcDbLine
 10
-55.62044334975369
 20
34.85788177339905
 30
0.0
 11
-55.62044334975369
 21
30.85788177339905
 31
0.0
  0
LINE
  5
1B3
330
1B1
100
AcDbEntity
  8
PV-B9
100
AcDbLine
 10
-69.12044334975369
 20
30.85788177339905
 30
0.0
 11
-69.12044334975369
 21
34.85788177339905
 31
0.0
  0
ARC
  5
1B4
330
1B1
100
AcDbEntity
  8
PV-B9
100
AcDbCircle
 10
-47.12044334975368
 20
30.85788177339905
 30
0.0
 40
4.0
100
AcDbArc
 50
0.0
 51
90.00000000000079
  0
ARC
  5
1B5
330
1B1
100
AcDbEntity
  8
PV-B9
100
AcDbCircle
 10
-48.12044334975368
 20
29.85788177339905
 30
0.0
 40
1.0
100
AcDbArc
 50
0.0
 51
90.00000000000079
  0
LINE
  5
1B6
330
1B1
100
AcDbEntity
  8
PV-B9
100
AcDbLine
 10
-47.12044334975368
 20
29.85788177339905
 30
0.0
 11
-47.12044334975368
 21
27.35788177339905
 31
0.0
  0
LINE
  5
1B7
330
1B1
100
AcDbEntity
  8
PV-B9
100
AcDbLine
 10
-43.12044334975367
 20
30.85788177339905
 30
0.0
 11
-43.12044334975367
 21
16.39976353937405
 31
0.0
  0
LINE
  5
1B8
330
1B1
100
AcDbEntity
  8
PV-B9
100
AcDbLine
 10
-47.12044334975368
 20
34.85788177339905
 30
0.0
 11
-52.62044334975367
 21
34.85788177339905
 31
0.0
  0
LINE
  5
1B9
330
1B1
100
AcDbEntity
  8
PV-B9
100
AcDbLine
 10
-52.62044334975367
 20
34.85788177339905
 30
0.0
 11
-55.62044334975368
 21
34.85788177339905
 31
0.0
  0
LINE
  5
1BA
330
1B1
100
AcDbEntity
  8
PV-B9
100
AcDbLine
 10
-57.72044334975369
 20
34.85788177339905
 30
0.0
 11
-55.62044334975369
 21
34.85788177339905
 31
0.0
  0
LINE
  5
1BB
330
1B1
100
AcDbEntity
  8
PV-B9
100
AcDbLine
 10
-69.12044334975369
 20
34.85788177339905
 30
0.0
 11
-57.72044334975369
 21
34.85788177339905
 31
0.0
  0
LINE
  5
1BC
330
1B1
100
AcDbEntity
  8
PV-B9
100
AcDbLine
 10
-49.12044334975367
 20
30.85788177339905
 30
0.0
 11
-48.12044334975368
 21
30.85788177339905
 31
0.0
  0
LINE
  5
1BD
330
1B1
100
AcDbEntity
  8
PV-B9
100
AcDbLine
 10
-48.12044334975368
 20
16.05788177339904
 30
0.0
 11
-47.12044334975367
 21
16.05788177339904
 31
0.0
  0
LINE
  5
1BE
330
1B1
100
AcDbEntity
  8
PV-B9
100
AcDbLine
 10
-69.12044334975369
 20
28.35788177339905
 30
0.0
 11
-69.12044334975369
 21
30.85788177339905
 31
0.0
  0
LINE
  5
1BF
330
1B1
100
AcDbEntity
  8
PV-B9
100
AcDbLine
 10
-49.12044334975368
 20
27.35788177339905
 30
0.0
 11
-49.12044334975368
 21
17.05788177339905
 31
0.0
  0
LINE
  5
1C0
330
1B1
100
AcDbEntity
  8
PV-B9
100
AcDbLine
 10
-57.12044334975368
 20
28.35788177339905
 30
0.0
 11
-69.12044334975367
 21
28.35788177339906
 31
0.0
  0
LINE
  5
1C1
330
1B1
100
AcDbEntity
  8
PV-B9
100
AcDbLine
 10
-53.02044334975366
 20
28.35788177339905
 30
0.0
 11
-57.12044334975368
 21
28.35788177339905
 31
0.0
  0
LINE
  5
1C2
330
1B1
100
AcDbEntity
  8
PV-B9
100
AcDbLine
 10
-53.02044334975366
 20
28.35788177339905
 30
0.0
 11
-50.12044334975367
 21
28.35788177339905
 31
0.0
  0
LINE
  5
1C3
330
1B1
100
AcDbEntity
  8
PV-B9
100
AcDbLine
 10
-47.12044334975368
 20
16.05788177339904
 30
0.0
 11
-47.12044334975368
 21
27.35788177339905
 31
0.0
  0
LINE
  5
1C4
330
1B1
100
AcDbEntity
  8
PV-B9
100
AcDbLine
 10
-41.02044334975367
 20
18.05788177339906
 30
0.0
 11
-41.02044334975367
 21
16.05788177339906
 31
0.0
  0
LINE
  5
1C5
330
1B1
100
AcDbEntity
  8
PV-B9
100
AcDbLine
 10
-41.6496721402048
 20
16.05788177339906
 30
0.0
 11
-41.02044334975367
 21
16.05788177339906
 31
0.0
  0
LINE
  5
1C6
330
1B1
100
AcDbEntity
  8
PV-B9
100
AcDbLine
 10
-43.12044334975367
 20
18.05788177339906
 30
0.0
 11
-41.02044334975367
 21
18.05788177339906
 31
0.0
  0
SPLINE
  5
1C7
330
1B1
100
AcDbEntity
  8
PV-B9
100
AcDbSpline
210
0.0
220
0.0
230
1.0
 70
     8
 71
     3
 72
    14
 73
    10
 74
     0
 42
0.0000000001
 43
0.0000000001
 40
0.0
 40
0.0
 40
0.0
 40
0.0
 40
0.0003986241037927
 40
0.0003986241037927
 40
0.0007972482075854
 40
0.0007972482075854
 40
0.0011958723113781
 40
0.0011958723113781
 40
0.0015944964151707
 40
0.0015944964151707
 40
0.0015944964151707
 40
0.0015944964151707
 10
-50.12044334975367
 20
28.35788177339905
 30
0.0
 10
-49.98964211176829
 20
28.35788177339905
 30
0.0
 10
-49.86216621270099
 20
28.33260700182893
 30
0.0
 10
-49.62222240788456
 20
28.2345642949226
 30
0.0
 10
-49.5123937082175
 20
28.16237780510794
 30
0.0
 10
-49.32673163841805
 20
27.97994282417808
 30
0.0
 10
-49.25095463682623
 20
27.86912517135119
 30
0.0
 10
-49.14816591420795
 20
27.62631616424066
 30
0.0
 10
-49.12044334975367
 20
27.49283085304297
 30
0.0
 10
-49.12044334975368
 20
27.35788177339905
 30
0.0
  0
SPLINE
  5
1C8
330
1B1
100
AcDbEntity
  8
PV-B9
100
AcDbSpline
210
0.0
220
0.0
230
1.0
 70
     8
 71
     3
 72
    14
 73
    10
 74
     0
 42
0.0000000001
 43
0.0000000001
 40
0.0
 40
0.0
 40
0.0
 40
0.0
 40
0.0009499640180249
 40
0.0009499640180249
 40
0.0018999280360499
 40
0.0018999280360499
 40
0.0028498920540748
 40
0.0028498920540748
 40
0.0037998560720998
 40
0.0037998560720998
 40
0.0037998560720998
 40
0.0037998560720998
 10
-47.12044334975368
 20
27.35788177339905
 30
0.0
 10
-47.12044334975367
 20
27.67951256364562
 30
0.0
 10
-47.17113006216266
 20
27.99166422615893
 30
0.0
 10
-47.36826104565752
 20
28.59304234223502
 30
0.0
 10
-47.51023997098094
 20
28.86832396379835
 30
0.0
 10
-47.87102635344433
 20
29.36654313505497
 30
0.0
 10
-48.08339960239226
 20
29.58107117571928
 30
0.0
 10
-48.56995949166055
 20
29.94402139705549
 30
0.0
 10
-48.83414929687788
 20
30.08508866504447
 30
0.0
 10
-49.12044334975367
 20
30.18630889814524
 30
0.0
  0
SPLINE
  5
1C9
330
1B1
100
AcDbEntity
  8
PV-B9
100
AcDbSpline
210
0.0
220
0.0
230
1.0
 70
     8
 71
     3
 72
    14
 73
    10
 74
     0
 42
0.0000000001
 43
0.0000000001
 40
0.0
 40
0.0
 40
0.0
 40
0.0
 40
0.0004059857219147
 40
0.0004059857219147
 40
0.0008119714438295
 40
0.0008119714438295
 40
0.0012179571657442
 40
0.0012179571657442
 40
0.001623942887659
 40
0.001623942887659
 40
0.001623942887659
 40
0.001623942887659
 10
-49.12044334975368
 20
17.05788177339905
 30
0.0
 10
-49.12044334975368
 20
16.92056655241271
 30
0.0
 10
-49.09202280586802
 20
16.78561861899806
 30
0.0
 10
-48.98554405787599
 20
16.53856045706967
 30
0.0
 10
-48.90712436357787
 20
16.42682371361204
 30
0.0
 10
-48.71839600339979
 20
16.24575252486088
 30
0.0
 10
-48.60681783773276
 20
16.17495590771368
 30
0.0
 10
-48.3707554948597
 20
16.08142795633158
 30
0.0
 10
-48.24554987641025
 20
16.05788177339904
 30
0.0
 10
-48.12044334975368
 20
16.05788177339904
 30
0.0
  0
LINE
  5
1CA
330
1B1
100
AcDbEntity
  8
PV-B9
100
AcDbLine
 10
-49.12044334975367
 20
30.85788177339905
 30
0.0
 11
-49.12044334975367
 21
30.18630889814524
 31
0.0
  0
LINE
  5
1CB
330
1B1
100
AcDbEntity
  8
PV-B9
100
AcDbLine
 10
-57.12044334975368
 20
30.85788177339905
 30
0.0
 11
-53.02044334975366
 21
30.85788177339905
 31
0.0
  0
LINE
  5
1CC
330
1B1
100
AcDbEntity
  8
PV-B9
100
AcDbLine
 10
-69.12044334975367
 20
30.85788177339906
 30
0.0
 11
-57.12044334975368
 21
30.85788177339905
 31
0.0
  0
LINE
  5
1CD
330
1B1
100
AcDbEntity
  8
PV-B9
100
AcDbLine
 10
-53.02044334975366
 20
30.85788177339905
 30
0.0
 11
-49.12044334975367
 21
30.85788177339905
 31
0.0
  0
SPLINE
  5
1CE
330
1B1
100
AcDbEntity
  8
PV-B9
100
AcDbSpline
210
0.0
220
0.0
230
1.0
 70
     8
 71
     3
 72
    14
 73
    10
 74
     0
 42
0.0000000001
 43
0.0000000001
 40
0.0
 40
0.0
 40
0.0
 40
0.0
 40
0.0003906076277808
 40
0.0003906076277808
 40
0.0007812152555616
 40
0.0007812152555616
 40
0.0011718228833424
 40
0.0011718228833424
 40
0.0015624305111232
 40
0.0015624305111232
 40
0.0015624305111232
 40
0.0015624305111232
 10
-41.62044334975369
 20
15.817757530283
 30
0.0
 10
-41.62044334975369
 20
15.9498347297421
 30
0.0
 10
-41.64643250824755
 20
16.07943466153119
 30
0.0
 10
-41.74674293891142
 20
16.32156268357524
 30
0.0
 10
-41.82097598331274
 20
16.43246225653381
 30
0.0
 10
-42.00537949839507
 20
16.6169486396123
 30
0.0
 10
-42.11686588742962
 20
16.69146343314565
 30
0.0
 10
-42.35737676929185
 20
16.79128115069593
 30
0.0
 10
-42.49019542025642
 20
16.817757530283
 30
0.0
 10
-42.62044334975367
 20
16.81775753028301
 30
0.0
  0
LINE
  5
1CF
330
1B1
100
AcDbEntity
  8
PV-B9
100
AcDbLine
 10
-41.62044334975369
 20
15.817757530283
 30
0.0
 11
-41.62044334975369
 21
14.02951474422633
 31
0.0
  0
LINE
  5
1D0
330
1B1
100
AcDbEntity
  8
PV-B9
100
AcDbLine
 10
-42.62044334975367
 20
16.817757530283
 30
0.0
 11
-43.12044334975367
 21
16.817757530283
 31
0.0
  0
LINE
  5
1D1
330
1B1
100
AcDbEntity
  8
PV-B9
100
AcDbLine
 10
-44.04459748458697
 20
16.817757530283
 30
0.0
 11
-47.12044334975368
 21
16.81775753028301
 31
0.0
  0
SPLINE
  5
1D2
330
1B1
100
AcDbEntity
  8
PV-B9
100
AcDbSpline
210
0.0
220
0.0
230
1.0
 70
    24
 71
     3
 72
     8
 73
     4
 74
     0
 42
0.0000000001
 43
0.0000000001
 40
0.0014897492227514
 40
0.0014897492227514
 40
0.0014897492227514
 40
0.0014897492227514
 40
0.0017303328857306
 40
0.0017303328857306
 40
0.0017303328857306
 40
0.0017303328857306
 10
-47.12044334975368
 20
16.05788177339904
 30
0.0
 10
-47.12044334975368
 20
15.98037816701715
 30
0.0
 10
-47.12044334975368
 20
15.89964147597027
 30
0.0
 10
-47.12044334975368
 20
15.81775753028301
 30
0.0
  0
LINE
  5
1D3
330
1B1
100
AcDbEntity
  8
PV-B9
100
AcDbLine
 10
-47.12044334975368
 20
15.35788177339905
 30
0.0
 11
-47.12044334975368
 21
15.81775753028301
 31
0.0
  0
LINE
  5
1D4
330
1B1
100
AcDbEntity
  8
PV-B9
100
AcDbLine
 10
-38.07091580920285
 20
13.84349188832209
 30
0.0
 11
-49.12044334975369
 21
14.42257308884909
 31
0.0
  0
LINE
  5
1D5
330
1B1
100
AcDbEntity
  8
PV-B9
100
AcDbLine
 10
-49.12044334975369
 20
15.35788177339905
 30
0.0
 11
-47.12044334975368
 21
15.35788177339905
 31
0.0
  0
LINE
  5
1D6
330
1B1
100
AcDbEntity
  8
PV-B9
100
AcDbLine
 10
-49.12044334975369
 20
3.357881773399057
 30
0.0
 11
-49.12044334975369
 21
14.42257308884909
 31
0.0
  0
LINE
  5
1D7
330
1B1
100
AcDbEntity
  8
PV-B9
100
AcDbLine
 10
-49.12044334975369
 20
14.42257308884909
 30
0.0
 11
-49.12044334975369
 21
15.35788177339905
 31
0.0
  0
LINE
  5
1D8
330
1B1
100
AcDbEntity
  8
PV-B9
100
AcDbLine
 10
-38.62044334975369
 20
2.857881773399063
 30
0.0
 11
-38.62044334975369
 21
3.357232365805869
 31
0.0
  0
LINE
  5
1D9
330
1B1
100
AcDbEntity
  8
PV-B9
100
AcDbLine
 10
-38.62044334975369
 20
3.358531180992264
 30
0.0
 11
-38.62044334975369
 21
3.857881773399063
 31
0.0
  0
LINE
  5
1DA
330
1B1
100
AcDbEntity
  8
PV-B9
100
AcDbLine
 10
-40.62044334975369
 20
2.857881773399066
 30
0.0
 11
-39.12044334975369
 21
2.857881773399066
 31
0.0
  0
LINE
  5
1DB
330
1B1
100
AcDbEntity
  8
PV-B9
100
AcDbLine
 10
-38.12044334975369
 20
2.857881773399066
 30
0.0
 11
-36.62044334975369
 21
2.857881773399066
 31
0.0
  0
LINE
  5
1DC
330
1B1
100
AcDbEntity
  8
PV-B9
100
AcDbLine
 10
-36.62044334975369
 20
2.857881773399066
 30
0.0
 11
-36.62044334975369
 21
3.857881773399066
 31
0.0
  0
LINE
  5
1DD
330
1B1
100
AcDbEntity
  8
PV-B9
100
AcDbLine
 10
-38.12044334975369
 20
3.857881773399066
 30
0.0
 11
-36.62044334975369
 21
3.857881773399066
 31
0.0
  0
LINE
  5
1DE
330
1B1
100
AcDbEntity
  8
PV-B9
100
AcDbLine
 10
-40.62044334975369
 20
3.857881773399066
 30
0.0
 11
-39.12044334975369
 21
3.857881773399066
 31
0.0
  0
LINE
  5
1DF
330
1B1
100
AcDbEntity
  8
PV-B9
100
AcDbLine
 10
-40.62044334975369
 20
2.857881773399066
 30
0.0
 11
-40.62044334975369
 21
3.857881773399066
 31
0.0
  0
ARC
  5
1E0
330
1B1
100
AcDbEntity
  8
PV-B9
100
AcDbCircle
 10
-38.62044334975369
 20
3.357881773399065
 30
0.0
 40
10.5
100
AcDbArc
 50
179.9999999999988
 51
0.0
  0
LINE
  5
1E1
330
1B1
100
AcDbEntity
  8
PV-B9
100
AcDbLine
 10
-38.12044334975369
 20
5.357881773399064
 30
0.0
 11
-39.12044334975369
 21
5.357881773399064
 31
0.0
  0
LINE
  5
1E2
330
1B1
100
AcDbEntity
  8
PV-B9
100
AcDbLine
 10
-39.12044334975369
 20
1.357881773399064
 30
0.0
 11
-38.12044334975369
 21
1.357881773399064
 31
0.0
  0
LINE
  5
1E3
330
1B1
100
AcDbEntity
  8
PV-B9
100
AcDbLine
 10
-39.12044334975369
 20
3.857881773399063
 30
0.0
 11
-39.12044334975369
 21
2.857881773399063
 31
0.0
  0
LINE
  5
1E4
330
1B1
100
AcDbEntity
  8
PV-B9
100
AcDbLine
 10
-39.12044334975369
 20
3.857881773399065
 30
0.0
 11
-39.12044334975369
 21
5.357881773399064
 31
0.0
  0
LINE
  5
1E5
330
1B1
100
AcDbEntity
  8
PV-B9
100
AcDbLine
 10
-39.12044334975369
 20
1.357881773399064
 30
0.0
 11
-39.12044334975369
 21
2.857881773399066
 31
0.0
  0
LINE
  5
1E6
330
1B1
100
AcDbEntity
  8
PV-B9
100
AcDbLine
 10
-39.11979394216049
 20
3.857881773399062
 30
0.0
 11
-38.62044334975369
 21
3.358531180992263
 31
0.0
  0
LINE
  5
1E7
330
1B1
100
AcDbEntity
  8
PV-B9
100
AcDbLine
 10
-38.12109275734688
 20
3.857881773399065
 30
0.0
 11
-38.62044334975369
 21
3.358531180992263
 31
0.0
  0
LINE
  5
1E8
330
1B1
100
AcDbEntity
  8
PV-B9
100
AcDbLine
 10
-39.11979394216049
 20
3.857881773399063
 30
0.0
 11
-38.12109275734687
 21
3.857881773399063
 31
0.0
  0
LINE
  5
1E9
330
1B1
100
AcDbEntity
  8
PV-B9
100
AcDbLine
 10
-39.12044334975369
 20
3.357881773399063
 30
0.0
 11
-38.12044334975369
 21
3.357881773399063
 31
0.0
  0
LINE
  5
1EA
330
1B1
100
AcDbEntity
  8
PV-B9
100
AcDbLine
 10
-38.12109275734687
 20
2.857881773399063
 30
0.0
 11
-39.11979394216049
 21
2.857881773399063
 31
0.0
  0
LINE
  5
1EB
330
1B1
100
AcDbEntity
  8
PV-B9
100
AcDbLine
 10
-38.12109275734688
 20
2.857881773399065
 30
0.0
 11
-38.62044334975369
 21
3.357232365805868
 31
0.0
  0
LINE
  5
1EC
330
1B1
100
AcDbEntity
  8
PV-B9
100
AcDbLine
 10
-39.11979394216049
 20
2.857881773399066
 30
0.0
 11
-38.62044334975367
 21
3.357232365805868
 31
0.0
  0
LINE
  5
1ED
330
1B1
100
AcDbEntity
  8
PV-B9
100
AcDbLine
 10
-38.12044334975369
 20
2.857881773399066
 30
0.0
 11
-38.12044334975369
 21
1.357881773399064
 31
0.0
  0
LINE
  5
1EE
330
1B1
100
AcDbEntity
  8
PV-B9
100
AcDbLine
 10
-38.12044334975369
 20
5.357881773399064
 30
0.0
 11
-38.12044334975369
 21
3.857881773399066
 31
0.0
  0
LINE
  5
1EF
330
1B1
100
AcDbEntity
  8
PV-B9
100
AcDbLine
 10
-38.12044334975369
 20
2.857881773399063
 30
0.0
 11
-38.12044334975369
 21
3.857881773399063
 31
0.0
  0
ARC
  5
1F0
330
1B1
100
AcDbEntity
  8
PV-B9
100
AcDbCircle
 10
-38.62044334975369
 20
3.357881773399065
 30
0.0
 40
10.5
100
AcDbArc
 50
0.0
 51
180.0000000000003
  0
LINE
  5
1F1
330
1B1
100
AcDbEntity
  8
PV-B9
100
AcDbLine
 10
-52.62044334975369
 20
11.85788177339903
 30
0.0
 11
-49.6200229918375
 21
11.85788177339903
 31
0.0
  0
LINE
  5
1F2
330
1B1
100
AcDbEntity
  8
PV-B9
100
AcDbLine
 10
-52.62044334975369
 20
15.857881773399
 30
0.0
 11
-52.62044334975369
 21
11.85788177339903
 31
0.0
  0
LINE
  5
1F3
330
1B1
100
AcDbEntity
  8
PV-B9
100
AcDbLine
 10
-49.6204433497537
 20
15.85788177339902
 30
0.0
 11
-52.62044334975369
 21
15.85788177339902
 31
0.0
  0
LINE
  5
1F4
330
1B1
100
AcDbEntity
  8
PV-B9
100
AcDbLine
 10
-49.6204433497537
 20
17.56719380181283
 30
0.0
 11
-49.6204433497537
 21
15.85788177339902
 31
0.0
  0
LINE
  5
1F5
330
1B1
100
AcDbEntity
  8
PV-B9
100
AcDbLine
 10
-35.63828223036249
 20
13.42548898951504
 30
0.0
 11
-41.62044334975369
 21
15.19748584211618
 31
0.0
  0
LINE
  5
1F6
330
1B1
100
AcDbEntity
  8
PV-B9
100
AcDbLine
 10
-49.12044334975369
 20
17.41908705433178
 30
0.0
 11
-49.6204433497537
 21
17.56719380181283
 31
0.0
  0
LINE
  5
1F7
330
1B1
100
AcDbEntity
  8
PV-B9
100
AcDbLine
 10
-49.10355589060587
 20
2.762607503983629
 30
0.0
 11
-49.6200229918375
 21
11.85788177339902
 31
0.0
  0
LINE
  5
1F8
330
1B1
100
AcDbEntity
  8
PV-B9
100
AcDbLine
 10
-52.72044334975371
 20
11.85788177339903
 30
0.0
 11
-52.72044334975371
 21
15.85788177339902
 31
0.0
  0
LINE
  5
1F9
330
1B1
100
AcDbEntity
  8
PV-B9
100
AcDbLine
 10
-77.72044334975371
 20
11.85788177339903
 30
0.0
 11
-77.72044334975371
 21
15.85788177339902
 31
0.0
  0
LINE
  5
1FA
330
1B1
100
AcDbEntity
  8
PV-B9
100
AcDbLine
 10
-52.72044334975372
 20
15.85788177339902
 30
0.0
 11
-52.62044334975369
 21
15.85788177339902
 31
0.0
  0
LINE
  5
1FB
330
1B1
100
AcDbEntity
  8
PV-B9
100
AcDbLine
 10
-52.72044334975372
 20
15.85788177339902
 30
0.0
 11
-74.72044334975371
 21
15.85788177339902
 31
0.0
  0
LINE
  5
1FC
330
1B1
100
AcDbEntity
  8
PV-B9
100
AcDbLine
 10
-77.72044334975371
 20
15.85788177339902
 30
0.0
 11
-74.72044334975371
 21
15.85788177339902
 31
0.0
  0
LINE
  5
1FD
330
1B1
100
AcDbEntity
  8
PV-B9
100
AcDbLine
 10
-74.72044334975371
 20
11.85788177339903
 30
0.0
 11
-77.72044334975371
 21
11.85788177339903
 31
0.0
  0
LINE
  5
1FE
330
1B1
100
AcDbEntity
  8
PV-B9
100
AcDbLine
 10
-74.72044334975371
 20
11.85788177339903
 30
0.0
 11
-52.72044334975371
 21
11.85788177339903
 31
0.0
  0
LINE
  5
1FF
330
1B1
100
AcDbEntity
  8
PV-B9
100
AcDbLine
 10
-52.62044334975369
 20
11.85788177339903
 30
0.0
 11
-52.72044334975372
 21
11.85788177339903
 31
0.0
  0
ENDBLK
  5
201
330
1B1
100
AcDbEntity
  8
0
100
AcDbBlockEnd
  0
BLOCK
  5
204
330
202
100
AcDbEntity
  8
0
100
AcDbBlockBegin
  2
TOP
 70
     0
 10
0.0
 20
0.0
 30
0.0
  3
TOP
  1

  0
INSERT
  5
203
330
202
100
AcDbEntity
  8
PV-B9
100
AcDbBlockReference
  2
*U6
 10
0.0
 20
0.0
 30
0.0
  0
ENDBLK
  5
205
330
202
100
AcDbEntity
  8
0
100
AcDbBlockEnd
  0
ENDSEC
  0
SECTION
  2
ENTITIES
  0
LINE
  5
217
330
1F
100
AcDbEntity
  8
PV-B9
100
AcDbLine
 10
-38.72000001400001
 20
73.39999999999988
 30
0.0000000000000019
 11
-34.72000001400001
 21
73.39999999999988
 31
0.0000000000000021
210
0.0
220
1.0
230
0.0
  0
LINE
  5
218
330
1F
100
AcDbEntity
  8
PV-B9
100
AcDbLine
 10
-38.72000001400001
 20
-73.4000000000001
 30
0.0000000000000019
 11
-34.72000001400001
 21
-73.4000000000001
 31
0.0000000000000021
210
0.0
220
1.0
230
0.0
  0
LINE
  5
219
330
1F
100
AcDbEntity
  8
PV-B9
100
AcDbLine
 10
-44.52000001400001
 20
56.99999999999991
 30
0.0000000000000015
 11
-43.52000001400002
 21
56.99999999999991
 31
0.0000000000000016
210
0.0
220
1.0
230
0.0
  0
ARC
  5
21A
330
1F
100
AcDbEntity
  8
PV-B9
100
AcDbCircle
 10
-44.52000001400001
 20
54.99999999999991
 30
0.0000000000000015
 40
1.999999999999998
100
AcDbArc
 50
90.0
 51
270.0
  0
LINE
  5
21B
330
1F
100
AcDbEntity
  8
PV-B9
100
AcDbLine
 10
-44.52000001400002
 20
52.9999999999999
 30
0.0000000000000015
 11
-43.52000001400003
 21
52.9999999999999
 31
0.0000000000000016
210
0.0
220
1.0
230
0.0
  0
ARC
  5
21C
330
1F
100
AcDbEntity
  8
PV-B9
100
AcDbCircle
 10
-43.52000001400002
 20
54.99999999999991
 30
0.0000000000000016
 40
1.999999999999998
100
AcDbArc
 50
270.0
 51
90.00000000000081
  0
ARC
  5
21D
330
1F
100
AcDbEntity
  8
PV-B9
100
AcDbCircle
 10
-44.52000001400001
 20
-55.00000000000012
 30
0.0000000000000015
 40
1.999999999999998
100
AcDbArc
 50
90.0
 51
270.0
  0
LINE
  5
21E
330
1F
100
AcDbEntity
  8
PV-B9
100
AcDbLine
 10
-44.52000001400001
 20
-57.00000000000013
 30
0.0000000000000015
 11
-43.52000001400002
 21
-57.00000000000013
 31
0.0000000000000016
210
0.0
220
1.0
230
0.0
  0
ARC
  5
21F
330
1F
100
AcDbEntity
  8
PV-B9
100
AcDbCircle
 10
-43.52000001400002
 20
-55.00000000000012
 30
0.0000000000000016
 40
1.999999999999998
100
AcDbArc
 50
269.9999999999992
 51
90.0
  0
LINE
  5
220
330
1F
100
AcDbEntity
  8
PV-B9
100
AcDbLine
 10
-44.52000001400002
 20
-53.00000000000014
 30
0.0000000000000015
 11
-43.52000001400003
 21
-53.00000000000014
 31
0.0000000000000016
210
0.0
220
1.0
230
0.0
  0
LINE
  5
221
330
1F
100
AcDbEntity
  8
PV-B9
100
AcDbLine
 10
-52.76012425711609
 20
-40.0000000000001
 30
0.000000000000001
 11
-50.72000001399999
 21
-40.0000000000001
 31
0.0000000000000012
210
0.0
220
1.0
230
0.0
  0
ARC
  5
222
330
1F
100
AcDbEntity
  8
PV-B9
100
AcDbCircle
 10
-50.72000001399999
 20
-37.0000000000001
 30
0.0000000000000012
 40
2.999999999999999
100
AcDbArc
 50
270.0
 51
0.0000000000003997
  0
LINE
  5
223
330
1F
100
AcDbEntity
  8
PV-B9
100
AcDbLine
 10
-47.72000001400001
 20
36.99999999999988
 30
0.0000000000000013
 11
-47.72000001400001
 21
-37.0000000000001
 31
0.0000000000000013
210
0.0
220
1.0
230
0.0
  0
ARC
  5
224
330
1F
100
AcDbEntity
  8
PV-B9
100
AcDbCircle
 10
-50.72000001400001
 20
36.99999999999988
 30
0.0000000000000012
 40
2.999999999999999
100
AcDbArc
 50
359.9999999999987
 51
90.0
  0
LINE
  5
225
330
1F
100
AcDbEntity
  8
PV-B9
100
AcDbLine
 10
-50.72000001400001
 20
39.99999999999989
 30
0.0000000000000012
 11
-51.52000001400001
 21
39.99999999999989
 31
0.0000000000000011
210
0.0
220
1.0
230
0.0
  0
LINE
  5
226
330
1F
100
AcDbEntity
  8
PV-B9
100
AcDbLine
 10
-38.72000001400001
 20
73.39999999999988
 30
0.0000000000000019
 11
-53.17811824802501
 21
73.39999999999988
 31
0.000000000000001
210
0.0
220
1.0
230
0.0
  0
LINE
  5
227
330
1F
100
AcDbEntity
  8
PV-B9
100
AcDbLine
 10
-38.72000001400001
 20
-73.4000000000001
 30
0.0000000000000019
 11
-53.17811824802517
 21
-73.4000000000001
 31
0.000000000000001
210
0.0
220
1.0
230
0.0
  0
LINE
  5
228
330
1F
100
AcDbEntity
  8
PV-B9
100
AcDbLine
 10
-34.72000001400001
 20
-73.4000000000001
 30
0.0000000000000021
 11
-34.72000001400001
 21
-76.40000000000012
 31
0.0000000000000021
210
0.0
220
1.0
230
0.0
  0
LINE
  5
229
330
1F
100
AcDbEntity
  8
PV-B9
100
AcDbLine
 10
-34.72000001400001
 20
73.39999999999988
 30
0.0000000000000021
 11
-34.72000001400001
 21
-73.40000000000012
 31
0.0000000000000021
210
0.0
220
1.0
230
0.0
  0
LINE
  5
22A
330
1F
100
AcDbEntity
  8
PV-B9
100
AcDbLine
 10
-34.72000001400001
 20
73.39999999999988
 30
0.0000000000000021
 11
-34.72000001400001
 21
76.39999999999989
 31
0.0000000000000021
210
0.0
220
1.0
230
0.0
  0
LINE
  5
22B
330
1F
100
AcDbEntity
  8
PV-B9
100
AcDbLine
 10
-34.72000001400001
 20
77.88749217771898
 30
0.0000000000000021
 11
-34.72000001400001
 21
76.39999999999988
 31
0.0000000000000021
210
0.0
220
1.0
230
0.0
  0
LINE
  5
22C
330
1F
100
AcDbEntity
  8
PV-B9
100
AcDbLine
 10
-34.72000001400001
 20
79.88749217771898
 30
0.0000000000000021
 11
-34.72000001400001
 21
77.88749217771897
 31
0.0000000000000021
210
0.0
220
1.0
230
0.0
  0
LINE
  5
22D
330
1F
100
AcDbEntity
  8
PV-B9
100
AcDbLine
 10
-34.72000001400001
 20
-77.88749217771921
 30
0.0000000000000021
 11
-34.72000001400001
 21
-79.88749217771921
 31
0.0000000000000021
210
0.0
220
1.0
230
0.0
  0
LINE
  5
22E
330
1F
100
AcDbEntity
  8
PV-B9
100
AcDbLine
 10
-34.72000001400001
 20
-77.88749217771921
 30
0.0000000000000021
 11
-34.72000001400001
 21
-76.40000000000011
 31
0.0000000000000021
210
0.0
220
1.0
230
0.0
  0
SPLINE
  5
22F
330
1F
100
AcDbEntity
  8
PV-B9
100
AcDbSpline
210
-0.0000000000000003
220
0.0000000000000465
230
-1.0
 70
     8
 71
     3
 72
    14
 73
    10
 74
     0
 42
0.0000000001
 43
0.0000000001
 40
0.0
 40
0.0
 40
0.0
 40
0.0
 40
0.0003906076277808
 40
0.0003906076277808
 40
0.0007812152555616
 40
0.0007812152555616
 40
0.0011718228833424
 40
0.0011718228833424
 40
0.0015624305111232
 40
0.0015624305111232
 40
0.0015624305111232
 40
0.0015624305111232
 10
-53.7601242571161
 20
-68.13990671960549
 30
0.000000000000001
 10
-53.62804705765698
 20
-68.13990671960546
 30
0.000000000000001
 10
-53.4984471258679
 20
-68.13973920671495
 30
0.000000000000001
 10
-53.25631910382385
 20
-68.13908962790619
 30
0.000000000000001
 10
-53.14541953086529
 20
-68.13860798801165
 30
0.000000000000001
 10
-52.9609331477868
 20
-68.13740285291081
 30
0.000000000000001
 10
-52.88641835425345
 20
-68.13667050697522
 30
0.000000000000001
 10
-52.78660063670316
 20
-68.13507648332643
 30
0.000000000000001
 10
-52.76012425711609
 20
-68.13418827892462
 30
0.000000000000001
 10
-52.76012425711609
 20
-68.13331121198086
 30
0.000000000000001
  0
LINE
  5
230
330
1F
100
AcDbEntity
  8
PV-B9
100
AcDbLine
 10
-53.76012425711608
 20
-40.00000000000009
 30
0.000000000000001
 11
-52.76012425711609
 21
-40.00000000000009
 31
0.000000000000001
210
0.0
220
1.0
230
0.0
  0
LINE
  5
231
330
1F
100
AcDbEntity
  8
PV-B9
100
AcDbLine
 10
-56.15239279788402
 20
-40.00000000000009
 30
0.0000000000000008
 11
-76.72000001400002
 21
-40.00000000000009
 31
-0.0000000000000004
210
0.0
220
1.0
230
0.0
  0
SPLINE
  5
232
330
1F
100
AcDbEntity
  8
PV-B9
100
AcDbSpline
210
-0.0000000000000002
220
0.0
230
-1.0
 70
    12
 71
     3
 72
     8
 73
     4
 74
     0
 42
0.0000000001
 43
0.0000000001
 40
1.955103209609784
 40
1.955103209609784
 40
1.955103209609784
 40
1.955103209609784
 40
3.128682619448366
 40
3.128682619448366
 40
3.128682619448366
 40
3.128682619448366
 10
-55.15530869855002
 20
-79.10969281153803
 30
0.0000000000000009
 41
1.0
 10
-55.39752957776333
 20
-77.24054598389914
 30
0.0000000000000009
 41
0.8884816515039114
 10
-55.54499401665839
 20
-73.12499069045196
 30
0.0000000000000009
 41
0.8884816515039114
 10
-55.54836704317278
 20
-68.13990671960524
 30
0.0000000000000009
 41
1.0
  0
LINE
  5
233
330
1F
100
AcDbEntity
  8
PV-B9
100
AcDbLine
 10
-55.54836704317262
 20
-68.13990671960524
 30
0.0000000000000009
 11
-55.5483670431726
 21
-40.00000000000009
 31
0.0000000000000009
210
0.0
220
1.0
230
0.0
  0
LINE
  5
234
330
1F
100
AcDbEntity
  8
PV-B9
100
AcDbLine
 10
-53.76012425711608
 20
-40.00000000000009
 30
0.000000000000001
 11
-54.38039594528288
 21
-40.00000000000009
 31
0.0000000000000009
210
0.0
220
1.0
230
0.0
  0
LINE
  5
235
330
1F
100
AcDbEntity
  8
PV-B9
100
AcDbLine
 10
-53.76012425711608
 20
-68.13990671960549
 30
0.000000000000001
 11
-55.54836704317278
 21
-68.13990671960549
 31
0.0000000000000009
210
0.0
220
1.0
230
0.0
  0
LINE
  5
236
330
1F
100
AcDbEntity
  8
PV-B9
100
AcDbLine
 10
-52.76012425711609
 20
-68.13331121198086
 30
0.000000000000001
 11
-52.76012425711609
 21
-71.26691063058368
 31
0.000000000000001
210
0.0
220
1.0
230
0.0
  0
LINE
  5
237
330
1F
100
AcDbEntity
  8
PV-B9
100
AcDbLine
 10
-52.76012425711609
 20
-73.4000000000001
 30
0.000000000000001
 11
-52.76012425711609
 21
-76.85984266838167
 31
0.000000000000001
210
0.0
220
1.0
230
0.0
  0
LINE
  5
238
330
1F
100
AcDbEntity
  8
PV-B9
100
AcDbLine
 10
-52.76012425711609
 20
-40.00000000000009
 30
0.000000000000001
 11
-52.76012425711609
 21
-68.13331121198086
 31
0.000000000000001
210
0.0
220
1.0
230
0.0
  0
LINE
  5
239
330
1F
100
AcDbEntity
  8
PV-B9
100
AcDbLine
 10
-54.22000001400004
 20
-78.07275543012295
 30
0.0000000000000009
 11
-53.7601242571161
 21
-78.07275543012295
 31
0.000000000000001
210
0.0
220
1.0
230
0.0
  0
SPLINE
  5
23A
330
1F
100
AcDbEntity
  8
PV-B9
100
AcDbSpline
210
-0.0000000000000003
220
0.0000000000000003
230
-1.0
 70
     8
 71
     3
 72
    14
 73
    10
 74
     0
 42
0.0000000001
 43
0.0000000001
 40
0.0
 40
0.0
 40
0.0
 40
0.0
 40
0.0004325832214326
 40
0.0004325832214326
 40
0.0008651664428653
 40
0.0008651664428653
 40
0.0012977496642979
 40
0.0012977496642979
 40
0.0017303328857306
 40
0.0017303328857306
 40
0.0017303328857306
 40
0.0017303328857306
 10
-52.76012425711609
 20
-76.85984266838167
 30
0.000000000000001
 10
-52.76012425711609
 20
-77.00618750220225
 30
0.000000000000001
 10
-52.78039499343748
 20
-77.14901846491653
 30
0.000000000000001
 10
-52.86507156494746
 20
-77.4270297038468
 30
0.000000000000001
 10
-52.92919277942566
 20
-77.5592632042546
 30
0.000000000000001
 10
-53.10380633719568
 20
-77.79309777426608
 30
0.000000000000001
 10
-53.21399200260042
 20
-77.89322392867264
 30
0.000000000000001
 10
-53.46936928370752
 20
-78.03363531379012
 30
0.000000000000001
 10
-53.61289222743301
 20
-78.0727554301237
 30
0.000000000000001
 10
-53.7601242571161
 20
-78.07275543012295
 30
0.000000000000001
  0
LINE
  5
23B
330
1F
100
AcDbEntity
  8
PV-B9
100
AcDbLine
 10
-55.734389899077
 20
-80.0000000000001
 30
0.0000000000000008
 11
-76.72000001400004
 21
-80.0000000000001
 31
-0.0000000000000004
210
0.0
220
1.0
230
0.0
  0
LINE
  5
23C
330
1F
100
AcDbEntity
  8
PV-B9
100
AcDbLine
 10
-55.73438989907701
 20
-80.0000000000001
 30
0.0000000000000008
 11
-55.15530869855002
 21
-80.0000000000001
 31
0.0000000000000009
210
0.0
220
1.0
230
0.0
  0
LINE
  5
23D
330
1F
100
AcDbEntity
  8
PV-B9
100
AcDbLine
 10
-54.22000001400006
 20
-79.10969281153807
 30
0.0000000000000009
 11
-54.22000001400004
 21
-78.07275543012295
 31
0.0000000000000009
210
0.0
220
1.0
230
0.0
  0
LINE
  5
23E
330
1F
100
AcDbEntity
  8
PV-B9
100
AcDbLine
 10
-55.15530869855002
 20
-80.0000000000001
 30
0.0000000000000009
 11
-55.15530869855002
 21
-79.10969281153803
 31
0.0000000000000009
210
0.0
220
1.0
230
0.0
  0
LINE
  5
23F
330
1F
100
AcDbEntity
  8
PV-B9
100
AcDbLine
 10
-55.15530869855002
 20
-79.10969281153807
 30
0.0000000000000009
 11
-54.22000001400006
 21
-79.10969281153807
 31
0.0000000000000009
210
0.0
220
1.0
230
0.0
  0
LINE
  5
240
330
1F
100
AcDbEntity
  8
PV-B9
100
AcDbLine
 10
-53.520000014
 20
39.99999999999988
 30
0.000000000000001
 11
-53.52000001399998
 21
-39.80000000000009
 31
0.000000000000001
210
0.0
220
1.0
230
0.0
  0
LINE
  5
241
330
1F
100
AcDbEntity
  8
PV-B9
100
AcDbLine
 10
-53.52000001399997
 20
-78.34940189675953
 30
0.000000000000001
 11
-53.52000001399997
 21
-78.85399470512936
 31
0.000000000000001
210
0.0
220
1.0
230
0.0
  0
LINE
  5
242
330
1F
100
AcDbEntity
  8
PV-B9
100
AcDbLine
 10
-51.52000001399998
 20
-39.80000000000009
 30
0.0000000000000011
 11
-51.52000001400001
 21
39.99999999999988
 31
0.0000000000000011
210
0.0
220
1.0
230
0.0
  0
LINE
  5
243
330
1F
100
AcDbEntity
  8
PV-B9
100
AcDbLine
 10
-53.52000001400003
 20
79.05399470512915
 30
0.000000000000001
 11
-53.52000001400003
 21
78.54940189675933
 31
0.000000000000001
210
0.0
220
1.0
230
0.0
  0
LINE
  5
244
330
1F
100
AcDbEntity
  8
PV-B9
100
AcDbLine
 10
-41.22000001400001
 20
80.09999999999989
 30
0.0000000000000017
 11
-38.72000001400001
 21
80.09999999999989
 31
0.0000000000000019
210
0.0
220
1.0
230
0.0
  0
LINE
  5
245
330
1F
100
AcDbEntity
  8
PV-B9
100
AcDbLine
 10
-41.22000001399996
 20
-79.9000000000001
 30
0.0000000000000017
 11
-38.72000001399996
 21
-79.9000000000001
 31
0.0000000000000019
210
0.0
220
1.0
230
0.0
  0
LINE
  5
246
330
1F
100
AcDbEntity
  8
PV-B9
100
AcDbLine
 10
-42.22000001400001
 20
79.44856819162653
 30
0.0000000000000017
 11
-52.52000001400002
 21
79.44856819162653
 31
0.000000000000001
210
0.0
220
1.0
230
0.0
  0
LINE
  5
247
330
1F
100
AcDbEntity
  8
PV-B9
100
AcDbLine
 10
-52.52000001399998
 20
-79.24856819162674
 30
0.000000000000001
 11
-42.22000001399997
 21
-79.24856819162674
 31
0.0000000000000017
210
0.0
220
1.0
230
0.0
  0
LINE
  5
248
330
1F
100
AcDbEntity
  8
PV-B9
100
AcDbLine
 10
-41.22000001400001
 20
80.09999999999989
 30
0.0000000000000017
 11
-41.22000001400001
 21
79.74431191612443
 31
0.0000000000000017
210
0.0
220
1.0
230
0.0
  0
LINE
  5
249
330
1F
100
AcDbEntity
  8
PV-B9
100
AcDbLine
 10
-41.22000001399998
 20
-79.54431191612464
 30
0.0000000000000017
 11
-41.22000001399998
 21
-79.9000000000001
 31
0.0000000000000017
210
0.0
220
1.0
230
0.0
  0
LINE
  5
24A
330
1F
100
AcDbEntity
  8
PV-B9
100
AcDbLine
 10
-53.52000001400003
 20
75.6236430960335
 30
0.000000000000001
 11
-53.52000001400003
 21
78.54940189675933
 31
0.000000000000001
210
0.0
220
1.0
230
0.0
  0
LINE
  5
24B
330
1F
100
AcDbEntity
  8
PV-B9
100
AcDbLine
 10
-53.52000001400002
 20
78.54940189675933
 30
0.000000000000001
 11
-42.22000001400001
 21
78.54940189675933
 31
0.0000000000000017
210
0.0
220
1.0
230
0.0
  0
LINE
  5
24C
330
1F
100
AcDbEntity
  8
PV-B9
100
AcDbLine
 10
-42.22000001399997
 20
-78.34940189675953
 30
0.0000000000000017
 11
-53.52000001399997
 21
-78.34940189675953
 31
0.000000000000001
210
0.0
220
1.0
230
0.0
  0
LINE
  5
24D
330
1F
100
AcDbEntity
  8
PV-B9
100
AcDbLine
 10
-53.52000001399997
 20
-75.62364309603352
 30
0.000000000000001
 11
-53.52000001399997
 21
-78.34940189675953
 31
0.000000000000001
210
0.0
220
1.0
230
0.0
  0
LINE
  5
24E
330
1F
100
AcDbEntity
  8
PV-B9
100
AcDbLine
 10
-51.52000001400001
 20
39.99999999999988
 30
0.0000000000000011
 11
-53.520000014
 21
39.99999999999988
 31
0.000000000000001
210
0.0
220
1.0
230
0.0
  0
LINE
  5
24F
330
1F
100
AcDbEntity
  8
PV-B9
100
AcDbLine
 10
-51.52000001399998
 20
-39.80000000000009
 30
0.0000000000000011
 11
-53.52000001399998
 21
-39.80000000000009
 31
0.000000000000001
210
0.0
220
1.0
230
0.0
  0
SPLINE
  5
250
330
1F
100
AcDbEntity
  8
PV-B9
100
AcDbSpline
210
-0.0000000000000003
220
-0.0000000000000013
230
-1.0
 70
     8
 71
     3
 72
    14
 73
    10
 74
     0
 42
0.0000000001
 43
0.0000000001
 40
0.0
 40
0.0
 40
0.0
 40
0.0
 40
0.0003986139723433
 40
0.0003986139723433
 40
0.0007972279446866
 40
0.0007972279446866
 40
0.0011958419170298
 40
0.0011958419170298
 40
0.0015944558893731
 40
0.0015944558893731
 40
0.0015944558893731
 40
0.0015944558893731
 10
-42.22000001399997
 20
-79.24856819162674
 30
0.0000000000000017
 10
-42.08515995882019
 20
-79.24856819162672
 30
0.0000000000000017
 10
-41.95279141008144
 20
-79.25804826759066
 30
0.0000000000000017
 10
-41.7089501774592
 20
-79.2926492258633
 30
0.0000000000000017
 10
-41.59813316600469
 20
-79.31775893681265
 30
0.0000000000000017
 10
-41.41610605357513
 20
-79.37597311715023
 30
0.0000000000000017
 10
-41.34334933094526
 20
-79.4095057823776
 30
0.0000000000000017
 10
-41.2458451918588
 20
-79.47713592858178
 30
0.0000000000000017
 10
-41.22000001399998
 20
-79.51176027648391
 30
0.0000000000000017
 10
-41.22000001399996
 20
-79.54431191612464
 30
0.0000000000000017
  0
SPLINE
  5
251
330
1F
100
AcDbEntity
  8
PV-B9
100
AcDbSpline
210
-0.0000000000000003
220
0.0000000000000013
230
-1.0
 70
     8
 71
     3
 72
    14
 73
    10
 74
     0
 42
0.0000000001
 43
0.0000000001
 40
0.0
 40
0.0
 40
0.0
 40
0.0
 40
0.0003986241037927
 40
0.0003986241037927
 40
0.0007972482075854
 40
0.0007972482075854
 40
0.0011958723113781
 40
0.0011958723113781
 40
0.0015944964151707
 40
0.0015944964151707
 40
0.0015944964151707
 40
0.0015944964151707
 10
-41.22000001400001
 20
79.74431191612443
 30
0.0000000000000017
 10
-41.22000001400001
 20
79.71173604621559
 30
0.0000000000000017
 10
-41.24527478557012
 20
79.67760077067556
 30
0.0000000000000017
 10
-41.34331749247646
 20
79.60945908849845
 30
0.0000000000000017
 10
-41.41550398229113
 20
79.57619527814353
 30
0.0000000000000017
 10
-41.59793896322098
 20
79.51779156155463
 30
0.0000000000000017
 10
-41.70875661604788
 20
79.49271232968438
 30
0.0000000000000017
 10
-41.95156562315839
 20
79.45818677632985
 30
0.0000000000000017
 10
-42.08505093435609
 20
79.44856819162653
 30
0.0000000000000017
 10
-42.22000001400001
 20
79.44856819162653
 30
0.0000000000000017
  0
SPLINE
  5
252
330
1F
100
AcDbEntity
  8
PV-B9
100
AcDbSpline
210
-0.0000000000000005
220
-0.0000000000000017
230
-1.0
 70
     8
 71
     3
 72
    18
 73
    14
 74
     0
 42
0.0000000001
 43
0.0000000001
 40
0.0010568272077198
 40
0.0010568272077198
 40
0.0010568272077198
 40
0.0010568272077198
 40
0.0020062821952646
 40
0.0020062821952646
 40
0.002481009689037
 40
0.002481009689037
 40
0.0029557371828094
 40
0.0029557371828094
 40
0.0034304646765818
 40
0.0034304646765818
 40
0.0039051921703542
 40
0.0039051921703542
 40
0.0048546471578989
 40
0.0048546471578989
 40
0.0048546471578989
 40
0.0048546471578989
 10
-39.39157288925378
 20
-79.24856819162674
 30
0.0000000000000018
 10
-39.49324780355025
 20
-79.14973965973434
 30
0.0000000000000018
 10
-39.63520181584984
 20
-79.0465346179608
 30
0.0000000000000018
 10
-39.90603401120103
 20
-78.89228086538327
 30
0.0000000000000018
 10
-40.0063959317072
 20
-78.84094743199337
 30
0.0000000000000018
 10
-40.22119211617441
 20
-78.74302857100473
 30
0.0000000000000018
 10
-40.33631999358448
 20
-78.69601154506568
 30
0.0000000000000018
 10
-40.58281890453082
 20
-78.60746808745371
 30
0.0000000000000018
 10
-40.71559956509587
 20
-78.56558246399275
 30
0.0000000000000018
 10
-40.99158550063809
 20
-78.49157559843433
 30
0.0000000000000018
 10
-41.13441579819212
 20
-78.45942264066026
 30
0.0000000000000017
 10
-41.5779417685262
 20
-78.37975094397807
 30
0.0000000000000017
 10
-41.8981140033317
 20
-78.34940189675951
 30
0.0000000000000017
 10
-42.22000001399997
 20
-78.34940189675953
 30
0.0000000000000017
  0
SPLINE
  5
253
330
1F
100
AcDbEntity
  8
PV-B9
100
AcDbSpline
210
-0.0000000000000006
220
0.000000000000002
230
-1.0
 70
     8
 71
     3
 72
    14
 73
    10
 74
     0
 42
0.0000000001
 43
0.0000000001
 40
0.0
 40
0.0
 40
0.0
 40
0.0
 40
0.0009499640180249
 40
0.0009499640180249
 40
0.0018999280360499
 40
0.0018999280360499
 40
0.0028498920540748
 40
0.0028498920540748
 40
0.0037998560720998
 40
0.0037998560720998
 40
0.0037998560720998
 40
0.0037998560720998
 10
-42.22000001400001
 20
78.54940189675933
 30
0.0000000000000017
 10
-41.89836922375344
 20
78.54940189675933
 30
0.0000000000000017
 10
-41.58621756124013
 20
78.57846103145205
 30
0.0000000000000017
 10
-40.98483944516404
 20
78.68609685981147
 30
0.0000000000000018
 10
-40.70955782360072
 20
78.76199782001757
 30
0.0000000000000018
 10
-40.2113386523441
 20
78.94085067638231
 30
0.0000000000000018
 10
-39.99681061167978
 20
79.04054271468457
 30
0.0000000000000018
 10
-39.63386039034357
 20
79.24733462689849
 30
0.0000000000000018
 10
-39.49279312235459
 20
79.35018161216014
 30
0.0000000000000018
 10
-39.39157288925382
 20
79.44856819162653
 30
0.0000000000000018
  0
SPLINE
  5
254
330
1F
100
AcDbEntity
  8
PV-B9
100
AcDbSpline
210
-0.0000000000000002
220
-0.0000000000000007
230
-1.0
 70
     8
 71
     3
 72
    14
 73
    10
 74
     0
 42
0.0000000001
 43
0.0000000001
 40
0.0
 40
0.0
 40
0.0
 40
0.0
 40
0.0004059635003688
 40
0.0004059635003688
 40
0.0008119270007376
 40
0.0008119270007376
 40
0.0012178905011064
 40
0.0012178905011064
 40
0.0016238540014751
 40
0.0016238540014751
 40
0.0016238540014751
 40
0.0016238540014751
 10
-53.52000001399997
 20
-78.85399470512936
 30
0.000000000000001
 10
-53.52000001399997
 20
-78.91001033586251
 30
0.000000000000001
 10
-53.49699770724521
 20
-78.96262613047318
 30
0.000000000000001
 10
-53.40293760431685
 20
-79.05968026210896
 30
0.000000000000001
 10
-53.33338093738683
 20
-79.10222907038068
 30
0.000000000000001
 10
-53.15111354396425
 20
-79.17350574263688
 30
0.000000000000001
 10
-53.04016304560995
 20
-79.20127413684785
 30
0.000000000000001
 10
-52.79306917297438
 20
-79.23882772906948
 30
0.000000000000001
 10
-52.65751634446809
 20
-79.24856819162674
 30
0.000000000000001
 10
-52.52000001399998
 20
-79.24856819162674
 30
0.000000000000001
  0
SPLINE
  5
255
330
1F
100
AcDbEntity
  8
PV-B9
100
AcDbSpline
210
-0.0000000000000002
220
0.0000000000000007
230
-1.0
 70
     8
 71
     3
 72
    14
 73
    10
 74
     0
 42
0.0000000001
 43
0.0000000001
 40
0.0
 40
0.0
 40
0.0
 40
0.0
 40
0.0004059857219147
 40
0.0004059857219147
 40
0.0008119714438295
 40
0.0008119714438295
 40
0.0012179571657442
 40
0.0012179571657442
 40
0.001623942887659
 40
0.001623942887659
 40
0.001623942887659
 40
0.001623942887659
 10
-52.52000001400002
 20
79.44856819162653
 30
0.000000000000001
 10
-52.65731523498634
 20
79.44856819162651
 30
0.000000000000001
 10
-52.79226316840101
 20
79.43890193637066
 30
0.000000000000001
 10
-53.03932133032938
 20
79.40145003071103
 30
0.000000000000001
 10
-53.15105807378701
 20
79.37345376532362
 30
0.000000000000001
 10
-53.33212926253819
 20
79.30279168380154
 30
0.000000000000001
 10
-53.40292587968538
 20
79.25957698187897
 30
0.000000000000001
 10
-53.49645383106748
 20
79.16330201282132
 30
0.000000000000001
 10
-53.52000001400002
 20
79.10995803148811
 30
0.000000000000001
 10
-53.52000001400002
 20
79.05399470512915
 30
0.000000000000001
  0
LINE
  5
256
330
1F
100
AcDbEntity
  8
PV-B9
100
AcDbLine
 10
-51.02000001399998
 20
-39.80000000000009
 30
0.0000000000000011
 11
-51.52000001399998
 21
-39.80000000000009
 31
0.0000000000000011
210
0.0
220
1.0
230
0.0
  0
LINE
  5
257
330
1F
100
AcDbEntity
  8
PV-B9
100
AcDbLine
 10
-38.72000001399998
 20
-79.24856819162674
 30
0.0000000000000019
 11
-39.39157288925378
 21
-79.24856819162674
 31
0.0000000000000018
210
0.0
220
1.0
230
0.0
  0
LINE
  5
258
330
1F
100
AcDbEntity
  8
PV-B9
100
AcDbLine
 10
-39.39157288925382
 20
79.44856819162653
 30
0.0000000000000018
 11
-39.39157288925382
 21
73.39999999999988
 31
0.0000000000000018
210
0.0
220
1.0
230
0.0
  0
LINE
  5
259
330
1F
100
AcDbEntity
  8
PV-B9
100
AcDbLine
 10
-39.39157288925378
 20
-73.4000000000001
 30
0.0000000000000018
 11
-39.39157288925378
 21
-79.24856819162674
 31
0.0000000000000018
210
0.0
220
1.0
230
0.0
  0
LINE
  5
25A
330
1F
100
AcDbEntity
  8
PV-B9
100
AcDbLine
 10
-38.72000001400001
 20
79.44856819162653
 30
0.0000000000000019
 11
-39.39157288925382
 21
79.44856819162653
 31
0.0000000000000018
210
0.0
220
1.0
230
0.0
  0
LINE
  5
25B
330
1F
100
AcDbEntity
  8
PV-B9
100
AcDbLine
 10
-38.72000001399998
 20
-79.24856819162673
 30
0.0000000000000019
 11
-38.72000001399998
 21
-79.9000000000001
 31
0.0000000000000019
210
0.0
220
1.0
230
0.0
  0
LINE
  5
25C
330
1F
100
AcDbEntity
  8
PV-B9
100
AcDbLine
 10
-38.72000001399998
 20
-79.24856819162674
 30
0.0000000000000019
 11
-38.72000001399998
 21
-73.4000000000001
 31
0.0000000000000019
210
0.0
220
1.0
230
0.0
  0
LINE
  5
25D
330
1F
100
AcDbEntity
  8
PV-B9
100
AcDbLine
 10
-38.72000001400001
 20
73.39999999999988
 30
0.0000000000000019
 11
-38.72000001400001
 21
79.44856819162653
 31
0.0000000000000019
210
0.0
220
1.0
230
0.0
  0
LINE
  5
25E
330
1F
100
AcDbEntity
  8
PV-B9
100
AcDbLine
 10
-38.72000001400001
 20
80.09999999999989
 30
0.0000000000000019
 11
-38.72000001400001
 21
79.44856819162653
 31
0.0000000000000019
210
0.0
220
1.0
230
0.0
  0
SPLINE
  5
25F
330
1F
100
AcDbEntity
  8
PV-B9
100
AcDbSpline
210
-0.0000000000000003
220
-0.0000000000000465
230
-1.0
 70
     8
 71
     3
 72
    14
 73
    10
 74
     0
 42
0.0000000001
 43
0.0000000001
 40
0.0
 40
0.0
 40
0.0
 40
0.0
 40
0.0003906076277808
 40
0.0003906076277808
 40
0.0007812152555616
 40
0.0007812152555616
 40
0.0011718228833424
 40
0.0011718228833424
 40
0.0015624305111232
 40
0.0015624305111232
 40
0.0015624305111232
 40
0.0015624305111232
 10
-53.76012425711606
 20
68.13990671960546
 30
0.000000000000001
 10
-53.62804705765697
 20
68.13990671960543
 30
0.000000000000001
 10
-53.49844712586786
 20
68.1397392067149
 30
0.000000000000001
 10
-53.25631910382383
 20
68.13908962790614
 30
0.000000000000001
 10
-53.14541953086525
 20
68.13860798801162
 30
0.000000000000001
 10
-52.96093314778676
 20
68.13740285291077
 30
0.000000000000001
 10
-52.88641835425341
 20
68.13667050697517
 30
0.000000000000001
 10
-52.78660063670313
 20
68.13507648332638
 30
0.000000000000001
 10
-52.76012425711606
 20
68.13418827892457
 30
0.000000000000001
 10
-52.76012425711606
 20
68.13331121198081
 30
0.000000000000001
  0
LINE
  5
260
330
1F
100
AcDbEntity
  8
PV-B9
100
AcDbLine
 10
-53.76012425711606
 20
40.00000000000006
 30
0.000000000000001
 11
-53.520000014
 21
40.00000000000006
 31
0.000000000000001
210
0.0
220
1.0
230
0.0
  0
LINE
  5
261
330
1F
100
AcDbEntity
  8
PV-B9
100
AcDbLine
 10
-55.73438989907699
 20
40.00000000000006
 30
0.0000000000000008
 11
-76.720000014
 21
40.00000000000006
 31
-0.0000000000000004
210
0.0
220
1.0
230
0.0
  0
LINE
  5
262
330
1F
100
AcDbEntity
  8
PV-B9
100
AcDbLine
 10
-55.73438989907699
 20
40.00000000000006
 30
0.0000000000000008
 11
-55.54836704317274
 21
40.00000000000006
 31
0.0000000000000009
210
0.0
220
1.0
230
0.0
  0
SPLINE
  5
263
330
1F
100
AcDbEntity
  8
PV-B9
100
AcDbSpline
210
-0.0000000000000002
220
0.0
230
-1.0
 70
    12
 71
     3
 72
     8
 73
     4
 74
     0
 42
0.0000000001
 43
0.0000000001
 40
1.955103209609784
 40
1.955103209609784
 40
1.955103209609784
 40
1.955103209609784
 40
3.128682619448366
 40
3.128682619448366
 40
3.128682619448366
 40
3.128682619448366
 10
-55.15530869854998
 20
79.10969281153801
 30
0.0000000000000009
 41
1.0
 10
-55.3975295777633
 20
77.24054598389912
 30
0.0000000000000009
 41
0.8884816515039114
 10
-55.54499401665836
 20
73.12499069045194
 30
0.0000000000000009
 41
0.8884816515039114
 10
-55.54836704317274
 20
68.13990671960521
 30
0.0000000000000009
 41
1.0
  0
LINE
  5
264
330
1F
100
AcDbEntity
  8
PV-B9
100
AcDbLine
 10
-53.76012425711606
 20
40.00000000000006
 30
0.000000000000001
 11
-55.5483670431726
 21
40.00000000000006
 31
0.0000000000000009
210
0.0
220
1.0
230
0.0
  0
LINE
  5
265
330
1F
100
AcDbEntity
  8
PV-B9
100
AcDbLine
 10
-55.54836704317258
 20
68.13990671960521
 30
0.0000000000000009
 11
-55.54836704317258
 21
40.00000000000006
 31
0.0000000000000009
210
0.0
220
1.0
230
0.0
  0
LINE
  5
266
330
1F
100
AcDbEntity
  8
PV-B9
100
AcDbLine
 10
-53.76012425711606
 20
68.13990671960545
 30
0.000000000000001
 11
-55.54836704317273
 21
68.13990671960545
 31
0.0000000000000009
210
0.0
220
1.0
230
0.0
  0
LINE
  5
267
330
1F
100
AcDbEntity
  8
PV-B9
100
AcDbLine
 10
-52.76012425711606
 20
40.00000000000006
 30
0.000000000000001
 11
-52.76012425711606
 21
68.13331121198081
 31
0.000000000000001
210
0.0
220
1.0
230
0.0
  0
LINE
  5
268
330
1F
100
AcDbEntity
  8
PV-B9
100
AcDbLine
 10
-52.76012425711606
 20
68.13331121198081
 30
0.000000000000001
 11
-52.76012425711606
 21
71.26691063058363
 31
0.000000000000001
210
0.0
220
1.0
230
0.0
  0
LINE
  5
269
330
1F
100
AcDbEntity
  8
PV-B9
100
AcDbLine
 10
-52.76012425711606
 20
73.39999999999988
 30
0.000000000000001
 11
-52.76012425711606
 21
76.85984266838163
 31
0.000000000000001
210
0.0
220
1.0
230
0.0
  0
SPLINE
  5
26A
330
1F
100
AcDbEntity
  8
PV-B9
100
AcDbSpline
210
-0.0000000000000003
220
-0.0000000000000003
230
-1.0
 70
     8
 71
     3
 72
    14
 73
    10
 74
     0
 42
0.0000000001
 43
0.0000000001
 40
0.0
 40
0.0
 40
0.0
 40
0.0
 40
0.0004325832214326
 40
0.0004325832214326
 40
0.0008651664428653
 40
0.0008651664428653
 40
0.0012977496642979
 40
0.0012977496642979
 40
0.0017303328857306
 40
0.0017303328857306
 40
0.0017303328857306
 40
0.0017303328857306
 10
-52.76012425711606
 20
76.85984266838163
 30
0.000000000000001
 10
-52.76012425711606
 20
77.00618750220221
 30
0.000000000000001
 10
-52.78039499343745
 20
77.14901846491648
 30
0.000000000000001
 10
-52.86507156494741
 20
77.42702970384676
 30
0.000000000000001
 10
-52.92919277942562
 20
77.55926320425456
 30
0.000000000000001
 10
-53.10380633719565
 20
77.79309777426606
 30
0.000000000000001
 10
-53.21399200260039
 20
77.89322392867259
 30
0.000000000000001
 10
-53.46936928370749
 20
78.03363531379009
 30
0.000000000000001
 10
-53.61289222743296
 20
78.07275543012368
 30
0.000000000000001
 10
-53.76012425711605
 20
78.07275543012292
 30
0.000000000000001
  0
LINE
  5
26B
330
1F
100
AcDbEntity
  8
PV-B9
100
AcDbLine
 10
-54.22000001400001
 20
78.07275543012291
 30
0.0000000000000009
 11
-53.76012425711605
 21
78.07275543012291
 31
0.000000000000001
210
0.0
220
1.0
230
0.0
  0
LINE
  5
26C
330
1F
100
AcDbEntity
  8
PV-B9
100
AcDbLine
 10
-55.73438989907697
 20
80.00000000000007
 30
0.0000000000000008
 11
-55.15530869854997
 21
80.00000000000007
 31
0.0000000000000009
210
0.0
220
1.0
230
0.0
  0
LINE
  5
26D
330
1F
100
AcDbEntity
  8
PV-B9
100
AcDbLine
 10
-55.73438989907697
 20
80.00000000000007
 30
0.0000000000000008
 11
-76.72000001399999
 21
80.00000000000007
 31
-0.0000000000000004
210
0.0
220
1.0
230
0.0
  0
LINE
  5
26E
330
1F
100
AcDbEntity
  8
PV-B9
100
AcDbLine
 10
-54.22000001400001
 20
79.10969281153803
 30
0.0000000000000009
 11
-54.22000001400001
 21
78.07275543012292
 31
0.0000000000000009
210
0.0
220
1.0
230
0.0
  0
LINE
  5
26F
330
1F
100
AcDbEntity
  8
PV-B9
100
AcDbLine
 10
-55.15530869854998
 20
80.00000000000007
 30
0.0000000000000009
 11
-55.15530869854998
 21
79.10969281153801
 31
0.0000000000000009
210
0.0
220
1.0
230
0.0
  0
LINE
  5
270
330
1F
100
AcDbEntity
  8
PV-B9
100
AcDbLine
 10
-55.15530869854997
 20
79.10969281153801
 30
0.0000000000000009
 11
-54.22000001400001
 21
79.10969281153801
 31
0.0000000000000009
210
0.0
220
1.0
230
0.0
  0
LINE
  5
271
330
1F
100
AcDbEntity
  8
PV-B9
100
AcDbLine
 10
-66.22000001400003
 20
-82.5000000000001
 30
0.0000000000000002
 11
-75.22000001400003
 21
-82.5000000000001
 31
-0.0000000000000003
210
0.0
220
1.0
230
0.0
  0
LINE
  5
272
330
1F
100
AcDbEntity
  8
PV-B9
100
AcDbLine
 10
-76.72000001400004
 20
-80.0000000000001
 30
-0.0000000000000004
 11
-66.22000001400003
 21
-80.0000000000001
 31
0.0000000000000002
210
0.0
220
1.0
230
0.0
  0
LINE
  5
273
330
1F
100
AcDbEntity
  8
PV-B9
100
AcDbLine
 10
-66.22000001400003
 20
-80.0000000000001
 30
0.0000000000000002
 11
-55.73438989907701
 21
-80.0000000000001
 31
0.0000000000000008
210
0.0
220
1.0
230
0.0
  0
LINE
  5
274
330
1F
100
AcDbEntity
  8
PV-B9
100
AcDbLine
 10
-57.22000001400004
 20
-82.5000000000001
 30
0.0000000000000008
 11
-66.22000001400003
 21
-82.5000000000001
 31
0.0000000000000002
210
0.0
220
1.0
230
0.0
  0
LINE
  5
275
330
1F
100
AcDbEntity
  8
PV-B9
100
AcDbLine
 10
-66.220000014
 20
82.50000000000007
 30
0.0000000000000002
 11
-75.22000001399999
 21
82.50000000000007
 31
-0.0000000000000003
210
0.0
220
1.0
230
0.0
  0
LINE
  5
276
330
1F
100
AcDbEntity
  8
PV-B9
100
AcDbLine
 10
-76.72000001399999
 20
80.00000000000007
 30
-0.0000000000000004
 11
-66.220000014
 21
80.00000000000007
 31
0.0000000000000002
210
0.0
220
1.0
230
0.0
  0
LINE
  5
277
330
1F
100
AcDbEntity
  8
PV-B9
100
AcDbLine
 10
-66.220000014
 20
80.00000000000007
 30
0.0000000000000002
 11
-55.73438989907697
 21
80.00000000000007
 31
0.0000000000000008
210
0.0
220
1.0
230
0.0
  0
LINE
  5
278
330
1F
100
AcDbEntity
  8
PV-B9
100
AcDbLine
 10
-57.22000001400001
 20
82.50000000000007
 30
0.0000000000000008
 11
-66.220000014
 21
82.50000000000007
 31
0.0000000000000002
210
0.0
220
1.0
230
0.0
  0
LINE
  5
279
330
1F
100
AcDbEntity
  8
PV-B9
100
AcDbLine
 10
-56.15239279788401
 20
-40.00000000000009
 30
0.0000000000000008
 11
-66.2200000140001
 21
-40.00000000000009
 31
0.0000000000000002
210
0.0
220
1.0
230
0.0
  0
LINE
  5
27A
330
1F
100
AcDbEntity
  8
PV-B9
100
AcDbLine
 10
-56.15239279788402
 20
-40.00000000000009
 30
0.0000000000000008
 11
-54.38039594528288
 21
-40.00000000000009
 31
0.0000000000000009
210
0.0
220
1.0
230
0.0
  0
LINE
  5
27B
330
1F
100
AcDbEntity
  8
PV-B9
100
AcDbLine
 10
-56.15239279788402
 20
39.79999999999989
 30
0.0000000000000008
 11
-53.52000001400002
 21
39.79999999999989
 31
0.000000000000001
210
0.0
220
1.0
230
0.0
  0
LINE
  5
27C
330
1F
100
AcDbEntity
  8
PV-B9
100
AcDbLine
 10
-56.15239279788401
 20
39.79999999999989
 30
0.0000000000000008
 11
-66.2200000140001
 21
39.79999999999989
 31
0.0000000000000002
210
0.0
220
1.0
230
0.0
  0
LINE
  5
27D
330
1F
100
AcDbEntity
  8
PV-B9
100
AcDbLine
 10
-66.22000001399996
 20
39.79999999999989
 30
0.0000000000000002
 11
-76.72000001400004
 21
39.79999999999989
 31
-0.0000000000000004
210
0.0
220
1.0
230
0.0
  0
LINE
  5
27E
330
1F
100
AcDbEntity
  8
PV-B9
100
AcDbLine
 10
-66.22000001399996
 20
-40.00000000000009
 30
0.0000000000000002
 11
-76.72000001400004
 21
-40.00000000000009
 31
-0.0000000000000004
210
0.0
220
1.0
230
0.0
  0
LINE
  5
27F
330
1F
100
AcDbEntity
  8
PV-B9
100
AcDbLine
 10
-53.72000001400004
 20
39.79999999999989
 30
0.000000000000001
 11
-53.72000001400004
 21
39.99999999999991
 31
0.000000000000001
210
0.0
220
1.0
230
0.0
  0
LINE
  5
280
330
1F
100
AcDbEntity
  8
PV-B9
100
AcDbLine
 10
-57.72000001400003
 20
39.99999999999991
 30
0.0000000000000007
 11
-57.72000001400003
 21
39.79999999999989
 31
0.0000000000000007
210
0.0
220
1.0
230
0.0
  0
LINE
  5
281
330
1F
100
AcDbEntity
  8
PV-B9
100
AcDbLine
 10
-76.72000001400004
 20
-40.00000000000009
 30
-0.0000000000000004
 11
-76.72000001400004
 21
39.7999999999999
 31
-0.0000000000000004
210
0.0
220
1.0
230
0.0
  0
LINE
  5
282
330
1F
100
AcDbEntity
  8
PV-B9
100
AcDbLine
 10
-55.72000001400001
 20
80.00000000000007
 30
0.0000000000000008
 11
-55.72000001400001
 21
81.00000000000006
 31
0.0000000000000008
210
0.0
220
1.0
230
0.0
  0
LINE
  5
283
330
1F
100
AcDbEntity
  8
PV-B9
100
AcDbLine
 10
-76.72000001399999
 20
80.00000000000007
 30
-0.0000000000000004
 11
-76.72000001399999
 21
81.00000000000006
 31
-0.0000000000000004
210
0.0
220
1.0
230
0.0
  0
LINE
  5
284
330
1F
100
AcDbEntity
  8
PV-B9
100
AcDbLine
 10
-55.72000001400003
 20
-81.0000000000001
 30
0.0000000000000008
 11
-55.72000001400003
 21
-80.0000000000001
 31
0.0000000000000008
210
0.0
220
1.0
230
0.0
  0
LINE
  5
285
330
1F
100
AcDbEntity
  8
PV-B9
100
AcDbLine
 10
-76.72000001400004
 20
-81.0000000000001
 30
-0.0000000000000004
 11
-76.72000001400004
 21
-80.0000000000001
 31
-0.0000000000000004
210
0.0
220
1.0
230
0.0
  0
LINE
  5
286
330
1F
100
AcDbEntity
  8
PV-B9
100
AcDbLine
 10
-76.720000014
 20
40.00000000000006
 30
-0.0000000000000004
 11
-76.72000001399999
 21
80.00000000000007
 31
-0.0000000000000004
210
0.0
220
1.0
230
0.0
  0
LINE
  5
287
330
1F
100
AcDbEntity
  8
PV-B9
100
AcDbLine
 10
-76.72000001400004
 20
-80.0000000000001
 30
-0.0000000000000004
 11
-76.72000001400002
 21
-40.00000000000009
 31
-0.0000000000000004
210
0.0
220
1.0
230
0.0
  0
LINE
  5
288
330
1F
100
AcDbEntity
  8
PV-B9
100
AcDbLine
 10
-34.72000001400001
 20
-79.88749217771921
 30
0.0000000000000021
 11
-38.72000001400001
 21
-79.88749217771921
 31
0.0000000000000019
210
0.0
220
1.0
230
0.0
  0
LINE
  5
289
330
1F
100
AcDbEntity
  8
PV-B9
100
AcDbLine
 10
-38.72000001400001
 20
79.88749217771898
 30
0.0000000000000019
 11
-34.72000001400001
 21
79.88749217771898
 31
0.0000000000000021
210
0.0
220
1.0
230
0.0
  0
ARC
  5
28A
330
1F
100
AcDbEntity
  8
PV-B9
100
AcDbCircle
 10
-57.22000001400001
 20
81.00000000000006
 30
0.0000000000000008
 40
1.5
100
AcDbArc
 50
0.0
 51
90.00000000000161
  0
ARC
  5
28B
330
1F
100
AcDbEntity
  8
PV-B9
100
AcDbCircle
 10
-75.22000001400001
 20
81.00000000000006
 30
-0.0000000000000003
 40
1.5
100
AcDbArc
 50
89.99999999999756
 51
180.0
  0
ARC
  5
28C
330
1F
100
AcDbEntity
  8
PV-B9
100
AcDbCircle
 10
-57.22000001400004
 20
-81.0000000000001
 30
0.0000000000000008
 40
1.5
100
AcDbArc
 50
269.9999999999975
 51
359.9999999999997
  0
ARC
  5
28D
330
1F
100
AcDbEntity
  8
PV-B9
100
AcDbCircle
 10
-75.22000001400003
 20
-81.0000000000001
 30
-0.0000000000000003
 40
1.5
100
AcDbArc
 50
180.0000000000002
 51
270.0000000000008
  0
LINE
  5
28F
330
1F
100
AcDbEntity
  8
PV-B9
100
AcDbLine
 10
24.8
 20
-40.00000000000009
 30
-0.0000000000000034
 11
3.816887459147828
 21
-40.00000000000009
 31
-0.000000000000006
210
0.0
220
1.0
230
0.0
  0
LINE
  5
290
330
1F
100
AcDbEntity
  8
PV-B9
100
AcDbLine
 10
24.8
 20
-80.0000000000001
 30
-0.0000000000000034
 11
3.799999999999997
 21
-80.0000000000001
 31
-0.000000000000006
210
0.0
220
1.0
230
0.0
  0
LINE
  5
291
330
1F
100
AcDbEntity
  8
PV-B9
100
AcDbLine
 10
3.799999999999997
 20
-80.0000000000001
 30
-0.000000000000006
 11
3.799999999999997
 21
-40.00000000000009
 31
-0.000000000000006
210
0.0
220
1.0
230
0.0
  0
LINE
  5
292
330
1F
100
AcDbEntity
  8
PV-B9
100
AcDbLine
 10
11.90000000000001
 20
39.99999999999988
 30
-0.000000000000005
 11
11.90000000000001
 21
39.7999999999999
 31
-0.000000000000005
210
0.0
220
1.0
230
0.0
  0
LINE
  5
293
330
1F
100
AcDbEntity
  8
PV-B9
100
AcDbLine
 10
-4.199999999999988
 20
-79.9000000000001
 30
-0.000000000000007
 11
-0.0999999999999801
 21
-79.9000000000001
 31
-0.0000000000000065
210
0.0
220
1.0
230
0.0
  0
ARC
  5
294
330
1F
100
AcDbEntity
  8
PV-B9
100
AcDbCircle
 10
-4.199999999999988
 20
-67.9000000000001
 30
-0.000000000000007
 40
11.99999999999999
100
AcDbArc
 50
180.0
 51
270.0
  0
LINE
  5
295
330
1F
100
AcDbEntity
  8
PV-B9
100
AcDbLine
 10
-16.19999999999999
 20
-67.9000000000001
 30
-0.0000000000000085
 11
-16.19999999999999
 21
-40.00000000000007
 31
-0.0000000000000085
210
0.0
220
1.0
230
0.0
  0
LINE
  5
296
330
1F
100
AcDbEntity
  8
PV-B9
100
AcDbLine
 10
-16.19999999999999
 20
-34.9580398915499
 30
-0.0000000000000085
 11
-16.19999999999999
 21
-21.04196010845028
 31
-0.0000000000000085
210
0.0
220
1.0
230
0.0
  0
LINE
  5
297
330
1F
100
AcDbEntity
  8
PV-B9
100
AcDbLine
 10
-16.19999999999999
 20
-15.92093727122993
 30
-0.0000000000000085
 11
-16.19999999999999
 21
-12.07906272877025
 31
-0.0000000000000085
210
0.0
220
1.0
230
0.0
  0
LINE
  5
298
330
1F
100
AcDbEntity
  8
PV-B9
100
AcDbLine
 10
-16.19999999999999
 20
-6.958039891549915
 30
-0.0000000000000085
 11
-16.19999999999999
 21
6.958039891549717
 31
-0.0000000000000085
210
0.0
220
1.0
230
0.0
  0
LINE
  5
299
330
1F
100
AcDbEntity
  8
PV-B9
100
AcDbLine
 10
-16.19999999999999
 20
12.07906272877006
 30
-0.0000000000000085
 11
-16.19999999999999
 21
15.92093727122972
 31
-0.0000000000000085
210
0.0
220
1.0
230
0.0
  0
LINE
  5
29A
330
1F
100
AcDbEntity
  8
PV-B9
100
AcDbLine
 10
-16.19999999999999
 20
21.0419601084501
 30
-0.0000000000000085
 11
-16.19999999999999
 21
34.95803989154971
 31
-0.0000000000000085
210
0.0
220
1.0
230
0.0
  0
LINE
  5
29B
330
1F
100
AcDbEntity
  8
PV-B9
100
AcDbLine
 10
-16.19999999999999
 20
39.99999999999992
 30
-0.0000000000000085
 11
-16.19999999999999
 21
68.09999999999989
 31
-0.0000000000000085
210
0.0
220
1.0
230
0.0
  0
ARC
  5
29C
330
1F
100
AcDbEntity
  8
PV-B9
100
AcDbCircle
 10
-4.199999999999988
 20
68.09999999999989
 30
-0.000000000000007
 40
11.99999999999999
100
AcDbArc
 50
90.0
 51
180.0
  0
LINE
  5
29D
330
1F
100
AcDbEntity
  8
PV-B9
100
AcDbLine
 10
-0.0999999999999801
 20
80.09999999999989
 30
-0.0000000000000065
 11
-4.199999999999988
 21
80.09999999999989
 31
-0.000000000000007
210
0.0
220
1.0
230
0.0
  0
ARC
  5
29E
330
1F
100
AcDbEntity
  8
PV-B9
100
AcDbCircle
 10
-0.0999999999999801
 20
68.09999999999989
 30
-0.0000000000000065
 40
11.99999999999999
100
AcDbArc
 50
76.01507072631637
 51
89.9999999999992
  0
ARC
  5
29F
330
1F
100
AcDbEntity
  8
PV-B9
100
AcDbCircle
 10
-0.0999999999999801
 20
-67.9000000000001
 30
-0.0000000000000065
 40
11.99999999999999
100
AcDbArc
 50
270.0
 51
283.9849292736836
  0
SPLINE
  5
2A0
330
1F
100
AcDbEntity
  8
PV-B9
100
AcDbSpline
210
-0.0000000000000683
220
0.0000000000002283
230
-1.0
 70
     8
 71
     3
 72
    14
 73
    10
 74
     0
 42
0.0000000001
 43
0.0000000001
 40
0.0
 40
0.0
 40
0.0
 40
0.0
 40
0.0003986139723433
 40
0.0003986139723433
 40
0.0007972279446866
 40
0.0007972279446866
 40
0.0011958419170298
 40
0.0011958419170298
 40
0.0015944558893731
 40
0.0015944558893731
 40
0.0015944558893731
 40
0.0015944558893731
 10
3.800000000000032
 20
-79.24856819162674
 30
-0.000000000000006
 10
3.800000000000032
 20
-79.24856819162672
 30
-0.000000000000006
 10
3.77268528603242
 20
-79.25804826759066
 30
-0.000000000000006
 10
3.669681072717857
 20
-79.2926492258633
 30
-0.000000000000006
 10
3.593803964268197
 20
-79.31775893681265
 30
-0.000000000000006
 10
3.408767287816907
 20
-79.37597311715023
 30
-0.0000000000000061
 10
3.298027544897102
 20
-79.4095057823776
 30
-0.0000000000000061
 10
3.05994275922908
 20
-79.47713592858178
 30
-0.0000000000000061
 10
2.930703946675222
 20
-79.51176027648391
 30
-0.0000000000000061
 10
2.800000000000032
 20
-79.54431191612464
 30
-0.0000000000000061
  0
SPLINE
  5
2A1
330
1F
100
AcDbEntity
  8
PV-B9
100
AcDbSpline
210
-0.0000000000000684
220
-0.0000000000002284
230
-1.0
 70
     8
 71
     3
 72
    14
 73
    10
 74
     0
 42
0.0000000001
 43
0.0000000001
 40
0.0
 40
0.0
 40
0.0
 40
0.0
 40
0.0003986241037927
 40
0.0003986241037927
 40
0.0007972482075854
 40
0.0007972482075854
 40
0.0011958723113781
 40
0.0011958723113781
 40
0.0015944964151707
 40
0.0015944964151707
 40
0.0015944964151707
 40
0.0015944964151707
 10
2.800000000000018
 20
79.74431191612443
 30
-0.0000000000000061
 10
2.930801237985392
 20
79.71173604621559
 30
-0.0000000000000061
 10
3.058277137052698
 20
79.67760077067556
 30
-0.0000000000000061
 10
3.298220941869132
 20
79.60945908849845
 30
-0.0000000000000061
 10
3.408049641536187
 20
79.57619527814353
 30
-0.0000000000000061
 10
3.593711711335636
 20
79.51779156155463
 30
-0.000000000000006
 10
3.66948871292746
 20
79.49271232968438
 30
-0.000000000000006
 10
3.772277435545738
 20
79.45818677632985
 30
-0.000000000000006
 10
3.800000000000018
 20
79.44856819162653
 30
-0.000000000000006
 10
3.800000000000011
 20
79.44856819162653
 30
-0.000000000000006
  0
LINE
  5
2A2
330
1F
100
AcDbEntity
  8
PV-B9
100
AcDbLine
 10
3.800000000000032
 20
39.7999999999999
 30
-0.000000000000006
 11
3.800000000000032
 21
40.00000000000006
 31
-0.000000000000006
210
0.0
220
1.0
230
0.0
  0
LINE
  5
2A3
330
1F
100
AcDbEntity
  8
PV-B9
100
AcDbLine
 10
24.8
 20
40.00000000000006
 30
-0.0000000000000034
 11
3.799999999999997
 21
40.00000000000006
 31
-0.000000000000006
210
0.0
220
1.0
230
0.0
  0
LINE
  5
2A4
330
1F
100
AcDbEntity
  8
PV-B9
100
AcDbLine
 10
24.8
 20
80.00000000000007
 30
-0.0000000000000034
 11
3.799999999999997
 21
80.00000000000007
 31
-0.000000000000006
210
0.0
220
1.0
230
0.0
  0
LINE
  5
2A5
330
1F
100
AcDbEntity
  8
PV-B9
100
AcDbLine
 10
3.799999999999997
 20
80.00000000000007
 30
-0.000000000000006
 11
3.799999999999997
 21
40.00000000000006
 31
-0.000000000000006
210
0.0
220
1.0
230
0.0
  0
LINE
  5
2A6
330
1F
100
AcDbEntity
  8
PV-B9
100
AcDbLine
 10
23.3
 20
-82.5000000000001
 30
-0.0000000000000036
 11
5.299999999999997
 21
-82.5000000000001
 31
-0.0000000000000058
210
0.0
220
1.0
230
0.0
  0
LINE
  5
2A7
330
1F
100
AcDbEntity
  8
PV-B9
100
AcDbLine
 10
3.799999999999997
 20
-80.0000000000001
 30
-0.000000000000006
 11
24.8
 21
-80.0000000000001
 31
-0.0000000000000034
210
0.0
220
1.0
230
0.0
  0
LINE
  5
2A8
330
1F
100
AcDbEntity
  8
PV-B9
100
AcDbLine
 10
24.8
 20
-81.0000000000001
 30
-0.0000000000000034
 11
24.8
 21
-80.0000000000001
 31
-0.0000000000000034
210
0.0
220
1.0
230
0.0
  0
LINE
  5
2A9
330
1F
100
AcDbEntity
  8
PV-B9
100
AcDbLine
 10
3.799999999999997
 20
-81.0000000000001
 30
-0.000000000000006
 11
3.799999999999997
 21
-80.0000000000001
 31
-0.000000000000006
210
0.0
220
1.0
230
0.0
  0
ARC
  5
2AA
330
1F
100
AcDbEntity
  8
PV-B9
100
AcDbCircle
 10
23.3
 20
-81.0000000000001
 30
-0.0000000000000036
 40
1.5
100
AcDbArc
 50
270.0
 51
0.0000000000002036
  0
ARC
  5
2AB
330
1F
100
AcDbEntity
  8
PV-B9
100
AcDbCircle
 10
5.299999999999997
 20
-81.0000000000001
 30
-0.0000000000000058
 40
1.499999999999998
100
AcDbArc
 50
180.0
 51
270.0000000000004
  0
LINE
  5
2AC
330
1F
100
AcDbEntity
  8
PV-B9
100
AcDbLine
 10
23.3
 20
82.50000000000007
 30
-0.0000000000000036
 11
5.299999999999997
 21
82.50000000000007
 31
-0.0000000000000058
210
0.0
220
1.0
230
0.0
  0
LINE
  5
2AD
330
1F
100
AcDbEntity
  8
PV-B9
100
AcDbLine
 10
3.799999999999997
 20
80.00000000000007
 30
-0.000000000000006
 11
24.8
 21
80.00000000000007
 31
-0.0000000000000034
210
0.0
220
1.0
230
0.0
  0
LINE
  5
2AE
330
1F
100
AcDbEntity
  8
PV-B9
100
AcDbLine
 10
3.799999999999997
 20
81.00000000000006
 30
-0.000000000000006
 11
3.799999999999997
 21
80.00000000000007
 31
-0.000000000000006
210
0.0
220
1.0
230
0.0
  0
LINE
  5
2AF
330
1F
100
AcDbEntity
  8
PV-B9
100
AcDbLine
 10
24.8
 20
81.00000000000006
 30
-0.0000000000000034
 11
24.8
 21
80.00000000000007
 31
-0.0000000000000034
210
0.0
220
1.0
230
0.0
  0
ARC
  5
2B0
330
1F
100
AcDbEntity
  8
PV-B9
100
AcDbCircle
 10
5.299999999999997
 20
81.00000000000006
 30
-0.0000000000000058
 40
1.499999999999998
100
AcDbArc
 50
90.0
 51
180.0
  0
ARC
  5
2B1
330
1F
100
AcDbEntity
  8
PV-B9
100
AcDbCircle
 10
23.3
 20
81.00000000000006
 30
-0.0000000000000036
 40
1.5
100
AcDbArc
 50
359.9999999999997
 51
90.0
  0
LINE
  5
2B2
330
1F
100
AcDbEntity
  8
PV-B9
100
AcDbLine
 10
0.3000000000000114
 20
-40.00000000000009
 30
-0.0000000000000064
 11
0.2999999999999972
 21
39.7999999999999
 31
-0.0000000000000064
210
0.0
220
1.0
230
0.0
  0
LINE
  5
2B3
330
1F
100
AcDbEntity
  8
PV-B9
100
AcDbLine
 10
3.300420357916202
 20
-40.00000000000009
 30
-0.0000000000000061
 11
3.300420357916188
 21
39.7999999999999
 31
-0.0000000000000061
210
0.0
220
1.0
230
0.0
  0
LINE
  5
2B4
330
1F
100
AcDbEntity
  8
PV-B9
100
AcDbLine
 10
0.3000000000000114
 20
-40.00000000000009
 30
-0.0000000000000064
 11
3.300420357916202
 21
-40.00000000000009
 31
-0.0000000000000061
210
0.0
220
1.0
230
0.0
  0
LINE
  5
2B5
330
1F
100
AcDbEntity
  8
PV-B9
100
AcDbLine
 10
3.816887459147828
 20
-40.00000000000009
 30
-0.000000000000006
 11
3.300420357916202
 21
-40.00000000000009
 31
-0.0000000000000061
210
0.0
220
1.0
230
0.0
  0
LINE
  5
2B6
330
1F
100
AcDbEntity
  8
PV-B9
100
AcDbLine
 10
0.2999999999999972
 20
39.79999999999989
 30
-0.0000000000000064
 11
3.300420357916188
 21
39.79999999999989
 31
-0.0000000000000061
210
0.0
220
1.0
230
0.0
  0
LINE
  5
2B7
330
1F
100
AcDbEntity
  8
PV-B9
100
AcDbLine
 10
3.816887459147821
 20
39.79999999999989
 30
-0.000000000000006
 11
3.300420357916188
 21
39.79999999999989
 31
-0.0000000000000061
210
0.0
220
1.0
230
0.0
  0
LINE
  5
2B8
330
1F
100
AcDbEntity
  8
PV-B9
100
AcDbLine
 10
24.79999999999999
 20
39.79999999999989
 30
-0.0000000000000034
 11
3.816887459147828
 21
39.79999999999989
 31
-0.000000000000006
210
0.0
220
1.0
230
0.0
  0
LINE
  5
2B9
330
1F
100
AcDbEntity
  8
PV-B9
100
AcDbLine
 10
24.80000000000001
 20
-40.00000000000009
 30
-0.0000000000000034
 11
24.79999999999999
 21
39.7999999999999
 31
-0.0000000000000034
210
0.0
220
1.0
230
0.0
  0
LINE
  5
2BA
330
1F
100
AcDbEntity
  8
PV-B9
100
AcDbLine
 10
24.8
 20
-40.00000000000009
 30
-0.0000000000000034
 11
3.816887459147828
 21
-40.00000000000009
 31
-0.000000000000006
210
0.0
220
1.0
230
0.0
  0
LINE
  5
2BB
330
1F
100
AcDbEntity
  8
PV-B9
100
AcDbLine
 10
-24.80000000000002
 20
23.3014083110323
 30
-0.0000000000000095
 11
-20.70000000000002
 21
24.3999999999999
 31
-0.000000000000009
210
0.0
220
1.0
230
0.0
  0
LINE
  5
2BC
330
1F
100
AcDbEntity
  8
PV-B9
100
AcDbLine
 10
-20.70000000000002
 20
24.39999999999991
 30
-0.000000000000009
 11
-18.70000000000002
 21
24.39999999999991
 31
-0.0000000000000088
210
0.0
220
1.0
230
0.0
  0
LINE
  5
2BD
330
1F
100
AcDbEntity
  8
PV-B9
100
AcDbLine
 10
-18.70000000000002
 20
23.99999999999991
 30
-0.0000000000000088
 11
-18.70000000000002
 21
24.39999999999991
 31
-0.0000000000000088
210
0.0
220
1.0
230
0.0
  0
ARC
  5
2BE
330
1F
100
AcDbEntity
  8
PV-B9
100
AcDbCircle
 10
-15.70000000000002
 20
23.99999999999991
 30
-0.0000000000000084
 40
2.999999999999999
100
AcDbArc
 50
180.0
 51
270.0
  0
LINE
  5
2BF
330
1F
100
AcDbEntity
  8
PV-B9
100
AcDbLine
 10
-15.70000000000002
 20
20.99999999999991
 30
-0.0000000000000084
 11
-9.700000000000017
 21
20.99999999999991
 31
-0.0000000000000077
210
0.0
220
1.0
230
0.0
  0
ARC
  5
2C0
330
1F
100
AcDbEntity
  8
PV-B9
100
AcDbCircle
 10
-9.700000000000017
 20
23.99999999999991
 30
-0.0000000000000077
 40
2.999999999999999
100
AcDbArc
 50
270.0
 51
359.9999999999992
  0
LINE
  5
2C1
330
1F
100
AcDbEntity
  8
PV-B9
100
AcDbLine
 10
-6.700000000000009
 20
31.99999999999989
 30
-0.0000000000000073
 11
-6.700000000000009
 21
23.99999999999991
 31
-0.0000000000000073
210
0.0
220
1.0
230
0.0
  0
ARC
  5
2C2
330
1F
100
AcDbEntity
  8
PV-B9
100
AcDbCircle
 10
-9.700000000000017
 20
31.99999999999989
 30
-0.0000000000000077
 40
3.000000000000008
100
AcDbArc
 50
359.9999999999984
 51
90.0
  0
LINE
  5
2C3
330
1F
100
AcDbEntity
  8
PV-B9
100
AcDbLine
 10
-9.700000000000017
 20
34.99999999999991
 30
-0.0000000000000077
 11
-15.70000000000002
 21
34.99999999999991
 31
-0.0000000000000084
210
0.0
220
1.0
230
0.0
  0
ARC
  5
2C4
330
1F
100
AcDbEntity
  8
PV-B9
100
AcDbCircle
 10
-15.70000000000002
 20
31.99999999999989
 30
-0.0000000000000084
 40
3.000000000000006
100
AcDbArc
 50
90.0
 51
180.0
  0
LINE
  5
2C5
330
1F
100
AcDbEntity
  8
PV-B9
100
AcDbLine
 10
-18.69999999999999
 20
31.5999999999999
 30
-0.0000000000000088
 11
-18.69999999999999
 21
31.99999999999989
 31
-0.0000000000000088
210
0.0
220
1.0
230
0.0
  0
LINE
  5
2C6
330
1F
100
AcDbEntity
  8
PV-B9
100
AcDbLine
 10
-20.70000000000002
 20
31.5999999999999
 30
-0.000000000000009
 11
-18.70000000000002
 21
31.5999999999999
 31
-0.0000000000000088
210
0.0
220
1.0
230
0.0
  0
LINE
  5
2C7
330
1F
100
AcDbEntity
  8
PV-B9
100
AcDbLine
 10
-24.80000000000002
 20
32.6985916889675
 30
-0.0000000000000095
 11
-20.70000000000002
 21
31.5999999999999
 31
-0.000000000000009
210
0.0
220
1.0
230
0.0
  0
LINE
  5
2C8
330
1F
100
AcDbEntity
  8
PV-B9
100
AcDbLine
 10
-24.80000000000003
 20
32.6985916889675
 30
-0.0000000000000095
 11
-24.80000000000003
 21
36.99999999999991
 31
-0.0000000000000095
210
0.0
220
1.0
230
0.0
  0
ARC
  5
2C9
330
1F
100
AcDbEntity
  8
PV-B9
100
AcDbCircle
 10
-21.80000000000001
 20
36.99999999999991
 30
-0.0000000000000092
 40
3.000000000000002
100
AcDbArc
 50
90.0
 51
180.0
  0
LINE
  5
2CA
330
1F
100
AcDbEntity
  8
PV-B9
100
AcDbLine
 10
-21.80000000000001
 20
39.99999999999991
 30
-0.0000000000000092
 11
0.1999999999999815
 21
39.99999999999991
 31
-0.0000000000000065
210
0.0
220
1.0
230
0.0
  0
LINE
  5
2CB
330
1F
100
AcDbEntity
  8
PV-B9
100
AcDbLine
 10
0.1999999999999815
 20
39.99999999999991
 30
-0.0000000000000065
 11
0.1999999999999815
 21
37.49999999999991
 31
-0.0000000000000065
210
0.0
220
1.0
230
0.0
  0
LINE
  5
2CC
330
1F
100
AcDbEntity
  8
PV-B9
100
AcDbLine
 10
3.300420357916181
 20
37.49999999999989
 30
-0.0000000000000061
 11
0.1999999999999673
 21
37.49999999999989
 31
-0.0000000000000065
210
0.0
220
1.0
230
0.0
  0
LINE
  5
2CD
330
1F
100
AcDbEntity
  8
PV-B9
100
AcDbLine
 10
3.300420357916202
 20
-37.50000000000009
 30
-0.0000000000000061
 11
0.2000000000000028
 21
-37.50000000000009
 31
-0.0000000000000065
210
0.0
220
1.0
230
0.0
  0
LINE
  5
2CE
330
1F
100
AcDbEntity
  8
PV-B9
100
AcDbLine
 10
0.2000000000000028
 20
-40.00000000000008
 30
-0.0000000000000065
 11
0.2000000000000028
 21
-37.50000000000009
 31
-0.0000000000000065
210
0.0
220
1.0
230
0.0
  0
LINE
  5
2CF
330
1F
100
AcDbEntity
  8
PV-B9
100
AcDbLine
 10
-21.80000000000001
 20
-40.00000000000008
 30
-0.0000000000000092
 11
0.2000000000000028
 21
-40.00000000000008
 31
-0.0000000000000065
210
0.0
220
1.0
230
0.0
  0
ARC
  5
2D0
330
1F
100
AcDbEntity
  8
PV-B9
100
AcDbCircle
 10
-21.80000000000001
 20
-37.00000000000008
 30
-0.0000000000000092
 40
3.000000000000002
100
AcDbArc
 50
180.0
 51
270.0
  0
LINE
  5
2D1
330
1F
100
AcDbEntity
  8
PV-B9
100
AcDbLine
 10
-24.80000000000002
 20
-37.00000000000008
 30
-0.0000000000000095
 11
-24.80000000000002
 21
-32.69859168896769
 31
-0.0000000000000095
210
0.0
220
1.0
230
0.0
  0
LINE
  5
2D2
330
1F
100
AcDbEntity
  8
PV-B9
100
AcDbLine
 10
-24.80000000000002
 20
-32.69859168896768
 30
-0.0000000000000095
 11
-20.70000000000001
 21
-31.60000000000007
 31
-0.000000000000009
210
0.0
220
1.0
230
0.0
  0
LINE
  5
2D3
330
1F
100
AcDbEntity
  8
PV-B9
100
AcDbLine
 10
-20.70000000000001
 20
-31.60000000000009
 30
-0.000000000000009
 11
-18.69999999999999
 21
-31.60000000000009
 31
-0.0000000000000088
210
0.0
220
1.0
230
0.0
  0
LINE
  5
2D4
330
1F
100
AcDbEntity
  8
PV-B9
100
AcDbLine
 10
-18.69999999999999
 20
-31.60000000000009
 30
-0.0000000000000088
 11
-18.69999999999999
 21
-32.00000000000008
 31
-0.0000000000000088
210
0.0
220
1.0
230
0.0
  0
ARC
  5
2D5
330
1F
100
AcDbEntity
  8
PV-B9
100
AcDbCircle
 10
-15.70000000000002
 20
-32.00000000000008
 30
-0.0000000000000084
 40
3.000000000000006
100
AcDbArc
 50
180.0
 51
270.0
  0
LINE
  5
2D6
330
1F
100
AcDbEntity
  8
PV-B9
100
AcDbLine
 10
-9.700000000000009
 20
-35.00000000000009
 30
-0.0000000000000077
 11
-15.70000000000002
 21
-35.00000000000009
 31
-0.0000000000000084
210
0.0
220
1.0
230
0.0
  0
ARC
  5
2D7
330
1F
100
AcDbEntity
  8
PV-B9
100
AcDbCircle
 10
-9.700000000000009
 20
-32.00000000000008
 30
-0.0000000000000077
 40
3.000000000000008
100
AcDbArc
 50
270.0
 51
359.9999999999992
  0
LINE
  5
2D8
330
1F
100
AcDbEntity
  8
PV-B9
100
AcDbLine
 10
-6.700000000000009
 20
-32.00000000000008
 30
-0.0000000000000073
 11
-6.700000000000009
 21
-24.00000000000009
 31
-0.0000000000000073
210
0.0
220
1.0
230
0.0
  0
ARC
  5
2D9
330
1F
100
AcDbEntity
  8
PV-B9
100
AcDbCircle
 10
-9.700000000000017
 20
-24.00000000000009
 30
-0.0000000000000077
 40
2.999999999999999
100
AcDbArc
 50
359.9999999999984
 51
90.0
  0
LINE
  5
2DA
330
1F
100
AcDbEntity
  8
PV-B9
100
AcDbLine
 10
-15.70000000000002
 20
-21.0000000000001
 30
-0.0000000000000084
 11
-9.700000000000017
 21
-21.00000000000009
 31
-0.0000000000000077
210
0.0
220
1.0
230
0.0
  0
ARC
  5
2DB
330
1F
100
AcDbEntity
  8
PV-B9
100
AcDbCircle
 10
-15.70000000000002
 20
-24.00000000000009
 30
-0.0000000000000084
 40
2.999999999999999
100
AcDbArc
 50
90.0
 51
180.0
  0
LINE
  5
2DC
330
1F
100
AcDbEntity
  8
PV-B9
100
AcDbLine
 10
-18.70000000000002
 20
-24.00000000000009
 30
-0.0000000000000088
 11
-18.69999999999999
 21
-24.40000000000008
 31
-0.0000000000000088
210
0.0
220
1.0
230
0.0
  0
LINE
  5
2DD
330
1F
100
AcDbEntity
  8
PV-B9
100
AcDbLine
 10
-20.70000000000001
 20
-24.4000000000001
 30
-0.000000000000009
 11
-18.69999999999999
 21
-24.4000000000001
 31
-0.0000000000000088
210
0.0
220
1.0
230
0.0
  0
LINE
  5
2DE
330
1F
100
AcDbEntity
  8
PV-B9
100
AcDbLine
 10
-24.80000000000002
 20
-23.30140831103249
 30
-0.0000000000000095
 11
-20.70000000000001
 21
-24.40000000000009
 31
-0.000000000000009
210
0.0
220
1.0
230
0.0
  0
LINE
  5
2DF
330
1F
100
AcDbEntity
  8
PV-B9
100
AcDbLine
 10
-24.80000000000002
 20
-23.30140831103249
 30
-0.0000000000000095
 11
-24.80000000000002
 21
-4.698591688967709
 31
-0.0000000000000095
210
0.0
220
1.0
230
0.0
  0
LINE
  5
2E0
330
1F
100
AcDbEntity
  8
PV-B9
100
AcDbLine
 10
-24.80000000000002
 20
-4.698591688967706
 30
-0.0000000000000095
 11
-20.70000000000005
 21
-3.60000000000011
 31
-0.000000000000009
210
0.0
220
1.0
230
0.0
  0
LINE
  5
2E1
330
1F
100
AcDbEntity
  8
PV-B9
100
AcDbLine
 10
-20.70000000000005
 20
-3.600000000000107
 30
-0.000000000000009
 11
-18.70000000000005
 21
-3.600000000000106
 31
-0.0000000000000088
210
0.0
220
1.0
230
0.0
  0
LINE
  5
2E2
330
1F
100
AcDbEntity
  8
PV-B9
100
AcDbLine
 10
-18.70000000000005
 20
-3.6000000000001
 30
-0.0000000000000088
 11
-18.70000000000005
 21
-4.000000000000092
 31
-0.0000000000000088
210
0.0
220
1.0
230
0.0
  0
ARC
  5
2E3
330
1F
100
AcDbEntity
  8
PV-B9
100
AcDbCircle
 10
-15.70000000000005
 20
-4.000000000000092
 30
-0.0000000000000084
 40
3.000000000000006
100
AcDbArc
 50
180.0
 51
270.0
  0
LINE
  5
2E4
330
1F
100
AcDbEntity
  8
PV-B9
100
AcDbLine
 10
-9.700000000000052
 20
-7.000000000000101
 30
-0.0000000000000077
 11
-15.70000000000005
 21
-7.000000000000109
 31
-0.0000000000000084
210
0.0
220
1.0
230
0.0
  0
ARC
  5
2E5
330
1F
100
AcDbEntity
  8
PV-B9
100
AcDbCircle
 10
-9.700000000000052
 20
-4.000000000000085
 30
-0.0000000000000077
 40
3.000000000000006
100
AcDbArc
 50
270.0
 51
359.9999999999992
  0
LINE
  5
2E6
330
1F
100
AcDbEntity
  8
PV-B9
100
AcDbLine
 10
-6.700000000000052
 20
-4.000000000000085
 30
-0.0000000000000073
 11
-6.700000000000052
 21
3.999999999999899
 31
-0.0000000000000073
210
0.0
220
1.0
230
0.0
  0
ARC
  5
2E7
330
1F
100
AcDbEntity
  8
PV-B9
100
AcDbCircle
 10
-9.700000000000052
 20
3.999999999999899
 30
-0.0000000000000077
 40
2.999999999999999
100
AcDbArc
 50
359.9999999999984
 51
90.0
  0
LINE
  5
2E8
330
1F
100
AcDbEntity
  8
PV-B9
100
AcDbLine
 10
-15.70000000000005
 20
6.999999999999896
 30
-0.0000000000000084
 11
-9.700000000000052
 21
6.999999999999892
 31
-0.0000000000000077
210
0.0
220
1.0
230
0.0
  0
ARC
  5
2E9
330
1F
100
AcDbEntity
  8
PV-B9
100
AcDbCircle
 10
-15.70000000000005
 20
3.999999999999899
 30
-0.0000000000000084
 40
2.999999999999999
100
AcDbArc
 50
90.0
 51
180.0
  0
LINE
  5
2EA
330
1F
100
AcDbEntity
  8
PV-B9
100
AcDbLine
 10
-18.70000000000005
 20
3.999999999999899
 30
-0.0000000000000088
 11
-18.70000000000005
 21
3.599999999999901
 31
-0.0000000000000088
210
0.0
220
1.0
230
0.0
  0
LINE
  5
2EB
330
1F
100
AcDbEntity
  8
PV-B9
100
AcDbLine
 10
-20.70000000000005
 20
3.599999999999908
 30
-0.000000000000009
 11
-18.70000000000005
 21
3.599999999999909
 31
-0.0000000000000088
210
0.0
220
1.0
230
0.0
  0
LINE
  5
2EC
330
1F
100
AcDbEntity
  8
PV-B9
100
AcDbLine
 10
-24.80000000000002
 20
4.698591688967497
 30
-0.0000000000000095
 11
-20.70000000000005
 21
3.599999999999901
 31
-0.000000000000009
210
0.0
220
1.0
230
0.0
  0
LINE
  5
2ED
330
1F
100
AcDbEntity
  8
PV-B9
100
AcDbLine
 10
-24.80000000000002
 20
4.698591688967511
 30
-0.0000000000000095
 11
-24.80000000000003
 21
23.30140831103229
 31
-0.0000000000000095
210
0.0
220
1.0
230
0.0
  0
ARC
  5
2EE
330
1F
100
AcDbEntity
  8
PV-B9
100
AcDbCircle
 10
-17.8
 20
13.99999999999989
 30
-0.0000000000000087
 40
2.500000000000002
100
AcDbArc
 50
180.0
 51
0.0
  0
ARC
  5
2EF
330
1F
100
AcDbEntity
  8
PV-B9
100
AcDbCircle
 10
-17.8
 20
-14.00000000000009
 30
-0.0000000000000087
 40
2.500000000000002
100
AcDbArc
 50
180.0
 51
0.0
  0
ARC
  5
2F0
330
1F
100
AcDbEntity
  8
PV-B9
100
AcDbCircle
 10
-17.8
 20
13.99999999999989
 30
-0.0000000000000087
 40
2.500000000000002
100
AcDbArc
 50
359.9999999999992
 51
180.0
  0
ARC
  5
2F1
330
1F
100
AcDbEntity
  8
PV-B9
100
AcDbCircle
 10
-17.8
 20
-14.00000000000009
 30
-0.0000000000000087
 40
2.500000000000002
100
AcDbArc
 50
359.9999999999992
 51
180.0
  0
LINE
  5
2F2
330
1F
100
AcDbEntity
  8
PV-B9
100
AcDbLine
 10
24.8
 20
40.00000000000006
 30
-0.0000000000000034
 11
24.8
 21
80.00000000000007
 31
-0.0000000000000034
210
0.0
220
1.0
230
0.0
  0
LINE
  5
2F3
330
1F
100
AcDbEntity
  8
PV-B9
100
AcDbLine
 10
24.8
 20
-80.0000000000001
 30
-0.0000000000000034
 11
24.8
 21
-40.00000000000009
 31
-0.0000000000000034
210
0.0
220
1.0
230
0.0
  0
LINE
  5
2F5
330
1F
100
AcDbEntity
  8
PV-B9
100
AcDbLine
 10
53.52000001400002
 20
73.39999999999988
 30
-0.0000000000000029
 11
54.22000001400001
 21
73.39999999999988
 31
-0.0000000000000028
210
0.0
220
1.0
230
0.0
  0
ARC
  5
2F6
330
1F
100
AcDbEntity
  8
PV-B9
100
AcDbCircle
 10
56.22000001400001
 20
40.49999999999989
 30
-0.0000000000000025
 40
3.000000000000002
100
AcDbArc
 50
131.810314895778
 51
154.1580672368329
  0
ARC
  5
2F7
330
1F
100
AcDbEntity
  8
PV-B9
100
AcDbCircle
 10
56.220000014
 20
-40.50000000000009
 30
-0.0000000000000025
 40
3.000000000000002
100
AcDbArc
 50
205.8419327631664
 51
228.1896851042222
  0
LINE
  5
2F8
330
1F
100
AcDbEntity
  8
PV-B9
100
AcDbLine
 10
53.52000001399997
 20
-73.4000000000001
 30
-0.0000000000000029
 11
54.22000001400006
 21
-73.4000000000001
 31
-0.0000000000000028
210
0.0
220
1.0
230
0.0
  0
LINE
  5
2F9
330
1F
100
AcDbEntity
  8
PV-B9
100
AcDbLine
 10
34.72000001400001
 20
79.8849906132628
 30
-0.0000000000000064
 11
34.72000001400001
 21
79.88749217771898
 31
-0.0000000000000064
210
0.0
220
1.0
230
0.0
  0
LINE
  5
2FA
330
1F
100
AcDbEntity
  8
PV-B9
100
AcDbLine
 10
34.72000001400001
 20
67.89999999999993
 30
-0.0000000000000064
 11
34.72000001400001
 21
79.8849906132628
 31
-0.0000000000000064
210
0.0
220
1.0
230
0.0
  0
LINE
  5
2FB
330
1F
100
AcDbEntity
  8
PV-B9
100
AcDbLine
 10
34.72000001400001
 20
67.89999999999989
 30
-0.0000000000000064
 11
34.72000001400001
 21
-67.90000000000012
 31
-0.0000000000000064
210
0.0
220
1.0
230
0.0
  0
LINE
  5
2FC
330
1F
100
AcDbEntity
  8
PV-B9
100
AcDbLine
 10
34.72000001400001
 20
-79.88499061326303
 30
-0.0000000000000064
 11
34.72000001400001
 21
-67.9000000000001
 31
-0.0000000000000064
210
0.0
220
1.0
230
0.0
  0
LINE
  5
2FD
330
1F
100
AcDbEntity
  8
PV-B9
100
AcDbLine
 10
34.72000001400001
 20
-79.88749217771921
 30
-0.0000000000000064
 11
34.72000001400001
 21
-79.88499061326303
 31
-0.0000000000000064
210
0.0
220
1.0
230
0.0
  0
LINE
  5
2FE
330
1F
100
AcDbEntity
  8
PV-B9
100
AcDbLine
 10
38.72000001400001
 20
67.89999999999989
 30
-0.0000000000000057
 11
38.72000001400001
 21
-67.90000000000012
 31
-0.0000000000000057
210
0.0
220
1.0
230
0.0
  0
LINE
  5
2FF
330
1F
100
AcDbEntity
  8
PV-B9
100
AcDbLine
 10
38.72000001400001
 20
-67.9000000000001
 30
-0.0000000000000057
 11
38.72000001400001
 21
-79.88499061326303
 31
-0.0000000000000057
210
0.0
220
1.0
230
0.0
  0
LINE
  5
300
330
1F
100
AcDbEntity
  8
PV-B9
100
AcDbLine
 10
76.72000001400002
 20
-40.00000000000009
 30
0.0000000000000013
 11
66.81527428341543
 21
-40.00000000000009
 31
-0.0000000000000005
210
0.0
220
1.0
230
0.0
  0
LINE
  5
301
330
1F
100
AcDbEntity
  8
PV-B9
100
AcDbLine
 10
54.22000001400004
 20
-78.07275543012295
 30
-0.0000000000000028
 11
53.7601242571161
 21
-78.07275543012295
 31
-0.0000000000000029
210
0.0
220
1.0
230
0.0
  0
SPLINE
  5
302
330
1F
100
AcDbEntity
  8
PV-B9
100
AcDbSpline
210
-0.0000000000000009
220
-0.0000000000000062
230
-1.0
 70
     8
 71
     3
 72
     8
 73
     4
 74
     0
 42
0.0000000001
 43
0.0000000001
 40
0.0014897492227513
 40
0.0014897492227513
 40
0.0014897492227513
 40
0.0014897492227513
 40
0.0017303328857306
 40
0.0017303328857306
 40
0.0017303328857306
 40
0.0017303328857306
 10
53.52000001399997
 20
-78.03783692200841
 30
-0.0000000000000029
 10
53.59750362038189
 20
-78.06065521580961
 30
-0.0000000000000029
 10
53.6782403114288
 20
-78.07275543012337
 30
-0.0000000000000029
 10
53.7601242571161
 20
-78.07275543012295
 30
-0.0000000000000029
  0
LINE
  5
303
330
1F
100
AcDbEntity
  8
PV-B9
100
AcDbLine
 10
76.72000001400004
 20
-80.0000000000001
 30
0.0000000000000013
 11
66.22000001400005
 21
-80.0000000000001
 31
-0.0000000000000006
210
0.0
220
1.0
230
0.0
  0
LINE
  5
304
330
1F
100
AcDbEntity
  8
PV-B9
100
AcDbLine
 10
54.22000001400004
 20
-79.10969281153803
 30
-0.0000000000000028
 11
54.22000001400004
 21
-40.00000000000009
 31
-0.0000000000000028
210
0.0
220
1.0
230
0.0
  0
LINE
  5
305
330
1F
100
AcDbEntity
  8
PV-B9
100
AcDbLine
 10
66.22000001400005
 20
-80.0000000000001
 30
-0.0000000000000006
 11
55.15530869855002
 21
-80.0000000000001
 31
-0.0000000000000026
210
0.0
220
1.0
230
0.0
  0
LINE
  5
306
330
1F
100
AcDbEntity
  8
PV-B9
100
AcDbLine
 10
55.15530869855002
 20
-80.0000000000001
 30
-0.0000000000000026
 11
55.15530869855002
 21
-79.10969281153803
 31
-0.0000000000000026
210
0.0
220
1.0
230
0.0
  0
LINE
  5
307
330
1F
100
AcDbEntity
  8
PV-B9
100
AcDbLine
 10
55.15530869855002
 20
-79.10969281153807
 30
-0.0000000000000026
 11
54.22000001400006
 21
-79.10969281153807
 31
-0.0000000000000028
210
0.0
220
1.0
230
0.0
  0
LINE
  5
308
330
1F
100
AcDbEntity
  8
PV-B9
100
AcDbLine
 10
41.22000001400001
 20
80.09999999999989
 30
-0.0000000000000052
 11
38.72000001400001
 21
80.09999999999989
 31
-0.0000000000000057
210
0.0
220
1.0
230
0.0
  0
LINE
  5
309
330
1F
100
AcDbEntity
  8
PV-B9
100
AcDbLine
 10
41.22000001399996
 20
-79.9000000000001
 30
-0.0000000000000052
 11
38.72000001399996
 21
-79.9000000000001
 31
-0.0000000000000057
210
0.0
220
1.0
230
0.0
  0
LINE
  5
30A
330
1F
100
AcDbEntity
  8
PV-B9
100
AcDbLine
 10
42.22000001400001
 20
79.44856819162653
 30
-0.000000000000005
 11
52.52000001400002
 21
79.44856819162653
 31
-0.0000000000000031
210
0.0
220
1.0
230
0.0
  0
LINE
  5
30B
330
1F
100
AcDbEntity
  8
PV-B9
100
AcDbLine
 10
52.52000001399998
 20
-79.24856819162674
 30
-0.0000000000000031
 11
42.22000001399997
 21
-79.24856819162674
 31
-0.000000000000005
210
0.0
220
1.0
230
0.0
  0
LINE
  5
30C
330
1F
100
AcDbEntity
  8
PV-B9
100
AcDbLine
 10
41.22000001399998
 20
-79.9000000000001
 30
-0.0000000000000052
 11
41.22000001399998
 21
-67.9000000000001
 31
-0.0000000000000052
210
0.0
220
1.0
230
0.0
  0
LINE
  5
30D
330
1F
100
AcDbEntity
  8
PV-B9
100
AcDbLine
 10
41.22000001399998
 20
-67.9000000000001
 30
-0.0000000000000052
 11
41.22000001400001
 21
68.09999999999989
 31
-0.0000000000000052
210
0.0
220
1.0
230
0.0
  0
LINE
  5
30E
330
1F
100
AcDbEntity
  8
PV-B9
100
AcDbLine
 10
41.22000001400001
 20
80.09999999999989
 30
-0.0000000000000052
 11
41.220000014
 21
68.09999999999989
 31
-0.0000000000000052
210
0.0
220
1.0
230
0.0
  0
SPLINE
  5
30F
330
1F
100
AcDbEntity
  8
PV-B9
100
AcDbSpline
210
-0.000000000000001
220
0.0000000000000038
230
-1.0
 70
     8
 71
     3
 72
    14
 73
    10
 74
     0
 42
0.0000000001
 43
0.0000000001
 40
0.0
 40
0.0
 40
0.0
 40
0.0
 40
0.0003986139723433
 40
0.0003986139723433
 40
0.0007972279446866
 40
0.0007972279446866
 40
0.0011958419170298
 40
0.0011958419170298
 40
0.0015944558893731
 40
0.0015944558893731
 40
0.0015944558893731
 40
0.0015944558893731
 10
42.22000001399997
 20
-79.24856819162674
 30
-0.000000000000005
 10
42.08515995882019
 20
-79.24856819162672
 30
-0.0000000000000051
 10
41.95279141008144
 20
-79.25804826759066
 30
-0.0000000000000051
 10
41.7089501774592
 20
-79.2926492258633
 30
-0.0000000000000051
 10
41.59813316600469
 20
-79.31775893681265
 30
-0.0000000000000051
 10
41.41610605357513
 20
-79.37597311715023
 30
-0.0000000000000052
 10
41.34334933094526
 20
-79.4095057823776
 30
-0.0000000000000052
 10
41.2458451918588
 20
-79.47713592858178
 30
-0.0000000000000052
 10
41.22000001399998
 20
-79.51176027648391
 30
-0.0000000000000052
 10
41.22000001399996
 20
-79.54431191612464
 30
-0.0000000000000052
  0
SPLINE
  5
310
330
1F
100
AcDbEntity
  8
PV-B9
100
AcDbSpline
210
-0.000000000000001
220
-0.0000000000000038
230
-1.0
 70
     8
 71
     3
 72
    14
 73
    10
 74
     0
 42
0.0000000001
 43
0.0000000001
 40
0.0
 40
0.0
 40
0.0
 40
0.0
 40
0.0003986241037927
 40
0.0003986241037927
 40
0.0007972482075854
 40
0.0007972482075854
 40
0.0011958723113781
 40
0.0011958723113781
 40
0.0015944964151707
 40
0.0015944964151707
 40
0.0015944964151707
 40
0.0015944964151707
 10
41.22000001400001
 20
79.74431191612443
 30
-0.0000000000000052
 10
41.22000001400001
 20
79.71173604621559
 30
-0.0000000000000052
 10
41.24527478557012
 20
79.67760077067556
 30
-0.0000000000000052
 10
41.34331749247646
 20
79.60945908849845
 30
-0.0000000000000052
 10
41.41550398229113
 20
79.57619527814353
 30
-0.0000000000000052
 10
41.59793896322098
 20
79.51779156155463
 30
-0.0000000000000051
 10
41.70875661604788
 20
79.49271232968438
 30
-0.0000000000000051
 10
41.95156562315839
 20
79.45818677632985
 30
-0.0000000000000051
 10
42.08505093435609
 20
79.44856819162653
 30
-0.0000000000000051
 10
42.22000001400001
 20
79.44856819162653
 30
-0.000000000000005
  0
LINE
  5
311
330
1F
100
AcDbEntity
  8
PV-B9
100
AcDbLine
 10
53.52000001400003
 20
79.05399470512915
 30
-0.0000000000000029
 11
53.520000014
 21
39.79999999999989
 31
-0.0000000000000029
210
0.0
220
1.0
230
0.0
  0
LINE
  5
312
330
1F
100
AcDbEntity
  8
PV-B9
100
AcDbLine
 10
53.52000001399998
 20
-40.00000000000009
 30
-0.0000000000000029
 11
53.52000001399997
 21
-78.85399470512938
 31
-0.0000000000000029
210
0.0
220
1.0
230
0.0
  0
SPLINE
  5
313
330
1F
100
AcDbEntity
  8
PV-B9
100
AcDbSpline
210
-0.0000000000000007
220
0.0000000000000021
230
-1.0
 70
     8
 71
     3
 72
    14
 73
    10
 74
     0
 42
0.0000000001
 43
0.0000000001
 40
0.0
 40
0.0
 40
0.0
 40
0.0
 40
0.0004059635003688
 40
0.0004059635003688
 40
0.0008119270007376
 40
0.0008119270007376
 40
0.0012178905011064
 40
0.0012178905011064
 40
0.0016238540014751
 40
0.0016238540014751
 40
0.0016238540014751
 40
0.0016238540014751
 10
53.52000001399997
 20
-78.85399470512936
 30
-0.0000000000000029
 10
53.52000001399997
 20
-78.91001033586251
 30
-0.0000000000000029
 10
53.49699770724521
 20
-78.96262613047318
 30
-0.000000000000003
 10
53.40293760431685
 20
-79.05968026210896
 30
-0.000000000000003
 10
53.33338093738683
 20
-79.10222907038068
 30
-0.000000000000003
 10
53.15111354396425
 20
-79.17350574263688
 30
-0.000000000000003
 10
53.04016304560995
 20
-79.20127413684785
 30
-0.000000000000003
 10
52.79306917297438
 20
-79.23882772906948
 30
-0.0000000000000031
 10
52.65751634446809
 20
-79.24856819162674
 30
-0.0000000000000031
 10
52.52000001399998
 20
-79.24856819162674
 30
-0.0000000000000031
  0
SPLINE
  5
314
330
1F
100
AcDbEntity
  8
PV-B9
100
AcDbSpline
210
-0.0000000000000007
220
-0.0000000000000021
230
-1.0
 70
     8
 71
     3
 72
    14
 73
    10
 74
     0
 42
0.0000000001
 43
0.0000000001
 40
0.0
 40
0.0
 40
0.0
 40
0.0
 40
0.0004059857219147
 40
0.0004059857219147
 40
0.0008119714438295
 40
0.0008119714438295
 40
0.0012179571657442
 40
0.0012179571657442
 40
0.001623942887659
 40
0.001623942887659
 40
0.001623942887659
 40
0.001623942887659
 10
52.52000001400002
 20
79.44856819162653
 30
-0.0000000000000031
 10
52.65731523498634
 20
79.44856819162651
 30
-0.0000000000000031
 10
52.79226316840101
 20
79.43890193637066
 30
-0.0000000000000031
 10
53.03932133032938
 20
79.40145003071103
 30
-0.000000000000003
 10
53.15105807378701
 20
79.37345376532362
 30
-0.000000000000003
 10
53.33212926253819
 20
79.30279168380154
 30
-0.000000000000003
 10
53.40292587968538
 20
79.25957698187897
 30
-0.000000000000003
 10
53.49645383106748
 20
79.16330201282132
 30
-0.000000000000003
 10
53.52000001400002
 20
79.10995803148811
 30
-0.0000000000000029
 10
53.52000001400002
 20
79.05399470512915
 30
-0.0000000000000029
  0
LINE
  5
315
330
1F
100
AcDbEntity
  8
PV-B9
100
AcDbLine
 10
38.720000014
 20
68.09999999999991
 30
-0.0000000000000057
 11
38.72000001400001
 21
80.09999999999989
 31
-0.0000000000000057
210
0.0
220
1.0
230
0.0
  0
LINE
  5
316
330
1F
100
AcDbEntity
  8
PV-B9
100
AcDbLine
 10
38.72000001399998
 20
-67.9000000000001
 30
-0.0000000000000057
 11
38.720000014
 21
67.89999999999991
 31
-0.0000000000000057
210
0.0
220
1.0
230
0.0
  0
LINE
  5
317
330
1F
100
AcDbEntity
  8
PV-B9
100
AcDbLine
 10
38.72000001399998
 20
-79.9000000000001
 30
-0.0000000000000057
 11
38.72000001399998
 21
-67.9000000000001
 31
-0.0000000000000057
210
0.0
220
1.0
230
0.0
  0
LINE
  5
318
330
1F
100
AcDbEntity
  8
PV-B9
100
AcDbLine
 10
76.720000014
 20
40.00000000000006
 30
0.0000000000000013
 11
66.22000001400002
 21
40.00000000000006
 31
-0.0000000000000006
210
0.0
220
1.0
230
0.0
  0
SPLINE
  5
319
330
1F
100
AcDbEntity
  8
PV-B9
100
AcDbSpline
210
-0.0000000000000009
220
0.0000000000000062
230
-1.0
 70
     8
 71
     3
 72
     8
 73
     4
 74
     0
 42
0.0000000001
 43
0.0000000001
 40
0.0014897492227514
 40
0.0014897492227514
 40
0.0014897492227514
 40
0.0014897492227514
 40
0.0017303328857306
 40
0.0017303328857306
 40
0.0017303328857306
 40
0.0017303328857306
 10
53.52000001400003
 20
78.03783692200838
 30
-0.0000000000000029
 10
53.59750362038191
 20
78.06065521580958
 30
-0.0000000000000029
 10
53.67824031142879
 20
78.07275543012334
 30
-0.0000000000000029
 10
53.76012425711605
 20
78.07275543012292
 30
-0.0000000000000029
  0
LINE
  5
31A
330
1F
100
AcDbEntity
  8
PV-B9
100
AcDbLine
 10
54.22000001400001
 20
78.07275543012291
 30
-0.0000000000000028
 11
53.76012425711605
 21
78.07275543012291
 31
-0.0000000000000029
210
0.0
220
1.0
230
0.0
  0
LINE
  5
31B
330
1F
100
AcDbEntity
  8
PV-B9
100
AcDbLine
 10
53.72000001400004
 20
40.00000000000006
 30
-0.0000000000000029
 11
53.520000014
 21
40.00000000000006
 31
-0.0000000000000029
210
0.0
220
1.0
230
0.0
  0
LINE
  5
31C
330
1F
100
AcDbEntity
  8
PV-B9
100
AcDbLine
 10
76.72000001399999
 20
80.00000000000007
 30
0.0000000000000013
 11
66.220000014
 21
80.00000000000007
 31
-0.0000000000000006
210
0.0
220
1.0
230
0.0
  0
LINE
  5
31D
330
1F
100
AcDbEntity
  8
PV-B9
100
AcDbLine
 10
55.15530869854998
 20
80.00000000000007
 30
-0.0000000000000026
 11
55.15530869854998
 21
79.10969281153801
 31
-0.0000000000000026
210
0.0
220
1.0
230
0.0
  0
LINE
  5
31E
330
1F
100
AcDbEntity
  8
PV-B9
100
AcDbLine
 10
66.220000014
 20
80.00000000000007
 30
-0.0000000000000006
 11
55.15530869854997
 21
80.00000000000007
 31
-0.0000000000000026
210
0.0
220
1.0
230
0.0
  0
LINE
  5
31F
330
1F
100
AcDbEntity
  8
PV-B9
100
AcDbLine
 10
66.22000001400002
 20
40.00000000000006
 30
-0.0000000000000006
 11
57.72000001400003
 21
40.00000000000006
 31
-0.0000000000000022
210
0.0
220
1.0
230
0.0
  0
LINE
  5
320
330
1F
100
AcDbEntity
  8
PV-B9
100
AcDbLine
 10
54.22000001400001
 20
79.10969281153801
 30
-0.0000000000000028
 11
54.22000001400002
 21
40.00000000000006
 31
-0.0000000000000028
210
0.0
220
1.0
230
0.0
  0
LINE
  5
321
330
1F
100
AcDbEntity
  8
PV-B9
100
AcDbLine
 10
55.15530869854997
 20
79.10969281153801
 30
-0.0000000000000026
 11
54.22000001400001
 21
79.10969281153801
 31
-0.0000000000000028
210
0.0
220
1.0
230
0.0
  0
LINE
  5
322
330
1F
100
AcDbEntity
  8
PV-B9
100
AcDbLine
 10
75.22000001400003
 20
-82.5000000000001
 30
0.000000000000001
 11
66.22000001399998
 21
-82.5000000000001
 31
-0.0000000000000006
210
0.0
220
1.0
230
0.0
  0
LINE
  5
323
330
1F
100
AcDbEntity
  8
PV-B9
100
AcDbLine
 10
66.22000001399996
 20
-80.0000000000001
 30
-0.0000000000000006
 11
76.72000001400004
 21
-80.0000000000001
 31
0.0000000000000013
210
0.0
220
1.0
230
0.0
  0
LINE
  5
324
330
1F
100
AcDbEntity
  8
PV-B9
100
AcDbLine
 10
66.22000001400009
 20
-82.5000000000001
 30
-0.0000000000000006
 11
57.22000001400004
 21
-82.5000000000001
 31
-0.0000000000000023
210
0.0
220
1.0
230
0.0
  0
LINE
  5
325
330
1F
100
AcDbEntity
  8
PV-B9
100
AcDbLine
 10
75.22000001399999
 20
82.50000000000007
 30
0.000000000000001
 11
66.22000001399993
 21
82.50000000000007
 31
-0.0000000000000006
210
0.0
220
1.0
230
0.0
  0
LINE
  5
326
330
1F
100
AcDbEntity
  8
PV-B9
100
AcDbLine
 10
66.22000001399992
 20
80.00000000000007
 30
-0.0000000000000006
 11
76.72000001399999
 21
80.00000000000007
 31
0.0000000000000013
210
0.0
220
1.0
230
0.0
  0
LINE
  5
327
330
1F
100
AcDbEntity
  8
PV-B9
100
AcDbLine
 10
66.22000001400007
 20
82.50000000000007
 30
-0.0000000000000006
 11
57.22000001400001
 21
82.50000000000007
 31
-0.0000000000000023
210
0.0
220
1.0
230
0.0
  0
LINE
  5
328
330
1F
100
AcDbEntity
  8
PV-B9
100
AcDbLine
 10
52.01068798558623
 20
-40.00000000000009
 30
-0.0000000000000032
 11
52.01068798558623
 21
39.7999999999999
 31
-0.0000000000000032
210
0.0
220
1.0
230
0.0
  0
LINE
  5
329
330
1F
100
AcDbEntity
  8
PV-B9
100
AcDbLine
 10
52.01068798558623
 20
-40.00000000000009
 30
-0.0000000000000032
 11
53.72000001400004
 21
-40.00000000000009
 31
-0.0000000000000029
210
0.0
220
1.0
230
0.0
  0
LINE
  5
32A
330
1F
100
AcDbEntity
  8
PV-B9
100
AcDbLine
 10
66.81527428341543
 20
-40.00000000000009
 30
-0.0000000000000005
 11
57.72000001400004
 21
-40.00000000000009
 31
-0.0000000000000022
210
0.0
220
1.0
230
0.0
  0
LINE
  5
32B
330
1F
100
AcDbEntity
  8
PV-B9
100
AcDbLine
 10
52.01068798558623
 20
39.79999999999989
 30
-0.0000000000000032
 11
53.72000001400004
 21
39.79999999999989
 31
-0.0000000000000029
210
0.0
220
1.0
230
0.0
  0
LINE
  5
32C
330
1F
100
AcDbEntity
  8
PV-B9
100
AcDbLine
 10
66.81527428341543
 20
39.79999999999989
 30
-0.0000000000000005
 11
57.72000001400004
 21
39.79999999999989
 31
-0.0000000000000022
210
0.0
220
1.0
230
0.0
  0
LINE
  5
32D
330
1F
100
AcDbEntity
  8
PV-B9
100
AcDbLine
 10
76.72000001400004
 20
39.79999999999989
 30
0.0000000000000013
 11
66.81527428341543
 21
39.79999999999989
 31
-0.0000000000000005
210
0.0
220
1.0
230
0.0
  0
LINE
  5
32E
330
1F
100
AcDbEntity
  8
PV-B9
100
AcDbLine
 10
76.72000001400004
 20
-40.00000000000009
 30
0.0000000000000013
 11
66.81527428341543
 21
-40.00000000000009
 31
-0.0000000000000005
210
0.0
220
1.0
230
0.0
  0
LINE
  5
32F
330
1F
100
AcDbEntity
  8
PV-B9
100
AcDbLine
 10
57.72000001400005
 20
-3.6000000000001
 30
-0.0000000000000022
 11
53.72000001397593
 21
-3.6000000000001
 31
-0.0000000000000029
210
0.0
220
1.0
230
0.0
  0
LINE
  5
330
330
1F
100
AcDbEntity
  8
PV-B9
100
AcDbLine
 10
57.72000001400005
 20
3.599999999999901
 30
-0.0000000000000022
 11
53.72000001397593
 21
3.599999999999901
 31
-0.0000000000000029
210
0.0
220
1.0
230
0.0
  0
LINE
  5
331
330
1F
100
AcDbEntity
  8
PV-B9
100
AcDbLine
 10
57.72000001400003
 20
24.39999999999991
 30
-0.0000000000000022
 11
53.72000001400004
 21
24.39999999999991
 31
-0.0000000000000029
210
0.0
220
1.0
230
0.0
  0
LINE
  5
332
330
1F
100
AcDbEntity
  8
PV-B9
100
AcDbLine
 10
57.72000001400003
 20
31.5999999999999
 30
-0.0000000000000022
 11
53.72000001400004
 21
31.5999999999999
 31
-0.0000000000000029
210
0.0
220
1.0
230
0.0
  0
LINE
  5
333
330
1F
100
AcDbEntity
  8
PV-B9
100
AcDbLine
 10
57.72000001400003
 20
-31.60000000000009
 30
-0.0000000000000022
 11
53.72000001400004
 21
-31.60000000000009
 31
-0.0000000000000029
210
0.0
220
1.0
230
0.0
  0
LINE
  5
334
330
1F
100
AcDbEntity
  8
PV-B9
100
AcDbLine
 10
57.72000001400005
 20
-24.40000000000008
 30
-0.0000000000000022
 11
53.72000001400004
 21
-24.40000000000008
 31
-0.0000000000000029
210
0.0
220
1.0
230
0.0
  0
LINE
  5
335
330
1F
100
AcDbEntity
  8
PV-B9
100
AcDbLine
 10
53.72000001400004
 20
-32.69859168896769
 30
-0.0000000000000029
 11
57.72000001400003
 21
-32.69859168896769
 31
-0.0000000000000022
210
0.0
220
1.0
230
0.0
  0
LINE
  5
336
330
1F
100
AcDbEntity
  8
PV-B9
100
AcDbLine
 10
53.72000001400004
 20
39.99999999999991
 30
-0.0000000000000029
 11
57.72000001400003
 21
39.99999999999991
 31
-0.0000000000000022
210
0.0
220
1.0
230
0.0
  0
LINE
  5
337
330
1F
100
AcDbEntity
  8
PV-B9
100
AcDbLine
 10
57.72000001400003
 20
-40.00000000000008
 30
-0.0000000000000022
 11
53.72000001400004
 21
-40.00000000000008
 31
-0.0000000000000029
210
0.0
220
1.0
230
0.0
  0
LINE
  5
338
330
1F
100
AcDbEntity
  8
PV-B9
100
AcDbLine
 10
53.72000001400004
 20
-23.30140831103249
 30
-0.0000000000000029
 11
57.72000001400003
 21
-23.30140831103249
 31
-0.0000000000000022
210
0.0
220
1.0
230
0.0
  0
LINE
  5
339
330
1F
100
AcDbEntity
  8
PV-B9
100
AcDbLine
 10
53.72000001400004
 20
-4.698591688967709
 30
-0.0000000000000029
 11
57.72000001400003
 21
-4.698591688967709
 31
-0.0000000000000022
210
0.0
220
1.0
230
0.0
  0
LINE
  5
33A
330
1F
100
AcDbEntity
  8
PV-B9
100
AcDbLine
 10
53.72000001400004
 20
32.6985916889675
 30
-0.0000000000000029
 11
57.72000001400003
 21
32.6985916889675
 31
-0.0000000000000022
210
0.0
220
1.0
230
0.0
  0
LINE
  5
33B
330
1F
100
AcDbEntity
  8
PV-B9
100
AcDbLine
 10
53.72000001400004
 20
23.3014083110323
 30
-0.0000000000000029
 11
57.72000001400003
 21
23.3014083110323
 31
-0.0000000000000022
210
0.0
220
1.0
230
0.0
  0
LINE
  5
33C
330
1F
100
AcDbEntity
  8
PV-B9
100
AcDbLine
 10
53.72000001397593
 20
4.698591688967511
 30
-0.0000000000000029
 11
57.72000001400003
 21
4.698591688967511
 31
-0.0000000000000022
210
0.0
220
1.0
230
0.0
  0
LINE
  5
33D
330
1F
100
AcDbEntity
  8
PV-B9
100
AcDbLine
 10
53.72000001397593
 20
3.599999999999901
 30
-0.0000000000000029
 11
53.72000001397593
 21
-3.6000000000001
 31
-0.0000000000000029
210
0.0
220
1.0
230
0.0
  0
LINE
  5
33E
330
1F
100
AcDbEntity
  8
PV-B9
100
AcDbLine
 10
53.72000001397593
 20
-3.6000000000001
 30
-0.0000000000000029
 11
53.72000001397593
 21
-4.698591688967696
 31
-0.0000000000000029
210
0.0
220
1.0
230
0.0
  0
LINE
  5
33F
330
1F
100
AcDbEntity
  8
PV-B9
100
AcDbLine
 10
53.72000001400004
 20
-23.30140831103249
 30
-0.0000000000000029
 11
53.72000001400004
 21
-4.698591688967701
 31
-0.0000000000000029
210
0.0
220
1.0
230
0.0
  0
LINE
  5
340
330
1F
100
AcDbEntity
  8
PV-B9
100
AcDbLine
 10
53.72000001400004
 20
-24.40000000000008
 30
-0.0000000000000029
 11
53.72000001400004
 21
-23.30140831103248
 31
-0.0000000000000029
210
0.0
220
1.0
230
0.0
  0
LINE
  5
341
330
1F
100
AcDbEntity
  8
PV-B9
100
AcDbLine
 10
53.72000001400004
 20
-24.40000000000008
 30
-0.0000000000000029
 11
53.72000001400004
 21
-31.60000000000009
 31
-0.0000000000000029
210
0.0
220
1.0
230
0.0
  0
LINE
  5
342
330
1F
100
AcDbEntity
  8
PV-B9
100
AcDbLine
 10
53.72000001400004
 20
-31.60000000000009
 30
-0.0000000000000029
 11
53.72000001400004
 21
-32.69859168896769
 31
-0.0000000000000029
210
0.0
220
1.0
230
0.0
  0
LINE
  5
343
330
1F
100
AcDbEntity
  8
PV-B9
100
AcDbLine
 10
53.72000001400004
 20
-37.00000000000008
 30
-0.0000000000000029
 11
53.72000001400004
 21
-32.69859168896769
 31
-0.0000000000000029
210
0.0
220
1.0
230
0.0
  0
LINE
  5
344
330
1F
100
AcDbEntity
  8
PV-B9
100
AcDbLine
 10
53.72000001400004
 20
-40.00000000000008
 30
-0.0000000000000029
 11
53.72000001400004
 21
-37.00000000000003
 31
-0.0000000000000029
210
0.0
220
1.0
230
0.0
  0
LINE
  5
345
330
1F
100
AcDbEntity
  8
PV-B9
100
AcDbLine
 10
53.72000001400004
 20
36.99999999999991
 30
-0.0000000000000029
 11
53.72000001400004
 21
39.99999999999991
 31
-0.0000000000000029
210
0.0
220
1.0
230
0.0
  0
LINE
  5
346
330
1F
100
AcDbEntity
  8
PV-B9
100
AcDbLine
 10
53.72000001400004
 20
32.69859168896752
 30
-0.0000000000000029
 11
53.72000001400004
 21
36.99999999999991
 31
-0.0000000000000029
210
0.0
220
1.0
230
0.0
  0
LINE
  5
347
330
1F
100
AcDbEntity
  8
PV-B9
100
AcDbLine
 10
53.72000001400004
 20
31.5999999999999
 30
-0.0000000000000029
 11
53.72000001400004
 21
32.69859168896751
 31
-0.0000000000000029
210
0.0
220
1.0
230
0.0
  0
LINE
  5
348
330
1F
100
AcDbEntity
  8
PV-B9
100
AcDbLine
 10
53.72000001400004
 20
24.39999999999991
 30
-0.0000000000000029
 11
53.72000001400004
 21
31.5999999999999
 31
-0.0000000000000029
210
0.0
220
1.0
230
0.0
  0
LINE
  5
349
330
1F
100
AcDbEntity
  8
PV-B9
100
AcDbLine
 10
53.72000001400004
 20
24.39999999999991
 30
-0.0000000000000029
 11
53.72000001400004
 21
23.3014083110323
 31
-0.0000000000000029
210
0.0
220
1.0
230
0.0
  0
LINE
  5
34A
330
1F
100
AcDbEntity
  8
PV-B9
100
AcDbLine
 10
53.72000001400004
 20
4.698591688967496
 30
-0.0000000000000029
 11
53.72000001400004
 21
23.3014083110323
 31
-0.0000000000000029
210
0.0
220
1.0
230
0.0
  0
LINE
  5
34B
330
1F
100
AcDbEntity
  8
PV-B9
100
AcDbLine
 10
53.72000001397593
 20
3.599999999999901
 30
-0.0000000000000029
 11
53.72000001397593
 21
4.698591688967496
 31
-0.0000000000000029
210
0.0
220
1.0
230
0.0
  0
LINE
  5
34C
330
1F
100
AcDbEntity
  8
PV-B9
100
AcDbLine
 10
57.72000001400005
 20
23.3014083110323
 30
-0.0000000000000022
 11
57.72000001400005
 21
24.3999999999999
 31
-0.0000000000000022
210
0.0
220
1.0
230
0.0
  0
LINE
  5
34D
330
1F
100
AcDbEntity
  8
PV-B9
100
AcDbLine
 10
57.72000001400003
 20
31.5999999999999
 30
-0.0000000000000022
 11
57.72000001400003
 21
24.39999999999991
 31
-0.0000000000000022
210
0.0
220
1.0
230
0.0
  0
LINE
  5
34E
330
1F
100
AcDbEntity
  8
PV-B9
100
AcDbLine
 10
57.72000001400004
 20
32.6985916889675
 30
-0.0000000000000022
 11
57.72000001400004
 21
31.5999999999999
 31
-0.0000000000000022
210
0.0
220
1.0
230
0.0
  0
LINE
  5
34F
330
1F
100
AcDbEntity
  8
PV-B9
100
AcDbLine
 10
57.72000001400003
 20
32.6985916889675
 30
-0.0000000000000022
 11
57.72000001400003
 21
36.99999999999991
 31
-0.0000000000000022
210
0.0
220
1.0
230
0.0
  0
LINE
  5
350
330
1F
100
AcDbEntity
  8
PV-B9
100
AcDbLine
 10
57.72000001400003
 20
39.99999999999991
 30
-0.0000000000000022
 11
57.72000001400003
 21
36.99999999999991
 31
-0.0000000000000022
210
0.0
220
1.0
230
0.0
  0
LINE
  5
351
330
1F
100
AcDbEntity
  8
PV-B9
100
AcDbLine
 10
57.72000001400003
 20
-37.00000000000008
 30
-0.0000000000000022
 11
57.72000001400003
 21
-40.00000000000008
 31
-0.0000000000000022
210
0.0
220
1.0
230
0.0
  0
LINE
  5
352
330
1F
100
AcDbEntity
  8
PV-B9
100
AcDbLine
 10
57.72000001400003
 20
-37.00000000000008
 30
-0.0000000000000022
 11
57.72000001400003
 21
-32.69859168896769
 31
-0.0000000000000022
210
0.0
220
1.0
230
0.0
  0
LINE
  5
353
330
1F
100
AcDbEntity
  8
PV-B9
100
AcDbLine
 10
57.72000001400003
 20
-32.69859168896768
 30
-0.0000000000000022
 11
57.72000001400003
 21
-31.60000000000007
 31
-0.0000000000000022
210
0.0
220
1.0
230
0.0
  0
LINE
  5
354
330
1F
100
AcDbEntity
  8
PV-B9
100
AcDbLine
 10
57.72000001400003
 20
-31.60000000000009
 30
-0.0000000000000022
 11
57.72000001400003
 21
-24.40000000000008
 31
-0.0000000000000022
210
0.0
220
1.0
230
0.0
  0
LINE
  5
355
330
1F
100
AcDbEntity
  8
PV-B9
100
AcDbLine
 10
57.72000001400003
 20
-23.30140831103249
 30
-0.0000000000000022
 11
57.72000001400003
 21
-24.40000000000009
 31
-0.0000000000000022
210
0.0
220
1.0
230
0.0
  0
LINE
  5
356
330
1F
100
AcDbEntity
  8
PV-B9
100
AcDbLine
 10
57.72000001400003
 20
-23.30140831103249
 30
-0.0000000000000022
 11
57.72000001400003
 21
-4.698591688967709
 31
-0.0000000000000022
210
0.0
220
1.0
230
0.0
  0
LINE
  5
357
330
1F
100
AcDbEntity
  8
PV-B9
100
AcDbLine
 10
57.72000001400005
 20
-4.698591688967706
 30
-0.0000000000000022
 11
57.72000001400005
 21
-3.60000000000011
 31
-0.0000000000000022
210
0.0
220
1.0
230
0.0
  0
LINE
  5
358
330
1F
100
AcDbEntity
  8
PV-B9
100
AcDbLine
 10
57.72000001400003
 20
-3.6000000000001
 30
-0.0000000000000022
 11
57.72000001400003
 21
3.599999999999901
 31
-0.0000000000000022
210
0.0
220
1.0
230
0.0
  0
LINE
  5
359
330
1F
100
AcDbEntity
  8
PV-B9
100
AcDbLine
 10
57.72000001400004
 20
4.698591688967497
 30
-0.0000000000000022
 11
57.72000001400004
 21
3.599999999999901
 31
-0.0000000000000022
210
0.0
220
1.0
230
0.0
  0
LINE
  5
35A
330
1F
100
AcDbEntity
  8
PV-B9
100
AcDbLine
 10
57.72000001400003
 20
4.698591688967511
 30
-0.0000000000000022
 11
57.72000001400003
 21
23.30140831103229
 31
-0.0000000000000022
210
0.0
220
1.0
230
0.0
  0
LINE
  5
35B
330
1F
100
AcDbEntity
  8
PV-B9
100
AcDbLine
 10
76.72000001400004
 20
-40.00000000000009
 30
0.0000000000000013
 11
76.72000001400004
 21
39.7999999999999
 31
0.0000000000000013
210
0.0
220
1.0
230
0.0
  0
LINE
  5
35C
330
1F
100
AcDbEntity
  8
PV-B9
100
AcDbLine
 10
55.72000001400001
 20
80.00000000000007
 30
-0.0000000000000025
 11
55.72000001400001
 21
81.00000000000006
 31
-0.0000000000000025
210
0.0
220
1.0
230
0.0
  0
LINE
  5
35D
330
1F
100
AcDbEntity
  8
PV-B9
100
AcDbLine
 10
76.72000001399999
 20
80.00000000000007
 30
0.0000000000000013
 11
76.72000001399999
 21
81.00000000000006
 31
0.0000000000000013
210
0.0
220
1.0
230
0.0
  0
LINE
  5
35E
330
1F
100
AcDbEntity
  8
PV-B9
100
AcDbLine
 10
55.72000001400003
 20
-81.0000000000001
 30
-0.0000000000000025
 11
55.72000001400003
 21
-80.0000000000001
 31
-0.0000000000000025
210
0.0
220
1.0
230
0.0
  0
LINE
  5
35F
330
1F
100
AcDbEntity
  8
PV-B9
100
AcDbLine
 10
76.72000001400004
 20
-81.0000000000001
 30
0.0000000000000013
 11
76.72000001400004
 21
-80.0000000000001
 31
0.0000000000000013
210
0.0
220
1.0
230
0.0
  0
LINE
  5
360
330
1F
100
AcDbEntity
  8
PV-B9
100
AcDbLine
 10
76.720000014
 20
40.00000000000006
 30
0.0000000000000013
 11
76.72000001399999
 21
80.00000000000007
 31
0.0000000000000013
210
0.0
220
1.0
230
0.0
  0
LINE
  5
361
330
1F
100
AcDbEntity
  8
PV-B9
100
AcDbLine
 10
76.72000001400004
 20
-80.0000000000001
 30
0.0000000000000013
 11
76.72000001400002
 21
-40.00000000000009
 31
0.0000000000000013
210
0.0
220
1.0
230
0.0
  0
LINE
  5
362
330
1F
100
AcDbEntity
  8
PV-B9
100
AcDbLine
 10
34.72000001400001
 20
-79.88749217771921
 30
-0.0000000000000064
 11
38.72000001400001
 21
-79.88749217771921
 31
-0.0000000000000057
210
0.0
220
1.0
230
0.0
  0
LINE
  5
363
330
1F
100
AcDbEntity
  8
PV-B9
100
AcDbLine
 10
38.72000001400001
 20
79.88749217771898
 30
-0.0000000000000057
 11
34.72000001400001
 21
79.88749217771898
 31
-0.0000000000000064
210
0.0
220
1.0
230
0.0
  0
ARC
  5
364
330
1F
100
AcDbEntity
  8
PV-B9
100
AcDbCircle
 10
57.22000001400001
 20
81.00000000000006
 30
-0.0000000000000023
 40
1.5
100
AcDbArc
 50
89.99999999999756
 51
180.0
  0
ARC
  5
365
330
1F
100
AcDbEntity
  8
PV-B9
100
AcDbCircle
 10
75.22000001400001
 20
81.00000000000006
 30
0.000000000000001
 40
1.5
100
AcDbArc
 50
0.0
 51
90.00000000000161
  0
ARC
  5
366
330
1F
100
AcDbEntity
  8
PV-B9
100
AcDbCircle
 10
57.22000001400004
 20
-81.0000000000001
 30
-0.0000000000000023
 40
1.5
100
AcDbArc
 50
180.0000000000002
 51
270.0000000000008
  0
ARC
  5
367
330
1F
100
AcDbEntity
  8
PV-B9
100
AcDbCircle
 10
75.22000001400003
 20
-81.0000000000001
 30
0.000000000000001
 40
1.5
100
AcDbArc
 50
269.9999999999975
 51
359.9999999999997
  0
LINE
  5
369
330
1F
100
AcDbEntity
  8
PV-B9
100
AcDbLine
 10
-2.700000004999992
 20
-92.42000002400004
 30
0.0
 11
-2.700000004999992
 21
-96.42000002400004
 31
0.0
  0
LINE
  5
36A
330
1F
100
AcDbEntity
  8
PV-B9
100
AcDbLine
 10
-16.20000000499998
 20
-96.42000002400004
 30
0.0
 11
-16.20000000499998
 21
-92.42000002400004
 31
0.0
  0
ARC
  5
36B
330
1F
100
AcDbEntity
  8
PV-B9
100
AcDbCircle
 10
5.799999995000021
 20
-96.42000002400004
 30
0.0
 40
4.0
100
AcDbArc
 50
0.0
 51
90.00000000000081
  0
ARC
  5
36C
330
1F
100
AcDbEntity
  8
PV-B9
100
AcDbCircle
 10
4.799999995000021
 20
-97.42000002400004
 30
0.0
 40
1.0
100
AcDbArc
 50
0.0
 51
90.00000000000081
  0
LINE
  5
36D
330
1F
100
AcDbEntity
  8
PV-B9
100
AcDbLine
 10
5.799999995000021
 20
-97.42000002400004
 30
0.0
 11
5.799999995000021
 21
-99.92000002400004
 31
0.0
  0
LINE
  5
36E
330
1F
100
AcDbEntity
  8
PV-B9
100
AcDbLine
 10
9.799999995000021
 20
-96.42000002400004
 30
0.0
 11
9.799999995000021
 21
-110.878118258025
 31
0.0
  0
LINE
  5
36F
330
1F
100
AcDbEntity
  8
PV-B9
100
AcDbLine
 10
5.799999995000021
 20
-92.42000002400004
 30
0.0
 11
0.2999999950000216
 21
-92.42000002400004
 31
0.0
  0
LINE
  5
370
330
1F
100
AcDbEntity
  8
PV-B9
100
AcDbLine
 10
0.2999999950000216
 20
-92.42000002400004
 30
0.0
 11
-2.700000004999978
 21
-92.42000002400004
 31
0.0
  0
LINE
  5
371
330
1F
100
AcDbEntity
  8
PV-B9
100
AcDbLine
 10
-4.800000004999986
 20
-92.42000002400004
 30
0.0
 11
-2.700000004999992
 21
-92.42000002400004
 31
0.0
  0
LINE
  5
372
330
1F
100
AcDbEntity
  8
PV-B9
100
AcDbLine
 10
-16.20000000499998
 20
-92.42000002400004
 30
0.0
 11
-4.800000004999986
 21
-92.42000002400004
 31
0.0
  0
LINE
  5
373
330
1F
100
AcDbEntity
  8
PV-B9
100
AcDbLine
 10
3.799999995000028
 20
-96.42000002400004
 30
0.0
 11
4.799999995000021
 21
-96.42000002400004
 31
0.0
  0
LINE
  5
374
330
1F
100
AcDbEntity
  8
PV-B9
100
AcDbLine
 10
4.799999995000021
 20
-111.220000024
 30
0.0
 11
5.799999995000028
 21
-111.220000024
 31
0.0
  0
LINE
  5
375
330
1F
100
AcDbEntity
  8
PV-B9
100
AcDbLine
 10
-16.20000000499998
 20
-98.92000002400004
 30
0.0
 11
-16.20000000499998
 21
-96.42000002400004
 31
0.0
  0
LINE
  5
376
330
1F
100
AcDbEntity
  8
PV-B9
100
AcDbLine
 10
3.799999995000021
 20
-99.92000002400004
 30
0.0
 11
3.799999995000021
 21
-110.220000024
 31
0.0
  0
LINE
  5
377
330
1F
100
AcDbEntity
  8
PV-B9
100
AcDbLine
 10
-4.200000004999978
 20
-98.92000002400004
 30
0.0
 11
-16.20000000499997
 21
-98.92000002400004
 31
0.0
  0
LINE
  5
378
330
1F
100
AcDbEntity
  8
PV-B9
100
AcDbLine
 10
-0.1000000049999699
 20
-98.92000002400004
 30
0.0
 11
-4.200000004999978
 21
-98.92000002400004
 31
0.0
  0
LINE
  5
379
330
1F
100
AcDbEntity
  8
PV-B9
100
AcDbLine
 10
-0.1000000049999699
 20
-98.92000002400004
 30
0.0
 11
2.799999995000028
 21
-98.92000002400004
 31
0.0
  0
LINE
  5
37A
330
1F
100
AcDbEntity
  8
PV-B9
100
AcDbLine
 10
5.799999995000021
 20
-111.220000024
 30
0.0
 11
5.799999995000021
 21
-99.92000002400004
 31
0.0
  0
LINE
  5
37B
330
1F
100
AcDbEntity
  8
PV-B9
100
AcDbLine
 10
11.89999999500002
 20
-109.220000024
 30
0.0
 11
11.89999999500002
 21
-111.220000024
 31
0.0
  0
LINE
  5
37C
330
1F
100
AcDbEntity
  8
PV-B9
100
AcDbLine
 10
11.2707712045489
 20
-111.220000024
 30
0.0
 11
11.89999999500002
 21
-111.220000024
 31
0.0
  0
LINE
  5
37D
330
1F
100
AcDbEntity
  8
PV-B9
100
AcDbLine
 10
9.799999995000021
 20
-109.220000024
 30
0.0
 11
11.89999999500002
 21
-109.220000024
 31
0.0
  0
SPLINE
  5
37E
330
1F
100
AcDbEntity
  8
PV-B9
100
AcDbSpline
210
0.0
220
0.0
230
1.0
 70
     8
 71
     3
 72
    14
 73
    10
 74
     0
 42
0.0000000001
 43
0.0000000001
 40
0.0
 40
0.0
 40
0.0
 40
0.0
 40
0.0003986241037927
 40
0.0003986241037927
 40
0.0007972482075854
 40
0.0007972482075854
 40
0.0011958723113781
 40
0.0011958723113781
 40
0.0015944964151707
 40
0.0015944964151707
 40
0.0015944964151707
 40
0.0015944964151707
 10
2.799999995000028
 20
-98.92000002400004
 30
0.0
 10
2.930801232985402
 20
-98.92000002400004
 30
0.0
 10
3.058277132052708
 20
-98.94527479557016
 30
0.0
 10
3.298220936869142
 20
-99.04331750247649
 30
0.0
 10
3.408049636536198
 20
-99.11550399229117
 30
0.0
 10
3.593711706335646
 20
-99.29793897322102
 30
0.0
 10
3.66948870792747
 20
-99.40875662604792
 30
0.0
 10
3.772277430545749
 20
-99.65156563315844
 30
0.0
 10
3.799999995000028
 20
-99.78505094435613
 30
0.0
 10
3.799999995000021
 20
-99.92000002400004
 30
0.0
  0
SPLINE
  5
37F
330
1F
100
AcDbEntity
  8
PV-B9
100
AcDbSpline
210
0.0
220
0.0
230
1.0
 70
     8
 71
     3
 72
    14
 73
    10
 74
     0
 42
0.0000000001
 43
0.0000000001
 40
0.0
 40
0.0
 40
0.0
 40
0.0
 40
0.0009499640180249
 40
0.0009499640180249
 40
0.0018999280360499
 40
0.0018999280360499
 40
0.0028498920540748
 40
0.0028498920540748
 40
0.0037998560720998
 40
0.0037998560720998
 40
0.0037998560720998
 40
0.0037998560720998
 10
5.799999995000021
 20
-99.92000002400004
 30
0.0
 10
5.799999995000028
 20
-99.59836923375348
 30
0.0
 10
5.749313282591039
 20
-99.28621757124018
 30
0.0
 10
5.55218229909618
 20
-98.68483945516409
 30
0.0
 10
5.410203373772752
 20
-98.40955783360076
 30
0.0
 10
5.049416991309371
 20
-97.91133866234414
 30
0.0
 10
4.837043742361437
 20
-97.69681062167983
 30
0.0
 10
4.350483853093152
 20
-97.33386040034361
 30
0.0
 10
4.086294047875817
 20
-97.19279313235464
 30
0.0
 10
3.799999995000028
 20
-97.09157289925386
 30
0.0
  0
SPLINE
  5
380
330
1F
100
AcDbEntity
  8
PV-B9
100
AcDbSpline
210
0.0
220
0.0
230
1.0
 70
     8
 71
     3
 72
    14
 73
    10
 74
     0
 42
0.0000000001
 43
0.0000000001
 40
0.0
 40
0.0
 40
0.0
 40
0.0
 40
0.0004059857219147
 40
0.0004059857219147
 40
0.0008119714438295
 40
0.0008119714438295
 40
0.0012179571657442
 40
0.0012179571657442
 40
0.001623942887659
 40
0.001623942887659
 40
0.001623942887659
 40
0.001623942887659
 10
3.799999995000021
 20
-110.220000024
 30
0.0
 10
3.799999995000021
 20
-110.3573152449863
 30
0.0
 10
3.82842053888568
 20
-110.492263178401
 30
0.0
 10
3.934899286877701
 20
-110.7393213403294
 30
0.0
 10
4.013318981175828
 20
-110.851058083787
 30
0.0
 10
4.20204734135391
 20
-111.0321292725382
 30
0.0
 10
4.31362550702093
 20
-111.1029258896854
 30
0.0
 10
4.549687849893999
 20
-111.1964538410675
 30
0.0
 10
4.674893468343448
 20
-111.220000024
 30
0.0
 10
4.799999995000021
 20
-111.220000024
 30
0.0
  0
LINE
  5
381
330
1F
100
AcDbEntity
  8
PV-B9
100
AcDbLine
 10
3.799999995000028
 20
-96.42000002400004
 30
0.0
 11
3.799999995000028
 21
-97.09157289925386
 31
0.0
  0
LINE
  5
382
330
1F
100
AcDbEntity
  8
PV-B9
100
AcDbLine
 10
-4.200000004999978
 20
-96.42000002400004
 30
0.0
 11
-0.1000000049999699
 21
-96.42000002400004
 31
0.0
  0
LINE
  5
383
330
1F
100
AcDbEntity
  8
PV-B9
100
AcDbLine
 10
-16.20000000499997
 20
-96.42000002400004
 30
0.0
 11
-4.200000004999978
 21
-96.42000002400004
 31
0.0
  0
LINE
  5
384
330
1F
100
AcDbEntity
  8
PV-B9
100
AcDbLine
 10
-0.1000000049999699
 20
-96.42000002400004
 30
0.0
 11
3.799999995000028
 21
-96.42000002400004
 31
0.0
  0
SPLINE
  5
385
330
1F
100
AcDbEntity
  8
PV-B9
100
AcDbSpline
210
0.0
220
0.0
230
1.0
 70
     8
 71
     3
 72
    14
 73
    10
 74
     0
 42
0.0000000001
 43
0.0000000001
 40
0.0
 40
0.0
 40
0.0
 40
0.0
 40
0.0003906076277808
 40
0.0003906076277808
 40
0.0007812152555616
 40
0.0007812152555616
 40
0.0011718228833424
 40
0.0011718228833424
 40
0.0015624305111232
 40
0.0015624305111232
 40
0.0015624305111232
 40
0.0015624305111232
 10
11.299999995
 20
-111.4601242671161
 30
0.0
 10
11.299999995
 20
-111.3280470676569
 30
0.0
 10
11.27401083650614
 20
-111.1984471358679
 30
0.0
 10
11.17370040584228
 20
-110.9563191138238
 30
0.0
 10
11.09946736144095
 20
-110.8454195408652
 30
0.0
 10
10.91506384635862
 20
-110.6609331577868
 30
0.0
 10
10.80357745732408
 20
-110.5864183642534
 30
0.0
 10
10.56306657546185
 20
-110.4866006467031
 30
0.0
 10
10.43024792449727
 20
-110.4601242671161
 30
0.0
 10
10.29999999500002
 20
-110.4601242671161
 30
0.0
  0
LINE
  5
386
330
1F
100
AcDbEntity
  8
PV-B9
100
AcDbLine
 10
11.299999995
 20
-111.4601242671161
 30
0.0
 11
11.299999995
 21
-113.2483670531727
 31
0.0
  0
LINE
  5
387
330
1F
100
AcDbEntity
  8
PV-B9
100
AcDbLine
 10
10.29999999500002
 20
-110.4601242671161
 30
0.0
 11
9.799999995000021
 21
-110.4601242671161
 31
0.0
  0
LINE
  5
388
330
1F
100
AcDbEntity
  8
PV-B9
100
AcDbLine
 10
8.875845860166727
 20
-110.4601242671161
 30
0.0
 11
5.799999995000021
 21
-110.4601242671161
 31
0.0
  0
SPLINE
  5
389
330
1F
100
AcDbEntity
  8
PV-B9
100
AcDbSpline
210
0.0
220
0.0
230
1.0
 70
    24
 71
     3
 72
     8
 73
     4
 74
     0
 42
0.0000000001
 43
0.0000000001
 40
0.0014897492227514
 40
0.0014897492227514
 40
0.0014897492227514
 40
0.0014897492227514
 40
0.0017303328857306
 40
0.0017303328857306
 40
0.0017303328857306
 40
0.0017303328857306
 10
5.799999995000021
 20
-111.220000024
 30
0.0
 10
5.799999995000021
 20
-111.2975036303819
 30
0.0
 10
5.799999995000021
 20
-111.3782403214288
 30
0.0
 10
5.799999995000021
 20
-111.4601242671161
 30
0.0
  0
LINE
  5
38A
330
1F
100
AcDbEntity
  8
PV-B9
100
AcDbLine
 10
5.799999995000021
 20
-111.920000024
 30
0.0
 11
5.799999995000021
 21
-111.4601242671161
 31
0.0
  0
LINE
  5
38B
330
1F
100
AcDbEntity
  8
PV-B9
100
AcDbLine
 10
14.84952753555084
 20
-113.434389909077
 30
0.0
 11
3.799999995000007
 21
-112.85530870855
 31
0.0
  0
LINE
  5
38C
330
1F
100
AcDbEntity
  8
PV-B9
100
AcDbLine
 10
3.799999995000007
 20
-111.920000024
 30
0.0
 11
5.799999995000021
 21
-111.920000024
 31
0.0
  0
LINE
  5
38D
330
1F
100
AcDbEntity
  8
PV-B9
100
AcDbLine
 10
3.799999995000007
 20
-123.920000024
 30
0.0
 11
3.799999995000007
 21
-112.85530870855
 31
0.0
  0
LINE
  5
38E
330
1F
100
AcDbEntity
  8
PV-B9
100
AcDbLine
 10
3.799999995000007
 20
-112.85530870855
 30
0.0
 11
3.799999995000007
 21
-111.920000024
 31
0.0
  0
LINE
  5
38F
330
1F
100
AcDbEntity
  8
PV-B9
100
AcDbLine
 10
14.299999995
 20
-124.420000024
 30
0.0
 11
14.299999995
 21
-123.9206494315932
 31
0.0
  0
LINE
  5
390
330
1F
100
AcDbEntity
  8
PV-B9
100
AcDbLine
 10
14.299999995
 20
-123.9193506164068
 30
0.0
 11
14.299999995
 21
-123.420000024
 31
0.0
  0
LINE
  5
391
330
1F
100
AcDbEntity
  8
PV-B9
100
AcDbLine
 10
12.299999995
 20
-124.420000024
 30
0.0
 11
13.799999995
 21
-124.420000024
 31
0.0
  0
LINE
  5
392
330
1F
100
AcDbEntity
  8
PV-B9
100
AcDbLine
 10
14.799999995
 20
-124.420000024
 30
0.0
 11
16.299999995
 21
-124.420000024
 31
0.0
  0
LINE
  5
393
330
1F
100
AcDbEntity
  8
PV-B9
100
AcDbLine
 10
16.299999995
 20
-124.420000024
 30
0.0
 11
16.299999995
 21
-123.420000024
 31
0.0
  0
LINE
  5
394
330
1F
100
AcDbEntity
  8
PV-B9
100
AcDbLine
 10
14.799999995
 20
-123.420000024
 30
0.0
 11
16.299999995
 21
-123.420000024
 31
0.0
  0
LINE
  5
395
330
1F
100
AcDbEntity
  8
PV-B9
100
AcDbLine
 10
12.299999995
 20
-123.420000024
 30
0.0
 11
13.799999995
 21
-123.420000024
 31
0.0
  0
LINE
  5
396
330
1F
100
AcDbEntity
  8
PV-B9
100
AcDbLine
 10
12.299999995
 20
-124.420000024
 30
0.0
 11
12.299999995
 21
-123.420000024
 31
0.0
  0
ARC
  5
397
330
1F
100
AcDbEntity
  8
PV-B9
100
AcDbCircle
 10
14.299999995
 20
-123.920000024
 30
0.0
 40
10.5
100
AcDbArc
 50
179.9999999999991
 51
0.0
  0
LINE
  5
398
330
1F
100
AcDbEntity
  8
PV-B9
100
AcDbLine
 10
14.799999995
 20
-121.920000024
 30
0.0
 11
13.799999995
 21
-121.920000024
 31
0.0
  0
LINE
  5
399
330
1F
100
AcDbEntity
  8
PV-B9
100
AcDbLine
 10
13.799999995
 20
-125.920000024
 30
0.0
 11
14.799999995
 21
-125.920000024
 31
0.0
  0
LINE
  5
39A
330
1F
100
AcDbEntity
  8
PV-B9
100
AcDbLine
 10
13.799999995
 20
-123.420000024
 30
0.0
 11
13.799999995
 21
-124.420000024
 31
0.0
  0
LINE
  5
39B
330
1F
100
AcDbEntity
  8
PV-B9
100
AcDbLine
 10
13.799999995
 20
-123.420000024
 30
0.0
 11
13.799999995
 21
-121.920000024
 31
0.0
  0
LINE
  5
39C
330
1F
100
AcDbEntity
  8
PV-B9
100
AcDbLine
 10
13.799999995
 20
-125.920000024
 30
0.0
 11
13.799999995
 21
-124.420000024
 31
0.0
  0
LINE
  5
39D
330
1F
100
AcDbEntity
  8
PV-B9
100
AcDbLine
 10
13.80064940259321
 20
-123.420000024
 30
0.0
 11
14.299999995
 21
-123.9193506164068
 31
0.0
  0
LINE
  5
39E
330
1F
100
AcDbEntity
  8
PV-B9
100
AcDbLine
 10
14.79935058740681
 20
-123.420000024
 30
0.0
 11
14.299999995
 21
-123.9193506164068
 31
0.0
  0
LINE
  5
39F
330
1F
100
AcDbEntity
  8
PV-B9
100
AcDbLine
 10
13.80064940259321
 20
-123.420000024
 30
0.0
 11
14.79935058740682
 21
-123.420000024
 31
0.0
  0
LINE
  5
3A0
330
1F
100
AcDbEntity
  8
PV-B9
100
AcDbLine
 10
13.799999995
 20
-123.920000024
 30
0.0
 11
14.799999995
 21
-123.920000024
 31
0.0
  0
LINE
  5
3A1
330
1F
100
AcDbEntity
  8
PV-B9
100
AcDbLine
 10
14.79935058740682
 20
-124.420000024
 30
0.0
 11
13.80064940259321
 21
-124.420000024
 31
0.0
  0
LINE
  5
3A2
330
1F
100
AcDbEntity
  8
PV-B9
100
AcDbLine
 10
14.79935058740681
 20
-124.420000024
 30
0.0
 11
14.299999995
 21
-123.9206494315932
 31
0.0
  0
LINE
  5
3A3
330
1F
100
AcDbEntity
  8
PV-B9
100
AcDbLine
 10
13.80064940259321
 20
-124.420000024
 30
0.0
 11
14.29999999500002
 21
-123.9206494315932
 31
0.0
  0
LINE
  5
3A4
330
1F
100
AcDbEntity
  8
PV-B9
100
AcDbLine
 10
14.799999995
 20
-124.420000024
 30
0.0
 11
14.799999995
 21
-125.920000024
 31
0.0
  0
LINE
  5
3A5
330
1F
100
AcDbEntity
  8
PV-B9
100
AcDbLine
 10
14.799999995
 20
-121.920000024
 30
0.0
 11
14.799999995
 21
-123.420000024
 31
0.0
  0
LINE
  5
3A6
330
1F
100
AcDbEntity
  8
PV-B9
100
AcDbLine
 10
14.799999995
 20
-124.420000024
 30
0.0
 11
14.799999995
 21
-123.420000024
 31
0.0
  0
ARC
  5
3A7
330
1F
100
AcDbEntity
  8
PV-B9
100
AcDbCircle
 10
14.299999995
 20
-123.920000024
 30
0.0
 40
10.5
100
AcDbArc
 50
0.0
 51
180.0
  0
LINE
  5
3A8
330
1F
100
AcDbEntity
  8
PV-B9
100
AcDbLine
 10
0.2999999950000074
 20
-115.420000024
 30
0.0
 11
3.300420352916198
 21
-115.420000024
 31
0.0
  0
LINE
  5
3A9
330
1F
100
AcDbEntity
  8
PV-B9
100
AcDbLine
 10
0.2999999950000074
 20
-111.420000024
 30
0.0
 11
0.2999999950000074
 21
-115.420000024
 31
0.0
  0
LINE
  5
3AA
330
1F
100
AcDbEntity
  8
PV-B9
100
AcDbLine
 10
3.299999995
 20
-111.420000024
 30
0.0
 11
0.2999999950000074
 21
-111.420000024
 31
0.0
  0
LINE
  5
3AB
330
1F
100
AcDbEntity
  8
PV-B9
100
AcDbLine
 10
3.299999995
 20
-109.7106879955862
 30
0.0
 11
3.299999995
 21
-111.420000024
 31
0.0
  0
LINE
  5
3AC
330
1F
100
AcDbEntity
  8
PV-B9
100
AcDbLine
 10
17.2821611143912
 20
-113.852392807884
 30
0.0
 11
11.299999995
 21
-112.0803959552829
 31
0.0
  0
LINE
  5
3AD
330
1F
100
AcDbEntity
  8
PV-B9
100
AcDbLine
 10
3.799999995000007
 20
-109.8587947430673
 30
0.0
 11
3.299999995
 21
-109.7106879955862
 31
0.0
  0
LINE
  5
3AE
330
1F
100
AcDbEntity
  8
PV-B9
100
AcDbLine
 10
3.816887454147831
 20
-124.5152742934154
 30
0.0
 11
3.300420352916198
 21
-115.4200000240001
 31
0.0
  0
LINE
  5
3AF
330
1F
100
AcDbEntity
  8
PV-B9
100
AcDbLine
 10
0.1999999949999918
 20
-115.420000024
 30
0.0
 11
0.1999999949999918
 21
-111.420000024
 31
0.0
  0
LINE
  5
3B0
330
1F
100
AcDbEntity
  8
PV-B9
100
AcDbLine
 10
-24.800000005
 20
-115.420000024
 30
0.0
 11
-24.800000005
 21
-111.420000024
 31
0.0
  0
LINE
  5
3B1
330
1F
100
AcDbEntity
  8
PV-B9
100
AcDbLine
 10
0.1999999949999776
 20
-111.420000024
 30
0.0
 11
0.2999999950000074
 21
-111.420000024
 31
0.0
  0
LINE
  5
3B2
330
1F
100
AcDbEntity
  8
PV-B9
100
AcDbLine
 10
0.1999999949999776
 20
-111.420000024
 30
0.0
 11
-21.80000000500001
 21
-111.420000024
 31
0.0
  0
LINE
  5
3B3
330
1F
100
AcDbEntity
  8
PV-B9
100
AcDbLine
 10
-24.800000005
 20
-111.420000024
 30
0.0
 11
-21.80000000500001
 21
-111.420000024
 31
0.0
  0
LINE
  5
3B4
330
1F
100
AcDbEntity
  8
PV-B9
100
AcDbLine
 10
-21.80000000500001
 20
-115.420000024
 30
0.0
 11
-24.800000005
 21
-115.420000024
 31
0.0
  0
LINE
  5
3B5
330
1F
100
AcDbEntity
  8
PV-B9
100
AcDbLine
 10
-21.80000000500001
 20
-115.420000024
 30
0.0
 11
0.1999999949999918
 21
-115.420000024
 31
0.0
  0
LINE
  5
3B6
330
1F
100
AcDbEntity
  8
PV-B9
100
AcDbLine
 10
0.2999999950000074
 20
-115.420000024
 30
0.0
 11
0.1999999949999776
 21
-115.420000024
 31
0.0
  0
ENDSEC
  0
SECTION
  2
OBJECTS
  0
DICTIONARY
  5
C
330
0
100
AcDbDictionary
  3
ACAD_GROUP
350
D
  3
ACAD_LAYOUT
350
1A
  3
ACAD_MLINESTYLE
350
17
  3
ACAD_PLOTSETTINGS
350
19
  3
ACAD_PLOTSTYLENAME
350
210
  3
ACDBHEADERROUNDTRIPXREC
350
3B8
1001
ACAD
1000
TREAT_AS_HARD
1070
     0
  0
DICTIONARY
  5
20A
330
1F
100
AcDbDictionary
  3
ACAD_LAYOUTSELFREF
350
3D9
  0
DICTIONARY
  5
208
330
1B
100
AcDbDictionary
  3
ACAD_LAYOUTSELFREF
350
3D8
  0
DICTIONARY
  5
D
102
{ACAD_REACTORS
330
C
102
}
330
C
100
AcDbDictionary
1001
ACAD
1000
TREAT_AS_HARD
1070
     0
  0
DICTIONARY
  5
1A
102
{ACAD_REACTORS
330
C
102
}
330
C
100
AcDbDictionary
1001
ACAD
1000
TREAT_AS_HARD
1070
     0
  0
DICTIONARY
  5
17
102
{ACAD_REACTORS
330
C
102
}
330
C
100
AcDbDictionary
  3
STANDARD
350
18
1001
ACAD
1000
TREAT_AS_HARD
1070
     0
  0
DICTIONARY
  5
19
102
{ACAD_REACTORS
330
C
102
}
330
C
100
AcDbDictionary
1001
ACAD
1000
TREAT_AS_HARD
1070
     0
  0
ACDBDICTIONARYWDFLT
  5
210
102
{ACAD_REACTORS
330
C
102
}
330
C
100
AcDbDictionary
281
     1
  3
Normal
350
211
100
AcDbDictionaryWithDefault
340
211
  0
DICTIONARY
  5
3B8
102
{ACAD_REACTORS
330
C
102
}
330
C
100
AcDbDictionary
  3
TSTACKALIGN
350
3B9
  3
TSTACKSIZE
350
3BA
  3
HYPERLINKBASE
350
3BB
  3
STYLESHEET
350
3BC
  3
LAYOUTDICT
350
3BD
  3
PLOTSETDICT
350
3BE
  3
PLOTSTYLNAMDICT
350
3BF
  3
LWETCUNION
350
3C0
  3
INSUNITS
350
3C1
  3
CEPSNTYPE
350
3C2
  3
FINGERPRINTGUID
350
3C3
  3
VERSIONGUID
350
3C4
  3
PSVPSCALE
350
3C5
  3
PUCSORTHOREF
350
3C6
  3
PUCSORTHOVIEW
350
3C7
  3
PUCSBASE
350
3C8
  3
PUCSORGTOP
350
3C9
  3
PUCSORGBOTTOM
350
3CA
  3
PUCSORGLEFT
350
3CB
  3
PUCSORGRIGHT
350
3CC
  3
PUCSORGFRONT
350
3CD
  3
PUCSORGBACK
350
3CE
  3
UCSORTHOREF
350
3CF
  3
UCSORTHOVIEW
350
3D0
  3
UCSBASE
350
3D1
  3
UCSORGTOP
350
3D2
  3
UCSORGBOTTOM
350
3D3
  3
UCSORGLEFT
350
3D4
  3
UCSORGRIGHT
350
3D5
  3
UCSORGFRONT
350
3D6
  3
UCSORGBACK
350
3D7
  0
XRECORD
  5
3D9
102
{ACAD_REACTORS
330
20A
102
}
330
20A
100
AcDbXrecord
340
1F
  0
XRECORD
  5
3D8
102
{ACAD_REACTORS
330
208
102
}
330
208
100
AcDbXrecord
340
1B
  0
MLINESTYLE
  5
18
102
{ACAD_REACTORS
330
17
102
}
330
17
100
AcDbMlineStyle
  2
STANDARD
 70
     0
  3

 62
   256
 51
90.0
 52
90.0
 71
     2
 49
0.5
 62
   256
  6
BYLAYER
 49
-0.5
 62
   256
  6
BYLAYER
  0
ACDBPLACEHOLDER
  5
211
102
{ACAD_REACTORS
330
210
102
}
330
210
100
AcDbPlaceHolder
280
     0
  0
XRECORD
  5
3B9
102
{ACAD_REACTORS
330
3B8
102
}
330
3B8
100
AcDbXrecord
 90
        1
  0
XRECORD
  5
3BA
102
{ACAD_REACTORS
330
3B8
102
}
330
3B8
100
AcDbXrecord
 90
       70
  0
XRECORD
  5
3BB
102
{ACAD_REACTORS
330
3B8
102
}
330
3B8
100
AcDbXrecord
  1

  0
XRECORD
  5
3BC
102
{ACAD_REACTORS
330
3B8
102
}
330
3B8
100
AcDbXrecord
  1

  0
XRECORD
  5
3BD
102
{ACAD_REACTORS
330
3B8
102
}
330
3B8
100
AcDbXrecord
340
1A
  0
XRECORD
  5
3BE
102
{ACAD_REACTORS
330
3B8
102
}
330
3B8
100
AcDbXrecord
340
19
  0
XRECORD
  5
3BF
102
{ACAD_REACTORS
330
3B8
102
}
330
3B8
100
AcDbXrecord
340
210
  0
XRECORD
  5
3C0
102
{ACAD_REACTORS
330
3B8
102
}
330
3B8
100
AcDbXrecord
 90
    10781
  0
XRECORD
  5
3C1
102
{ACAD_REACTORS
330
3B8
102
}
330
3B8
100
AcDbXrecord
 90
        0
  0
XRECORD
  5
3C2
102
{ACAD_REACTORS
330
3B8
102
}
330
3B8
100
AcDbXrecord
 90
        0
  0
XRECORD
  5
3C3
102
{ACAD_REACTORS
330
3B8
102
}
330
3B8
100
AcDbXrecord
  1
{29A63321-8C87-44B7-8DA7-71427E70F8CE}
  0
XRECORD
  5
3C4
102
{ACAD_REACTORS
330
3B8
102
}
330
3B8
100
AcDbXrecord
  1
{E38BA856-6D53-41D5-9697-AA74CB057A91}
  0
XRECORD
  5
3C5
102
{ACAD_REACTORS
330
3B8
102
}
330
3B8
100
AcDbXrecord
 40
0.0
  0
XRECORD
  5
3C6
102
{ACAD_REACTORS
330
3B8
102
}
330
3B8
100
AcDbXrecord
340
0
  0
XRECORD
  5
3C7
102
{ACAD_REACTORS
330
3B8
102
}
330
3B8
100
AcDbXrecord
 70
     0
  0
XRECORD
  5
3C8
102
{ACAD_REACTORS
330
3B8
102
}
330
3B8
100
AcDbXrecord
340
0
  0
XRECORD
  5
3C9
102
{ACAD_REACTORS
330
3B8
102
}
330
3B8
100
AcDbXrecord
 10
0.0
 20
0.0
 30
0.0
  0
XRECORD
  5
3CA
102
{ACAD_REACTORS
330
3B8
102
}
330
3B8
100
AcDbXrecord
 10
0.0
 20
0.0
 30
0.0
  0
XRECORD
  5
3CB
102
{ACAD_REACTORS
330
3B8
102
}
330
3B8
100
AcDbXrecord
 10
0.0
 20
0.0
 30
0.0
  0
XRECORD
  5
3CC
102
{ACAD_REACTORS
330
3B8
102
}
330
3B8
100
AcDbXrecord
 10
0.0
 20
0.0
 30
0.0
  0
XRECORD
  5
3CD
102
{ACAD_REACTORS
330
3B8
102
}
330
3B8
100
AcDbXrecord
 10
0.0
 20
0.0
 30
0.0
  0
XRECORD
  5
3CE
102
{ACAD_REACTORS
330
3B8
102
}
330
3B8
100
AcDbXrecord
 10
0.0
 20
0.0
 30
0.0
  0
XRECORD
  5
3CF
102
{ACAD_REACTORS
330
3B8
102
}
330
3B8
100
AcDbXrecord
340
0
  0
XRECORD
  5
3D0
102
{ACAD_REACTORS
330
3B8
102
}
330
3B8
100
AcDbXrecord
 70
     0
  0
XRECORD
  5
3D1
102
{ACAD_REACTORS
330
3B8
102
}
330
3B8
100
AcDbXrecord
340
0
  0
XRECORD
  5
3D2
102
{ACAD_REACTORS
330
3B8
102
}
330
3B8
100
AcDbXrecord
 10
0.0
 20
0.0
 30
0.0
  0
XRECORD
  5
3D3
102
{ACAD_REACTORS
330
3B8
102
}
330
3B8
100
AcDbXrecord
 10
0.0
 20
0.0
 30
0.0
  0
XRECORD
  5
3D4
102
{ACAD_REACTORS
330
3B8
102
}
330
3B8
100
AcDbXrecord
 10
0.0
 20
0.0
 30
0.0
  0
XRECORD
  5
3D5
102
{ACAD_REACTORS
330
3B8
102
}
330
3B8
100
AcDbXrecord
 10
0.0
 20
0.0
 30
0.0
  0
XRECORD
  5
3D6
102
{ACAD_REACTORS
330
3B8
102
}
330
3B8
100
AcDbXrecord
 10
0.0
 20
0.0
 30
0.0
  0
XRECORD
  5
3D7
102
{ACAD_REACTORS
330
3B8
102
}
330
3B8
100
AcDbXrecord
 10
0.0
 20
0.0
 30
0.0
  0
ENDSEC
  0
EOF
